  0
SECTION
  2
HEADER
  9
$ACADVER
  1
AC1018
  9
$ACADMAINTVER
 70
     0
  9
$DWGCODEPAGE
  3
ANSI_1252
  9
$INSBASE
 10
0.0
 20
0.0
 30
0.0
  9
$EXTMIN
 10
-60.0870701615699
 20
224.3696945806497
 30
0.0
  9
$EXTMAX
 10
4961.010625913293
 20
718.3121602462616
 30
0.0
  9
$LIMMIN
 10
0.0
 20
0.0
  9
$LIMMAX
 10
12.0
 20
9.0
  9
$ORTHOMODE
 70
     0
  9
$REGENMODE
 70
     1
  9
$FILLMODE
 70
     1
  9
$QTEXTMODE
 70
     0
  9
$MIRRTEXT
 70
     1
  9
$LTSCALE
 40
1.0
  9
$ATTMODE
 70
     1
  9
$TEXTSIZE
 40
0.2
  9
$TRACEWID
 40
0.05
  9
$TEXTSTYLE
  7
Standard
  9
$CLAYER
  8
Predefinito
  9
$CELTYPE
  6
ByLayer
  9
$CECOLOR
 62
   256
  9
$CELTSCALE
 40
1.0
  9
$DISPSILH
 70
     0
  9
$DIMSCALE
 40
1.0
  9
$DIMASZ
 40
0.18
  9
$DIMEXO
 40
0.0625
  9
$DIMDLI
 40
0.38
  9
$DIMRND
 40
0.0
  9
$DIMDLE
 40
0.0
  9
$DIMEXE
 40
0.18
  9
$DIMTP
 40
0.0
  9
$DIMTM
 40
0.0
  9
$DIMTXT
 40
0.18
  9
$DIMCEN
 40
0.09
  9
$DIMTSZ
 40
0.0
  9
$DIMTOL
 70
     0
  9
$DIMLIM
 70
     0
  9
$DIMTIH
 70
     1
  9
$DIMTOH
 70
     1
  9
$DIMSE1
 70
     0
  9
$DIMSE2
 70
     0
  9
$DIMTAD
 70
     0
  9
$DIMZIN
 70
     0
  9
$DIMBLK
  1

  9
$DIMASO
 70
     1
  9
$DIMSHO
 70
     1
  9
$DIMPOST
  1

  9
$DIMAPOST
  1

  9
$DIMALT
 70
     0
  9
$DIMALTD
 70
     2
  9
$DIMALTF
 40
25.4
  9
$DIMLFAC
 40
1.0
  9
$DIMTOFL
 70
     0
  9
$DIMTVP
 40
0.0
  9
$DIMTIX
 70
     0
  9
$DIMSOXD
 70
     0
  9
$DIMSAH
 70
     0
  9
$DIMBLK1
  1

  9
$DIMBLK2
  1

  9
$DIMSTYLE
  2
Standard
  9
$DIMCLRD
 70
     0
  9
$DIMCLRE
 70
     0
  9
$DIMCLRT
 70
     0
  9
$DIMTFAC
 40
1.0
  9
$DIMGAP
 40
0.09
  9
$DIMJUST
 70
     0
  9
$DIMSD1
 70
     0
  9
$DIMSD2
 70
     0
  9
$DIMTOLJ
 70
     1
  9
$DIMTZIN
 70
     0
  9
$DIMALTZ
 70
     0
  9
$DIMALTTZ
 70
     0
  9
$DIMUPT
 70
     0
  9
$DIMDEC
 70
     4
  9
$DIMTDEC
 70
     4
  9
$DIMALTU
 70
     2
  9
$DIMALTTD
 70
     2
  9
$DIMTXSTY
  7
Standard
  9
$DIMAUNIT
 70
     0
  9
$DIMADEC
 70
     0
  9
$DIMALTRND
 40
0.0
  9
$DIMAZIN
 70
     0
  9
$DIMDSEP
 70
    46
  9
$DIMATFIT
 70
     3
  9
$DIMFRAC
 70
     0
  9
$DIMLDRBLK
  1

  9
$DIMLUNIT
 70
     2
  9
$DIMLWD
 70
    -2
  9
$DIMLWE
 70
    -2
  9
$DIMTMOVE
 70
     2
  9
$LUNITS
 70
     2
  9
$LUPREC
 70
     3
  9
$SKETCHINC
 40
0.1
  9
$FILLETRAD
 40
0.5
  9
$AUNITS
 70
     0
  9
$AUPREC
 70
     0
  9
$MENU
  1
.
  9
$ELEVATION
 40
0.0
  9
$PELEVATION
 40
0.0
  9
$THICKNESS
 40
0.0
  9
$LIMCHECK
 70
     0
  9
$CHAMFERA
 40
0.5
  9
$CHAMFERB
 40
0.5
  9
$CHAMFERC
 40
1.0
  9
$CHAMFERD
 40
0.0
  9
$SKPOLY
 70
     0
  9
$TDCREATE
 40
2458254.630690139
  9
$TDUCREATE
 40
2458254.547356806
  9
$TDUPDATE
 40
2458254.63069015
  9
$TDUUPDATE
 40
2458254.547356817
  9
$TDINDWG
 40
0.0000000116
  9
$TDUSRTIMER
 40
0.0000000116
  9
$USRTIMER
 70
     1
  9
$ANGBASE
 50
0.0
  9
$ANGDIR
 70
     0
  9
$PDMODE
 70
     0
  9
$PDSIZE
 40
0.0
  9
$PLINEWID
 40
0.0
  9
$SPLFRAME
 70
     0
  9
$SPLINETYPE
 70
     6
  9
$SPLINESEGS
 70
     8
  9
$HANDSEED
  5
192
  9
$SURFTAB1
 70
     6
  9
$SURFTAB2
 70
     6
  9
$SURFTYPE
 70
     6
  9
$SURFU
 70
     6
  9
$SURFV
 70
     6
  9
$UCSBASE
  2

  9
$UCSNAME
  2

  9
$UCSORG
 10
0.0
 20
0.0
 30
0.0
  9
$UCSXDIR
 10
1.0
 20
0.0
 30
0.0
  9
$UCSYDIR
 10
0.0
 20
1.0
 30
0.0
  9
$UCSORTHOREF
  2

  9
$UCSORTHOVIEW
 70
     0
  9
$UCSORGTOP
 10
0.0
 20
0.0
 30
0.0
  9
$UCSORGBOTTOM
 10
0.0
 20
0.0
 30
0.0
  9
$UCSORGLEFT
 10
0.0
 20
0.0
 30
0.0
  9
$UCSORGRIGHT
 10
0.0
 20
0.0
 30
0.0
  9
$UCSORGFRONT
 10
0.0
 20
0.0
 30
0.0
  9
$UCSORGBACK
 10
0.0
 20
0.0
 30
0.0
  9
$PUCSBASE
  2

  9
$PUCSNAME
  2

  9
$PUCSORG
 10
0.0
 20
0.0
 30
0.0
  9
$PUCSXDIR
 10
1.0
 20
0.0
 30
0.0
  9
$PUCSYDIR
 10
0.0
 20
1.0
 30
0.0
  9
$PUCSORTHOREF
  2

  9
$PUCSORTHOVIEW
 70
     0
  9
$PUCSORGTOP
 10
0.0
 20
0.0
 30
0.0
  9
$PUCSORGBOTTOM
 10
0.0
 20
0.0
 30
0.0
  9
$PUCSORGLEFT
 10
0.0
 20
0.0
 30
0.0
  9
$PUCSORGRIGHT
 10
0.0
 20
0.0
 30
0.0
  9
$PUCSORGFRONT
 10
0.0
 20
0.0
 30
0.0
  9
$PUCSORGBACK
 10
0.0
 20
0.0
 30
0.0
  9
$USERI1
 70
     0
  9
$USERI2
 70
     0
  9
$USERI3
 70
     0
  9
$USERI4
 70
     0
  9
$USERI5
 70
     0
  9
$USERR1
 40
0.0
  9
$USERR2
 40
0.0
  9
$USERR3
 40
0.0
  9
$USERR4
 40
0.0
  9
$USERR5
 40
0.0
  9
$WORLDVIEW
 70
     1
  9
$SHADEDGE
 70
     3
  9
$SHADEDIF
 70
    70
  9
$TILEMODE
 70
     0
  9
$MAXACTVP
 70
    64
  9
$PINSBASE
 10
0.0
 20
0.0
 30
0.0
  9
$PLIMCHECK
 70
     0
  9
$PEXTMIN
 10
0.0
 20
0.0
 30
0.0
  9
$PEXTMAX
 10
0.0
 20
0.0
 30
0.0
  9
$PLIMMIN
 10
0.0
 20
0.0
  9
$PLIMMAX
 10
12.0
 20
9.0
  9
$UNITMODE
 70
     0
  9
$VISRETAIN
 70
     1
  9
$PLINEGEN
 70
     0
  9
$PSLTSCALE
 70
     1
  9
$TREEDEPTH
 70
  3020
  9
$CMLSTYLE
  2
Standard
  9
$CMLJUST
 70
     0
  9
$CMLSCALE
 40
1.0
  9
$PROXYGRAPHICS
 70
     1
  9
$MEASUREMENT
 70
     0
  9
$CELWEIGHT
370
    -1
  9
$ENDCAPS
280
     0
  9
$JOINSTYLE
280
     0
  9
$LWDISPLAY
290
     0
  9
$INSUNITS
 70
     4
  9
$HYPERLINKBASE
  1

  9
$STYLESHEET
  1

  9
$XEDIT
290
     1
  9
$CEPSNTYPE
380
     0
  9
$PSTYLEMODE
290
     1
  9
$FINGERPRINTGUID
  2
{F8380C62-3AE9-429E-8389-0FBC326D662F}
  9
$VERSIONGUID
  2
{FAEB1C32-E019-11D5-929B-00C0DF256EC4}
  9
$EXTNAMES
290
     1
  9
$PSVPSCALE
 40
0.0
  9
$OLESTARTUP
290
     0
  9
$SORTENTS
280
   127
  9
$INDEXCTL
280
     0
  9
$HIDETEXT
280
     1
  9
$XCLIPFRAME
290
     0
  9
$HALOGAP
280
     0
  9
$OBSCOLOR
 70
   257
  9
$OBSLTYPE
280
     0
  9
$INTERSECTIONDISPLAY
280
     0
  9
$INTERSECTIONCOLOR
 70
   257
  9
$DIMASSOC
280
     2
  9
$PROJECTNAME
  1

  0
ENDSEC
  0
SECTION
  2
CLASSES
  0
CLASS
  1
ACDBDICTIONARYWDFLT
  2
AcDbDictionaryWithDefault
  3
ObjectDBX Classes
 90
        0
 91
        4
280
     0
281
     0
  0
CLASS
  1
VISUALSTYLE
  2
AcDbVisualStyle
  3
ObjectDBX Classes
 90
     4095
 91
        4
280
     0
281
     0
  0
CLASS
  1
SCALE
  2
AcDbScale
  3
ObjectDBX Classes
 90
     1153
 91
        4
280
     0
281
     0
  0
CLASS
  1
DICTIONARYVAR
  2
AcDbDictionaryVar
  3
ObjectDBX Classes
 90
        0
 91
        4
280
     0
281
     0
  0
ENDSEC
  0
SECTION
  2
TABLES
  0
TABLE
  2
VPORT
  5
8
330
0
100
AcDbSymbolTable
 70
     1
  0
VPORT
  5
29
330
8
100
AcDbSymbolTableRecord
100
AcDbViewportTableRecord
  2
*Active
 70
     0
 10
0.0
 20
0.0
 11
1.0
 21
1.0
 12
2450.461777875862
 22
471.3409274134556
 13
0.0
 23
0.0
 14
0.5
 24
0.5
 15
0.5
 25
0.5
 16
0.0
 26
0.0
 36
1.0
 17
0.0
 27
0.0
 37
0.0
 40
503.8213149789242
 41
10.16534929692405
 42
50.0
 43
0.0
 44
0.0
 50
0.0
 51
0.0
 71
     0
 72
   100
 73
     1
 74
     3
 75
     0
 76
     0
 77
     0
 78
     0
281
     0
 65
     1
110
0.0
120
0.0
130
0.0
111
1.0
121
0.0
131
0.0
112
0.0
122
1.0
132
0.0
 79
     0
146
0.0
  0
ENDTAB
  0
TABLE
  2
LTYPE
  5
5
330
0
100
AcDbSymbolTable
 70
     1
  0
LTYPE
  5
14
330
5
100
AcDbSymbolTableRecord
100
AcDbLinetypeTableRecord
  2
ByBlock
 70
     0
  3

 72
    65
 73
     0
 40
0.0
  0
LTYPE
  5
15
330
5
100
AcDbSymbolTableRecord
100
AcDbLinetypeTableRecord
  2
ByLayer
 70
     0
  3

 72
    65
 73
     0
 40
0.0
  0
LTYPE
  5
16
330
5
100
AcDbSymbolTableRecord
100
AcDbLinetypeTableRecord
  2
Continuous
 70
     0
  3
Solid line
 72
    65
 73
     0
 40
0.0
  0
ENDTAB
  0
TABLE
  2
LAYER
  5
2
330
0
100
AcDbSymbolTable
 70
     2
  0
LAYER
  5
10
330
2
100
AcDbSymbolTableRecord
100
AcDbLayerTableRecord
  2
0
 70
     0
 62
     7
  6
Continuous
370
    -3
390
F
  0
LAYER
  5
3B
330
2
100
AcDbSymbolTableRecord
100
AcDbLayerTableRecord
  2
Predefinito
 70
     0
 62
     7
  6
Continuous
370
    -3
390
F
  0
ENDTAB
  0
TABLE
  2
STYLE
  5
3
330
0
100
AcDbSymbolTable
 70
     1
  0
STYLE
  5
11
330
3
100
AcDbSymbolTableRecord
100
AcDbTextStyleTableRecord
  2
Standard
 70
     0
 40
0.0
 41
1.0
 50
0.0
 71
     0
 42
0.2
  3
txt
  4

  0
ENDTAB
  0
TABLE
  2
VIEW
  5
6
330
0
100
AcDbSymbolTable
 70
     0
  0
ENDTAB
  0
TABLE
  2
UCS
  5
7
330
0
100
AcDbSymbolTable
 70
     0
  0
ENDTAB
  0
TABLE
  2
APPID
  5
9
330
0
100
AcDbSymbolTable
 70
     1
  0
APPID
  5
12
330
9
100
AcDbSymbolTableRecord
100
AcDbRegAppTableRecord
  2
ACAD
 70
     0
  0
ENDTAB
  0
TABLE
  2
DIMSTYLE
  5
A
330
0
100
AcDbSymbolTable
 70
     1
100
AcDbDimStyleTable
  0
DIMSTYLE
105
27
330
A
100
AcDbSymbolTableRecord
100
AcDbDimStyleTableRecord
  2
Standard
 70
     0
340
11
  0
ENDTAB
  0
TABLE
  2
BLOCK_RECORD
  5
1
330
0
100
AcDbSymbolTable
 70
     3
  0
BLOCK_RECORD
  5
1F
330
1
100
AcDbSymbolTableRecord
100
AcDbBlockTableRecord
  2
*Model_Space
340
22
  0
BLOCK_RECORD
  5
167
330
1
100
AcDbSymbolTableRecord
100
AcDbBlockTableRecord
  2
*Paper_Space
340
168
  0
BLOCK_RECORD
  5
23
330
1
100
AcDbSymbolTableRecord
100
AcDbBlockTableRecord
  2
*Paper_Space0
340
26
  0
BLOCK_RECORD
  5
1B
330
1
100
AcDbSymbolTableRecord
100
AcDbBlockTableRecord
  2
*Paper_Space1
340
1E
  0
BLOCK_RECORD
  5
162
330
1
100
AcDbSymbolTableRecord
100
AcDbBlockTableRecord
  2
*Paper_Space2
340
163
  0
ENDTAB
  0
ENDSEC
  0
SECTION
  2
BLOCKS
  0
BLOCK
  5
20
330
1F
100
AcDbEntity
  8
0
100
AcDbBlockBegin
  2
*Model_Space
 70
     0
 10
0.0
 20
0.0
 30
0.0
  3
*Model_Space
  1

  0
ENDBLK
  5
21
330
1F
100
AcDbEntity
  8
0
100
AcDbBlockEnd
  0
BLOCK
  5
169
330
167
100
AcDbEntity
 67
     1
  8
0
100
AcDbBlockBegin
  2
*Paper_Space
 70
     0
 10
0.0
 20
0.0
 30
0.0
  3
*Paper_Space
  1

  0
ENDBLK
  5
16A
330
167
100
AcDbEntity
 67
     1
  8
0
100
AcDbBlockEnd
  0
BLOCK
  5
24
330
23
100
AcDbEntity
  8
0
100
AcDbBlockBegin
  2
*Paper_Space0
 70
     0
 10
0.0
 20
0.0
 30
0.0
  3
*Paper_Space0
  1

  0
ENDBLK
  5
25
330
23
100
AcDbEntity
  8
0
100
AcDbBlockEnd
  0
BLOCK
  5
1C
330
1B
100
AcDbEntity
  8
0
100
AcDbBlockBegin
  2
*Paper_Space1
 70
     0
 10
0.0
 20
0.0
 30
0.0
  3
*Paper_Space1
  1

  0
ENDBLK
  5
1D
330
1B
100
AcDbEntity
  8
0
100
AcDbBlockEnd
  0
BLOCK
  5
164
330
162
100
AcDbEntity
  8
0
100
AcDbBlockBegin
  2
*Paper_Space2
 70
     0
 10
0.0
 20
0.0
 30
0.0
  3
*Paper_Space2
  1

  0
VIEWPORT
  5
166
330
162
100
AcDbEntity
  8
0
100
AcDbViewport
 10
6.0
 20
4.5
 30
0.0
 40
12.696
 41
9.522
 68
     1
 69
     1
 12
6.0
 22
4.5
 13
0.0
 23
0.0
 14
0.5
 24
0.5
 15
0.5
 25
0.5
 16
0.0
 26
0.0
 36
1.0
 17
0.0
 27
0.0
 37
0.0
 42
50.0
 43
0.0
 44
0.0
 45
9.522
 50
0.0
 51
0.0
 72
   100
 90
   557152
  1

281
     0
 71
     1
 74
     0
110
0.0
120
0.0
130
0.0
111
1.0
121
0.0
131
0.0
112
0.0
122
1.0
132
0.0
 79
     0
146
0.0
170
     0
  0
ENDBLK
  5
165
330
162
100
AcDbEntity
  8
0
100
AcDbBlockEnd
  0
ENDSEC
  0
SECTION
  2
ENTITIES
  0
SPLINE
  5
3C
330
1F
100
AcDbEntity
  8
Predefinito
100
AcDbSpline
210
0.0
220
0.0
230
1.0
 70
    24
 71
     2
 72
     6
 73
     3
 74
     0
 42
0.0000000001
 43
0.0000000001
 40
0.0
 40
0.0
 40
0.0
 40
8.94578640041029
 40
8.94578640041029
 40
8.94578640041029
 10
70.01253290351141
 20
674.3121797521961
 30
0.0
 10
69.97350004217493
 20
669.8394568660588
 30
0.0
 10
69.93446718083845
 20
665.3667339799213
 30
0.0
  0
LINE
  5
3D
330
1F
100
AcDbEntity
  8
Predefinito
100
AcDbLine
 10
3395.5199739479
 20
330.8631120306544
 30
0.0
 11
3769.010625913293
 21
330.8631120306532
 31
0.0
  0
LINE
  5
3E
330
1F
100
AcDbEntity
  8
Predefinito
100
AcDbLine
 10
3395.275837735619
 20
330.7566605372874
 30
0.0
 11
2761.717810872064
 21
330.7566605372893
 31
0.0
  0
LINE
  5
3F
330
1F
100
AcDbEntity
  8
Predefinito
100
AcDbLine
 10
2761.728364384924
 20
330.8631120306564
 30
0.0
 11
3392.493849684139
 21
330.8631120306544
 31
0.0
  0
LINE
  5
40
330
1F
100
AcDbEntity
  8
Predefinito
100
AcDbLine
 10
2761.718041342758
 20
354.2566605372898
 30
0.0
 11
3393.556791130186
 21
354.2566605372879
 31
0.0
  0
LINE
  5
41
330
1F
100
AcDbEntity
  8
Predefinito
100
AcDbLine
 10
3394.457032501853
 20
354.2566605372879
 30
0.0
 11
3769.010625913293
 21
354.2566605372867
 31
0.0
  0
LINE
  5
42
330
1F
100
AcDbEntity
  8
Predefinito
100
AcDbLine
 10
3769.010625913293
 20
354.1502090434027
 30
0.0
 11
3395.647354003313
 21
354.1502090434044
 31
0.0
  0
LINE
  5
43
330
1F
100
AcDbEntity
  8
Predefinito
100
AcDbLine
 10
3392.366469628726
 20
354.1502090434044
 30
0.0
 11
2761.728552767056
 21
354.1502090434073
 31
0.0
  0
LINE
  5
44
330
1F
100
AcDbEntity
  8
Predefinito
100
AcDbLine
 10
4145.707405799502
 20
330.8631120306525
 30
0.0
 11
4892.318414796047
 21
330.863112030651
 31
0.0
  0
LINE
  5
45
330
1F
100
AcDbEntity
  8
Predefinito
100
AcDbLine
 10
4144.633009421883
 20
330.7566605372889
 30
0.0
 11
4343.010625913291
 21
330.7566605372903
 31
0.0
  0
LINE
  5
46
330
1F
100
AcDbEntity
  8
Predefinito
100
AcDbLine
 10
3769.010625913293
 20
330.8631120306532
 30
0.0
 11
4142.318414796036
 21
330.8631120306525
 31
0.0
  0
LINE
  5
47
330
1F
100
AcDbEntity
  8
Predefinito
100
AcDbLine
 10
3769.010625913293
 20
330.7566605372863
 30
0.0
 11
4143.392811173657
 21
330.7566605372889
 31
0.0
  0
LINE
  5
48
330
1F
100
AcDbEntity
  8
Predefinito
100
AcDbLine
 10
4343.010625913291
 20
354.1502090434078
 30
0.0
 11
4145.465048422251
 21
354.1502090434061
 31
0.0
  0
LINE
  5
49
330
1F
100
AcDbEntity
  8
Predefinito
100
AcDbLine
 10
3769.010625913293
 20
354.2566605372867
 30
0.0
 11
4145.257423539415
 21
354.2566605372891
 31
0.0
  0
LINE
  5
4A
330
1F
100
AcDbEntity
  8
Predefinito
100
AcDbLine
 10
4142.560772173287
 20
354.150209043406
 30
0.0
 11
3769.010625913293
 21
354.1502090434027
 31
0.0
  0
SPLINE
  5
4B
330
1F
100
AcDbEntity
  8
Predefinito
100
AcDbSpline
210
0.0
220
0.0
230
1.0
 70
     8
 71
     2
 72
     6
 73
     3
 74
     0
 42
0.0000000001
 43
0.0000000001
 40
0.0
 40
0.0
 40
0.0
 40
5.702522527117391
 40
5.702522527117391
 40
5.702522527117391
 10
4935.108201496159
 20
332.7066605372901
 30
0.0
 10
4935.109136483629
 20
335.557921647548
 30
0.0
 10
4935.110071471099
 20
342.5066605372944
 30
0.0
  0
SPLINE
  5
4C
330
1F
100
AcDbEntity
  8
Predefinito
100
AcDbSpline
210
0.0
220
0.0
230
1.0
 70
     8
 71
     2
 72
     6
 73
     3
 74
     0
 42
0.0000000001
 43
0.0000000001
 40
0.0
 40
0.0
 40
0.0
 40
5.702522527109191
 40
5.702522527109191
 40
5.702522527109191
 10
4935.110071471099
 20
342.5066605372944
 30
0.0
 10
4935.109136483629
 20
349.4553994270368
 30
0.0
 10
4935.108201496159
 20
352.3066605372905
 30
0.0
  0
LINE
  5
4D
330
1F
100
AcDbEntity
  8
Predefinito
100
AcDbLine
 10
4894.633009421732
 20
330.7566605372807
 30
0.0
 11
4935.010625913292
 21
330.75666053728
 31
0.0
  0
LINE
  5
4E
330
1F
100
AcDbEntity
  8
Predefinito
100
AcDbLine
 10
4343.010625913291
 20
330.7566605372903
 30
0.0
 11
4893.392811173813
 21
330.7566605372808
 31
0.0
  0
LINE
  5
4F
330
1F
100
AcDbEntity
  8
Predefinito
100
AcDbLine
 10
4895.70740579949
 20
330.863112030651
 30
0.0
 11
4935.010625913292
 21
330.8631120306509
 31
0.0
  0
LINE
  5
50
330
1F
100
AcDbEntity
  8
Predefinito
100
AcDbLine
 10
4935.010625913292
 20
354.1502090433979
 30
0.0
 11
4895.465048422311
 21
354.1502090433985
 31
0.0
  0
LINE
  5
51
330
1F
100
AcDbEntity
  8
Predefinito
100
AcDbLine
 10
4892.560772173229
 20
354.1502090433986
 30
0.0
 11
4343.010625913291
 21
354.1502090434078
 31
0.0
  0
SPLINE
  5
52
330
1F
100
AcDbEntity
  8
Predefinito
100
AcDbSpline
210
0.0
220
0.0
230
1.0
 70
    24
 71
     2
 72
     6
 73
     3
 74
     0
 42
0.0000000001
 43
0.0000000001
 40
0.0
 40
0.0
 40
0.0
 40
549.7530058084521
 40
549.7530058084521
 40
549.7530058084521
 10
4343.010625913291
 20
354.2566605372903
 30
0.0
 10
4617.887128817517
 20
354.2566605372875
 30
0.0
 10
4894.010527630599
 20
354.2566605372847
 30
0.0
  0
SPLINE
  5
53
330
1F
100
AcDbEntity
  8
Predefinito
100
AcDbSpline
210
0.0
220
0.0
230
1.0
 70
    24
 71
     2
 72
     6
 73
     3
 74
     0
 42
0.0000000001
 43
0.0000000001
 40
0.0
 40
0.0
 40
0.0
 40
39.75320237383585
 40
39.75320237383585
 40
39.75320237383585
 10
4894.010527630599
 20
354.2566605372847
 30
0.0
 10
4915.134024726374
 20
354.2566605372845
 30
0.0
 10
4935.010625913292
 20
354.2566605372843
 30
0.0
  0
SPLINE
  5
54
330
1F
100
AcDbEntity
  8
Predefinito
100
AcDbSpline
210
0.0
220
0.0
230
1.0
 70
    24
 71
     2
 72
     6
 73
     3
 74
     0
 42
0.0000000001
 43
0.0000000001
 40
0.0
 40
0.0
 40
0.0
 40
790.2038664701208
 40
790.2038664701208
 40
790.2038664701208
 10
2603.010625913293
 20
665.4098864909262
 30
0.0
 10
2998.112559148353
 20
665.4098864909262
 30
0.0
 10
3394.338746335645
 20
665.4098864909262
 30
0.0
  0
SPLINE
  5
55
330
1F
100
AcDbEntity
  8
Predefinito
100
AcDbSpline
210
0.0
220
0.0
230
1.0
 70
    24
 71
     2
 72
     6
 73
     3
 74
     0
 42
0.0000000001
 43
0.0000000001
 40
0.0
 40
0.0
 40
0.0
 40
373.5476256254178
 40
373.5476256254178
 40
373.5476256254178
 10
3394.338746335645
 20
665.4098864909262
 30
0.0
 10
3582.236813100585
 20
665.4098864909262
 30
0.0
 10
3769.010625913294
 20
665.4098864909262
 30
0.0
  0
SPLINE
  5
56
330
1F
100
AcDbEntity
  8
Predefinito
100
AcDbSpline
210
0.0
220
0.0
230
1.0
 70
    24
 71
     2
 72
     6
 73
     3
 74
     0
 42
0.0000000001
 43
0.0000000001
 40
0.0
 40
0.0
 40
0.0
 40
43.00146158227268
 40
43.00146158227268
 40
43.00146158227268
 10
-59.71183421528512
 20
675.2868721103349
 30
0.0
 10
-59.89945218842794
 20
696.7867842973433
 30
0.0
 10
-60.08707016157077
 20
718.2866964843518
 30
0.0
  0
SPLINE
  5
57
330
1F
100
AcDbEntity
  8
Predefinito
100
AcDbSpline
210
0.0
220
0.0
230
1.0
 70
    24
 71
     2
 72
     6
 73
     3
 74
     0
 42
0.0000000001
 43
0.0000000001
 40
0.0
 40
0.0
 40
0.0
 40
43.00145929333076
 40
43.00145929333076
 40
43.00145929333076
 10
176.49918076936
 20
718.2866942646993
 30
0.0
 10
176.3115667713401
 20
696.7867831875171
 30
0.0
 10
176.1239527733202
 20
675.2868721103349
 30
0.0
  0
SPLINE
  5
58
330
1F
100
AcDbEntity
  8
Predefinito
100
AcDbSpline
210
0.0
220
0.0
230
1.0
 70
    24
 71
     2
 72
     6
 73
     3
 74
     0
 42
0.0000000001
 43
0.0000000001
 40
0.0
 40
0.0
 40
0.0
 40
0.0031727549810382
 40
0.0031727549810382
 40
0.0031727549810382
 10
46.43312020267619
 20
675.3092492552972
 30
0.0
 10
46.43199846439511
 20
675.3103709935783
 30
0.0
 10
46.43087672611404
 20
675.3114927318593
 30
0.0
  0
SPLINE
  5
59
330
1F
100
AcDbEntity
  8
Predefinito
100
AcDbSpline
210
0.0
220
0.0
230
1.0
 70
    24
 71
     2
 72
     6
 73
     3
 74
     0
 42
0.0000000001
 43
0.0000000001
 40
0.0
 40
0.0
 40
0.0
 40
0.6045619804504714
 40
0.6045619804504714
 40
0.6045619804504714
 10
46.88753922891313
 20
674.8548302290603
 30
0.0
 10
46.67379429090107
 20
675.0685751670724
 30
0.0
 10
46.46004935288902
 20
675.2823201050844
 30
0.0
  0
SPLINE
  5
5A
330
1F
100
AcDbEntity
  8
Predefinito
100
AcDbSpline
210
0.0
220
0.0
230
1.0
 70
    24
 71
     2
 72
     6
 73
     3
 74
     0
 42
0.0000000001
 43
0.0000000001
 40
0.0
 40
0.0
 40
0.0
 40
0.4978785406293014
 40
0.4978785406293014
 40
0.4978785406293014
 10
46.43020921171231
 20
675.3135136864346
 30
0.0
 10
46.43020921171231
 20
675.5624529567492
 30
0.0
 10
46.43020921171231
 20
675.8113922270638
 30
0.0
  0
SPLINE
  5
5B
330
1F
100
AcDbEntity
  8
Predefinito
100
AcDbSpline
210
0.0
220
0.0
230
1.0
 70
    24
 71
     2
 72
     6
 73
     3
 74
     0
 42
0.0000000001
 43
0.0000000001
 40
0.0
 40
0.0
 40
0.0
 40
0.3105238212447057
 40
0.3105238212447057
 40
0.3105238212447057
 10
46.42589727535815
 20
665.3729141648344
 30
0.0
 10
46.42454237677824
 20
665.5281701635589
 30
0.0
 10
46.42318747819833
 20
665.6834261622835
 30
0.0
  0
SPLINE
  5
5C
330
1F
100
AcDbEntity
  8
Predefinito
100
AcDbSpline
210
0.0
220
0.0
230
1.0
 70
    24
 71
     2
 72
     6
 73
     3
 74
     0
 42
0.0000000001
 43
0.0000000001
 40
0.0
 40
0.0
 40
0.0
 40
0.6648380491036492
 40
0.6648380491036492
 40
0.6648380491036492
 10
69.9003207046245
 20
675.2822717391732
 30
0.0
 10
69.66526495816848
 20
675.0472159927172
 30
0.0
 10
69.43020921171245
 20
674.8121602462611
 30
0.0
  0
SPLINE
  5
5D
330
1F
100
AcDbEntity
  8
Predefinito
100
AcDbSpline
210
0.0
220
0.0
230
1.0
 70
    24
 71
     2
 72
     6
 73
     3
 74
     0
 42
0.0000000001
 43
0.0000000001
 40
0.0
 40
0.0
 40
0.0
 40
41.4987522364309
 40
41.4987522364309
 40
41.4987522364309
 10
69.93020921171237
 20
716.8121602462611
 30
0.0
 10
69.93020921171237
 20
696.0627841280457
 30
0.0
 10
69.93020921171237
 20
675.3134080098303
 30
0.0
  0
SPLINE
  5
5E
330
1F
100
AcDbEntity
  8
Predefinito
100
AcDbSpline
210
0.0
220
0.0
230
1.0
 70
    24
 71
     2
 72
     6
 73
     3
 74
     0
 42
0.0000000001
 43
0.0000000001
 40
0.0
 40
0.0
 40
0.0
 40
0.5666666666667766
 40
0.5666666666667766
 40
0.5666666666667766
 10
34.2073054311401
 20
674.7535387770015
 30
0.0
 10
34.2073054311401
 20
675.0368721103349
 30
0.0
 10
34.2073054311401
 20
675.3202054436683
 30
0.0
  0
SPLINE
  5
5F
330
1F
100
AcDbEntity
  8
Predefinito
100
AcDbSpline
210
0.0
220
0.0
230
1.0
 70
    24
 71
     2
 72
     6
 73
     3
 74
     0
 42
0.0000000001
 43
0.0000000001
 40
0.0
 40
0.0
 40
0.0
 40
0.5666666666667766
 40
0.5666666666667766
 40
0.5666666666667766
 10
82.2073054311401
 20
675.3202054436683
 30
0.0
 10
82.20730543114009
 20
675.0368721103349
 30
0.0
 10
82.20730543114007
 20
674.7535387770015
 30
0.0
  0
SPLINE
  5
60
330
1F
100
AcDbEntity
  8
Predefinito
100
AcDbSpline
210
0.0
220
0.0
230
1.0
 70
    24
 71
     2
 72
     6
 73
     3
 74
     0
 42
0.0000000001
 43
0.0000000001
 40
0.0
 40
0.0
 40
0.0
 40
0.5000000000000568
 40
0.5000000000000568
 40
0.5000000000000568
 10
64.15521031581886
 20
718.3121602462611
 30
0.0
 10
64.15521031581886
 20
718.0621602462611
 30
0.0
 10
64.15521031581886
 20
717.8121602462611
 30
0.0
  0
SPLINE
  5
61
330
1F
100
AcDbEntity
  8
Predefinito
100
AcDbSpline
210
0.0
220
0.0
230
1.0
 70
    24
 71
     2
 72
     6
 73
     3
 74
     0
 42
0.0000000001
 43
0.0000000001
 40
0.0
 40
0.0
 40
0.0
 40
0.003300428537402
 40
0.003300428537402
 40
0.003300428537402
 10
46.40887686856698
 20
675.8084936935132
 30
0.0
 10
46.40770999086719
 20
675.809660571213
 30
0.0
 10
46.4065431131674
 20
675.810827448913
 30
0.0
  0
SPLINE
  5
62
330
1F
100
AcDbEntity
  8
Predefinito
100
AcDbSpline
210
0.0
220
0.0
230
1.0
 70
    24
 71
     2
 72
     6
 73
     3
 74
     0
 42
0.0000000001
 43
0.0000000001
 40
0.0
 40
0.0
 40
0.0
 40
0.6637086526706037
 40
0.6637086526706037
 40
0.6637086526706037
 10
46.90521031581925
 20
675.3121602462611
 30
0.0
 10
46.67055387130143
 20
675.5468166907789
 30
0.0
 10
46.43589742678361
 20
675.7814731352967
 30
0.0
  0
SPLINE
  5
63
330
1F
100
AcDbEntity
  8
Predefinito
100
AcDbSpline
210
0.0
220
0.0
230
1.0
 70
    24
 71
     2
 72
     6
 73
     3
 74
     0
 42
0.0000000001
 43
0.0000000001
 40
0.0
 40
0.0
 40
0.0
 40
41.5
 40
41.5
 40
41.5
 10
46.40521031581922
 20
675.8121602462611
 30
0.0
 10
46.40521031581922
 20
696.5621602462611
 30
0.0
 10
46.40521031581922
 20
717.3121602462611
 30
0.0
  0
SPLINE
  5
64
330
1F
100
AcDbEntity
  8
Predefinito
100
AcDbSpline
210
0.0
220
0.0
230
1.0
 70
    12
 71
     2
 72
     8
 73
     5
 74
     0
 42
0.0000000001
 43
0.0000000001
 40
0.0
 40
0.0
 40
0.0
 40
0.2787761163027084
 40
0.2787761163027084
 40
0.5575522326054168
 40
0.5575522326054168
 40
0.5575522326054168
 10
69.90948484056662
 20
665.868573723296
 30
0.0
 41
1.0
 10
69.90793047334085
 20
665.7182389975089
 30
0.0
 41
0.8942022641640226
 10
69.78664069611185
 20
665.6294035554
 30
0.0
 41
1.0
 10
69.66535091888284
 20
665.5405681132912
 30
0.0
 41
0.8942022641640226
 10
69.5215527381655
 20
665.5844432663657
 30
0.0
 41
1.0
  0
SPLINE
  5
65
330
1F
100
AcDbEntity
  8
Predefinito
100
AcDbSpline
210
0.0
220
0.0
230
1.0
 70
    24
 71
     2
 72
     6
 73
     3
 74
     0
 42
0.0000000001
 43
0.0000000001
 40
0.0
 40
0.0
 40
0.0
 40
8.933627893000512
 40
8.933627893000512
 40
8.933627893000512
 10
46.40084655900928
 20
665.8788522008879
 30
0.0
 10
46.36186674838711
 20
670.3454960647988
 30
0.0
 10
46.32288693776493
 20
674.8121399287097
 30
0.0
  0
SPLINE
  5
66
330
1F
100
AcDbEntity
  8
Predefinito
100
AcDbSpline
210
0.0
220
0.0
230
1.0
 70
    24
 71
     2
 72
     6
 73
     3
 74
     0
 42
0.0000000001
 43
0.0000000001
 40
0.0
 40
0.0
 40
0.0
 40
1.0
 40
1.0
 40
1.0
 10
52.15521031581969
 20
717.3121602462611
 30
0.0
 10
52.15521031581969
 20
717.8121602462611
 30
0.0
 10
52.15521031581969
 20
718.3121602462611
 30
0.0
  0
SPLINE
  5
67
330
1F
100
AcDbEntity
  8
Predefinito
100
AcDbSpline
210
0.0
220
0.0
230
1.0
 70
    24
 71
     2
 72
     6
 73
     3
 74
     0
 42
0.0000000001
 43
0.0000000001
 40
0.0
 40
0.0
 40
0.0
 40
0.6510267130058348
 40
0.6510267130058348
 40
0.6510267130058348
 10
69.87452320485494
 20
675.7814731352967
 30
0.0
 10
69.64435050310493
 20
675.5513004335467
 30
0.0
 10
69.41417780135492
 20
675.3211277317967
 30
0.0
  0
SPLINE
  5
68
330
1F
100
AcDbEntity
  8
Predefinito
100
AcDbSpline
210
0.0
220
0.0
230
1.0
 70
    24
 71
     2
 72
     6
 73
     3
 74
     0
 42
0.0000000001
 43
0.0000000001
 40
0.0
 40
0.0
 40
0.0
 40
41.5
 40
41.5
 40
41.5
 10
69.90521031581926
 20
717.3121602462611
 30
0.0
 10
69.90521031581926
 20
696.5621602462611
 30
0.0
 10
69.90521031581926
 20
675.8121602462611
 30
0.0
  0
SPLINE
  5
69
330
1F
100
AcDbEntity
  8
Predefinito
100
AcDbSpline
210
0.0
220
0.0
230
1.0
 70
    24
 71
     2
 72
     6
 73
     3
 74
     0
 42
0.0000000001
 43
0.0000000001
 40
0.0
 40
0.0
 40
0.0
 40
0.5000000001760441
 40
0.5000000001760441
 40
0.5000000001760441
 10
67.6715840504174
 20
675.3121602462611
 30
0.0
 10
67.6715840504174
 20
675.0621602461731
 30
0.0
 10
67.6715840504174
 20
674.8121602460851
 30
0.0
  0
SPLINE
  5
6A
330
1F
100
AcDbEntity
  8
Predefinito
100
AcDbSpline
210
0.0
220
0.0
230
1.0
 70
    24
 71
     2
 72
     6
 73
     3
 74
     0
 42
0.0000000001
 43
0.0000000001
 40
0.0
 40
0.0
 40
0.0
 40
0.5000000001760441
 40
0.5000000001760441
 40
0.5000000001760441
 10
48.66913051716438
 20
674.8121602460851
 30
0.0
 10
48.66913051716438
 20
675.0621602461731
 30
0.0
 10
48.66913051716438
 20
675.3121602462611
 30
0.0
  0
SPLINE
  5
6B
330
1F
100
AcDbEntity
  8
Predefinito
100
AcDbSpline
210
0.0
220
0.0
230
1.0
 70
    12
 71
     2
 72
     8
 73
     5
 74
     0
 42
0.0000000001
 43
0.0000000001
 40
0.0
 40
0.0
 40
0.0
 40
0.2717554222401235
 40
0.2717554222401235
 40
0.543510844480247
 40
0.543510844480247
 40
0.543510844480247
 10
46.7762060453573
 20
665.5808579737817
 30
0.0
 41
1.0
 10
46.63473465649381
 20
665.5450554340806
 30
0.0
 41
0.8997925289278083
 10
46.51901620244246
 20
665.6339667106881
 30
0.0
 41
1.0
 10
46.4032977483911
 20
665.7228779872956
 30
0.0
 41
0.8997925289278083
 10
46.40145109357536
 20
665.8687977103697
 30
0.0
 41
1.0
  0
SPLINE
  5
6C
330
1F
100
AcDbEntity
  8
Predefinito
100
AcDbSpline
210
0.0
220
0.0
230
1.0
 70
    24
 71
     2
 72
     6
 73
     3
 74
     0
 42
0.0000000001
 43
0.0000000001
 40
0.0
 40
0.0
 40
0.0
 40
8.943683754660775
 40
8.943683754660775
 40
8.943683754660775
 10
69.98753400761771
 20
674.8121797521136
 30
0.0
 10
69.94851032068753
 20
670.3405081488197
 30
0.0
 10
69.90948663375735
 20
665.8688365455259
 30
0.0
  0
SPLINE
  5
6D
330
1F
100
AcDbEntity
  8
Predefinito
100
AcDbSpline
210
0.0
220
0.0
230
1.0
 70
    24
 71
     2
 72
     6
 73
     3
 74
     0
 42
0.0000000001
 43
0.0000000001
 40
0.0
 40
0.0
 40
0.0
 40
90.40560515904241
 40
90.40560515904241
 40
90.40560515904241
 10
69.92752490409816
 20
675.2868721103349
 30
0.0
 10
115.1303274836194
 20
675.2868721103349
 30
0.0
 10
160.3331300631406
 20
675.2868721103349
 30
0.0
  0
SPLINE
  5
6E
330
1F
100
AcDbEntity
  8
Predefinito
100
AcDbSpline
210
0.0
220
0.0
230
1.0
 70
    28
 71
     3
 72
    12
 73
     8
 74
     0
 42
0.0000000001
 43
0.0000000001
 40
-681.4343189630026
 40
-681.4343189630026
 40
-681.4343189630026
 40
-681.4343189630026
 40
-648.321050296042
 40
-600.156295871372
 40
-555.703757396608
 40
-511.251218921844
 40
-505.7529904588711
 40
-505.7529904588711
 40
-505.7529904588711
 40
-505.7529904588711
 10
-59.69177082665924
 20
675.2868721103349
 30
0.0
 41
1.0
 10
-59.89483747984711
 20
675.2868721103349
 30
0.0
 41
1.0
 10
-56.6083725398008
 20
675.2868721103349
 30
0.0
 41
1.0
 10
-37.37818835843549
 20
675.2868721103349
 30
0.0
 41
1.0
 10
-2.167536891134297
 20
675.2868721103349
 30
0.0
 41
1.0
 10
28.08217970978789
 20
675.2868721103349
 30
0.0
 41
1.0
 10
44.6093833212436
 20
675.2868721103349
 30
0.0
 41
1.0
 10
46.43289768052054
 20
675.2868721103349
 30
0.0
 41
1.0
  0
SPLINE
  5
6F
330
1F
100
AcDbEntity
  8
Predefinito
100
AcDbSpline
210
0.0
220
0.0
230
1.0
 70
    24
 71
     2
 72
     6
 73
     3
 74
     0
 42
0.0000000001
 43
0.0000000001
 40
0.0
 40
0.0
 40
0.0
 40
15.77050532068517
 40
15.77050532068517
 40
15.77050532068517
 10
160.3331300631406
 20
675.2868721103349
 30
0.0
 10
168.2183827234832
 20
675.2868721103349
 30
0.0
 10
176.1036353838257
 20
675.2868721103349
 30
0.0
  0
SPLINE
  5
70
330
1F
100
AcDbEntity
  8
Predefinito
100
AcDbSpline
210
0.0
220
0.0
230
1.0
 70
    24
 71
     2
 72
     6
 73
     3
 74
     0
 42
0.0000000001
 43
0.0000000001
 40
0.0
 40
0.0
 40
0.0
 40
15.82068957978717
 40
15.82068957978717
 40
15.82068957978717
 10
160.6581106988386
 20
718.2868721103349
 30
0.0
 10
168.5684554887322
 20
718.2868721103349
 30
0.0
 10
176.4788002786258
 20
718.2868721103349
 30
0.0
  0
SPLINE
  5
71
330
1F
100
AcDbEntity
  8
Predefinito
100
AcDbSpline
210
0.0
220
0.0
230
1.0
 70
    24
 71
     2
 72
     6
 73
     3
 74
     0
 42
0.0000000001
 43
0.0000000001
 40
0.0
 40
0.0
 40
0.0
 40
96.54576935665268
 40
96.54576935665268
 40
96.54576935665268
 10
64.1123413421859
 20
718.2868721103349
 30
0.0
 10
112.3852260205122
 20
718.2868721103349
 30
0.0
 10
160.6581106988386
 20
718.2868721103349
 30
0.0
  0
SPLINE
  5
72
330
1F
100
AcDbEntity
  8
Predefinito
100
AcDbSpline
210
0.0
220
0.0
230
1.0
 70
    28
 71
     3
 72
    12
 73
     8
 74
     0
 42
0.0000000001
 43
0.0000000001
 40
-681.4343189630026
 40
-681.4343189630026
 40
-681.4343189630026
 40
-681.4343189630026
 40
-648.321050296042
 40
-600.156295871372
 40
-555.703757396608
 40
-511.251218921844
 40
-499.9795224542409
 40
-499.9795224542409
 40
-499.9795224542409
 40
-499.9795224542409
 10
-60.06694446063948
 20
718.2868721103349
 30
0.0
 41
1.0
 10
-60.27065730425241
 20
718.2868721103349
 30
0.0
 41
1.0
 10
-56.9737343094555
 20
718.2868721103349
 30
0.0
 41
1.0
 10
-37.68235661996121
 20
718.2868721103349
 30
0.0
 41
1.0
 10
-2.359659253021903
 20
718.2868721103349
 30
0.0
 41
1.0
 10
29.8422001011681
 20
718.2868721103349
 30
0.0
 41
1.0
 10
48.40579168653647
 20
718.2868721103349
 30
0.0
 41
1.0
 10
52.17010405256565
 20
718.2868721103349
 30
0.0
 41
1.0
  0
SPLINE
  5
73
330
1F
100
AcDbEntity
  8
Predefinito
100
AcDbSpline
210
0.0
220
0.0
230
1.0
 70
    12
 71
     2
 72
     8
 73
     5
 74
     0
 42
0.0000000001
 43
0.0000000001
 40
-1.668971097219581
 40
-1.668971097219581
 40
-1.668971097219581
 40
-1.5707963267949
 40
-1.5707963267949
 40
-1.102063565250896
 40
-1.102063565250896
 40
-1.102063565250896
 10
46.43287480640876
 20
675.3121602462611
 30
0.0
 41
0.9656765759202985
 10
46.42902768736281
 20
675.3121602462611
 30
0.0
 41
0.9816941738241592
 10
46.4727151714895
 20
675.3121602462611
 30
0.0
 41
1.0
 10
46.7070815522615
 20
675.3121523899539
 30
0.0
 41
1.0
 10
46.9414479330335
 20
675.3121523899538
 30
0.0
 41
1.0
  0
SPLINE
  5
74
330
1F
100
AcDbEntity
  8
Predefinito
100
AcDbSpline
210
0.0
220
0.0
230
1.0
 70
    24
 71
     2
 72
     6
 73
     3
 74
     0
 42
0.0000000001
 43
0.0000000001
 40
0.0
 40
0.0
 40
0.0
 40
0.558552205396353
 40
0.558552205396353
 40
0.558552205396353
 10
69.36897269861959
 20
675.3121602462611
 30
0.0
 10
69.64824880131776
 20
675.3121602462611
 30
0.0
 10
69.92752490401594
 20
675.3121602462611
 30
0.0
  0
SPLINE
  5
75
330
1F
100
AcDbEntity
  8
Predefinito
100
AcDbSpline
210
0.0
220
0.0
230
1.0
 70
    12
 71
     2
 72
     6
 73
     3
 74
     0
 42
0.0000000001
 43
0.0000000001
 40
0.0
 40
0.0
 40
0.0
 40
12.04971411002909
 40
12.04971411002909
 40
12.04971411002909
 10
58.17162484957593
 20
668.2868721102617
 30
0.0
 41
1.0
 10
64.31589448922064
 20
668.2868621695249
 30
0.0
 41
0.9711011512695662
 10
69.7601729386017
 20
665.4387256611456
 30
0.0
 41
1.0
  0
SPLINE
  5
76
330
1F
100
AcDbEntity
  8
Predefinito
100
AcDbSpline
210
0.0
220
0.0
230
1.0
 70
    12
 71
     2
 72
     8
 73
     5
 74
     0
 42
0.0000000001
 43
0.0000000001
 40
0.0
 40
0.0
 40
0.0
 40
39.06343311858674
 40
39.06343311858674
 40
78.12686623717337
 40
78.12686623717337
 40
78.12686623717337
 10
58.17158440238877
 20
618.4182420581124
 30
0.0
 41
1.0
 10
83.0401383019537
 20
618.4183182107295
 30
0.0
 41
0.7071067811931747
 10
83.04006214980268
 20
643.2868721102944
 30
0.0
 41
1.0
 10
83.04013830195365
 20
668.1554260098593
 30
0.0
 41
0.707106781193175
 10
58.17158440238877
 20
668.1555021624765
 30
0.0
 41
1.0
  0
SPLINE
  5
77
330
1F
100
AcDbEntity
  8
Predefinito
100
AcDbSpline
210
0.0
220
0.0
230
1.0
 70
    28
 71
     2
 72
     6
 73
     3
 74
     0
 42
0.0000000001
 43
0.0000000001
 40
0.0
 40
0.0
 40
0.0
 40
3.14159265358979
 40
3.14159265358979
 40
3.14159265358979
 10
58.17158440238877
 20
618.4182420581124
 30
0.0
 41
1.0
 10
58.17158440238877
 20
618.4181659057281
 30
0.0
 41
0.707106781186548
 10
58.17158440238877
 20
620.418089753344
 30
0.0
 41
1.0
  0
SPLINE
  5
78
330
1F
100
AcDbEntity
  8
Predefinito
100
AcDbSpline
210
0.0
220
0.0
230
1.0
 70
    12
 71
     2
 72
     8
 73
     5
 74
     0
 42
0.0000000001
 43
0.0000000001
 40
0.0
 40
0.0
 40
0.0
 40
33.24503089126401
 40
33.24503089126401
 40
66.32476584920047
 40
66.32476584920047
 40
66.32476584920047
 10
58.17158440238877
 20
618.2868721102944
 30
0.0
 41
1.0
 10
77.77126956317608
 20
618.2868721103242
 30
0.0
 41
0.7869781059213226
 10
82.44910835738332
 20
637.3201451503821
 30
0.0
 41
1.0
 10
87.09517984025291
 20
656.2241627934682
 30
0.0
 41
0.7890134904826899
 10
69.9063830190197
 20
665.3616201593009
 30
0.0
 41
1.0
  0
SPLINE
  5
79
330
1F
100
AcDbEntity
  8
Predefinito
100
AcDbSpline
210
0.0
220
0.0
230
1.0
 70
    12
 71
     2
 72
     6
 73
     3
 74
     0
 42
0.0000000001
 43
0.0000000001
 40
0.0
 40
0.0
 40
0.0
 40
12.04975455720809
 40
12.04975455720809
 40
12.04975455720809
 10
46.58299586618303
 20
665.4387256611494
 30
0.0
 41
1.0
 10
52.02729331757119
 20
668.2868721102942
 30
0.0
 41
0.971100958200074
 10
58.17158440238877
 20
668.2868721102944
 30
0.0
 41
1.0
  0
SPLINE
  5
7A
330
1F
100
AcDbEntity
  8
Predefinito
100
AcDbSpline
210
0.0
220
0.0
230
1.0
 70
    12
 71
     2
 72
     8
 73
     5
 74
     0
 42
0.0000000001
 43
0.0000000001
 40
0.0
 40
0.0
 40
0.0
 40
39.26990816987249
 40
39.26990816987249
 40
66.32476592956202
 40
66.32476592956202
 40
66.32476592956202
 10
58.17158440238877
 20
618.2868721102944
 30
0.0
 41
1.0
 10
33.17158440238872
 20
618.2868721102946
 30
0.0
 41
0.7071067811865477
 10
33.17158440238879
 20
643.2868721102946
 30
0.0
 41
1.0
 10
33.17158440238885
 20
658.3099217530341
 30
0.0
 41
0.8571440782702846
 10
46.43678585669818
 20
665.3616201970125
 30
0.0
 41
1.0
  0
SPLINE
  5
7B
330
1F
100
AcDbEntity
  8
Predefinito
100
AcDbSpline
210
0.0
220
0.0
230
1.0
 70
    24
 71
     2
 72
     6
 73
     3
 74
     0
 42
0.0000000001
 43
0.0000000001
 40
0.0
 40
0.0
 40
0.0
 40
0.1313699478178592
 40
0.1313699478178592
 40
0.1313699478178592
 10
58.17158440238877
 20
618.4182420581124
 30
0.0
 10
58.17158440238877
 20
618.3525570842035
 30
0.0
 10
58.17158440238877
 20
618.2868721102944
 30
0.0
  0
SPLINE
  5
7C
330
1F
100
AcDbEntity
  8
Predefinito
100
AcDbSpline
210
0.0
220
0.0
230
1.0
 70
    12
 71
     2
 72
     8
 73
     5
 74
     0
 42
0.0000000001
 43
0.0000000001
 40
0.0
 40
0.0
 40
0.0
 40
39.06343311858668
 40
39.06343311858668
 40
78.12686623717329
 40
78.12686623717329
 40
78.12686623717329
 10
58.17158440238877
 20
668.1555021624765
 30
0.0
 41
1.0
 10
33.30303050282389
 20
668.1554260098593
 30
0.0
 41
0.7071067811931755
 10
33.30310665497494
 20
643.2868721102944
 30
0.0
 41
1.0
 10
33.30303050282399
 20
618.4183182107297
 30
0.0
 41
0.7071067811931783
 10
58.17158440238877
 20
618.4182420581122
 30
0.0
 41
1.0
  0
SPLINE
  5
7D
330
1F
100
AcDbEntity
  8
Predefinito
100
AcDbSpline
210
0.0
220
0.0
230
1.0
 70
    12
 71
     2
 72
     8
 73
     5
 74
     0
 42
0.0000000001
 43
0.0000000001
 40
0.0
 40
0.0
 40
0.0
 40
35.92219932456962
 40
35.92219932456962
 40
71.84439864913922
 40
71.84439864913922
 40
71.84439864913922
 10
58.17158440238877
 20
666.1556544672449
 30
0.0
 41
1.0
 10
81.04036675933867
 20
666.1556544672443
 30
0.0
 41
0.7071067811865688
 10
81.04036675933946
 20
643.2868721102944
 30
0.0
 41
1.0
 10
81.04036675933857
 20
620.4180897533447
 30
0.0
 41
0.7071067811865721
 10
58.17158440238877
 20
620.418089753344
 30
0.0
 41
1.0
  0
SPLINE
  5
7E
330
1F
100
AcDbEntity
  8
Predefinito
100
AcDbSpline
210
0.0
220
0.0
230
1.0
 70
    12
 71
     2
 72
     8
 73
     5
 74
     0
 42
0.0000000001
 43
0.0000000001
 40
0.0
 40
0.0
 40
0.0
 40
35.92219932457002
 40
35.92219932457002
 40
71.84439864914009
 40
71.84439864914009
 40
71.84439864914009
 10
58.17158440238877
 20
620.418089753344
 30
0.0
 41
1.0
 10
35.30280204543794
 20
620.4180897533437
 30
0.0
 41
0.7071067811865405
 10
35.30280204543807
 20
643.2868721102944
 30
0.0
 41
1.0
 10
35.30280204543788
 20
666.1556544672454
 30
0.0
 41
0.707106781186539
 10
58.17158440238877
 20
666.1556544672449
 30
0.0
 41
1.0
  0
SPLINE
  5
7F
330
1F
100
AcDbEntity
  8
Predefinito
100
AcDbSpline
210
0.0
220
0.0
230
1.0
 70
    24
 71
     2
 72
     6
 73
     3
 74
     0
 42
0.0000000001
 43
0.0000000001
 40
0.0
 40
0.0
 40
0.0
 40
12.11609291689324
 40
12.11609291689324
 40
12.11609291689324
 10
34.2073054311401
 20
674.7535387770016
 30
0.0
 10
40.26535188958672
 20
674.7535387770015
 30
0.0
 10
46.32339834803334
 20
674.7535387770015
 30
0.0
  0
SPLINE
  5
80
330
1F
100
AcDbEntity
  8
Predefinito
100
AcDbSpline
210
0.0
220
0.0
230
1.0
 70
    24
 71
     2
 72
     6
 73
     3
 74
     0
 42
0.0000000001
 43
0.0000000001
 40
0.0
 40
0.0
 40
0.0
 40
12.2202831758174
 40
12.2202831758174
 40
12.2202831758174
 10
69.9870222553227
 20
674.7535387770016
 30
0.0
 10
76.0971638432314
 20
674.7535387770016
 30
0.0
 10
82.2073054311401
 20
674.7535387770016
 30
0.0
  0
SPLINE
  5
81
330
1F
100
AcDbEntity
  8
Predefinito
100
AcDbSpline
210
0.0
220
0.0
230
1.0
 70
    28
 71
     2
 72
     8
 73
     5
 74
     0
 42
0.0000000001
 43
0.0000000001
 40
-1.668971097219581
 40
-1.668971097219581
 40
-1.668971097219581
 40
-1.5707963267949
 40
-1.5707963267949
 40
0.0
 40
0.0
 40
0.0
 10
46.40787591051568
 20
675.8121602462611
 30
0.0
 41
0.9656765759202985
 10
46.40402879146971
 20
675.8121602462612
 30
0.0
 41
0.9816941738241592
 10
46.44771627559639
 20
675.8121602462611
 30
0.0
 41
1.0
 10
47.41815524809176
 20
675.8121602462611
 30
0.0
 41
0.707106781186548
 10
59.12564928831463
 20
675.8121602462611
 30
0.0
 41
1.0
  0
SPLINE
  5
82
330
1F
100
AcDbEntity
  8
Predefinito
100
AcDbSpline
210
0.0
220
0.0
230
1.0
 70
    12
 71
     2
 72
     6
 73
     3
 74
     0
 42
0.0000000001
 43
0.0000000001
 40
0.0
 40
0.0
 40
0.0
 40
10.78740660697621
 40
10.78740660697621
 40
10.78740660697621
 10
46.41983266632914
 20
665.879017890137
 30
0.0
 41
1.0
 10
51.32646495013955
 20
668.2950238704349
 30
0.0
 41
0.9794226490675284
 10
56.78851970683635
 20
668.574457404947
 30
0.0
 41
1.0
  0
SPLINE
  5
83
330
1F
100
AcDbEntity
  8
Predefinito
100
AcDbSpline
210
0.0
220
0.0
230
1.0
 70
    24
 71
     2
 72
     6
 73
     3
 74
     0
 42
0.0000000001
 43
0.0000000001
 40
0.0
 40
0.0
 40
0.0
 40
5.447237962125371
 40
5.447237962125371
 40
5.447237962125371
 10
58.66510338005362
 20
718.3121602462611
 30
0.0
 10
61.38872236111631
 20
718.3121602462611
 30
0.0
 10
64.112341342179
 20
718.3121602462611
 30
0.0
  0
SPLINE
  5
84
330
1F
100
AcDbEntity
  8
Predefinito
100
AcDbSpline
210
0.0
220
0.0
230
1.0
 70
    28
 71
     2
 72
     8
 73
     5
 74
     0
 42
0.0000000001
 43
0.0000000001
 40
-10.60287520586556
 40
-10.60287520586556
 40
-10.60287520586556
 40
-9.42477796076938
 40
-9.42477796076938
 40
0.0
 40
0.0
 40
0.0
 10
52.17010413750321
 20
718.3121602462612
 30
0.0
 41
0.9359296083845574
 10
52.11494544640709
 20
718.3121602462609
 30
0.0
 41
0.9633883476483185
 10
52.16039073712557
 20
718.3121602462611
 30
0.0
 41
1.0
 10
52.65572145320606
 20
718.3121602462611
 30
0.0
 41
0.707106781186548
 10
58.63640386179209
 20
718.3121602462611
 30
0.0
 41
1.0
  0
SPLINE
  5
85
330
1F
100
AcDbEntity
  8
Predefinito
100
AcDbSpline
210
0.0
220
0.0
230
1.0
 70
    24
 71
     2
 72
     6
 73
     3
 74
     0
 42
0.0000000001
 43
0.0000000001
 40
0.0
 40
0.0
 40
0.0
 40
10.77689543280817
 40
10.77689543280817
 40
10.77689543280817
 10
59.12564928831463
 20
675.8121602462611
 30
0.0
 10
64.51409700471872
 20
675.8121602462611
 30
0.0
 10
69.90254472112281
 20
675.8121602462611
 30
0.0
  0
SPLINE
  5
86
330
1F
100
AcDbEntity
  8
Predefinito
100
AcDbSpline
210
0.0
220
0.0
230
1.0
 70
    24
 71
     2
 72
     6
 73
     3
 74
     0
 42
0.0000000001
 43
0.0000000001
 40
0.0
 40
0.0
 40
0.0
 40
10.7511567079306
 40
10.7511567079306
 40
10.7511567079306
 10
59.15375089994548
 20
717.3121602462611
 30
0.0
 10
64.52932925391079
 20
717.3121602462611
 30
0.0
 10
69.90490760787608
 20
717.3121602462612
 30
0.0
  0
SPLINE
  5
87
330
1F
100
AcDbEntity
  8
Predefinito
100
AcDbSpline
210
0.0
220
0.0
230
1.0
 70
    28
 71
     2
 72
     8
 73
     5
 74
     0
 42
0.0000000001
 43
0.0000000001
 40
54.22092809625394
 40
54.22092809625394
 40
54.22092809625394
 40
55.3705705195201
 40
55.3705705195201
 40
73.8274273593601
 40
73.8274273593601
 40
73.8274273593601
 10
46.40573663972276
 20
717.3121602462614
 30
0.0
 41
0.9658751966217677
 10
46.40074259044755
 20
717.3121602462609
 30
0.0
 41
0.9818001048649427
 10
46.44305849395819
 20
717.3121602462611
 30
0.0
 41
1.0
 10
47.3853958548231
 20
717.3121602462611
 30
0.0
 41
0.707106781186548
 10
59.09754767668353
 20
717.3121602462611
 30
0.0
 41
1.0
  0
SPLINE
  5
88
330
1F
100
AcDbEntity
  8
Predefinito
100
AcDbSpline
210
0.0
220
0.0
230
1.0
 70
    24
 71
     2
 72
     6
 73
     3
 74
     0
 42
0.0000000001
 43
0.0000000001
 40
0.0
 40
0.0
 40
0.0
 40
12.11600028133229
 40
12.11600028133229
 40
12.11600028133229
 10
59.05744821451937
 20
675.3121602462611
 30
0.0
 10
52.99944807385322
 20
675.3121602462611
 30
0.0
 10
46.94144793318708
 20
675.3121602462611
 30
0.0
  0
SPLINE
  5
89
330
1F
100
AcDbEntity
  8
Predefinito
100
AcDbSpline
210
0.0
220
0.0
230
1.0
 70
    28
 71
     2
 72
     6
 73
     3
 74
     0
 42
0.0000000001
 43
0.0000000001
 40
-53.0143760293278
 40
-53.0143760293278
 40
-53.0143760293278
 40
-35.3429173528852
 40
-35.3429173528852
 40
-35.3429173528852
 10
69.36897269845258
 20
675.3121602462611
 30
0.0
 41
1.0
 10
70.27121059715228
 20
675.3121602462611
 30
0.0
 41
0.707106781186548
 10
59.05744821451937
 20
675.3121602462611
 30
0.0
 41
1.0
  0
SPLINE
  5
8A
330
1F
100
AcDbEntity
  8
Predefinito
100
AcDbSpline
210
0.0
220
0.0
230
1.0
 70
    12
 71
     2
 72
     6
 73
     3
 74
     0
 42
0.0000000001
 43
0.0000000001
 40
0.0
 40
0.0
 40
0.0
 40
11.74283011146392
 40
11.74283011146392
 40
11.74283011146392
 10
58.58335194406531
 20
668.6018694478498
 30
0.0
 41
1.0
 10
64.55256148262033
 20
668.5134557999268
 30
0.0
 41
0.9754460308872587
 10
69.90470955498807
 20
665.8688782344609
 30
0.0
 41
1.0
  0
SPLINE
  5
8B
330
1F
100
AcDbEntity
  8
Predefinito
100
AcDbSpline
210
0.0
220
0.0
230
1.0
 70
    24
 71
     2
 72
     6
 73
     3
 74
     0
 42
0.0000000001
 43
0.0000000001
 40
0.0
 40
0.0
 40
0.0
 40
11.77203982433883
 40
11.77203982433883
 40
11.77203982433883
 10
46.38317079500258
 20
674.8121602466495
 30
0.0
 10
52.269190707172
 20
674.8121602464553
 30
0.0
 10
58.15521061934142
 20
674.8121602462611
 30
0.0
  0
SPLINE
  5
8C
330
1F
100
AcDbEntity
  8
Predefinito
100
AcDbSpline
210
0.0
220
0.0
230
1.0
 70
    12
 71
     2
 72
     6
 73
     3
 74
     0
 42
0.0000000001
 43
0.0000000001
 40
0.0
 40
0.0
 40
0.0
 40
11.80899462694774
 40
11.80899462694774
 40
11.80899462694774
 10
58.18085984901825
 20
674.8121599299416
 30
0.0
 41
1.0
 10
64.08535716249212
 20
674.8121598668935
 30
0.0
 41
0.9999999999999997
 10
69.98985447596598
 20
674.8121600730485
 30
0.0
 41
1.0
  0
SPLINE
  5
8D
330
1F
100
AcDbEntity
  8
Predefinito
100
AcDbSpline
210
0.0
220
0.0
230
1.0
 70
    24
 71
     2
 72
     6
 73
     3
 74
     0
 42
0.0000000001
 43
0.0000000001
 40
0.0
 40
0.0
 40
0.0
 40
43.00145929160185
 40
43.00145929160185
 40
43.00145929160185
 10
2762.299947462925
 20
718.2866942628427
 30
0.0
 10
2762.112333457566
 20
696.786783186589
 30
0.0
 10
2761.924719452206
 20
675.2868721103354
 30
0.0
  0
SPLINE
  5
8E
330
1F
100
AcDbEntity
  8
Predefinito
100
AcDbSpline
210
0.0
220
0.0
230
1.0
 70
    24
 71
     2
 72
     6
 73
     3
 74
     0
 42
0.0000000001
 43
0.0000000001
 40
0.0
 40
0.0
 40
0.0
 40
43.00145966485461
 40
43.00145966485461
 40
43.00145966485461
 10
2526.091742472474
 20
675.2868721103354
 30
0.0
 10
2525.904128985631
 20
696.7867833777473
 30
0.0
 10
2525.716515498788
 20
718.2866946451591
 30
0.0
  0
SPLINE
  5
8F
330
1F
100
AcDbEntity
  8
Predefinito
100
AcDbSpline
210
0.0
220
0.0
230
1.0
 70
    24
 71
     2
 72
     6
 73
     3
 74
     0
 42
0.0000000001
 43
0.0000000001
 40
0.0
 40
0.0
 40
0.0
 40
0.6786973032784864
 40
0.6786973032784864
 40
0.6786973032784864
 10
3405.736823281541
 20
675.2920717117825
 30
0.0
 10
3405.49686754878
 20
675.052115979022
 30
0.0
 10
3405.25691181602
 20
674.8121602462616
 30
0.0
  0
SPLINE
  5
90
330
1F
100
AcDbEntity
  8
Predefinito
100
AcDbSpline
210
0.0
220
0.0
230
1.0
 70
    24
 71
     2
 72
     6
 73
     3
 74
     0
 42
0.0000000001
 43
0.0000000001
 40
0.0
 40
0.0
 40
0.0
 40
41.5
 40
41.5
 40
41.5
 10
3405.75691181602
 20
716.8121602462616
 30
0.0
 10
3405.75691181602
 20
696.0621602462616
 30
0.0
 10
3405.75691181602
 20
675.3121602462616
 30
0.0
  0
SPLINE
  5
91
330
1F
100
AcDbEntity
  8
Predefinito
100
AcDbSpline
210
0.0
220
0.0
230
1.0
 70
    24
 71
     2
 72
     6
 73
     3
 74
     0
 42
0.0000000001
 43
0.0000000001
 40
0.0
 40
0.0
 40
0.0
 40
1.0
 40
1.0
 40
1.0
 10
3400.00691181602
 20
717.8121602462616
 30
0.0
 10
3400.00691181602
 20
717.3121602462616
 30
0.0
 10
3400.00691181602
 20
716.8121602462616
 30
0.0
  0
SPLINE
  5
92
330
1F
100
AcDbEntity
  8
Predefinito
100
AcDbSpline
210
0.0
220
0.0
230
1.0
 70
    24
 71
     2
 72
     6
 73
     3
 74
     0
 42
0.0000000001
 43
0.0000000001
 40
0.0
 40
0.0
 40
0.0
 40
0.5000000001759872
 40
0.5000000001759872
 40
0.5000000001759872
 10
3403.504405282654
 20
674.8121602462616
 30
0.0
 10
3403.504405282654
 20
674.5621602461736
 30
0.0
 10
3403.504405282654
 20
674.3121602460856
 30
0.0
  0
SPLINE
  5
93
330
1F
100
AcDbEntity
  8
Predefinito
100
AcDbSpline
210
0.0
220
0.0
230
1.0
 70
    24
 71
     2
 72
     6
 73
     3
 74
     0
 42
0.0000000001
 43
0.0000000001
 40
0.0
 40
0.0
 40
0.0
 40
16.10034988619827
 40
16.10034988619827
 40
16.10034988619827
 10
4935.410276027093
 20
668.2868721102949
 30
0.0
 10
4943.460450970193
 20
668.2868721102948
 30
0.0
 10
4951.510625913292
 20
668.2868721102948
 30
0.0
  0
SPLINE
  5
94
330
1F
100
AcDbEntity
  8
Predefinito
100
AcDbSpline
210
0.0
220
0.0
230
1.0
 70
    24
 71
     2
 72
     6
 73
     3
 74
     0
 42
0.0000000001
 43
0.0000000001
 40
0.0
 40
0.0
 40
0.0
 40
0.5525330968650157
 40
0.5525330968650157
 40
0.5525330968650157
 10
4951.534711877399
 20
618.786451688228
 30
0.0
 10
4951.258487405699
 20
618.7912732043106
 30
0.0
 10
4950.982262934001
 20
618.7960947203933
 30
0.0
  0
SPLINE
  5
95
330
1F
100
AcDbEntity
  8
Predefinito
100
AcDbSpline
210
0.0
220
0.0
230
1.0
 70
    24
 71
     2
 72
     6
 73
     3
 74
     0
 42
0.0000000001
 43
0.0000000001
 40
0.0
 40
0.0
 40
0.0
 40
592.0
 40
592.0
 40
592.0
 10
4951.010625913292
 20
618.2868721102948
 30
0.0
 10
4655.010625913292
 20
618.2868721102948
 30
0.0
 10
4359.010625913292
 20
618.2868721102948
 30
0.0
  0
SPLINE
  5
96
330
1F
100
AcDbEntity
  8
Predefinito
100
AcDbSpline
210
0.0
220
0.0
230
1.0
 70
    24
 71
     2
 72
     6
 73
     3
 74
     0
 42
0.0000000001
 43
0.0000000001
 40
0.0
 40
0.0
 40
0.0
 40
1771.999999999999
 40
1771.999999999999
 40
1771.999999999999
 10
4359.010625913292
 20
618.2868721102948
 30
0.0
 10
3473.010625913292
 20
618.2868721102948
 30
0.0
 10
2587.010625913293
 20
618.2868721102948
 30
0.0
  0
SPLINE
  5
97
330
1F
100
AcDbEntity
  8
Predefinito
100
AcDbSpline
210
0.0
220
0.0
230
1.0
 70
     8
 71
     3
 72
    13
 73
     9
 74
     0
 42
0.0000000001
 43
0.0000000001
 40
0.0
 40
0.0
 40
0.0
 40
0.0
 40
0.3091106035970395
 40
2.123931538978257
 40
5.979135443926546
 40
11.99958385308157
 40
17.72187128447399
 40
24.28350043325968
 40
24.28350043325968
 40
24.28350043325968
 40
24.28350043325968
 10
2655.759530523118
 20
668.5697100506206
 30
0.0
 10
2655.78149083845
 20
668.4168792087011
 30
0.0
 10
2655.153241707462
 20
668.0938097103849
 30
0.0
 10
2653.304378029854
 20
667.3380198036857
 30
0.0
 10
2649.620859834742
 20
666.0636535264497
 30
0.0
 10
2644.431645321661
 20
665.292367209867
 30
0.0
 10
2638.324098609767
 20
665.9905509864298
 30
0.0
 10
2634.453939087954
 20
667.4016883133725
 30
0.0
 10
2632.461651608955
 20
668.3000394797677
 30
0.0
  0
SPLINE
  5
98
330
1F
100
AcDbEntity
  8
Predefinito
100
AcDbSpline
210
0.0
220
0.0
230
1.0
 70
    24
 71
     2
 72
     6
 73
     3
 74
     0
 42
0.0000000001
 43
0.0000000001
 40
0.0
 40
0.0
 40
0.0
 40
0.5679214240276393
 40
0.5679214240276393
 40
0.5679214240276393
 10
2587.054374876032
 20
618.7963632837331
 30
0.0
 10
2586.77045741261
 20
618.7914074859805
 30
0.0
 10
2586.486539949188
 20
618.786451688228
 30
0.0
  0
SPLINE
  5
99
330
1F
100
AcDbEntity
  8
Predefinito
100
AcDbSpline
210
0.0
220
0.0
230
1.0
 70
    24
 71
     2
 72
     6
 73
     3
 74
     0
 42
0.0000000001
 43
0.0000000001
 40
0.0
 40
0.0
 40
0.0
 40
16.10034988619736
 40
16.10034988619736
 40
16.10034988619736
 10
2586.510625913293
 20
668.2868721102949
 30
0.0
 10
2594.560800856391
 20
668.2868721102949
 30
0.0
 10
2602.61097579949
 20
668.2868721102949
 30
0.0
  0
SPLINE
  5
9A
330
1F
100
AcDbEntity
  8
Predefinito
100
AcDbSpline
210
0.0
220
0.0
230
1.0
 70
    24
 71
     2
 72
     6
 73
     3
 74
     0
 42
0.0000000001
 43
0.0000000001
 40
0.0
 40
0.0
 40
0.0
 40
363.249598160291
 40
363.249598160291
 40
363.249598160291
 10
3405.761027753003
 20
668.2868721102948
 30
0.0
 10
3587.385826833148
 20
668.2868721102948
 30
0.0
 10
3769.010625913294
 20
668.2868721102948
 30
0.0
  0
SPLINE
  5
9B
330
1F
100
AcDbEntity
  8
Predefinito
100
AcDbSpline
210
0.0
220
0.0
230
1.0
 70
    24
 71
     2
 72
     6
 73
     3
 74
     0
 42
0.0000000001
 43
0.0000000001
 40
0.0
 40
0.0
 40
0.0
 40
726.7979417740144
 40
726.7979417740144
 40
726.7979417740144
 10
2655.454827295678
 20
668.2868721102948
 30
0.0
 10
3018.853798182685
 20
668.2868721102948
 30
0.0
 10
3382.252769069692
 20
668.2868721102948
 30
0.0
  0
SPLINE
  5
9C
330
1F
100
AcDbEntity
  8
Predefinito
100
AcDbSpline
210
0.0
220
0.0
230
1.0
 70
    24
 71
     2
 72
     6
 73
     3
 74
     0
 42
0.0000000001
 43
0.0000000001
 40
0.0
 40
0.0
 40
0.0
 40
29.57452107854715
 40
29.57452107854715
 40
29.57452107854715
 10
2603.010625913293
 20
668.2868721102948
 30
0.0
 10
2617.797886452566
 20
668.2868721102948
 30
0.0
 10
2632.58514699184
 20
668.2868721102948
 30
0.0
  0
SPLINE
  5
9D
330
1F
100
AcDbEntity
  8
Predefinito
100
AcDbSpline
210
0.0
220
0.0
230
1.0
 70
    24
 71
     2
 72
     6
 73
     3
 74
     0
 42
0.0000000001
 43
0.0000000001
 40
0.0
 40
0.0
 40
0.0
 40
29.6385407499838
 40
29.6385407499838
 40
29.6385407499838
 10
4905.372085163309
 20
668.2868721102768
 30
0.0
 10
4920.191355538301
 20
668.2868721102766
 30
0.0
 10
4935.010625913293
 20
668.2868721102765
 30
0.0
  0
SPLINE
  5
9E
330
1F
100
AcDbEntity
  8
Predefinito
100
AcDbSpline
210
0.0
220
0.0
230
1.0
 70
    24
 71
     2
 72
     6
 73
     3
 74
     0
 42
0.0000000001
 43
0.0000000001
 40
0.0
 40
0.0
 40
0.0
 40
727.2842605063324
 40
727.2842605063324
 40
727.2842605063324
 10
4155.372085163307
 20
668.2868721102839
 30
0.0
 10
4519.014215416473
 20
668.2868721102805
 30
0.0
 10
4882.656345669639
 20
668.286872110277
 30
0.0
  0
SPLINE
  5
9F
330
1F
100
AcDbEntity
  8
Predefinito
100
AcDbSpline
210
0.0
220
0.0
230
1.0
 70
    24
 71
     2
 72
     6
 73
     3
 74
     0
 42
0.0000000001
 43
0.0000000001
 40
0.0
 40
0.0
 40
0.0
 40
363.6457197563459
 40
363.6457197563459
 40
363.6457197563459
 10
3769.010625913294
 20
668.2868721102877
 30
0.0
 10
3950.833485791467
 20
668.2868721102859
 30
0.0
 10
4132.656345669639
 20
668.2868721102841
 30
0.0
  0
SPLINE
  5
A0
330
1F
100
AcDbEntity
  8
Predefinito
100
AcDbSpline
210
0.0
220
0.0
230
1.0
 70
    24
 71
     2
 72
     6
 73
     3
 74
     0
 42
0.0000000001
 43
0.0000000001
 40
0.0
 40
0.0
 40
0.0
 40
0.6786973032784864
 40
0.6786973032784864
 40
0.6786973032784864
 10
4155.74282176329
 20
675.7920717117825
 30
0.0
 10
4155.502866030529
 20
675.552115979022
 30
0.0
 10
4155.262910297768
 20
675.3121602462616
 30
0.0
  0
SPLINE
  5
A1
330
1F
100
AcDbEntity
  8
Predefinito
100
AcDbSpline
210
0.0
220
0.0
230
1.0
 70
    24
 71
     2
 72
     6
 73
     3
 74
     0
 42
0.0000000001
 43
0.0000000001
 40
0.0
 40
0.0
 40
0.0
 40
41.5
 40
41.5
 40
41.5
 10
4155.762910297768
 20
717.3121602462616
 30
0.0
 10
4155.762910297768
 20
696.5621602462616
 30
0.0
 10
4155.762910297768
 20
675.8121602462616
 30
0.0
  0
SPLINE
  5
A2
330
1F
100
AcDbEntity
  8
Predefinito
100
AcDbSpline
210
0.0
220
0.0
230
1.0
 70
    24
 71
     2
 72
     6
 73
     3
 74
     0
 42
0.0000000001
 43
0.0000000001
 40
0.0
 40
0.0
 40
0.0
 40
1.0
 40
1.0
 40
1.0
 10
4150.012910297768
 20
718.3121602462616
 30
0.0
 10
4150.012910297768
 20
717.8121602462616
 30
0.0
 10
4150.012910297768
 20
717.3121602462616
 30
0.0
  0
SPLINE
  5
A3
330
1F
100
AcDbEntity
  8
Predefinito
100
AcDbSpline
210
0.0
220
0.0
230
1.0
 70
    24
 71
     2
 72
     6
 73
     3
 74
     0
 42
0.0000000001
 43
0.0000000001
 40
0.0
 40
0.0
 40
0.0
 40
0.5000000001759872
 40
0.5000000001759872
 40
0.5000000001759872
 10
4153.510403764402
 20
675.3121602462616
 30
0.0
 10
4153.510403764402
 20
675.0621602461736
 30
0.0
 10
4153.510403764402
 20
674.8121602460856
 30
0.0
  0
SPLINE
  5
A4
330
1F
100
AcDbEntity
  8
Predefinito
100
AcDbSpline
210
0.0
220
0.0
230
1.0
 70
     8
 71
     3
 72
    14
 73
    10
 74
     0
 42
0.0000000001
 43
0.0000000001
 40
0.0
 40
0.0
 40
0.0
 40
0.0
 40
3.375616699363476
 40
6.439014507972857
 40
12.24350029538768
 40
18.27702244293542
 40
22.04429146977547
 40
23.96991991702952
 40
24.26891995317677
 40
24.26891995317677
 40
24.26891995317677
 40
24.26891995317677
 10
4155.559326181718
 20
668.3253276158068
 30
0.0
 10
4154.53456194017
 20
667.8608600042606
 30
0.0
 10
4152.541210435487
 20
667.0582146159518
 30
0.0
 10
4148.623924320465
 20
665.8979727288586
 30
0.0
 10
4143.653161074794
 20
665.3129723990182
 30
0.0
 10
4138.460379144411
 20
666.0784141860316
 30
0.0
 10
4134.761832398734
 20
667.3452954842007
 30
0.0
 10
4132.910845533539
 20
668.1055327478366
 30
0.0
 10
4132.247396914767
 20
668.4341787238379
 30
0.0
 10
4132.262618518205
 20
668.580851460206
 30
0.0
  0
SPLINE
  5
A5
330
1F
100
AcDbEntity
  8
Predefinito
100
AcDbSpline
210
0.0
220
0.0
230
1.0
 70
    24
 71
     2
 72
     6
 73
     3
 74
     0
 42
0.0000000001
 43
0.0000000001
 40
0.0
 40
0.0
 40
0.0
 40
0.6786973032786071
 40
0.6786973032786071
 40
0.6786973032786071
 10
4905.74282176329
 20
675.7920717117827
 30
0.0
 10
4905.502866030529
 20
675.5521159790221
 30
0.0
 10
4905.262910297768
 20
675.3121602462616
 30
0.0
  0
SPLINE
  5
A6
330
1F
100
AcDbEntity
  8
Predefinito
100
AcDbSpline
210
0.0
220
0.0
230
1.0
 70
    24
 71
     2
 72
     6
 73
     3
 74
     0
 42
0.0000000001
 43
0.0000000001
 40
0.0
 40
0.0
 40
0.0
 40
41.5
 40
41.5
 40
41.5
 10
4905.762910297768
 20
717.3121602462616
 30
0.0
 10
4905.762910297768
 20
696.5621602462616
 30
0.0
 10
4905.762910297768
 20
675.8121602462616
 30
0.0
  0
SPLINE
  5
A7
330
1F
100
AcDbEntity
  8
Predefinito
100
AcDbSpline
210
0.0
220
0.0
230
1.0
 70
    24
 71
     2
 72
     6
 73
     3
 74
     0
 42
0.0000000001
 43
0.0000000001
 40
0.0
 40
0.0
 40
0.0
 40
1.0
 40
1.0
 40
1.0
 10
4900.012910297768
 20
718.3121602462616
 30
0.0
 10
4900.012910297768
 20
717.8121602462616
 30
0.0
 10
4900.012910297768
 20
717.3121602462616
 30
0.0
  0
SPLINE
  5
A8
330
1F
100
AcDbEntity
  8
Predefinito
100
AcDbSpline
210
0.0
220
0.0
230
1.0
 70
    24
 71
     2
 72
     6
 73
     3
 74
     0
 42
0.0000000001
 43
0.0000000001
 40
0.0
 40
0.0
 40
0.0
 40
0.5000000001760441
 40
0.5000000001760441
 40
0.5000000001760441
 10
4903.510403764403
 20
675.3121602462616
 30
0.0
 10
4903.510403764403
 20
675.0621602461736
 30
0.0
 10
4903.510403764403
 20
674.8121602460856
 30
0.0
  0
SPLINE
  5
A9
330
1F
100
AcDbEntity
  8
Predefinito
100
AcDbSpline
210
0.0
220
0.0
230
1.0
 70
     8
 71
     3
 72
    14
 73
    10
 74
     0
 42
0.0000000001
 43
0.0000000001
 40
0.0
 40
0.0
 40
0.0
 40
0.0
 40
3.375616699373013
 40
6.43901450797558
 40
12.24350029538945
 40
18.27702244293638
 40
22.04429146977718
 40
23.96991991703657
 40
24.26891995318827
 40
24.26891995318827
 40
24.26891995318827
 40
24.26891995318827
 10
4905.559326181718
 20
668.3253276158068
 30
0.0
 10
4904.534561940167
 20
667.8608600042601
 30
0.0
 10
4902.541210435493
 20
667.0582146159509
 30
0.0
 10
4898.623924320457
 20
665.8979727288579
 30
0.0
 10
4893.653161074795
 20
665.3129723990185
 30
0.0
 10
4888.460379144399
 20
666.0784141860313
 30
0.0
 10
4884.761832398734
 20
667.3452954842018
 30
0.0
 10
4882.910845533541
 20
668.1055327478376
 30
0.0
 10
4882.247396914767
 20
668.4341787238429
 30
0.0
 10
4882.262618518205
 20
668.5808514602161
 30
0.0
  0
SPLINE
  5
AA
330
1F
100
AcDbEntity
  8
Predefinito
100
AcDbSpline
210
0.0
220
0.0
230
1.0
 70
    24
 71
     2
 72
     6
 73
     3
 74
     0
 42
0.0000000001
 43
0.0000000001
 40
0.0
 40
0.0
 40
0.0
 40
176.8587067011999
 40
176.8587067011999
 40
176.8587067011999
 10
2585.045695150152
 20
675.2868721103354
 30
0.0
 10
2673.475048500753
 20
675.2868721103354
 30
0.0
 10
2761.904401851352
 20
675.2868721103354
 30
0.0
  0
SPLINE
  5
AB
330
1F
100
AcDbEntity
  8
Predefinito
100
AcDbSpline
210
0.0
220
0.0
230
1.0
 70
    28
 71
     3
 72
    11
 73
     7
 74
     0
 42
0.0000000001
 43
0.0000000001
 40
-125.7305615663956
 40
-125.7305615663956
 40
-125.7305615663956
 40
-125.7305615663956
 40
-92.6172928994347
 40
-44.4525384747642
 40
-22.226269237382
 40
0.0
 40
0.0
 40
0.0
 40
0.0
 10
2526.112016453071
 20
675.2868721103354
 30
0.0
 41
1.0
 10
2525.907873263217
 20
675.2868721103354
 30
0.0
 41
1.0
 10
2529.19223068939
 20
675.2868721103354
 30
0.0
 41
1.0
 10
2545.018505019392
 20
675.2868721103354
 30
0.0
 41
1.0
 10
2566.499905787932
 20
675.2868721103354
 30
0.0
 41
1.0
 10
2578.629760214983
 20
675.2868721103354
 30
0.0
 41
1.0
 10
2585.045695150152
 20
675.2868721103354
 30
0.0
 41
1.0
  0
SPLINE
  5
AC
330
1F
100
AcDbEntity
  8
Predefinito
100
AcDbSpline
210
0.0
220
0.0
230
1.0
 70
    28
 71
     3
 72
    11
 73
     7
 74
     0
 42
0.0000000001
 43
0.0000000001
 40
-125.7305615663956
 40
-125.7305615663956
 40
-125.7305615663956
 40
-125.7305615663956
 40
-92.6172928994347
 40
-44.4525384747642
 40
-22.226269237382
 40
0.0
 40
0.0
 40
0.0
 40
0.0
 10
2525.736852445815
 20
718.2868721103354
 30
0.0
 41
1.0
 10
2525.532059639824
 20
718.2868721103354
 30
0.0
 41
1.0
 10
2528.826868414304
 20
718.2868721103354
 30
0.0
 41
1.0
 10
2544.703504469273
 20
718.2868721103354
 30
0.0
 41
1.0
 10
2566.253262475592
 20
718.2868721103354
 30
0.0
 41
1.0
 10
2578.421716030893
 20
718.2868721103354
 30
0.0
 41
1.0
 10
2584.858067492652
 20
718.2868721103354
 30
0.0
 41
1.0
  0
SPLINE
  5
AD
330
1F
100
AcDbEntity
  8
Predefinito
100
AcDbSpline
210
0.0
220
0.0
230
1.0
 70
    24
 71
     2
 72
     6
 73
     3
 74
     0
 42
0.0000000001
 43
0.0000000001
 40
0.0
 40
0.0
 40
0.0
 40
177.4214992675224
 40
177.4214992675224
 40
177.4214992675224
 10
2584.858067492652
 20
718.2868721103354
 30
0.0
 10
2673.568817126414
 20
718.2868721103354
 30
0.0
 10
2762.279566760175
 20
718.2868721103354
 30
0.0
  0
SPLINE
  5
AE
330
1F
100
AcDbEntity
  8
Predefinito
100
AcDbSpline
210
0.0
220
0.0
230
1.0
 70
    24
 71
     2
 72
     6
 73
     3
 74
     0
 42
0.0000000001
 43
0.0000000001
 40
0.0
 40
0.0
 40
0.0
 40
1.000000000099327
 40
1.000000000099327
 40
1.000000000099327
 10
3388.028595845265
 20
716.8121602462616
 30
0.0
 10
3388.028588798031
 20
717.3121602462616
 30
0.0
 10
3388.028581750797
 20
717.8121602462616
 30
0.0
  0
SPLINE
  5
AF
330
1F
100
AcDbEntity
  8
Predefinito
100
AcDbSpline
210
0.0
220
0.0
230
1.0
 70
    24
 71
     2
 72
     6
 73
     3
 74
     0
 42
0.0000000001
 43
0.0000000001
 40
0.0
 40
0.0
 40
0.0
 40
0.7043266768252614
 40
0.7043266768252614
 40
0.7043266768252614
 10
3382.297088884977
 20
675.3121602462616
 30
0.0
 10
3382.545119159182
 20
675.0621602462616
 30
0.0
 10
3382.793149433386
 20
674.8121602462616
 30
0.0
  0
SPLINE
  5
B0
330
1F
100
AcDbEntity
  8
Predefinito
100
AcDbSpline
210
0.0
220
0.0
230
1.0
 70
    24
 71
     2
 72
     6
 73
     3
 74
     0
 42
0.0000000001
 43
0.0000000001
 40
0.0
 40
0.0
 40
0.0
 40
23.41964586215136
 40
23.41964586215136
 40
23.41964586215136
 10
3382.297088884977
 20
675.3121602462616
 30
0.0
 10
3394.006911816053
 20
675.3121602462616
 30
0.0
 10
3405.716734747129
 20
675.3121602462616
 30
0.0
  0
SPLINE
  5
B1
330
1F
100
AcDbEntity
  8
Predefinito
100
AcDbSpline
210
0.0
220
0.0
230
1.0
 70
    24
 71
     2
 72
     6
 73
     3
 74
     0
 42
0.0000000001
 43
0.0000000001
 40
0.0
 40
0.0
 40
0.0
 40
6.025517803846466
 40
6.025517803846466
 40
6.025517803846466
 10
3405.761027753002
 20
668.2868721102948
 30
0.0
 10
3405.787332139753
 20
671.2995161782782
 30
0.0
 10
3405.813636526505
 20
674.3121602462616
 30
0.0
  0
SPLINE
  5
B2
330
1F
100
AcDbEntity
  8
Predefinito
100
AcDbSpline
210
0.0
220
0.0
230
1.0
 70
    24
 71
     2
 72
     6
 73
     3
 74
     0
 42
0.0000000001
 43
0.0000000001
 40
0.0
 40
0.0
 40
0.0
 40
11.94673734278649
 40
11.94673734278649
 40
11.94673734278649
 10
3388.028581750797
 20
717.8121602462616
 30
0.0
 10
3394.00195042219
 20
717.8121602462616
 30
0.0
 10
3399.975319093583
 20
717.8121602462616
 30
0.0
  0
SPLINE
  5
B3
330
1F
100
AcDbEntity
  8
Predefinito
100
AcDbSpline
210
0.0
220
0.0
230
1.0
 70
    24
 71
     2
 72
     6
 73
     3
 74
     0
 42
0.0000000001
 43
0.0000000001
 40
0.0
 40
0.0
 40
0.0
 40
41.50000006534618
 40
41.50000006534618
 40
41.50000006534618
 10
3405.714405856243
 20
716.8121602462616
 30
0.0
 10
3405.715570301652
 20
696.0621602462616
 30
0.0
 10
3405.716734747061
 20
675.3121602462616
 30
0.0
  0
SPLINE
  5
B4
330
1F
100
AcDbEntity
  8
Predefinito
100
AcDbSpline
210
0.0
220
0.0
230
1.0
 70
    24
 71
     2
 72
     6
 73
     3
 74
     0
 42
0.0000000001
 43
0.0000000001
 40
0.0
 40
0.0
 40
0.0
 40
41.49999980396149
 40
41.49999980396149
 40
41.49999980396149
 10
3382.297088884977
 20
675.3121602462616
 30
0.0
 10
3382.298253330379
 20
696.0621601155692
 30
0.0
 10
3382.299417775782
 20
716.8121599848769
 30
0.0
  0
SPLINE
  5
B5
330
1F
100
AcDbEntity
  8
Predefinito
100
AcDbSpline
210
0.0
220
0.0
230
1.0
 70
    24
 71
     2
 72
     6
 73
     3
 74
     0
 42
0.0000000001
 43
0.0000000001
 40
0.0
 40
0.0
 40
0.0
 40
23.45694233149516
 40
23.45694233149516
 40
23.45694233149516
 10
3382.299417775796
 20
716.8121602462616
 30
0.0
 10
3394.027888941544
 20
716.8121602462616
 30
0.0
 10
3405.756360107292
 20
716.8121602462616
 30
0.0
  0
SPLINE
  5
B6
330
1F
100
AcDbEntity
  8
Predefinito
100
AcDbSpline
210
0.0
220
0.0
230
1.0
 70
    28
 71
     2
 72
     8
 73
     5
 74
     0
 42
0.0000000001
 43
0.0000000001
 40
-35.3429173528852
 40
-35.3429173528852
 40
-35.3429173528852
 40
-17.6714586764426
 40
-17.6714586764426
 40
0.0
 40
0.0
 40
0.0
 10
3405.220674198652
 20
674.8121602462616
 30
0.0
 41
1.0
 10
3406.122912097353
 20
674.8121602462614
 30
0.0
 41
0.707106781186548
 10
3394.909149714719
 20
674.8121602462616
 30
0.0
 41
1.0
 10
3383.695387332085
 20
674.8121602462614
 30
0.0
 41
0.707106781186548
 10
3382.793149433386
 20
674.8121602462616
 30
0.0
 41
1.0
  0
SPLINE
  5
B7
330
1F
100
AcDbEntity
  8
Predefinito
100
AcDbSpline
210
0.0
220
0.0
230
1.0
 70
    24
 71
     2
 72
     6
 73
     3
 74
     0
 42
0.0000000001
 43
0.0000000001
 40
0.0
 40
0.0
 40
0.0
 40
0.5000000001173248
 40
0.5000000001173248
 40
0.5000000001173248
 10
3384.537512470685
 20
674.8121602462616
 30
0.0
 10
3384.537512470685
 20
674.5621602462029
 30
0.0
 10
3384.537512470685
 20
674.3121602461442
 30
0.0
  0
SPLINE
  5
B8
330
1F
100
AcDbEntity
  8
Predefinito
100
AcDbSpline
210
0.0
220
0.0
230
1.0
 70
    24
 71
     2
 72
     6
 73
     3
 74
     0
 42
0.0000000001
 43
0.0000000001
 40
0.0
 40
0.0
 40
0.0
 40
6.025517569681975
 40
6.025517569681975
 40
6.025517569681975
 10
3382.252769069693
 20
668.2868721102949
 30
0.0
 10
3382.226478145576
 20
671.2995161787082
 30
0.0
 10
3382.20018722146
 20
674.3121602471215
 30
0.0
  0
SPLINE
  5
B9
330
1F
100
AcDbEntity
  8
Predefinito
100
AcDbSpline
210
0.0
220
0.0
230
1.0
 70
    24
 71
     2
 72
     6
 73
     3
 74
     0
 42
0.0000000001
 43
0.0000000001
 40
0.0
 40
0.0
 40
0.0
 40
23.61344930504492
 40
23.61344930504492
 40
23.61344930504492
 10
3382.20018722146
 20
674.3121602471215
 30
0.0
 10
3394.006911873982
 20
674.3121602466915
 30
0.0
 10
3405.813636526505
 20
674.3121602462616
 30
0.0
  0
SPLINE
  5
BA
330
1F
100
AcDbEntity
  8
Predefinito
100
AcDbSpline
210
0.0
220
0.0
230
1.0
 70
    12
 71
     2
 72
     8
 73
     5
 74
     0
 42
0.0000000001
 43
0.0000000001
 40
0.0
 40
0.0
 40
0.0
 40
1.565231165538312
 40
1.565231165538312
 40
3.130462331076624
 40
3.130462331076624
 40
3.130462331076624
 10
4961.010625913293
 20
666.1556544672453
 30
0.0
 41
1.0
 10
4961.016783880349
 20
666.9814867154093
 30
0.0
 41
0.9232828773515063
 10
4960.43535839024
 20
667.5679858391231
 30
0.0
 41
1.0
 10
4959.853932900131
 20
668.1544849628367
 30
0.0
 41
0.9232828773515063
 10
4959.028078319729
 20
668.1555021624774
 30
0.0
 41
1.0
  0
SPLINE
  5
BB
330
1F
100
AcDbEntity
  8
Predefinito
100
AcDbSpline
210
0.0
220
0.0
230
1.0
 70
    12
 71
     2
 72
     8
 73
     5
 74
     0
 42
0.0000000001
 43
0.0000000001
 40
0.0
 40
0.0
 40
0.0
 40
1.565231165537995
 40
1.565231165537995
 40
3.130462331075991
 40
3.130462331075991
 40
3.130462331075991
 10
4959.028078319729
 20
618.4182420581127
 30
0.0
 41
1.0
 10
4959.853932900131
 20
618.4192592577534
 30
0.0
 41
0.9232828773515173
 10
4960.435358390241
 20
619.0057583814669
 30
0.0
 41
1.0
 10
4961.016783880348
 20
619.5922575051802
 30
0.0
 41
0.9232828773515173
 10
4961.010625913292
 20
620.4180897533444
 30
0.0
 41
1.0
  0
SPLINE
  5
BC
330
1F
100
AcDbEntity
  8
Predefinito
100
AcDbSpline
210
0.0
220
0.0
230
1.0
 70
    24
 71
     2
 72
     6
 73
     3
 74
     0
 42
0.0000000001
 43
0.0000000001
 40
0.0
 40
0.0
 40
0.0
 40
7.517817665087476
 40
7.517817665087476
 40
7.517817665087476
 10
4951.511408314035
 20
668.2868584375851
 30
0.0
 10
4955.269743316881
 20
668.221180300031
 30
0.0
 10
4959.028078319729
 20
668.155502162477
 30
0.0
  0
SPLINE
  5
BD
330
1F
100
AcDbEntity
  8
Predefinito
100
AcDbSpline
210
0.0
220
0.0
230
1.0
 70
    24
 71
     2
 72
     6
 73
     3
 74
     0
 42
0.0000000001
 43
0.0000000001
 40
0.0
 40
0.0
 40
0.0
 40
2.803361042521999
 40
2.803361042521999
 40
2.803361042521999
 10
4951.510625913293
 20
665.4387256611499
 30
0.0
 10
4951.510625913292
 20
666.8404061824108
 30
0.0
 10
4951.510625913292
 20
668.2420867036718
 30
0.0
  0
SPLINE
  5
BE
330
1F
100
AcDbEntity
  8
Predefinito
100
AcDbSpline
210
0.0
220
0.0
230
1.0
 70
    24
 71
     2
 72
     6
 73
     3
 74
     0
 42
0.0000000001
 43
0.0000000001
 40
0.0
 40
0.0
 40
0.0
 40
47.15185355085498
 40
47.15185355085498
 40
47.15185355085498
 10
4951.510625913293
 20
618.2868721102948
 30
0.0
 10
4951.510625913292
 20
641.8627988857223
 30
0.0
 10
4951.510625913292
 20
665.4387256611499
 30
0.0
  0
SPLINE
  5
BF
330
1F
100
AcDbEntity
  8
Predefinito
100
AcDbSpline
210
0.0
220
0.0
230
1.0
 70
    24
 71
     2
 72
     6
 73
     3
 74
     0
 42
0.0000000001
 43
0.0000000001
 40
0.0
 40
0.0
 40
0.0
 40
7.518600185288438
 40
7.518600185288438
 40
7.518600185288438
 10
4959.028078319729
 20
618.4182420581127
 30
0.0
 10
4955.269352116511
 20
618.3525570842037
 30
0.0
 10
4951.510625913293
 20
618.2868721102948
 30
0.0
  0
SPLINE
  5
C0
330
1F
100
AcDbEntity
  8
Predefinito
100
AcDbSpline
210
0.0
220
0.0
230
1.0
 70
    24
 71
     2
 72
     6
 73
     3
 74
     0
 42
0.0000000001
 43
0.0000000001
 40
0.0
 40
0.0
 40
0.0
 40
49.73726010436428
 40
49.73726010436428
 40
49.73726010436428
 10
4959.028078319729
 20
668.155502162477
 30
0.0
 10
4959.028078319729
 20
643.2868721102948
 30
0.0
 10
4959.028078319729
 20
618.4182420581127
 30
0.0
  0
SPLINE
  5
C1
330
1F
100
AcDbEntity
  8
Predefinito
100
AcDbSpline
210
0.0
220
0.0
230
1.0
 70
    24
 71
     2
 72
     6
 73
     3
 74
     0
 42
0.0000000001
 43
0.0000000001
 40
0.0
 40
0.0
 40
0.0
 40
16.25287701154784
 40
16.25287701154784
 40
16.25287701154784
 10
4935.257748901898
 20
665.4386551663238
 30
0.0
 10
4943.384187407595
 20
665.4386904137368
 30
0.0
 10
4951.510625913293
 20
665.4387256611499
 30
0.0
  0
SPLINE
  5
C2
330
1F
100
AcDbEntity
  8
Predefinito
100
AcDbSpline
210
0.0
220
0.0
230
1.0
 70
    24
 71
     2
 72
     6
 73
     3
 74
     0
 42
0.0000000001
 43
0.0000000001
 40
0.0
 40
0.0
 40
0.0
 40
16.25894298840922
 40
16.25894298840922
 40
16.25894298840922
 10
4951.510625913293
 20
665.2650013140308
 30
0.0
 10
4943.381154419088
 20
665.2650013140308
 30
0.0
 10
4935.251682924883
 20
665.2650013140308
 30
0.0
  0
SPLINE
  5
C3
330
1F
100
AcDbEntity
  8
Predefinito
100
AcDbSpline
210
0.0
220
0.0
230
1.0
 70
    24
 71
     2
 72
     6
 73
     3
 74
     0
 42
0.0000000001
 43
0.0000000001
 40
0.0
 40
0.0
 40
0.0
 40
45.73756471390095
 40
45.73756471390095
 40
45.73756471390095
 10
4961.010625913293
 20
620.4180897533444
 30
0.0
 10
4961.010625913293
 20
643.2868721102948
 30
0.0
 10
4961.010625913293
 20
666.1556544672453
 30
0.0
  0
SPLINE
  5
C4
330
1F
100
AcDbEntity
  8
Predefinito
100
AcDbSpline
210
0.0
220
0.0
230
1.0
 70
    24
 71
     2
 72
     6
 73
     3
 74
     0
 42
0.0000000001
 43
0.0000000001
 40
0.0
 40
0.0
 40
0.0
 40
0.3280340884543071
 40
0.3280340884543071
 40
0.3280340884543071
 10
4935.251682924883
 20
665.2650013140308
 30
0.0
 10
4935.242275857374
 20
665.1012542594683
 30
0.0
 10
4935.232868789865
 20
664.9375072049057
 30
0.0
  0
SPLINE
  5
C5
330
1F
100
AcDbEntity
  8
Predefinito
100
AcDbSpline
210
0.0
220
0.0
230
1.0
 70
    12
 71
     2
 72
     6
 73
     3
 74
     0
 42
0.0000000001
 43
0.0000000001
 40
0.0
 40
0.0
 40
0.0
 40
0.1737608393112274
 40
0.1737608393112274
 40
0.1737608393112274
 10
4935.257748901898
 20
665.4386551663238
 30
0.0
 41
1.0
 10
4935.255244357012
 20
665.3518097808867
 30
0.0
 41
0.9999814797686107
 10
4935.251682924883
 20
665.2650013140308
 30
0.0
 41
1.0
  0
SPLINE
  5
C6
330
1F
100
AcDbEntity
  8
Predefinito
100
AcDbSpline
210
0.0
220
0.0
230
1.0
 70
    12
 71
     2
 72
     6
 73
     3
 74
     0
 42
0.0000000001
 43
0.0000000001
 40
0.0
 40
0.0
 40
0.0
 40
0.0580779494062607
 40
0.0580779494062607
 40
0.0580779494062607
 10
4935.262300693706
 20
665.496554470127
 30
0.0
 41
1.0
 10
4935.260021167015
 20
665.4676051036623
 30
0.0
 41
0.9999999921352435
 10
4935.257748901898
 20
665.4386551663238
 30
0.0
 41
1.0
  0
SPLINE
  5
C7
330
1F
100
AcDbEntity
  8
Predefinito
100
AcDbSpline
210
0.0
220
0.0
230
1.0
 70
    28
 71
     3
 72
    10
 73
     6
 74
     0
 42
0.0000000001
 43
0.0000000001
 40
77.0631062067313
 40
77.0631062067313
 40
77.0631062067313
 40
77.0631062067313
 40
78.5967624078455
 40
78.5967624078455
 40
90.8599036831726
 40
90.8599036831726
 40
90.8599036831726
 40
90.8599036831726
 10
4935.406351475083
 20
668.2452071195635
 30
0.0
 41
1.0
 10
4935.407817549151
 20
668.2731814792517
 30
0.0
 41
1.0
 10
4935.408542758901
 20
668.2870193056033
 30
0.0
 41
1.0
 10
4935.408516181405
 20
668.2865121767682
 30
0.0
 41
1.0
 10
4935.361934942857
 20
667.3976891969634
 30
0.0
 41
1.0
 10
4935.262300693706
 20
665.496554470127
 30
0.0
 41
1.0
  0
SPLINE
  5
C8
330
1F
100
AcDbEntity
  8
Predefinito
100
AcDbSpline
210
0.0
220
0.0
230
1.0
 70
    24
 71
     2
 72
     6
 73
     3
 74
     0
 42
0.0000000001
 43
0.0000000001
 40
0.0
 40
0.0
 40
0.0
 40
0.5247602659024384
 40
0.5247602659024384
 40
0.5247602659024384
 10
4951.01000769744
 20
664.8027069403561
 30
0.0
 10
4951.272353842403
 20
664.8069300186559
 30
0.0
 10
4951.534699987366
 20
664.8111530969556
 30
0.0
  0
SPLINE
  5
C9
330
1F
100
AcDbEntity
  8
Predefinito
100
AcDbSpline
210
0.0
220
0.0
230
1.0
 70
    24
 71
     2
 72
     6
 73
     3
 74
     0
 42
0.0000000001
 43
0.0000000001
 40
0.0
 40
0.0
 40
0.0
 40
592.0
 40
592.0
 40
592.0
 10
4951.010625913292
 20
643.5368721102948
 30
0.0
 10
4655.010625913292
 20
643.5368721102948
 30
0.0
 10
4359.010625913292
 20
643.5368721102948
 30
0.0
  0
SPLINE
  5
CA
330
1F
100
AcDbEntity
  8
Predefinito
100
AcDbSpline
210
0.0
220
0.0
230
1.0
 70
    24
 71
     2
 72
     6
 73
     3
 74
     0
 42
0.0000000001
 43
0.0000000001
 40
0.0
 40
0.0
 40
0.0
 40
592.0
 40
592.0
 40
592.0
 10
4359.010625913292
 20
664.9375072049056
 30
0.0
 10
4655.010625913292
 20
664.9375072049056
 30
0.0
 10
4951.010625913292
 20
664.9375072049057
 30
0.0
  0
SPLINE
  5
CB
330
1F
100
AcDbEntity
  8
Predefinito
100
AcDbSpline
210
0.0
220
0.0
230
1.0
 70
    24
 71
     2
 72
     6
 73
     3
 74
     0
 42
0.0000000001
 43
0.0000000001
 40
0.0
 40
0.0
 40
0.0
 40
592.0
 40
592.0
 40
592.0
 10
4359.010625913292
 20
643.0368721102948
 30
0.0
 10
4655.010625913292
 20
643.0368721102948
 30
0.0
 10
4951.010625913292
 20
643.0368721102947
 30
0.0
  0
SPLINE
  5
CC
330
1F
100
AcDbEntity
  8
Predefinito
100
AcDbSpline
210
0.0
220
0.0
230
1.0
 70
    24
 71
     2
 72
     6
 73
     3
 74
     0
 42
0.0000000001
 43
0.0000000001
 40
0.0
 40
0.0
 40
0.0
 40
1771.999999999999
 40
1771.999999999999
 40
1771.999999999999
 10
2587.010625913293
 20
664.9375072049056
 30
0.0
 10
3473.010625913292
 20
664.9375072049056
 30
0.0
 10
4359.010625913292
 20
664.9375072049056
 30
0.0
  0
SPLINE
  5
CD
330
1F
100
AcDbEntity
  8
Predefinito
100
AcDbSpline
210
0.0
220
0.0
230
1.0
 70
    24
 71
     2
 72
     6
 73
     3
 74
     0
 42
0.0000000001
 43
0.0000000001
 40
0.0
 40
0.0
 40
0.0
 40
21.40063509461078
 40
21.40063509461078
 40
21.40063509461078
 10
2587.010625913293
 20
643.5368721102948
 30
0.0
 10
2587.010625913293
 20
654.2371896576002
 30
0.0
 10
2587.010625913293
 20
664.9375072049056
 30
0.0
  0
SPLINE
  5
CE
330
1F
100
AcDbEntity
  8
Predefinito
100
AcDbSpline
210
0.0
220
0.0
230
1.0
 70
    24
 71
     2
 72
     6
 73
     3
 74
     0
 42
0.0000000001
 43
0.0000000001
 40
0.0
 40
0.0
 40
0.0
 40
1771.978124999999
 40
1771.978124999999
 40
1771.978124999999
 10
2587.032500913293
 20
643.5368721102948
 30
0.0
 10
3473.021563413292
 20
643.5368721102948
 30
0.0
 10
4359.010625913292
 20
643.5368721102948
 30
0.0
  0
SPLINE
  5
CF
330
1F
100
AcDbEntity
  8
Predefinito
100
AcDbSpline
210
0.0
220
0.0
230
1.0
 70
    24
 71
     2
 72
     6
 73
     3
 74
     0
 42
0.0000000001
 43
0.0000000001
 40
0.0
 40
0.0
 40
0.0
 40
0.5
 40
0.5
 40
0.5
 10
2587.010625913293
 20
643.0368721102948
 30
0.0
 10
2587.010625913293
 20
643.2868721102948
 30
0.0
 10
2587.010625913293
 20
643.5368721102948
 30
0.0
  0
SPLINE
  5
D0
330
1F
100
AcDbEntity
  8
Predefinito
100
AcDbSpline
210
0.0
220
0.0
230
1.0
 70
    24
 71
     2
 72
     6
 73
     3
 74
     0
 42
0.0000000001
 43
0.0000000001
 40
0.0
 40
0.0
 40
0.0
 40
1771.956249999999
 40
1771.956249999999
 40
1771.956249999999
 10
2587.054375913292
 20
643.0368721102948
 30
0.0
 10
3473.032500913292
 20
643.0368721102948
 30
0.0
 10
4359.010625913292
 20
643.0368721102948
 30
0.0
  0
SPLINE
  5
D1
330
1F
100
AcDbEntity
  8
Predefinito
100
AcDbSpline
210
0.0
220
0.0
230
1.0
 70
    24
 71
     2
 72
     6
 73
     3
 74
     0
 42
0.0000000001
 43
0.0000000001
 40
0.0
 40
0.0
 40
0.0
 40
24.74231980611881
 40
24.74231980611881
 40
24.74231980611881
 10
2587.010625913293
 20
618.2868721102949
 30
0.0
 10
2587.010625913293
 20
630.6580320133544
 30
0.0
 10
2587.010625913293
 20
643.0291919164138
 30
0.0
  0
SPLINE
  5
D2
330
1F
100
AcDbEntity
  8
Predefinito
100
AcDbSpline
210
0.0
220
0.0
230
1.0
 70
    24
 71
     2
 72
     6
 73
     3
 74
     0
 42
0.0000000001
 43
0.0000000001
 40
0.0
 40
0.0
 40
0.0
 40
48.0
 40
48.0
 40
48.0
 10
2620.008067492652
 20
674.753538777002
 30
0.0
 10
2644.008067492652
 20
674.753538777002
 30
0.0
 10
2668.008067492652
 20
674.753538777002
 30
0.0
  0
SPLINE
  5
D3
330
1F
100
AcDbEntity
  8
Predefinito
100
AcDbSpline
210
0.0
220
0.0
230
1.0
 70
    24
 71
     2
 72
     6
 73
     3
 74
     0
 42
0.0000000001
 43
0.0000000001
 40
0.0
 40
0.0
 40
0.0
 40
6.200215966711417
 40
6.200215966711417
 40
6.200215966711417
 10
2632.201402769496
 20
674.77999947005
 30
0.0
 10
2632.22846981073
 20
671.6800096501079
 30
0.0
 10
2632.255536851964
 20
668.5800198301658
 30
0.0
  0
SPLINE
  5
D4
330
1F
100
AcDbEntity
  8
Predefinito
100
AcDbSpline
210
0.0
220
0.0
230
1.0
 70
    24
 71
     2
 72
     6
 73
     3
 74
     0
 42
0.0000000001
 43
0.0000000001
 40
0.0
 40
0.0
 40
0.0
 40
6.190515451848804
 40
6.190515451848804
 40
6.190515451848804
 10
2655.760624943722
 20
668.5799269759418
 30
0.0
 10
2655.787635809782
 20
671.6750668440268
 30
0.0
 10
2655.814646675842
 20
674.7702067121119
 30
0.0
  0
SPLINE
  5
D5
330
1F
100
AcDbEntity
  8
Predefinito
100
AcDbSpline
210
0.0
220
0.0
230
1.0
 70
     8
 71
     3
 72
    11
 73
     7
 74
     0
 42
0.0000000001
 43
0.0000000001
 40
0.0
 40
0.0
 40
0.0
 40
0.0
 40
3.074108217577901
 40
6.24957668135253
 40
12.28458624591725
 40
24.19291040601382
 40
24.19291040601382
 40
24.19291040601382
 40
24.19291040601382
 10
2632.335194515989
 20
668.5491692690211
 30
0.0
 10
2633.26790013697
 20
668.1327332907368
 30
0.0
 10
2635.212994591931
 20
667.3536638399388
 30
0.0
 10
2639.138843906513
 20
666.2321586002413
 30
0.0
 10
2646.202314755958
 20
665.3252937046095
 30
0.0
 10
2652.12101416573
 20
666.9665916317131
 30
0.0
 10
2655.735115949236
 20
668.5644716881922
 30
0.0
  0
SPLINE
  5
D6
330
1F
100
AcDbEntity
  8
Predefinito
100
AcDbSpline
210
0.0
220
0.0
230
1.0
 70
    12
 71
     2
 72
     6
 73
     3
 74
     0
 42
0.0000000001
 43
0.0000000001
 40
0.0
 40
0.0
 40
0.0
 40
0.0410914943897695
 40
0.0410914943897695
 40
0.0410914943897695
 10
2632.285930380302
 20
668.5708239509361
 30
0.0
 41
1.0
 10
2632.304785980022
 20
668.5626630610313
 30
0.0
 41
0.9999892741498985
 10
2632.323565175864
 20
668.5543278604794
 30
0.0
 41
1.0
  0
SPLINE
  5
D7
330
1F
100
AcDbEntity
  8
Predefinito
100
AcDbSpline
210
0.0
220
0.0
230
1.0
 70
    12
 71
     2
 72
     6
 73
     3
 74
     0
 42
0.0000000001
 43
0.0000000001
 40
0.0
 40
0.0
 40
0.0
 40
0.3082190078706836
 40
0.3082190078706836
 40
0.3082190078706836
 10
2632.287877618595
 20
668.5385385674151
 30
0.0
 41
1.0
 10
2632.307042950775
 20
668.3702319830697
 30
0.0
 41
0.8699886740255498
 10
2632.461285216719
 20
668.3002052761062
 30
0.0
 41
1.0
  0
SPLINE
  5
D8
330
1F
100
AcDbEntity
  8
Predefinito
100
AcDbSpline
210
0.0
220
0.0
230
1.0
 70
    24
 71
     2
 72
     6
 73
     3
 74
     0
 42
0.0000000001
 43
0.0000000001
 40
0.0
 40
0.0
 40
0.0
 40
0.5666666666666629
 40
0.5666666666666629
 40
0.5666666666666629
 10
2668.008067492652
 20
675.3202054436687
 30
0.0
 10
2668.008067492652
 20
675.0368721103353
 30
0.0
 10
2668.008067492652
 20
674.753538777002
 30
0.0
  0
SPLINE
  5
D9
330
1F
100
AcDbEntity
  8
Predefinito
100
AcDbSpline
210
0.0
220
0.0
230
1.0
 70
    24
 71
     2
 72
     6
 73
     3
 74
     0
 42
0.0000000001
 43
0.0000000001
 40
0.0
 40
0.0
 40
0.0
 40
0.5666666666666629
 40
0.5666666666666629
 40
0.5666666666666629
 10
2620.008067492652
 20
674.753538777002
 30
0.0
 10
2620.008067492652
 20
675.0368721103353
 30
0.0
 10
2620.008067492652
 20
675.3202054436687
 30
0.0
  0
SPLINE
  5
DA
330
1F
100
AcDbEntity
  8
Predefinito
100
AcDbSpline
210
0.0
220
0.0
230
1.0
 70
    24
 71
     2
 72
     6
 73
     3
 74
     0
 42
0.0000000001
 43
0.0000000001
 40
0.0
 40
0.0
 40
0.0
 40
24.75000000000034
 40
24.75000000000034
 40
24.75000000000034
 10
4951.010625913293
 20
643.0368721102948
 30
0.0
 10
4951.010625913293
 20
630.6618721102946
 30
0.0
 10
4951.010625913293
 20
618.2868721102944
 30
0.0
  0
SPLINE
  5
DB
330
1F
100
AcDbEntity
  8
Predefinito
100
AcDbSpline
210
0.0
220
0.0
230
1.0
 70
    24
 71
     2
 72
     6
 73
     3
 74
     0
 42
0.0000000001
 43
0.0000000001
 40
0.0
 40
0.0
 40
0.0
 40
0.5
 40
0.5
 40
0.5
 10
4951.010625913293
 20
643.5368721102948
 30
0.0
 10
4951.010625913293
 20
643.2868721102948
 30
0.0
 10
4951.010625913293
 20
643.0368721102948
 30
0.0
  0
SPLINE
  5
DC
330
1F
100
AcDbEntity
  8
Predefinito
100
AcDbSpline
210
0.0
220
0.0
230
1.0
 70
    24
 71
     2
 72
     6
 73
     3
 74
     0
 42
0.0000000001
 43
0.0000000001
 40
0.0
 40
0.0
 40
0.0
 40
21.40063509461106
 40
21.40063509461106
 40
21.40063509461106
 10
4951.010625913293
 20
664.9375072049058
 30
0.0
 10
4951.010625913293
 20
654.2371896576003
 30
0.0
 10
4951.010625913293
 20
643.5368721102948
 30
0.0
  0
SPLINE
  5
DD
330
1F
100
AcDbEntity
  8
Predefinito
100
AcDbSpline
210
0.0
220
0.0
230
1.0
 70
    12
 71
     2
 72
     6
 73
     3
 74
     0
 42
0.0000000001
 43
0.0000000001
 40
0.0
 40
0.0
 40
0.0
 40
0.1737640607020655
 40
0.1737640607020655
 40
0.1737640607020655
 10
2602.763502924686
 20
665.4386551663238
 30
0.0
 41
1.0
 10
2602.767593238598
 20
665.3518651740633
 30
0.0
 41
0.9999258638225615
 10
2602.769568901702
 20
665.2650013140305
 30
0.0
 41
1.0
  0
SPLINE
  5
DE
330
1F
100
AcDbEntity
  8
Predefinito
100
AcDbSpline
210
0.0
220
0.0
230
1.0
 70
    24
 71
     2
 72
     6
 73
     3
 74
     0
 42
0.0000000001
 43
0.0000000001
 40
0.0
 40
0.0
 40
0.0
 40
16.25894298840922
 40
16.25894298840922
 40
16.25894298840922
 10
2586.510625913293
 20
665.2650013140308
 30
0.0
 10
2594.640097407497
 20
665.2650013140307
 30
0.0
 10
2602.769568901702
 20
665.2650013140305
 30
0.0
  0
SPLINE
  5
DF
330
1F
100
AcDbEntity
  8
Predefinito
100
AcDbSpline
210
0.0
220
0.0
230
1.0
 70
    24
 71
     2
 72
     6
 73
     3
 74
     0
 42
0.0000000001
 43
0.0000000001
 40
0.0
 40
0.0
 40
0.0
 40
0.524760265902893
 40
0.524760265902893
 40
0.524760265902893
 10
2587.011244129146
 20
664.8027069403561
 30
0.0
 10
2586.748897984183
 20
664.8069300186559
 30
0.0
 10
2586.486551839219
 20
664.8111530969556
 30
0.0
  0
SPLINE
  5
E0
330
1F
100
AcDbEntity
  8
Predefinito
100
AcDbSpline
210
0.0
220
0.0
230
1.0
 70
    24
 71
     2
 72
     6
 73
     3
 74
     0
 42
0.0000000001
 43
0.0000000001
 40
0.0
 40
0.0
 40
0.0
 40
0.3280242398538576
 40
0.3280242398538576
 40
0.3280242398538576
 10
2602.769568901702
 20
665.2650013140305
 30
0.0
 10
2602.778889717387
 20
665.1012542594681
 30
0.0
 10
2602.788210533072
 20
664.9375072049056
 30
0.0
  0
SPLINE
  5
E1
330
1F
100
AcDbEntity
  8
Predefinito
100
AcDbSpline
210
0.0
220
0.0
230
1.0
 70
    24
 71
     2
 72
     6
 73
     3
 74
     0
 42
0.0000000001
 43
0.0000000001
 40
0.0
 40
0.0
 40
0.0
 40
47.15185355085498
 40
47.15185355085498
 40
47.15185355085498
 10
2586.510625913293
 20
618.2868721102948
 30
0.0
 10
2586.510625913293
 20
641.8627988857223
 30
0.0
 10
2586.510625913293
 20
665.4387256611499
 30
0.0
  0
SPLINE
  5
E2
330
1F
100
AcDbEntity
  8
Predefinito
100
AcDbSpline
210
0.0
220
0.0
230
1.0
 70
    24
 71
     2
 72
     6
 73
     3
 74
     0
 42
0.0000000001
 43
0.0000000001
 40
0.0
 40
0.0
 40
0.0
 40
2.84814644914502
 40
2.84814644914502
 40
2.84814644914502
 10
2586.510625913293
 20
665.4387256611499
 30
0.0
 10
2586.510625913293
 20
666.8627988857223
 30
0.0
 10
2586.510625913293
 20
668.2868721102948
 30
0.0
  0
SPLINE
  5
E3
330
1F
100
AcDbEntity
  8
Predefinito
100
AcDbSpline
210
0.0
220
0.0
230
1.0
 70
    24
 71
     2
 72
     6
 73
     3
 74
     0
 42
0.0000000001
 43
0.0000000001
 40
0.0
 40
0.0
 40
0.0
 40
16.25287701154602
 40
16.25287701154602
 40
16.25287701154602
 10
2602.763502924686
 20
665.4386551663238
 30
0.0
 10
2594.637064418989
 20
665.4386904137368
 30
0.0
 10
2586.510625913293
 20
665.4387256611499
 30
0.0
  0
SPLINE
  5
E4
330
1F
100
AcDbEntity
  8
Predefinito
100
AcDbSpline
210
0.0
220
0.0
230
1.0
 70
    12
 71
     2
 72
     6
 73
     3
 74
     0
 42
0.0000000001
 43
0.0000000001
 40
0.0
 40
0.0
 40
0.0
 40
0.0580779507477268
 40
0.0580779507477268
 40
0.0580779507477268
 10
2602.758951132873
 20
665.4965544702426
 30
0.0
 41
1.0
 10
2602.761237952082
 20
665.4676056770259
 30
0.0
 41
0.9999999288145366
 10
2602.763502924686
 20
665.4386551663238
 30
0.0
 41
1.0
  0
SPLINE
  5
E5
330
1F
100
AcDbEntity
  8
Predefinito
100
AcDbSpline
210
0.0
220
0.0
230
1.0
 70
    12
 71
     3
 72
    10
 73
     6
 74
     0
 42
0.0000000001
 43
0.0000000001
 40
77.05776141487377
 40
77.05776141487377
 40
77.05776141487377
 40
77.05776141487377
 40
78.59065407425719
 40
78.59065407425719
 40
90.8599036829109
 40
90.8599036829109
 40
90.8599036829109
 40
90.8599036829109
 10
2602.611806446441
 20
668.2447464196055
 30
0.0
 41
1.0
 10
2602.610246947925
 20
668.2728018046785
 30
0.0
 41
1.0
 10
2602.609465648167
 20
668.2867362984773
 30
0.0
 41
1.0
 10
2602.609437726825
 20
668.2872435538857
 30
0.0
 41
1.0
 10
2602.659267255393
 20
667.3986361619659
 30
0.0
 41
1.0
 10
2602.758951132873
 20
665.4965544702426
 30
0.0
 41
1.0
  0
SPLINE
  5
E6
330
1F
100
AcDbEntity
  8
Predefinito
100
AcDbSpline
210
0.0
220
0.0
230
1.0
 70
    24
 71
     2
 72
     6
 73
     3
 74
     0
 42
0.0000000001
 43
0.0000000001
 40
0.0
 40
0.0
 40
0.0
 40
7.518600185287529
 40
7.518600185287529
 40
7.518600185287529
 10
2586.510625913293
 20
668.2868721102948
 30
0.0
 10
2582.751899710075
 20
668.2211871363859
 30
0.0
 10
2578.993173506858
 20
668.155502162477
 30
0.0
  0
SPLINE
  5
E7
330
1F
100
AcDbEntity
  8
Predefinito
100
AcDbSpline
210
0.0
220
0.0
230
1.0
 70
    24
 71
     2
 72
     6
 73
     3
 74
     0
 42
0.0000000001
 43
0.0000000001
 40
0.0
 40
0.0
 40
0.0
 40
7.518600185287529
 40
7.518600185287529
 40
7.518600185287529
 10
2578.993173506858
 20
618.4182420581127
 30
0.0
 10
2582.751899710075
 20
618.3525570842037
 30
0.0
 10
2586.510625913293
 20
618.2868721102948
 30
0.0
  0
SPLINE
  5
E8
330
1F
100
AcDbEntity
  8
Predefinito
100
AcDbSpline
210
0.0
220
0.0
230
1.0
 70
    24
 71
     2
 72
     6
 73
     3
 74
     0
 42
0.0000000001
 43
0.0000000001
 40
0.0
 40
0.0
 40
0.0
 40
49.73726010436428
 40
49.73726010436428
 40
49.73726010436428
 10
2578.993173506858
 20
668.155502162477
 30
0.0
 10
2578.993173506858
 20
643.2868721102948
 30
0.0
 10
2578.993173506858
 20
618.4182420581127
 30
0.0
  0
SPLINE
  5
E9
330
1F
100
AcDbEntity
  8
Predefinito
100
AcDbSpline
210
0.0
220
0.0
230
1.0
 70
    12
 71
     2
 72
     8
 73
     5
 74
     0
 42
0.0000000001
 43
0.0000000001
 40
0.0
 40
0.0
 40
0.0
 40
1.565231165538007
 40
1.565231165538007
 40
3.130462331076015
 40
3.130462331076015
 40
3.130462331076015
 10
2577.010625913293
 20
666.1556544672453
 30
0.0
 41
1.0
 10
2577.004467946236
 20
666.9814867154093
 30
0.0
 41
0.9232828773517077
 10
2577.585893436346
 20
667.5679858391225
 30
0.0
 41
1.0
 10
2578.167318926455
 20
668.1544849628356
 30
0.0
 41
0.9232828773517077
 10
2578.993173506858
 20
668.155502162477
 30
0.0
 41
1.0
  0
SPLINE
  5
EA
330
1F
100
AcDbEntity
  8
Predefinito
100
AcDbSpline
210
0.0
220
0.0
230
1.0
 70
    24
 71
     2
 72
     6
 73
     3
 74
     0
 42
0.0000000001
 43
0.0000000001
 40
0.0
 40
0.0
 40
0.0
 40
45.73756471390095
 40
45.73756471390095
 40
45.73756471390095
 10
2577.010625913293
 20
620.4180897533444
 30
0.0
 10
2577.010625913293
 20
643.2868721102948
 30
0.0
 10
2577.010625913293
 20
666.1556544672453
 30
0.0
  0
SPLINE
  5
EB
330
1F
100
AcDbEntity
  8
Predefinito
100
AcDbSpline
210
0.0
220
0.0
230
1.0
 70
    12
 71
     2
 72
     8
 73
     5
 74
     0
 42
0.0000000001
 43
0.0000000001
 40
0.0
 40
0.0
 40
0.0
 40
1.565231165538095
 40
1.565231165538095
 40
3.13046233107619
 40
3.13046233107619
 40
3.13046233107619
 10
2578.993173506858
 20
618.4182420581127
 30
0.0
 41
1.0
 10
2578.167318926456
 20
618.419259257754
 30
0.0
 41
0.9232828773517159
 10
2577.585893436346
 20
619.0057583814671
 30
0.0
 41
1.0
 10
2577.004467946236
 20
619.5922575051802
 30
0.0
 41
0.9232828773517159
 10
2577.010625913293
 20
620.4180897533444
 30
0.0
 41
1.0
  0
SPLINE
  5
EC
330
1F
100
AcDbEntity
  8
Predefinito
100
AcDbSpline
210
0.0
220
0.0
230
1.0
 70
    28
 71
     2
 72
     6
 73
     3
 74
     0
 42
0.0000000001
 43
0.0000000001
 40
-13.62579912151864
 40
-13.62579912151864
 40
-13.62579912151864
 40
0.0
 40
0.0
 40
0.0
 10
2603.010625913293
 20
668.2392200389481
 30
0.0
 41
0.9433593456089379
 10
2603.010625913293
 20
668.6713855605077
 30
0.0
 41
0.9352678235530718
 10
2603.010625913293
 20
665.4098864909262
 30
0.0
 41
1.0
  0
SPLINE
  5
ED
330
1F
100
AcDbEntity
  8
Predefinito
100
AcDbSpline
210
0.0
220
0.0
230
1.0
 70
    24
 71
     2
 72
     6
 73
     3
 74
     0
 42
0.0000000001
 43
0.0000000001
 40
0.0
 40
0.0
 40
0.0
 40
0.2956091769722879
 40
0.2956091769722879
 40
0.2956091769722879
 10
2603.009264371541
 20
664.9375072049056
 30
0.0
 10
2603.009945142417
 20
665.0853102256074
 30
0.0
 10
2603.010625913293
 20
665.2331132463092
 30
0.0
  0
SPLINE
  5
EE
330
1F
100
AcDbEntity
  8
Predefinito
100
AcDbSpline
210
0.0
220
0.0
230
1.0
 70
    24
 71
     2
 72
     6
 73
     3
 74
     0
 42
0.0000000001
 43
0.0000000001
 40
0.0
 40
0.0
 40
0.0
 40
0.1767732446169248
 40
0.1767732446169248
 40
0.1767732446169248
 10
2603.010625913293
 20
665.2331132463092
 30
0.0
 10
2603.010625913293
 20
665.3214998686177
 30
0.0
 10
2603.010625913293
 20
665.4098864909262
 30
0.0
  0
SPLINE
  5
EF
330
1F
100
AcDbEntity
  8
Predefinito
100
AcDbSpline
210
0.0
220
0.0
230
1.0
 70
    24
 71
     2
 72
     6
 73
     3
 74
     0
 42
0.0000000001
 43
0.0000000001
 40
0.0
 40
0.0
 40
0.0
 40
1166.000000000001
 40
1166.000000000001
 40
1166.000000000001
 10
3769.010625913294
 20
665.2331132463094
 30
0.0
 10
3186.010625913293
 20
665.2331132463094
 30
0.0
 10
2603.010625913293
 20
665.2331132463092
 30
0.0
  0
SPLINE
  5
F0
330
1F
100
AcDbEntity
  8
Predefinito
100
AcDbSpline
210
0.0
220
0.0
230
1.0
 70
    24
 71
     2
 72
     6
 73
     3
 74
     0
 42
0.0000000001
 43
0.0000000001
 40
0.0
 40
0.0
 40
0.0
 40
2.829333547982515
 40
2.829333547982515
 40
2.829333547982515
 10
4935.010625913293
 20
665.409886490926
 30
0.0
 10
4935.010625913292
 20
666.8245532649173
 30
0.0
 10
4935.010625913292
 20
668.2392200389086
 30
0.0
  0
SPLINE
  5
F1
330
1F
100
AcDbEntity
  8
Predefinito
100
AcDbSpline
210
0.0
220
0.0
230
1.0
 70
    24
 71
     2
 72
     6
 73
     3
 74
     0
 42
0.0000000001
 43
0.0000000001
 40
0.0
 40
0.0
 40
0.0
 40
2.829333458180884
 40
2.829333458180884
 40
2.829333458180884
 10
3769.010625913294
 20
665.4098864909262
 30
0.0
 10
3769.010625913294
 20
666.8245532200167
 30
0.0
 10
3769.010625913294
 20
668.2392199491071
 30
0.0
  0
SPLINE
  5
F2
330
1F
100
AcDbEntity
  8
Predefinito
100
AcDbSpline
210
0.0
220
0.0
230
1.0
 70
    24
 71
     2
 72
     6
 73
     3
 74
     0
 42
0.0000000001
 43
0.0000000001
 40
0.0
 40
0.0
 40
0.0
 40
0.2956107858340553
 40
0.2956107858340553
 40
0.2956107858340553
 10
4935.010625913293
 20
665.2331132463091
 30
0.0
 10
4935.011463318094
 20
665.0853102256074
 30
0.0
 10
4935.012300722895
 20
664.9375072049057
 30
0.0
  0
SPLINE
  5
F3
330
1F
100
AcDbEntity
  8
Predefinito
100
AcDbSpline
210
0.0
220
0.0
230
1.0
 70
    24
 71
     2
 72
     6
 73
     3
 74
     0
 42
0.0000000001
 43
0.0000000001
 40
0.0
 40
0.0
 40
0.0
 40
0.2956060413988553
 40
0.2956060413988553
 40
0.2956060413988553
 10
3769.010625913294
 20
664.9375072049104
 30
0.0
 10
3769.010625913294
 20
665.0853102256099
 30
0.0
 10
3769.010625913294
 20
665.2331132463094
 30
0.0
  0
SPLINE
  5
F4
330
1F
100
AcDbEntity
  8
Predefinito
100
AcDbSpline
210
0.0
220
0.0
230
1.0
 70
    24
 71
     2
 72
     6
 73
     3
 74
     0
 42
0.0000000001
 43
0.0000000001
 40
0.0
 40
0.0
 40
0.0
 40
573.9999999999982
 40
573.9999999999982
 40
573.9999999999982
 10
3769.010625913294
 20
665.2331132463094
 30
0.0
 10
4056.010625913293
 20
665.2331132463094
 30
0.0
 10
4343.010625913292
 20
665.2331132463092
 30
0.0
  0
SPLINE
  5
F5
330
1F
100
AcDbEntity
  8
Predefinito
100
AcDbSpline
210
0.0
220
0.0
230
1.0
 70
    24
 71
     2
 72
     6
 73
     3
 74
     0
 42
0.0000000001
 43
0.0000000001
 40
0.0
 40
0.0
 40
0.0
 40
592.0000000000009
 40
592.0000000000009
 40
592.0000000000009
 10
4343.010625913292
 20
665.2331132463092
 30
0.0
 10
4639.010625913292
 20
665.2331132463091
 30
0.0
 10
4935.010625913293
 20
665.2331132463091
 30
0.0
  0
SPLINE
  5
F6
330
1F
100
AcDbEntity
  8
Predefinito
100
AcDbSpline
210
0.0
220
0.0
230
1.0
 70
    24
 71
     2
 72
     6
 73
     3
 74
     0
 42
0.0000000001
 43
0.0000000001
 40
0.0
 40
0.0
 40
0.0
 40
0.1767732446169248
 40
0.1767732446169248
 40
0.1767732446169248
 10
4935.010625913293
 20
665.409886490926
 30
0.0
 10
4935.010625913293
 20
665.3214998686176
 30
0.0
 10
4935.010625913293
 20
665.2331132463091
 30
0.0
  0
SPLINE
  5
F7
330
1F
100
AcDbEntity
  8
Predefinito
100
AcDbSpline
210
0.0
220
0.0
230
1.0
 70
    24
 71
     2
 72
     6
 73
     3
 74
     0
 42
0.0000000001
 43
0.0000000001
 40
0.0
 40
0.0
 40
0.0
 40
1165.999999999999
 40
1165.999999999999
 40
1165.999999999999
 10
3769.010625913294
 20
665.4098864909262
 30
0.0
 10
4352.010625913294
 20
665.409886490926
 30
0.0
 10
4935.010625913293
 20
665.409886490926
 30
0.0
  0
SPLINE
  5
F8
330
1F
100
AcDbEntity
  8
Predefinito
100
AcDbSpline
210
0.0
220
0.0
230
1.0
 70
    24
 71
     2
 72
     6
 73
     3
 74
     0
 42
0.0000000001
 43
0.0000000001
 40
0.0
 40
0.0
 40
0.0
 40
0.1767732446168679
 40
0.1767732446168679
 40
0.1767732446168679
 10
3769.010625913294
 20
665.2331132463094
 30
0.0
 10
3769.010625913294
 20
665.3214998686178
 30
0.0
 10
3769.010625913294
 20
665.4098864909262
 30
0.0
  0
SPLINE
  5
F9
330
1F
100
AcDbEntity
  8
Predefinito
100
AcDbSpline
210
0.0
220
0.0
230
1.0
 70
    24
 71
     2
 72
     6
 73
     3
 74
     0
 42
0.0000000001
 43
0.0000000001
 40
0.0
 40
0.0
 40
0.0
 40
1.000000000099327
 40
1.000000000099327
 40
1.000000000099327
 10
4138.034594327015
 20
717.3121602462616
 30
0.0
 10
4138.034587279781
 20
717.8121602462616
 30
0.0
 10
4138.034580232546
 20
718.3121602462616
 30
0.0
  0
SPLINE
  5
FA
330
1F
100
AcDbEntity
  8
Predefinito
100
AcDbSpline
210
0.0
220
0.0
230
1.0
 70
    24
 71
     2
 72
     6
 73
     3
 74
     0
 42
0.0000000001
 43
0.0000000001
 40
0.0
 40
0.0
 40
0.0
 40
0.7043266768255817
 40
0.7043266768255817
 40
0.7043266768255817
 10
4132.303087366726
 20
675.8121602462616
 30
0.0
 10
4132.551117640931
 20
675.5621602462616
 30
0.0
 10
4132.799147915135
 20
675.3121602462616
 30
0.0
  0
SPLINE
  5
FB
330
1F
100
AcDbEntity
  8
Predefinito
100
AcDbSpline
210
0.0
220
0.0
230
1.0
 70
    24
 71
     2
 72
     6
 73
     3
 74
     0
 42
0.0000000001
 43
0.0000000001
 40
0.0
 40
0.0
 40
0.0
 40
23.41964586215181
 40
23.41964586215181
 40
23.41964586215181
 10
4132.303087366726
 20
675.8121602462616
 30
0.0
 10
4144.012910297802
 20
675.8121602462616
 30
0.0
 10
4155.722733228878
 20
675.8121602462616
 30
0.0
  0
SPLINE
  5
FC
330
1F
100
AcDbEntity
  8
Predefinito
100
AcDbSpline
210
0.0
220
0.0
230
1.0
 70
    24
 71
     2
 72
     6
 73
     3
 74
     0
 42
0.0000000001
 43
0.0000000001
 40
0.0
 40
0.0
 40
0.0
 40
6.207088868789168
 40
6.207088868789168
 40
6.207088868789168
 10
4155.76544093846
 20
668.605307966092
 30
0.0
 10
4155.792537973356
 20
671.7087341061767
 30
0.0
 10
4155.819635008253
 20
674.8121602462616
 30
0.0
  0
SPLINE
  5
FD
330
1F
100
AcDbEntity
  8
Predefinito
100
AcDbSpline
210
0.0
220
0.0
230
1.0
 70
    12
 71
     2
 72
     6
 73
     3
 74
     0
 42
0.0000000001
 43
0.0000000001
 40
0.0
 40
0.0
 40
0.0
 40
0.0538136244150936
 40
0.0538136244150936
 40
0.0538136244150936
 10
4155.68578327443
 20
668.5744574049475
 30
0.0
 41
1.0
 10
4155.710359302647
 20
668.585412235373
 30
0.0
 41
0.9999866060659994
 10
4155.735047410122
 20
668.5961120868623
 30
0.0
 41
1.0
  0
SPLINE
  5
FE
330
1F
100
AcDbEntity
  8
Predefinito
100
AcDbSpline
210
0.0
220
0.0
230
1.0
 70
     8
 71
     3
 72
    14
 73
    10
 74
     0
 42
0.0000000001
 43
0.0000000001
 40
0.0
 40
0.0
 40
0.0
 40
0.0
 40
0.4696881356399754
 40
1.323560277346729
 40
3.142349336364956
 40
6.343325352526806
 40
11.9381537450793
 40
17.97238806572849
 40
24.19517291483014
 40
24.19517291483014
 40
24.19517291483014
 40
24.19517291483014
 10
4132.260352846701
 20
668.6052151118681
 30
0.0
 10
4132.398228731852
 20
668.531349679994
 30
0.0
 10
4132.802469523733
 20
668.3537556569385
 30
0.0
 10
4133.771534170098
 20
667.9564418219287
 30
0.0
 10
4135.610492222288
 20
667.2822266486462
 30
0.0
 10
4139.004316943338
 20
666.2730162132377
 30
0.0
 10
4143.940073369135
 20
665.6239140185965
 30
0.0
 10
4149.890688648616
 20
666.3840513678618
 30
0.0
 10
4153.766800110307
 20
667.7110955168962
 30
0.0
 10
4155.660511998355
 20
668.5633182219369
 30
0.0
  0
SPLINE
  5
FF
330
1F
100
AcDbEntity
  8
Predefinito
100
AcDbSpline
210
0.0
220
0.0
230
1.0
 70
    24
 71
     2
 72
     6
 73
     3
 74
     0
 42
0.0000000001
 43
0.0000000001
 40
0.0
 40
0.0
 40
0.0
 40
11.94673734278513
 40
11.94673734278513
 40
11.94673734278513
 10
4138.034580232546
 20
718.3121602462616
 30
0.0
 10
4144.007948903938
 20
718.3121602462616
 30
0.0
 10
4149.981317575331
 20
718.3121602462616
 30
0.0
  0
SPLINE
  5
100
330
1F
100
AcDbEntity
  8
Predefinito
100
AcDbSpline
210
0.0
220
0.0
230
1.0
 70
    24
 71
     2
 72
     6
 73
     3
 74
     0
 42
0.0000000001
 43
0.0000000001
 40
0.0
 40
0.0
 40
0.0
 40
41.50000006534618
 40
41.50000006534618
 40
41.50000006534618
 10
4155.720404337991
 20
717.3121602462616
 30
0.0
 10
4155.7215687834
 20
696.5621602462616
 30
0.0
 10
4155.72273322881
 20
675.8121602462616
 30
0.0
  0
SPLINE
  5
101
330
1F
100
AcDbEntity
  8
Predefinito
100
AcDbSpline
210
0.0
220
0.0
230
1.0
 70
    24
 71
     2
 72
     6
 73
     3
 74
     0
 42
0.0000000001
 43
0.0000000001
 40
0.0
 40
0.0
 40
0.0
 40
41.49999980396149
 40
41.49999980396149
 40
41.49999980396149
 10
4132.303087366726
 20
675.8121602462616
 30
0.0
 10
4132.304251812128
 20
696.5621601155692
 30
0.0
 10
4132.305416257531
 20
717.3121599848769
 30
0.0
  0
SPLINE
  5
102
330
1F
100
AcDbEntity
  8
Predefinito
100
AcDbSpline
210
0.0
220
0.0
230
1.0
 70
    24
 71
     2
 72
     6
 73
     3
 74
     0
 42
0.0000000001
 43
0.0000000001
 40
0.0
 40
0.0
 40
0.0
 40
23.45694233149516
 40
23.45694233149516
 40
23.45694233149516
 10
4132.305416257545
 20
717.3121602462616
 30
0.0
 10
4144.033887423293
 20
717.3121602462616
 30
0.0
 10
4155.762358589041
 20
717.3121602462616
 30
0.0
  0
SPLINE
  5
103
330
1F
100
AcDbEntity
  8
Predefinito
100
AcDbSpline
210
0.0
220
0.0
230
1.0
 70
    28
 71
     2
 72
     8
 73
     5
 74
     0
 42
0.0000000001
 43
0.0000000001
 40
-35.3429173528852
 40
-35.3429173528852
 40
-35.3429173528852
 40
-17.6714586764426
 40
-17.6714586764426
 40
0.0
 40
0.0
 40
0.0
 10
4155.226672680401
 20
675.3121602462616
 30
0.0
 41
1.0
 10
4156.1289105791
 20
675.3121602462614
 30
0.0
 41
0.707106781186548
 10
4144.915148196468
 20
675.3121602462616
 30
0.0
 41
1.0
 10
4133.701385813834
 20
675.3121602462614
 30
0.0
 41
0.707106781186548
 10
4132.799147915135
 20
675.3121602462616
 30
0.0
 41
1.0
  0
SPLINE
  5
104
330
1F
100
AcDbEntity
  8
Predefinito
100
AcDbSpline
210
0.0
220
0.0
230
1.0
 70
    24
 71
     2
 72
     6
 73
     3
 74
     0
 42
0.0000000001
 43
0.0000000001
 40
0.0
 40
0.0
 40
0.0
 40
0.5000000001173248
 40
0.5000000001173248
 40
0.5000000001173248
 10
4134.543510952434
 20
675.3121602462616
 30
0.0
 10
4134.543510952434
 20
675.0621602462029
 30
0.0
 10
4134.543510952434
 20
674.8121602461442
 30
0.0
  0
SPLINE
  5
105
330
1F
100
AcDbEntity
  8
Predefinito
100
AcDbSpline
210
0.0
220
0.0
230
1.0
 70
    12
 71
     2
 72
     6
 73
     3
 74
     0
 42
0.0000000001
 43
0.0000000001
 40
0.0
 40
0.0
 40
0.0
 40
0.3405780040313841
 40
0.3405780040313841
 40
0.3405780040313841
 10
4155.559692573963
 20
668.3254934121503
 30
0.0
 41
1.0
 10
4155.734000939444
 20
668.404667837146
 30
0.0
 41
0.842178213177335
 10
4155.735047410122
 20
668.5961120868623
 30
0.0
 41
1.0
  0
SPLINE
  5
106
330
1F
100
AcDbEntity
  8
Predefinito
100
AcDbSpline
210
0.0
220
0.0
230
1.0
 70
    24
 71
     2
 72
     6
 73
     3
 74
     0
 42
0.0000000001
 43
0.0000000001
 40
0.0
 40
0.0
 40
0.0
 40
6.207181485302286
 40
6.207181485302286
 40
6.207181485302286
 10
4132.260352846701
 20
668.6052151118681
 30
0.0
 10
4132.233269274955
 20
671.7086876794948
 30
0.0
 10
4132.206185703209
 20
674.8121602471215
 30
0.0
  0
SPLINE
  5
107
330
1F
100
AcDbEntity
  8
Predefinito
100
AcDbSpline
210
0.0
220
0.0
230
1.0
 70
    24
 71
     2
 72
     6
 73
     3
 74
     0
 42
0.0000000001
 43
0.0000000001
 40
0.0
 40
0.0
 40
0.0
 40
23.61344930504401
 40
23.61344930504401
 40
23.61344930504401
 10
4132.206185703209
 20
674.8121602471215
 30
0.0
 10
4144.01291035573
 20
674.8121602466915
 30
0.0
 10
4155.819635008253
 20
674.8121602462616
 30
0.0
  0
SPLINE
  5
108
330
1F
100
AcDbEntity
  8
Predefinito
100
AcDbSpline
210
0.0
220
0.0
230
1.0
 70
    24
 71
     2
 72
     6
 73
     3
 74
     0
 42
0.0000000001
 43
0.0000000001
 40
0.0
 40
0.0
 40
0.0
 40
1.000000000099327
 40
1.000000000099327
 40
1.000000000099327
 10
4888.034594327015
 20
717.3121602462616
 30
0.0
 10
4888.034587279781
 20
717.8121602462616
 30
0.0
 10
4888.034580232546
 20
718.3121602462616
 30
0.0
  0
SPLINE
  5
109
330
1F
100
AcDbEntity
  8
Predefinito
100
AcDbSpline
210
0.0
220
0.0
230
1.0
 70
    24
 71
     2
 72
     6
 73
     3
 74
     0
 42
0.0000000001
 43
0.0000000001
 40
0.0
 40
0.0
 40
0.0
 40
0.7043266768249411
 40
0.7043266768249411
 40
0.7043266768249411
 10
4882.303087366727
 20
675.8121602462616
 30
0.0
 10
4882.551117640931
 20
675.5621602462616
 30
0.0
 10
4882.799147915135
 20
675.3121602462616
 30
0.0
  0
SPLINE
  5
10A
330
1F
100
AcDbEntity
  8
Predefinito
100
AcDbSpline
210
0.0
220
0.0
230
1.0
 70
    24
 71
     2
 72
     6
 73
     3
 74
     0
 42
0.0000000001
 43
0.0000000001
 40
0.0
 40
0.0
 40
0.0
 40
23.4196458621509
 40
23.4196458621509
 40
23.4196458621509
 10
4882.303087366727
 20
675.8121602462616
 30
0.0
 10
4894.012910297803
 20
675.8121602462616
 30
0.0
 10
4905.722733228878
 20
675.8121602462616
 30
0.0
  0
SPLINE
  5
10B
330
1F
100
AcDbEntity
  8
Predefinito
100
AcDbSpline
210
0.0
220
0.0
230
1.0
 70
    24
 71
     2
 72
     6
 73
     3
 74
     0
 42
0.0000000001
 43
0.0000000001
 40
0.0
 40
0.0
 40
0.0
 40
6.207088868789177
 40
6.207088868789177
 40
6.207088868789177
 10
4905.76544093846
 20
668.605307966092
 30
0.0
 10
4905.792537973357
 20
671.7087341061767
 30
0.0
 10
4905.819635008253
 20
674.8121602462616
 30
0.0
  0
SPLINE
  5
10C
330
1F
100
AcDbEntity
  8
Predefinito
100
AcDbSpline
210
0.0
220
0.0
230
1.0
 70
    12
 71
     2
 72
     6
 73
     3
 74
     0
 42
0.0000000001
 43
0.0000000001
 40
0.0
 40
0.0
 40
0.0
 40
0.0538136244142624
 40
0.0538136244142624
 40
0.0538136244142624
 10
4905.685783274431
 20
668.5744574049475
 30
0.0
 41
1.0
 10
4905.71035930265
 20
668.5854122353735
 30
0.0
 41
0.999986606065936
 10
4905.735047410122
 20
668.5961120868623
 30
0.0
 41
1.0
  0
SPLINE
  5
10D
330
1F
100
AcDbEntity
  8
Predefinito
100
AcDbSpline
210
0.0
220
0.0
230
1.0
 70
     8
 71
     3
 72
    14
 73
    10
 74
     0
 42
0.0000000001
 43
0.0000000001
 40
0.0
 40
0.0
 40
0.0
 40
0.0
 40
0.4696881356407357
 40
1.323560277346696
 40
3.142349336364073
 40
6.343325352525026
 40
11.93815374507748
 40
17.97238806572935
 40
24.19517284859112
 40
24.19517284859112
 40
24.19517284859112
 40
24.19517284859112
 10
4882.260352846702
 20
668.6052151118681
 30
0.0
 10
4882.398228731853
 20
668.5313496800003
 30
0.0
 10
4882.802469523737
 20
668.3537556569263
 30
0.0
 10
4883.771534170086
 20
667.9564418219506
 30
0.0
 10
4885.610492222288
 20
667.2822266486039
 30
0.0
 10
4889.00431694331
 20
666.273016213315
 30
0.0
 10
4893.940073369165
 20
665.6239140184618
 30
0.0
 10
4899.890688626474
 20
666.3840513652779
 30
0.0
 10
4903.766800068489
 20
667.7110955022329
 30
0.0
 10
4905.660511937776
 20
668.5633181951441
 30
0.0
  0
SPLINE
  5
10E
330
1F
100
AcDbEntity
  8
Predefinito
100
AcDbSpline
210
0.0
220
0.0
230
1.0
 70
    24
 71
     2
 72
     6
 73
     3
 74
     0
 42
0.0000000001
 43
0.0000000001
 40
0.0
 40
0.0
 40
0.0
 40
11.94673734278513
 40
11.94673734278513
 40
11.94673734278513
 10
4888.034580232546
 20
718.3121602462616
 30
0.0
 10
4894.007948903938
 20
718.3121602462616
 30
0.0
 10
4899.981317575331
 20
718.3121602462616
 30
0.0
  0
SPLINE
  5
10F
330
1F
100
AcDbEntity
  8
Predefinito
100
AcDbSpline
210
0.0
220
0.0
230
1.0
 70
    24
 71
     2
 72
     6
 73
     3
 74
     0
 42
0.0000000001
 43
0.0000000001
 40
0.0
 40
0.0
 40
0.0
 40
41.50000006534618
 40
41.50000006534618
 40
41.50000006534618
 10
4905.720404337992
 20
717.3121602462616
 30
0.0
 10
4905.721568783401
 20
696.5621602462616
 30
0.0
 10
4905.72273322881
 20
675.8121602462616
 30
0.0
  0
SPLINE
  5
110
330
1F
100
AcDbEntity
  8
Predefinito
100
AcDbSpline
210
0.0
220
0.0
230
1.0
 70
    24
 71
     2
 72
     6
 73
     3
 74
     0
 42
0.0000000001
 43
0.0000000001
 40
0.0
 40
0.0
 40
0.0
 40
41.49999980396149
 40
41.49999980396149
 40
41.49999980396149
 10
4882.303087366727
 20
675.8121602462616
 30
0.0
 10
4882.304251812129
 20
696.5621601155692
 30
0.0
 10
4882.305416257531
 20
717.3121599848769
 30
0.0
  0
SPLINE
  5
111
330
1F
100
AcDbEntity
  8
Predefinito
100
AcDbSpline
210
0.0
220
0.0
230
1.0
 70
    24
 71
     2
 72
     6
 73
     3
 74
     0
 42
0.0000000001
 43
0.0000000001
 40
0.0
 40
0.0
 40
0.0
 40
23.45694233149516
 40
23.45694233149516
 40
23.45694233149516
 10
4882.305416257545
 20
717.3121602462616
 30
0.0
 10
4894.033887423293
 20
717.3121602462616
 30
0.0
 10
4905.762358589041
 20
717.3121602462616
 30
0.0
  0
SPLINE
  5
112
330
1F
100
AcDbEntity
  8
Predefinito
100
AcDbSpline
210
0.0
220
0.0
230
1.0
 70
    28
 71
     2
 72
     8
 73
     5
 74
     0
 42
0.0000000001
 43
0.0000000001
 40
-35.3429173528852
 40
-35.3429173528852
 40
-35.3429173528852
 40
-17.6714586764426
 40
-17.6714586764426
 40
0.0
 40
0.0
 40
0.0
 10
4905.226672680401
 20
675.3121602462616
 30
0.0
 41
1.0
 10
4906.128910579101
 20
675.3121602462614
 30
0.0
 41
0.707106781186548
 10
4894.915148196468
 20
675.3121602462616
 30
0.0
 41
1.0
 10
4883.701385813834
 20
675.3121602462614
 30
0.0
 41
0.707106781186548
 10
4882.799147915135
 20
675.3121602462616
 30
0.0
 41
1.0
  0
SPLINE
  5
113
330
1F
100
AcDbEntity
  8
Predefinito
100
AcDbSpline
210
0.0
220
0.0
230
1.0
 70
    24
 71
     2
 72
     6
 73
     3
 74
     0
 42
0.0000000001
 43
0.0000000001
 40
0.0
 40
0.0
 40
0.0
 40
0.5000000001173248
 40
0.5000000001173248
 40
0.5000000001173248
 10
4884.543510952434
 20
675.3121602462616
 30
0.0
 10
4884.543510952434
 20
675.0621602462029
 30
0.0
 10
4884.543510952434
 20
674.8121602461442
 30
0.0
  0
SPLINE
  5
114
330
1F
100
AcDbEntity
  8
Predefinito
100
AcDbSpline
210
0.0
220
0.0
230
1.0
 70
    12
 71
     2
 72
     6
 73
     3
 74
     0
 42
0.0000000001
 43
0.0000000001
 40
0.0
 40
0.0
 40
0.0
 40
0.3405780040311935
 40
0.3405780040311935
 40
0.3405780040311935
 10
4905.559692573963
 20
668.3254934121504
 30
0.0
 41
1.0
 10
4905.734000939445
 20
668.4046678371461
 30
0.0
 41
0.8421782131773474
 10
4905.735047410122
 20
668.5961120868623
 30
0.0
 41
1.0
  0
SPLINE
  5
115
330
1F
100
AcDbEntity
  8
Predefinito
100
AcDbSpline
210
0.0
220
0.0
230
1.0
 70
    24
 71
     2
 72
     6
 73
     3
 74
     0
 42
0.0000000001
 43
0.0000000001
 40
0.0
 40
0.0
 40
0.0
 40
6.207181485302294
 40
6.207181485302294
 40
6.207181485302294
 10
4882.260352846702
 20
668.6052151118681
 30
0.0
 10
4882.233269274955
 20
671.7086876794948
 30
0.0
 10
4882.206185703209
 20
674.8121602471215
 30
0.0
  0
SPLINE
  5
116
330
1F
100
AcDbEntity
  8
Predefinito
100
AcDbSpline
210
0.0
220
0.0
230
1.0
 70
    24
 71
     2
 72
     6
 73
     3
 74
     0
 42
0.0000000001
 43
0.0000000001
 40
0.0
 40
0.0
 40
0.0
 40
23.61344930504492
 40
23.61344930504492
 40
23.61344930504492
 10
4882.206185703209
 20
674.8121602471215
 30
0.0
 10
4894.012910355731
 20
674.8121602466915
 30
0.0
 10
4905.819635008253
 20
674.8121602462616
 30
0.0
  0
SPLINE
  5
117
330
1F
100
AcDbEntity
  8
Predefinito
100
AcDbSpline
210
0.0
220
0.0
230
1.0
 70
    24
 71
     2
 72
     6
 73
     3
 74
     0
 42
0.0000000001
 43
0.0000000001
 40
0.0
 40
0.0
 40
0.0
 40
0.2956060414025501
 40
0.2956060414025501
 40
0.2956060414025501
 10
4343.010625913292
 20
665.2331132463092
 30
0.0
 10
4343.010625913292
 20
665.085310225608
 30
0.0
 10
4343.010625913292
 20
664.9375072049068
 30
0.0
  0
SPLINE
  5
118
330
1F
100
AcDbEntity
  8
Predefinito
100
AcDbSpline
210
0.0
220
0.0
230
1.0
 70
    12
 71
     2
 72
     6
 73
     3
 74
     0
 42
0.0000000001
 43
0.0000000001
 40
0.0
 40
0.0
 40
0.0
 40
3.124241823730774
 40
3.124241823730774
 40
3.124241823730774
 10
4961.010625913292
 20
319.6378781803361
 30
0.0
 41
1.0
 10
4961.010868704069
 20
317.6550163945811
 30
0.0
 41
0.7100993663660529
 10
4959.028080310532
 20
317.6379545421916
 30
0.0
 41
1.0
  0
SPLINE
  5
119
330
1F
100
AcDbEntity
  8
Predefinito
100
AcDbSpline
210
0.0
220
0.0
230
1.0
 70
    24
 71
     2
 72
     6
 73
     3
 74
     0
 42
0.0000000001
 43
0.0000000001
 40
0.0
 40
0.0
 40
0.0
 40
7.518602549350817
 40
7.518602549350817
 40
7.518602549350817
 10
4951.510626205728
 20
367.5066605321822
 30
0.0
 10
4955.269354920612
 20
367.4410516784914
 30
0.0
 10
4959.028083635496
 20
367.3754428248006
 30
0.0
  0
SPLINE
  5
11A
330
1F
100
AcDbEntity
  8
Predefinito
100
AcDbSpline
210
0.0
220
0.0
230
1.0
 70
    12
 71
     2
 72
     6
 73
     3
 74
     0
 42
0.0000000001
 43
0.0000000001
 40
0.0
 40
0.0
 40
0.0
 40
3.12412311113895
 40
3.12412311113895
 40
3.12412311113895
 10
4959.028080340281
 20
367.3753652329073
 30
0.0
 41
1.0
 10
4961.010594700743
 20
367.3580341791784
 30
0.0
 41
0.7101962281334343
 10
4961.010625913292
 20
365.3754440667537
 30
0.0
 41
1.0
  0
SPLINE
  5
11B
330
1F
100
AcDbEntity
  8
Predefinito
100
AcDbSpline
210
0.0
220
0.0
230
1.0
 70
    24
 71
     2
 72
     6
 73
     3
 74
     0
 42
0.0000000001
 43
0.0000000001
 40
0.0
 40
0.0
 40
0.0
 40
7.518602841829743
 40
7.518602841829743
 40
7.518602841829743
 10
4959.028083635494
 20
317.6378782497728
 30
0.0
 10
4955.269354774393
 20
317.5722693935298
 30
0.0
 10
4951.510625913292
 20
317.5066605372867
 30
0.0
  0
SPLINE
  5
11C
330
1F
100
AcDbEntity
  8
Predefinito
100
AcDbSpline
210
0.0
220
0.0
230
1.0
 70
    24
 71
     2
 72
     6
 73
     3
 74
     0
 42
0.0000000001
 43
0.0000000001
 40
0.0
 40
0.0
 40
0.0
 40
0.5232680077557756
 40
0.5232680077557756
 40
0.5232680077557756
 10
4951.011487933772
 20
366.9979480514561
 30
0.0
 10
4951.273082089523
 20
367.0025141944243
 30
0.0
 10
4951.534676245275
 20
367.0070803373925
 30
0.0
  0
SPLINE
  5
11D
330
1F
100
AcDbEntity
  8
Predefinito
100
AcDbSpline
210
0.0
220
0.0
230
1.0
 70
    24
 71
     2
 72
     6
 73
     3
 74
     0
 42
0.0000000001
 43
0.0000000001
 40
0.0
 40
0.0
 40
0.0
 40
0.5239486762848661
 40
0.5239486762848661
 40
0.5239486762848661
 10
4951.534676245275
 20
318.0062407371809
 30
0.0
 10
4951.272741807094
 20
318.010812819801
 30
0.0
 10
4951.010807368912
 20
318.0153849024211
 30
0.0
  0
SPLINE
  5
11E
330
1F
100
AcDbEntity
  8
Predefinito
100
AcDbSpline
210
0.0
220
0.0
230
1.0
 70
    12
 71
     2
 72
     8
 73
     5
 74
     0
 42
0.0000000001
 43
0.0000000001
 40
0.0
 40
0.0
 40
0.0
 40
185.8252054598358
 40
185.8252054598358
 40
371.6504109196715
 40
371.6504109196715
 40
371.6504109196715
 10
2703.158067492652
 20
444.9931868337365
 30
0.0
 41
1.0
 10
2600.707262224953
 20
504.143186833736
 30
0.0
 41
0.7071067811865482
 10
2541.557262224953
 20
401.6923815660372
 30
0.0
 41
1.0
 10
2482.407262224954
 20
299.2415762983384
 30
0.0
 41
0.7071067811865482
 10
2584.858067492652
 20
240.0915762983385
 30
0.0
 41
1.0
  0
SPLINE
  5
11F
330
1F
100
AcDbEntity
  8
Predefinito
100
AcDbSpline
210
0.0
220
0.0
230
1.0
 70
    12
 71
     2
 72
     8
 73
     5
 74
     0
 42
0.0000000001
 43
0.0000000001
 40
0.0
 40
0.0
 40
0.0
 40
185.8252054598335
 40
185.8252054598335
 40
371.6504109196671
 40
371.6504109196671
 40
371.6504109196671
 10
2584.858067492652
 20
240.0915762983385
 30
0.0
 41
1.0
 10
2687.30887276035
 20
180.9415762983419
 30
0.0
 41
0.7071067811865543
 10
2746.458872760349
 20
283.3923815660388
 30
0.0
 41
1.0
 10
2805.608872760347
 20
385.8431868337357
 30
0.0
 41
0.7071067811865543
 10
2703.158067492652
 20
444.9931868337363
 30
0.0
 41
1.0
  0
SPLINE
  5
120
330
1F
100
AcDbEntity
  8
Predefinito
100
AcDbSpline
210
0.0
220
0.0
230
1.0
 70
    12
 71
     2
 72
     8
 73
     5
 74
     0
 42
0.0000000001
 43
0.0000000001
 40
0.0
 40
0.0
 40
0.0
 40
9.389142106660247
 40
9.389142106660247
 40
18.82075815315694
 40
18.82075815315694
 40
18.82075815315694
 10
3399.985206645069
 20
343.0251784108447
 30
0.0
 41
1.0
 10
3399.480395956023
 20
348.9779550101397
 30
0.0
 41
0.707623250547422
 10
3393.526888018043
 20
348.4818438277395
 30
0.0
 41
1.0
 10
3387.550521160017
 20
347.9838147701782
 30
0.0
 41
0.7082869381211121
 10
3388.028581750795
 20
342.0058174604242
 30
0.0
 41
1.0
  0
SPLINE
  5
121
330
1F
100
AcDbEntity
  8
Predefinito
100
AcDbSpline
210
0.0
220
0.0
230
1.0
 70
    12
 71
     2
 72
    10
 73
     7
 74
     0
 42
0.0000000001
 43
0.0000000001
 40
0.0
 40
0.0
 40
0.0
 40
4.708881348977338
 40
4.708881348977338
 40
9.417762697954675
 40
9.417762697954675
 40
18.84936830917755
 40
18.84936830917755
 40
18.84936830917755
 10
3388.028595439464
 20
342.0056473565451
 30
0.0
 41
1.0
 10
3388.226659838334
 20
339.5295432993844
 30
0.0
 41
0.9235617891012383
 10
3390.120252143679
 20
337.9218651633368
 30
0.0
 41
1.0
 10
3392.013844449025
 20
336.3141870272893
 30
0.0
 41
0.9235617891012383
 10
3394.489277722039
 20
336.5204657679164
 30
0.0
 41
1.0
 10
3400.46563848863
 20
337.0184876919984
 30
0.0
 41
0.7082869425974727
 10
3399.987585086757
 20
342.9964788925831
 30
0.0
 41
1.0
  0
SPLINE
  5
122
330
1F
100
AcDbEntity
  8
Predefinito
100
AcDbSpline
210
0.0
220
0.0
230
1.0
 70
    12
 71
     2
 72
     8
 73
     5
 74
     0
 42
0.0000000001
 43
0.0000000001
 40
0.0
 40
0.0
 40
0.0
 40
18.42865886411517
 40
18.42865886411517
 40
36.85662884975174
 40
36.85662884975174
 40
36.85662884975174
 10
3405.714405856242
 20
343.5138259307365
 30
0.0
 41
1.0
 10
3404.718258726704
 20
355.1932576611031
 30
0.0
 41
0.7079547391668115
 10
3393.036470049055
 20
354.2251419971848
 30
0.0
 41
1.0
 10
3381.355366232739
 20
353.257083090414
 30
0.0
 41
0.7079754420883536
 10
3382.294704766974
 20
341.5736346468839
 30
0.0
 41
1.0
  0
SPLINE
  5
123
330
1F
100
AcDbEntity
  8
Predefinito
100
AcDbSpline
210
0.0
220
0.0
230
1.0
 70
    12
 71
     2
 72
     8
 73
     5
 74
     0
 42
0.0000000001
 43
0.0000000001
 40
0.0
 40
0.0
 40
0.0
 40
18.40046088838481
 40
18.40046088838481
 40
36.85624441695485
 40
36.85624441695485
 40
36.85624441695485
 10
3382.299417775796
 20
341.5167447624841
 30
0.0
 41
1.0
 10
3383.293177174017
 20
329.865308238989
 30
0.0
 41
0.7088016778391848
 10
3394.949249176883
 20
330.803133524749
 30
0.0
 41
1.0
 10
3406.6603311936
 20
331.7453848111374
 30
0.0
 41
0.7071390760098455
 10
3405.719149667425
 20
343.4565528495415
 30
0.0
 41
1.0
  0
SPLINE
  5
124
330
1F
100
AcDbEntity
  8
Predefinito
100
AcDbSpline
210
0.0
220
0.0
230
1.0
 70
    24
 71
     2
 72
     6
 73
     3
 74
     0
 42
0.0000000001
 43
0.0000000001
 40
0.0
 40
0.0
 40
0.0
 40
11.58858853621292
 40
11.58858853621292
 40
11.58858853621292
 10
4951.510625913292
 20
342.5066605372867
 30
0.0
 10
4951.510625913292
 20
348.3009548053932
 30
0.0
 10
4951.510625913292
 20
354.0952490734996
 30
0.0
  0
SPLINE
  5
125
330
1F
100
AcDbEntity
  8
Predefinito
100
AcDbSpline
210
0.0
220
0.0
230
1.0
 70
    24
 71
     2
 72
     6
 73
     3
 74
     0
 42
0.0000000001
 43
0.0000000001
 40
0.0
 40
0.0
 40
0.0
 40
24.86847774741382
 40
24.86847774741382
 40
24.86847774741382
 10
4959.028078319729
 20
367.3751382847005
 30
0.0
 10
4959.028078319729
 20
354.9408994109936
 30
0.0
 10
4959.028078319729
 20
342.5066605372867
 30
0.0
  0
SPLINE
  5
126
330
1F
100
AcDbEntity
  8
Predefinito
100
AcDbSpline
210
0.0
220
0.0
230
1.0
 70
    28
 71
     2
 72
     6
 73
     3
 74
     0
 42
0.0000000001
 43
0.0000000001
 40
-27.01158759915492
 40
-27.01158759915492
 40
-27.01158759915492
 40
0.0
 40
0.0
 40
0.0
 10
4951.510625913294
 20
367.506643778535
 30
0.0
 41
0.9350948916477304
 10
4951.510625913292
 20
367.5241921749731
 30
0.0
 41
0.8269197110606142
 10
4951.510625913292
 20
354.0952490734996
 30
0.0
 41
1.0
  0
SPLINE
  5
127
330
1F
100
AcDbEntity
  8
Predefinito
100
AcDbSpline
210
0.0
220
0.0
230
1.0
 70
    24
 71
     2
 72
     6
 73
     3
 74
     0
 42
0.0000000001
 43
0.0000000001
 40
0.0
 40
0.0
 40
0.0
 40
11.58858853620575
 40
11.58858853620575
 40
11.58858853620575
 10
4951.510625913292
 20
330.9180720010809
 30
0.0
 10
4951.510625913292
 20
336.7123662691838
 30
0.0
 10
4951.510625913292
 20
342.5066605372867
 30
0.0
  0
SPLINE
  5
128
330
1F
100
AcDbEntity
  8
Predefinito
100
AcDbSpline
210
0.0
220
0.0
230
1.0
 70
    24
 71
     2
 72
     6
 73
     3
 74
     0
 42
0.0000000001
 43
0.0000000001
 40
0.0
 40
0.0
 40
0.0
 40
13.41141146379421
 40
13.41141146379421
 40
13.41141146379421
 10
4951.510625913292
 20
317.5066605372867
 30
0.0
 10
4951.510625913292
 20
324.2123662691838
 30
0.0
 10
4951.510625913292
 20
330.9180720010809
 30
0.0
  0
SPLINE
  5
129
330
1F
100
AcDbEntity
  8
Predefinito
100
AcDbSpline
210
0.0
220
0.0
230
1.0
 70
    24
 71
     2
 72
     6
 73
     3
 74
     0
 42
0.0000000001
 43
0.0000000001
 40
0.0
 40
0.0
 40
0.0
 40
24.86847774741378
 40
24.86847774741378
 40
24.86847774741378
 10
4959.028078319729
 20
342.5066605372867
 30
0.0
 10
4959.028078319729
 20
330.0724216635798
 30
0.0
 10
4959.028078319729
 20
317.6381827898729
 30
0.0
  0
SPLINE
  5
12A
330
1F
100
AcDbEntity
  8
Predefinito
100
AcDbSpline
210
0.0
220
0.0
230
1.0
 70
    24
 71
     2
 72
     6
 73
     3
 74
     0
 42
0.0000000001
 43
0.0000000001
 40
0.0
 40
0.0
 40
0.0
 40
15.89097419111536
 40
15.89097419111536
 40
15.89097419111536
 10
4950.986228337956
 20
330.7621598323487
 30
0.0
 10
4943.040741242527
 20
330.7622050270425
 30
0.0
 10
4935.095254147098
 20
330.7622502217362
 30
0.0
  0
SPLINE
  5
12B
330
1F
100
AcDbEntity
  8
Predefinito
100
AcDbSpline
210
0.0
220
0.0
230
1.0
 70
    24
 71
     2
 72
     6
 73
     3
 74
     0
 42
0.0000000001
 43
0.0000000001
 40
0.0
 40
0.0
 40
0.0
 40
16.25287701139496
 40
16.25287701139496
 40
16.25287701139496
 10
4951.510625913292
 20
354.0952490734996
 30
0.0
 10
4943.384187407594
 20
354.0952490734996
 30
0.0
 10
4935.257748901897
 20
354.0952490734996
 30
0.0
  0
SPLINE
  5
12C
330
1F
100
AcDbEntity
  8
Predefinito
100
AcDbSpline
210
0.0
220
0.0
230
1.0
 70
    24
 71
     2
 72
     6
 73
     3
 74
     0
 42
0.0000000001
 43
0.0000000001
 40
0.0
 40
0.0
 40
0.0
 40
16.25287701139496
 40
16.25287701139496
 40
16.25287701139496
 10
4935.257748901897
 20
330.9180720010809
 30
0.0
 10
4943.384187407594
 20
330.9180720010809
 30
0.0
 10
4951.510625913292
 20
330.9180720010809
 30
0.0
  0
SPLINE
  5
12D
330
1F
100
AcDbEntity
  8
Predefinito
100
AcDbSpline
210
0.0
220
0.0
230
1.0
 70
    24
 71
     2
 72
     6
 73
     3
 74
     0
 42
0.0000000001
 43
0.0000000001
 40
0.0
 40
0.0
 40
0.0
 40
16.25513895148288
 40
16.25513895148288
 40
16.25513895148288
 10
4951.510625913292
 20
330.8108111703403
 30
0.0
 10
4943.38305643755
 20
330.8108111703403
 30
0.0
 10
4935.255486961809
 20
330.8108111703403
 30
0.0
  0
SPLINE
  5
12E
330
1F
100
AcDbEntity
  8
Predefinito
100
AcDbSpline
210
0.0
220
0.0
230
1.0
 70
    24
 71
     2
 72
     6
 73
     3
 74
     0
 42
0.0000000001
 43
0.0000000001
 40
0.0
 40
0.0
 40
0.0
 40
22.86878235695072
 40
22.86878235695072
 40
22.86878235695072
 10
4961.010625913292
 20
342.5066605372867
 30
0.0
 10
4961.010625913292
 20
353.941051715762
 30
0.0
 10
4961.010625913292
 20
365.3754428942374
 30
0.0
  0
SPLINE
  5
12F
330
1F
100
AcDbEntity
  8
Predefinito
100
AcDbSpline
210
0.0
220
0.0
230
1.0
 70
    24
 71
     2
 72
     6
 73
     3
 74
     0
 42
0.0000000001
 43
0.0000000001
 40
0.0
 40
0.0
 40
0.0
 40
22.86878235695077
 40
22.86878235695077
 40
22.86878235695077
 10
4961.010625913292
 20
319.6378781803359
 30
0.0
 10
4961.010625913292
 20
331.0722693588113
 30
0.0
 10
4961.010625913292
 20
342.5066605372867
 30
0.0
  0
SPLINE
  5
130
330
1F
100
AcDbEntity
  8
Predefinito
100
AcDbSpline
210
0.0
220
0.0
230
1.0
 70
    24
 71
     2
 72
     6
 73
     3
 74
     0
 42
0.0000000001
 43
0.0000000001
 40
0.0
 40
0.0
 40
0.0
 40
1.932990650610617
 40
1.932990650610617
 40
1.932990650610617
 10
4935.095310121525
 20
330.7737128743132
 30
0.0
 10
4935.101755808842
 20
331.7401867058016
 30
0.0
 10
4935.108201496159
 20
332.7066605372901
 30
0.0
  0
SPLINE
  5
131
330
1F
100
AcDbEntity
  8
Predefinito
100
AcDbSpline
210
0.0
220
0.0
230
1.0
 70
    24
 71
     2
 72
     6
 73
     3
 74
     0
 42
0.0000000001
 43
0.0000000001
 40
0.0
 40
0.0
 40
0.0
 40
0.1603947555283675
 40
0.1603947555283675
 40
0.1603947555283675
 10
4935.251682924883
 20
330.8108111703403
 30
0.0
 10
4935.175090357237
 20
330.7870372774804
 30
0.0
 10
4935.098497789591
 20
330.7632633846205
 30
0.0
  0
SPLINE
  5
132
330
1F
100
AcDbEntity
  8
Predefinito
100
AcDbSpline
210
0.0
220
0.0
230
1.0
 70
    12
 71
     2
 72
     6
 73
     3
 74
     0
 42
0.0000000001
 43
0.0000000001
 40
0.0
 40
0.0
 40
0.0
 40
0.0775064748801895
 40
0.0775064748801895
 40
0.0775064748801895
 10
4935.257748901897
 20
330.9180720010809
 30
0.0
 41
1.0
 10
4935.257400454847
 20
330.8793150583244
 30
0.0
 41
0.9997959932713149
 10
4935.25548696181
 20
330.8406038122637
 30
0.0
 41
1.0
  0
SPLINE
  5
133
330
1F
100
AcDbEntity
  8
Predefinito
100
AcDbSpline
210
0.0
220
0.0
230
1.0
 70
    12
 71
     2
 72
     6
 73
     3
 74
     0
 42
0.0000000001
 43
0.0000000001
 40
0.0
 40
0.0
 40
0.0
 40
0.1114655309611858
 40
0.1114655309611858
 40
0.1114655309611858
 10
4935.262300693705
 20
331.0294445544465
 30
0.0
 41
1.0
 10
4935.260035058975
 20
330.9737578583899
 30
0.0
 41
0.9999999830227331
 10
4935.257748901897
 20
330.9180720010809
 30
0.0
 41
1.0
  0
SPLINE
  5
134
330
1F
100
AcDbEntity
  8
Predefinito
100
AcDbSpline
210
0.0
220
0.0
230
1.0
 70
    12
 71
     2
 72
     6
 73
     3
 74
     0
 42
0.0000000001
 43
0.0000000001
 40
0.0
 40
0.0
 40
0.0
 40
22.95691632959703
 40
22.95691632959703
 40
22.95691632959703
 10
4935.262300693705
 20
353.9838765201416
 30
0.0
 41
1.0
 10
4935.554826425087
 20
342.5066605372941
 30
0.0
 41
0.9996753514156365
 10
4935.262300693705
 20
331.0294445544465
 30
0.0
 41
1.0
  0
SPLINE
  5
135
330
1F
100
AcDbEntity
  8
Predefinito
100
AcDbSpline
210
0.0
220
0.0
230
1.0
 70
    12
 71
     2
 72
     6
 73
     3
 74
     0
 42
0.0000000001
 43
0.0000000001
 40
0.0
 40
0.0
 40
0.0
 40
0.1114655309535872
 40
0.1114655309535872
 40
0.1114655309535872
 10
4935.257748901897
 20
354.0952490734996
 30
0.0
 41
1.0
 10
4935.260035058975
 20
354.0395632161943
 30
0.0
 41
0.9999999830227331
 10
4935.262300693705
 20
353.9838765201416
 30
0.0
 41
1.0
  0
SPLINE
  5
136
330
1F
100
AcDbEntity
  8
Predefinito
100
AcDbSpline
210
0.0
220
0.0
230
1.0
 70
    12
 71
     2
 72
     6
 73
     3
 74
     0
 42
0.0000000001
 43
0.0000000001
 40
0.0
 40
0.0
 40
0.0
 40
0.1076036963908826
 40
0.1076036963908826
 40
0.1076036963908826
 10
4935.251682924883
 20
354.2025099042417
 30
0.0
 41
1.0
 10
4935.25997811148
 20
354.1491770846698
 30
0.0
 41
0.9952207477374159
 10
4935.257748901897
 20
354.0952490734996
 30
0.0
 41
1.0
  0
SPLINE
  5
137
330
1F
100
AcDbEntity
  8
Predefinito
100
AcDbSpline
210
0.0
220
0.0
230
1.0
 70
    24
 71
     2
 72
     6
 73
     3
 74
     0
 42
0.0000000001
 43
0.0000000001
 40
0.0
 40
0.0
 40
0.0
 40
1.944453557994541
 40
1.944453557994541
 40
1.944453557994541
 10
4935.108201496159
 20
352.3066605372905
 30
0.0
 10
4935.101717585007
 20
353.2788656950096
 30
0.0
 10
4935.095233673854
 20
354.2510708527286
 30
0.0
  0
SPLINE
  5
138
330
1F
100
AcDbEntity
  8
Predefinito
100
AcDbSpline
210
0.0
220
0.0
230
1.0
 70
    24
 71
     2
 72
     6
 73
     3
 74
     0
 42
0.0000000001
 43
0.0000000001
 40
0.0
 40
0.0
 40
0.0
 40
15.89351697957109
 40
15.89351697957109
 40
15.89351697957109
 10
4935.095233689751
 20
354.2510708527287
 30
0.0
 10
4943.041992179407
 20
354.2511160546539
 30
0.0
 10
4950.988750669065
 20
354.2511612565792
 30
0.0
  0
SPLINE
  5
139
330
1F
100
AcDbEntity
  8
Predefinito
100
AcDbSpline
210
0.0
220
0.0
230
1.0
 70
    24
 71
     2
 72
     6
 73
     3
 74
     0
 42
0.0000000001
 43
0.0000000001
 40
0.0
 40
0.0
 40
0.0
 40
0.1638124960600551
 40
0.1638124960600551
 40
0.1638124960600551
 10
4935.251682924883
 20
354.2025099042417
 30
0.0
 10
4935.173458299369
 20
354.2267903784851
 30
0.0
 10
4935.095233673854
 20
354.2510708527286
 30
0.0
  0
SPLINE
  5
13A
330
1F
100
AcDbEntity
  8
Predefinito
100
AcDbSpline
210
0.0
220
0.0
230
1.0
 70
    24
 71
     2
 72
     6
 73
     3
 74
     0
 42
0.0000000001
 43
0.0000000001
 40
0.0
 40
0.0
 40
0.0
 40
0.5218749999994543
 40
0.5218749999994543
 40
0.5218749999994543
 10
4951.510625913292
 20
354.2025099042417
 30
0.0
 10
4951.249688413292
 20
354.2025099042417
 30
0.0
 10
4950.988750913292
 20
354.2025099042417
 30
0.0
  0
SPLINE
  5
13B
330
1F
100
AcDbEntity
  8
Predefinito
100
AcDbSpline
210
0.0
220
0.0
230
1.0
 70
    24
 71
     2
 72
     6
 73
     3
 74
     0
 42
0.0000000001
 43
0.0000000001
 40
0.0
 40
0.0
 40
0.0
 40
0.4499999424018313
 40
0.4499999424018313
 40
0.4499999424018313
 10
4950.966875913293
 20
330.3066605946033
 30
0.0
 10
4950.966875913293
 20
330.5316605658043
 30
0.0
 10
4950.966875913292
 20
330.7566605370051
 30
0.0
  0
SPLINE
  5
13C
330
1F
100
AcDbEntity
  8
Predefinito
100
AcDbSpline
210
0.0
220
0.0
230
1.0
 70
    24
 71
     2
 72
     6
 73
     3
 74
     0
 42
0.0000000001
 43
0.0000000001
 40
0.0
 40
0.0
 40
0.0
 40
0.4767950286242808
 40
0.4767950286242808
 40
0.4767950286242808
 10
4950.966875913293
 20
354.25666049669
 30
0.0
 10
4950.966875913292
 20
354.4950580110021
 30
0.0
 10
4950.966875913291
 20
354.7334555253143
 30
0.0
  0
SPLINE
  5
13D
330
1F
100
AcDbEntity
  8
Predefinito
100
AcDbSpline
210
0.0
220
0.0
230
1.0
 70
    24
 71
     2
 72
     6
 73
     3
 74
     0
 42
0.0000000001
 43
0.0000000001
 40
0.0
 40
0.0
 40
0.0
 40
1597.338086784081
 40
1597.338086784081
 40
1597.338086784081
 10
4359.01062591329
 20
354.7066605372892
 30
0.0
 10
3560.34158252125
 20
354.7066605372892
 30
0.0
 10
2761.672539129209
 20
354.7066605372892
 30
0.0
  0
SPLINE
  5
13E
330
1F
100
AcDbEntity
  8
Predefinito
100
AcDbSpline
210
0.0
220
0.0
230
1.0
 70
    24
 71
     2
 72
     6
 73
     3
 74
     0
 42
0.0000000001
 43
0.0000000001
 40
0.0
 40
0.0
 40
0.0
 40
592.0000000000009
 40
592.0000000000009
 40
592.0000000000009
 10
4951.010625913292
 20
330.3066605372906
 30
0.0
 10
4655.010625913292
 20
330.3066605372906
 30
0.0
 10
4359.010625913291
 20
330.3066605372906
 30
0.0
  0
SPLINE
  5
13F
330
1F
100
AcDbEntity
  8
Predefinito
100
AcDbSpline
210
0.0
220
0.0
230
1.0
 70
    24
 71
     2
 72
     6
 73
     3
 74
     0
 42
0.0000000001
 43
0.0000000001
 40
0.0
 40
0.0
 40
0.0
 40
592.0
 40
592.0
 40
592.0
 10
4359.01062591329
 20
354.7066605372892
 30
0.0
 10
4655.01062591329
 20
354.7066605372892
 30
0.0
 10
4951.01062591329
 20
354.7066605372891
 30
0.0
  0
SPLINE
  5
140
330
1F
100
AcDbEntity
  8
Predefinito
100
AcDbSpline
210
0.0
220
0.0
230
1.0
 70
    24
 71
     2
 72
     6
 73
     3
 74
     0
 42
0.0000000001
 43
0.0000000001
 40
0.0
 40
0.0
 40
0.0
 40
592.0000000000009
 40
592.0000000000009
 40
592.0000000000009
 10
4951.010625913292
 20
317.5079105685418
 30
0.0
 10
4655.010625913292
 20
317.5079105685418
 30
0.0
 10
4359.010625913291
 20
317.5079105685418
 30
0.0
  0
SPLINE
  5
141
330
1F
100
AcDbEntity
  8
Predefinito
100
AcDbSpline
210
0.0
220
0.0
230
1.0
 70
    24
 71
     2
 72
     6
 73
     3
 74
     0
 42
0.0000000001
 43
0.0000000001
 40
0.0
 40
0.0
 40
0.0
 40
592.0
 40
592.0
 40
592.0
 10
4359.010625913291
 20
330.0066605372904
 30
0.0
 10
4655.010625913291
 20
330.0066605372904
 30
0.0
 10
4951.010625913291
 20
330.0066605372904
 30
0.0
  0
SPLINE
  5
142
330
1F
100
AcDbEntity
  8
Predefinito
100
AcDbSpline
210
0.0
220
0.0
230
1.0
 70
    24
 71
     2
 72
     6
 73
     3
 74
     0
 42
0.0000000001
 43
0.0000000001
 40
0.0
 40
0.0
 40
0.0
 40
591.9999999999991
 40
591.9999999999991
 40
591.9999999999991
 10
4951.01062591329
 20
355.0066605372891
 30
0.0
 10
4655.01062591329
 20
355.006660537289
 30
0.0
 10
4359.010625913291
 20
355.006660537289
 30
0.0
  0
SPLINE
  5
143
330
1F
100
AcDbEntity
  8
Predefinito
100
AcDbSpline
210
0.0
220
0.0
230
1.0
 70
    24
 71
     2
 72
     6
 73
     3
 74
     0
 42
0.0000000001
 43
0.0000000001
 40
0.0
 40
0.0
 40
0.0
 40
591.9999999999991
 40
591.9999999999991
 40
591.9999999999991
 10
4359.010625913291
 20
367.5054105060388
 30
0.0
 10
4655.01062591329
 20
367.5054105060387
 30
0.0
 10
4951.01062591329
 20
367.5054105060387
 30
0.0
  0
SPLINE
  5
144
330
1F
100
AcDbEntity
  8
Predefinito
100
AcDbSpline
210
0.0
220
0.0
230
1.0
 70
    24
 71
     2
 72
     6
 73
     3
 74
     0
 42
0.0000000001
 43
0.0000000001
 40
0.0
 40
0.0
 40
0.0
 40
1597.33850756159
 40
1597.33850756159
 40
1597.33850756159
 10
2761.672118351701
 20
330.3066605372905
 30
0.0
 10
3560.341372132496
 20
330.3066605372906
 30
0.0
 10
4359.010625913291
 20
330.3066605372906
 30
0.0
  0
SPLINE
  5
145
330
1F
100
AcDbEntity
  8
Predefinito
100
AcDbSpline
210
0.0
220
0.0
230
1.0
 70
    24
 71
     2
 72
     6
 73
     3
 74
     0
 42
0.0000000001
 43
0.0000000001
 40
0.0
 40
0.0
 40
0.0
 40
1597.369940680387
 40
1597.369940680387
 40
1597.369940680387
 10
2761.640685232904
 20
330.0066605372905
 30
0.0
 10
3560.325655573098
 20
330.0066605372905
 30
0.0
 10
4359.010625913291
 20
330.0066605372904
 30
0.0
  0
SPLINE
  5
146
330
1F
100
AcDbEntity
  8
Predefinito
100
AcDbSpline
210
0.0
220
0.0
230
1.0
 70
    24
 71
     2
 72
     6
 73
     3
 74
     0
 42
0.0000000001
 43
0.0000000001
 40
0.0
 40
0.0
 40
0.0
 40
1599.383252463265
 40
1599.383252463265
 40
1599.383252463265
 10
2759.627373450026
 20
317.5079105685418
 30
0.0
 10
3559.318999681658
 20
317.5079105685418
 30
0.0
 10
4359.010625913291
 20
317.5079105685418
 30
0.0
  0
SPLINE
  5
147
330
1F
100
AcDbEntity
  8
Predefinito
100
AcDbSpline
210
0.0
220
0.0
230
1.0
 70
    24
 71
     2
 72
     6
 73
     3
 74
     0
 42
0.0000000001
 43
0.0000000001
 40
0.0
 40
0.0
 40
0.0
 40
1599.367997301078
 40
1599.367997301078
 40
1599.367997301078
 10
2759.642628612213
 20
367.5054105060389
 30
0.0
 10
3559.326627262752
 20
367.5054105060389
 30
0.0
 10
4359.010625913291
 20
367.5054105060388
 30
0.0
  0
SPLINE
  5
148
330
1F
100
AcDbEntity
  8
Predefinito
100
AcDbSpline
210
0.0
220
0.0
230
1.0
 70
    24
 71
     2
 72
     6
 73
     3
 74
     0
 42
0.0000000001
 43
0.0000000001
 40
0.0
 40
0.0
 40
0.0
 40
1597.369381623975
 40
1597.369381623975
 40
1597.369381623975
 10
4359.010625913291
 20
355.006660537289
 30
0.0
 10
3560.325935101303
 20
355.0066605372889
 30
0.0
 10
2761.641244289316
 20
355.0066605372888
 30
0.0
  0
SPLINE
  5
149
330
1F
100
AcDbEntity
  8
Predefinito
100
AcDbSpline
210
0.0
220
0.0
230
1.0
 70
    24
 71
     2
 72
     6
 73
     3
 74
     0
 42
0.0000000001
 43
0.0000000001
 40
0.0
 40
0.0
 40
0.0
 40
0.2732050807559574
 40
0.2732050807559574
 40
0.2732050807559574
 10
4951.010625913292
 20
355.0066605372888
 30
0.0
 10
4951.010625913292
 20
354.8700579969108
 30
0.0
 10
4951.010625913292
 20
354.7334554565329
 30
0.0
  0
SPLINE
  5
14A
330
1F
100
AcDbEntity
  8
Predefinito
100
AcDbSpline
210
0.0
220
0.0
230
1.0
 70
    24
 71
     2
 72
     6
 73
     3
 74
     0
 42
0.0000000001
 43
0.0000000001
 40
0.0
 40
0.0
 40
0.0
 40
12.47394354296955
 40
12.47394354296955
 40
12.47394354296955
 10
4951.010625913292
 20
367.5054105060388
 30
0.0
 10
4951.010625913292
 20
361.268438734554
 30
0.0
 10
4951.010625913292
 20
355.0314669630692
 30
0.0
  0
SPLINE
  5
14B
330
1F
100
AcDbEntity
  8
Predefinito
100
AcDbSpline
210
0.0
220
0.0
230
1.0
 70
    24
 71
     2
 72
     6
 73
     3
 74
     0
 42
0.0000000001
 43
0.0000000001
 40
0.0
 40
0.0
 40
0.0
 40
12.4987499687486
 40
12.4987499687486
 40
12.4987499687486
 10
4951.010625913292
 20
330.0066605372903
 30
0.0
 10
4951.010625913292
 20
323.757285552916
 30
0.0
 10
4951.010625913292
 20
317.5079105685417
 30
0.0
  0
SPLINE
  5
14C
330
1F
100
AcDbEntity
  8
Predefinito
100
AcDbSpline
210
0.0
220
0.0
230
1.0
 70
    24
 71
     2
 72
     6
 73
     3
 74
     0
 42
0.0000000001
 43
0.0000000001
 40
0.0
 40
0.0
 40
0.0
 40
0.3000000000001961
 40
0.3000000000001961
 40
0.3000000000001961
 10
4951.010625913292
 20
330.3066605372905
 30
0.0
 10
4951.010625913292
 20
330.1566605372904
 30
0.0
 10
4951.010625913292
 20
330.0066605372903
 30
0.0
  0
SPLINE
  5
14D
330
1F
100
AcDbEntity
  8
Predefinito
100
AcDbSpline
210
0.0
220
0.0
230
1.0
 70
    24
 71
     2
 72
     6
 73
     3
 74
     0
 42
0.0000000001
 43
0.0000000001
 40
0.0
 40
0.0
 40
0.0
 40
0.1064514938825027
 40
0.1064514938825027
 40
0.1064514938825027
 10
4343.010625913291
 20
354.2566605372903
 30
0.0
 10
4343.010625913291
 20
354.2034347903491
 30
0.0
 10
4343.010625913291
 20
354.1502090434078
 30
0.0
  0
SPLINE
  5
14E
330
1F
100
AcDbEntity
  8
Predefinito
100
AcDbSpline
210
0.0
220
0.0
230
1.0
 70
    24
 71
     2
 72
     6
 73
     3
 74
     0
 42
0.0000000001
 43
0.0000000001
 40
0.0
 40
0.0
 40
0.0
 40
0.1064514938864249
 40
0.1064514938864249
 40
0.1064514938864249
 10
4935.010625913292
 20
354.1502090433979
 30
0.0
 10
4935.010625913292
 20
354.2034347903411
 30
0.0
 10
4935.010625913292
 20
354.2566605372843
 30
0.0
  0
SPLINE
  5
14F
330
1F
100
AcDbEntity
  8
Predefinito
100
AcDbSpline
210
0.0
220
0.0
230
1.0
 70
    24
 71
     2
 72
     6
 73
     3
 74
     0
 42
0.0000000001
 43
0.0000000001
 40
0.0
 40
0.0
 40
0.0
 40
373.7347881776736
 40
373.7347881776736
 40
373.7347881776736
 10
3769.010625913293
 20
330.7566605372863
 30
0.0
 10
3582.143231824456
 20
330.7566605372868
 30
0.0
 10
3395.275837735619
 20
330.7566605372874
 30
0.0
  0
SPLINE
  5
150
330
1F
100
AcDbEntity
  8
Predefinito
100
AcDbSpline
210
0.0
220
0.0
230
1.0
 70
    24
 71
     2
 72
     6
 73
     3
 74
     0
 42
0.0000000001
 43
0.0000000001
 40
0.0
 40
0.0
 40
0.0
 40
23.28709701274695
 40
23.28709701274695
 40
23.28709701274695
 10
4935.010625913292
 20
330.8631120306509
 30
0.0
 10
4935.010625913292
 20
342.5066605370245
 30
0.0
 10
4935.010625913292
 20
354.1502090433979
 30
0.0
  0
SPLINE
  5
151
330
1F
100
AcDbEntity
  8
Predefinito
100
AcDbSpline
210
0.0
220
0.0
230
1.0
 70
    24
 71
     2
 72
     6
 73
     3
 74
     0
 42
0.0000000001
 43
0.0000000001
 40
0.0
 40
0.0
 40
0.0
 40
15.979685232606
 40
15.979685232606
 40
15.979685232606
 10
4951.010625913292
 20
354.2566605372903
 30
0.0
 10
4943.020783297929
 20
354.2565380173504
 30
0.0
 10
4935.030940682565
 20
354.2564154974104
 30
0.0
  0
SPLINE
  5
152
330
1F
100
AcDbEntity
  8
Predefinito
100
AcDbSpline
210
0.0
220
0.0
230
1.0
 70
    24
 71
     2
 72
     6
 73
     3
 74
     0
 42
0.0000000001
 43
0.0000000001
 40
0.0
 40
0.0
 40
0.0
 40
15.98476392727065
 40
15.98476392727065
 40
15.98476392727065
 10
4935.025861990247
 20
330.7570280971105
 30
0.0
 10
4943.018243951769
 20
330.7568443172004
 30
0.0
 10
4951.010625913292
 20
330.7566605372903
 30
0.0
  0
SPLINE
  5
153
330
1F
100
AcDbEntity
  8
Predefinito
100
AcDbSpline
210
0.0
220
0.0
230
1.0
 70
    24
 71
     2
 72
     6
 73
     3
 74
     0
 42
0.0000000001
 43
0.0000000001
 40
0.0
 40
0.0
 40
0.0
 40
0.0777840917395736
 40
0.0777840917395736
 40
0.0777840917395736
 10
4935.010625913292
 20
330.8631120306509
 30
0.0
 10
4935.010625913292
 20
330.8242199847812
 30
0.0
 10
4935.010625913292
 20
330.7853279389113
 30
0.0
  0
SPLINE
  5
154
330
1F
100
AcDbEntity
  8
Predefinito
100
AcDbSpline
210
0.0
220
0.0
230
1.0
 70
    24
 71
     2
 72
     6
 73
     3
 74
     0
 42
0.0000000001
 43
0.0000000001
 40
0.0
 40
0.0
 40
0.0
 40
197.7532023738759
 40
197.7532023738759
 40
197.7532023738759
 10
4145.257423539415
 20
354.2566605372891
 30
0.0
 10
4244.134024726352
 20
354.2566605372897
 30
0.0
 10
4343.010625913291
 20
354.2566605372903
 30
0.0
  0
SPLINE
  5
155
330
1F
100
AcDbEntity
  8
Predefinito
100
AcDbSpline
210
0.0
220
0.0
230
1.0
 70
    12
 71
     2
 72
     8
 73
     5
 74
     0
 42
0.0000000001
 43
0.0000000001
 40
0.0
 40
0.0
 40
0.0
 40
9.389142106660273
 40
9.389142106660273
 40
18.82075815315572
 40
18.82075815315572
 40
18.82075815315572
 10
4149.991205126817
 20
343.0001795149518
 30
0.0
 41
1.0
 10
4149.48639443777
 20
348.9529561142457
 30
0.0
 41
0.7076232505475941
 10
4143.532886499792
 20
348.456844931848
 30
0.0
 41
1.0
 10
4137.556519641767
 20
347.9588158742837
 30
0.0
 41
0.7082869381212594
 10
4138.034580232545
 20
341.9808185645314
 30
0.0
 41
1.0
  0
SPLINE
  5
156
330
1F
100
AcDbEntity
  8
Predefinito
100
AcDbSpline
210
0.0
220
0.0
230
1.0
 70
    12
 71
     2
 72
    10
 73
     7
 74
     0
 42
0.0000000001
 43
0.0000000001
 40
0.0
 40
0.0
 40
0.0
 40
4.708881348976642
 40
4.708881348976642
 40
9.417762697953284
 40
9.417762697953284
 40
18.84936830917614
 40
18.84936830917614
 40
18.84936830917614
 10
4138.034593921214
 20
341.9806484606522
 30
0.0
 41
1.0
 10
4138.232658320083
 20
339.5045444034919
 30
0.0
 41
0.9235617891012496
 10
4140.126250625428
 20
337.8968662674445
 30
0.0
 41
1.0
 10
4142.019842930773
 20
336.2891881313971
 30
0.0
 41
0.9235617891012496
 10
4144.495276203788
 20
336.4954668720242
 30
0.0
 41
1.0
 10
4150.47163697038
 20
336.9934887961055
 30
0.0
 41
0.7082869425974659
 10
4149.993583568506
 20
342.9714799966903
 30
0.0
 41
1.0
  0
SPLINE
  5
157
330
1F
100
AcDbEntity
  8
Predefinito
100
AcDbSpline
210
0.0
220
0.0
230
1.0
 70
    12
 71
     2
 72
     8
 73
     5
 74
     0
 42
0.0000000001
 43
0.0000000001
 40
0.0
 40
0.0
 40
0.0
 40
18.428658864115
 40
18.428658864115
 40
36.85662884975066
 40
36.85662884975066
 40
36.85662884975066
 10
4155.720404337991
 20
343.4888270348436
 30
0.0
 41
1.0
 10
4154.724257208452
 20
355.1682587652098
 30
0.0
 41
0.7079547391668418
 10
4143.042468530803
 20
354.2001431012915
 30
0.0
 41
1.0
 10
4131.361364714489
 20
353.2320841945204
 30
0.0
 41
0.7079754420883705
 10
4132.300703248723
 20
341.5486357509911
 30
0.0
 41
1.0
  0
SPLINE
  5
158
330
1F
100
AcDbEntity
  8
Predefinito
100
AcDbSpline
210
0.0
220
0.0
230
1.0
 70
    12
 71
     2
 72
     8
 73
     5
 74
     0
 42
0.0000000001
 43
0.0000000001
 40
0.0
 40
0.0
 40
0.0
 40
18.40046088838515
 40
18.40046088838515
 40
36.85624441716712
 40
36.85624441716712
 40
36.85624441716712
 10
4132.305416257544
 20
341.4917458665912
 30
0.0
 41
1.0
 10
4133.299175655767
 20
329.8403093430961
 30
0.0
 41
0.7088016778391975
 10
4144.955247658632
 20
330.7781346288561
 30
0.0
 41
1.0
 10
4156.666329675561
 20
331.7203859152611
 30
0.0
 41
0.7071390760034391
 10
4155.725148149157
 20
343.4315539538598
 30
0.0
 41
1.0
  0
SPLINE
  5
159
330
1F
100
AcDbEntity
  8
Predefinito
100
AcDbSpline
210
0.0
220
0.0
230
1.0
 70
    12
 71
     2
 72
     8
 73
     5
 74
     0
 42
0.0000000001
 43
0.0000000001
 40
0.0
 40
0.0
 40
0.0
 40
9.389142106659945
 40
9.389142106659945
 40
18.82075815315527
 40
18.82075815315527
 40
18.82075815315527
 10
4899.991205126818
 20
343.0001795149515
 30
0.0
 41
1.0
 10
4899.48639443777
 20
348.9529561142444
 30
0.0
 41
0.7076232505477127
 10
4893.532886499792
 20
348.4568449318468
 30
0.0
 41
1.0
 10
4887.556519641767
 20
347.9588158742834
 30
0.0
 41
0.7082869381212558
 10
4888.034580232545
 20
341.9808185645312
 30
0.0
 41
1.0
  0
SPLINE
  5
15A
330
1F
100
AcDbEntity
  8
Predefinito
100
AcDbSpline
210
0.0
220
0.0
230
1.0
 70
    12
 71
     2
 72
    10
 73
     7
 74
     0
 42
0.0000000001
 43
0.0000000001
 40
0.0
 40
0.0
 40
0.0
 40
4.708881348977023
 40
4.708881348977023
 40
9.417762697954046
 40
9.417762697954046
 40
18.8493683091776
 40
18.8493683091776
 40
18.8493683091776
 10
4888.034593921213
 20
341.980648460652
 30
0.0
 41
1.0
 10
4888.232658320083
 20
339.5045444034916
 30
0.0
 41
0.923561789101286
 10
4890.126250625428
 20
337.8968662674442
 30
0.0
 41
1.0
 10
4892.019842930772
 20
336.2891881313967
 30
0.0
 41
0.923561789101286
 10
4894.495276203788
 20
336.4954668720234
 30
0.0
 41
1.0
 10
4900.47163697038
 20
336.9934887961052
 30
0.0
 41
0.7082869425975358
 10
4899.993583568507
 20
342.9714799966901
 30
0.0
 41
1.0
  0
SPLINE
  5
15B
330
1F
100
AcDbEntity
  8
Predefinito
100
AcDbSpline
210
0.0
220
0.0
230
1.0
 70
    12
 71
     2
 72
     8
 73
     5
 74
     0
 42
0.0000000001
 43
0.0000000001
 40
0.0
 40
0.0
 40
0.0
 40
18.42865886411516
 40
18.42865886411516
 40
36.85662884975234
 40
36.85662884975234
 40
36.85662884975234
 10
4905.720404337992
 20
343.4888270348434
 30
0.0
 41
1.0
 10
4904.724257208453
 20
355.1682587652097
 30
0.0
 41
0.7079547391668364
 10
4893.042468530804
 20
354.2001431012914
 30
0.0
 41
1.0
 10
4881.361364714488
 20
353.2320841945218
 30
0.0
 41
0.7079754420883064
 10
4882.300703248723
 20
341.5486357509908
 30
0.0
 41
1.0
  0
SPLINE
  5
15C
330
1F
100
AcDbEntity
  8
Predefinito
100
AcDbSpline
210
0.0
220
0.0
230
1.0
 70
    12
 71
     2
 72
     6
 73
     3
 74
     0
 42
0.0000000001
 43
0.0000000001
 40
0.0
 40
0.0
 40
0.0
 40
0.0545012303232016
 40
0.0545012303232016
 40
0.0545012303232016
 10
4905.725062119629
 20
343.4326238115814
 30
0.0
 41
1.0
 10
4905.722876645687
 20
343.4597866978999
 30
0.0
 41
0.9999973106539404
 10
4905.720565203306
 20
343.4869391549453
 30
0.0
 41
1.0
  0
SPLINE
  5
15D
330
1F
100
AcDbEntity
  8
Predefinito
100
AcDbSpline
210
0.0
220
0.0
230
1.0
 70
    12
 71
     2
 72
     8
 73
     5
 74
     0
 42
0.0000000001
 43
0.0000000001
 40
0.0
 40
0.0
 40
0.0
 40
18.40046088838505
 40
18.40046088838505
 40
36.85624441701917
 40
36.85624441701917
 40
36.85624441701917
 10
4882.305416257544
 20
341.491745866591
 30
0.0
 41
1.0
 10
4883.299175655766
 20
329.8403093430955
 30
0.0
 41
0.708801677839156
 10
4894.955247658632
 20
330.7781346288564
 30
0.0
 41
1.0
 10
4906.666329675413
 20
331.7203859152481
 30
0.0
 41
0.707139076007884
 10
4905.725148149169
 20
343.4315539537114
 30
0.0
 41
1.0
  0
SPLINE
  5
15E
330
1F
100
AcDbEntity
  8
Predefinito
100
AcDbSpline
210
0.0
220
0.0
230
1.0
 70
    12
 71
     2
 72
     6
 73
     3
 74
     0
 42
0.0000000001
 43
0.0000000001
 40
0.0
 40
0.0
 40
0.0
 40
0.8458465139474458
 40
0.8458465139474458
 40
0.8458465139474458
 10
58.15521149083091
 20
668.6054486806297
 30
0.0
 41
1.0
 10
57.73225700351051
 20
668.6076072637487
 30
0.0
 41
0.9998697141735929
 10
57.30945324438115
 20
668.5961120868618
 30
0.0
 41
1.0
  0
SPLINE
  5
15F
330
1F
100
AcDbEntity
  8
Predefinito
100
AcDbSpline
210
0.0
220
0.0
230
1.0
 70
    12
 71
     2
 72
     6
 73
     3
 74
     0
 42
0.0000000001
 43
0.0000000001
 40
0.0
 40
0.0
 40
0.0
 40
0.5212623054379107
 40
0.5212623054379107
 40
0.5212623054379107
 10
56.78865009705046
 20
668.5744641878566
 30
0.0
 41
1.0
 10
57.04893883813945
 20
668.5880026530197
 30
0.0
 41
0.9999456709507224
 10
57.30945324438115
 20
668.5961120868618
 30
0.0
 41
1.0
  0
SPLINE
  5
160
330
1F
100
AcDbEntity
  8
Predefinito
100
AcDbSpline
210
0.0
220
0.0
230
1.0
 70
    12
 71
     2
 72
     6
 73
     3
 74
     0
 42
0.0000000001
 43
0.0000000001
 40
0.0
 40
0.0
 40
0.0
 40
0.4026283095574601
 40
0.4026283095574601
 40
0.4026283095574601
 10
58.18074265556946
 20
668.6053079660917
 30
0.0
 41
1.0
 10
58.38206112313538
 20
668.6052072518866
 30
0.0
 41
0.9999676785473507
 10
58.58335194406531
 20
668.6018694478498
 30
0.0
 41
1.0
  0
SPLINE
  5
161
330
1F
100
AcDbEntity
  8
Predefinito
100
AcDbSpline
210
0.0
220
0.0
230
1.0
 70
    24
 71
     2
 72
     6
 73
     3
 74
     0
 42
0.0000000001
 43
0.0000000001
 40
0.0
 40
0.0
 40
0.0
 40
0.0562032232619458
 40
0.0562032232619458
 40
0.0562032232619458
 10
59.09754767668353
 20
717.3121602462611
 30
0.0
 10
59.12564928831451
 20
717.3121602462611
 30
0.0
 10
59.15375089994548
 20
717.3121602462611
 30
0.0
  0
VIEWPORT
  5
16B
330
167
100
AcDbEntity
 67
     1
  8
0
100
AcDbViewport
 10
6.0
 20
4.5
 30
0.0
 40
12.696
 41
9.522
 68
     1
 69
     1
 12
6.0
 22
4.5
 13
0.0
 23
0.0
 14
0.5
 24
0.5
 15
0.5
 25
0.5
 16
0.0
 26
0.0
 36
1.0
 17
0.0
 27
0.0
 37
0.0
 42
50.0
 43
0.0
 44
0.0
 45
9.522
 50
0.0
 51
0.0
 72
   100
 90
   557152
  1

281
     0
 71
     1
 74
     0
110
0.0
120
0.0
130
0.0
111
1.0
121
0.0
131
0.0
112
0.0
122
1.0
132
0.0
 79
     0
146
0.0
170
     0
  0
ENDSEC
  0
SECTION
  2
OBJECTS
  0
DICTIONARY
  5
C
330
0
100
AcDbDictionary
281
     1
  3
ACAD_GROUP
350
D
  3
ACAD_LAYOUT
350
1A
  3
ACAD_MLEADERSTYLE
350
191
  3
ACAD_MLINESTYLE
350
17
  3
ACAD_PLOTSETTINGS
350
19
  3
ACAD_PLOTSTYLENAME
350
E
  3
ACAD_SCALELIST
350
16C
  3
ACAD_TABLESTYLE
350
190
  3
ACAD_VISUALSTYLE
350
2A
  3
AcDbVariableDictionary
350
18E
  0
DICTIONARY
  5
D
102
{ACAD_REACTORS
330
C
102
}
330
C
100
AcDbDictionary
281
     1
  0
DICTIONARY
  5
1A
102
{ACAD_REACTORS
330
C
102
}
330
C
100
AcDbDictionary
281
     1
  3
Layout1
350
163
  3
Layout2
350
168
  3
Model
350
22
  0
DICTIONARY
  5
191
102
{ACAD_REACTORS
330
C
102
}
330
C
100
AcDbDictionary
281
     1
  0
DICTIONARY
  5
17
102
{ACAD_REACTORS
330
C
102
}
330
C
100
AcDbDictionary
281
     1
  3
Standard
350
18
  0
DICTIONARY
  5
19
102
{ACAD_REACTORS
330
C
102
}
330
C
100
AcDbDictionary
281
     1
  0
ACDBDICTIONARYWDFLT
  5
E
102
{ACAD_REACTORS
330
C
102
}
330
C
100
AcDbDictionary
281
     1
  3
Normal
350
F
100
AcDbDictionaryWithDefault
340
F
  0
DICTIONARY
  5
16C
102
{ACAD_REACTORS
330
C
102
}
330
C
100
AcDbDictionary
281
     1
  3
A0
350
16D
  3
A1
350
16E
  3
A2
350
16F
  3
A3
350
170
  3
A4
350
171
  3
A5
350
172
  3
A6
350
173
  3
A7
350
174
  3
A8
350
175
  3
A9
350
176
  3
B0
350
177
  3
B1
350
178
  3
B2
350
179
  3
B3
350
17A
  3
B4
350
17B
  3
B5
350
17C
  3
B6
350
17D
  3
B7
350
17E
  3
B8
350
17F
  3
B9
350
180
  3
C0
350
181
  3
C1
350
182
  3
C2
350
183
  3
C3
350
184
  3
C4
350
185
  3
C5
350
186
  3
C6
350
187
  3
C7
350
188
  3
C8
350
189
  3
C9
350
18A
  3
D0
350
18B
  3
D1
350
18C
  3
D2
350
18D
  0
DICTIONARY
  5
190
102
{ACAD_REACTORS
330
C
102
}
330
C
100
AcDbDictionary
281
     1
  0
DICTIONARY
  5
2A
102
{ACAD_REACTORS
330
C
102
}
330
C
100
AcDbDictionary
281
     1
  3
2dWireframe
350
2F
  3
3D Hidden
350
31
  3
3dWireframe
350
30
  3
Basic
350
32
  3
Brighten
350
36
  3
ColorChange
350
3A
  3
Conceptual
350
34
  3
Dim
350
35
  3
Facepattern
350
39
  3
Flat
350
2B
  3
FlatWithEdges
350
2C
  3
Gouraud
350
2D
  3
GouraudWithEdges
350
2E
  3
Linepattern
350
38
  3
Realistic
350
33
  3
Thicken
350
37
  0
DICTIONARY
  5
18E
102
{ACAD_REACTORS
330
C
102
}
330
C
100
AcDbDictionary
281
     1
  3
CANNOSCALE
350
18F
  0
LAYOUT
  5
163
102
{ACAD_REACTORS
330
1A
102
}
330
1A
100
AcDbPlotSettings
  1

  2
none_device
  4
Letter_(8.50_x_11.00_Inches)
  6

 40
6.35
 41
6.35
 42
6.35000508
 43
6.35000508
 44
215.9
 45
279.4
 46
0.0
 47
0.0
 48
0.0
 49
0.0
140
0.0
141
0.0
142
1.0
143
1.0
 70
   688
 72
     0
 73
     1
 74
     5
  7

 75
    16
 76
     0
 77
     2
 78
   300
147
1.0
148
0.0
149
0.0
100
AcDbLayout
  1
Layout1
 70
     1
 71
     1
 10
0.0
 20
0.0
 11
0.0
 21
0.0
 12
0.0
 22
0.0
 32
0.0
 14
0.0
 24
0.0
 34
0.0
 15
0.0
 25
0.0
 35
0.0
146
0.0
 13
0.0
 23
0.0
 33
0.0
 16
1.0
 26
0.0
 36
0.0
 17
0.0
 27
1.0
 37
0.0
 76
     0
330
162
331
166
  0
LAYOUT
  5
168
102
{ACAD_REACTORS
330
1A
102
}
330
1A
100
AcDbPlotSettings
  1

  2
none_device
  4
Letter_(8.50_x_11.00_Inches)
  6

 40
6.35
 41
6.35
 42
6.35000508
 43
6.35000508
 44
215.9
 45
279.4
 46
0.0
 47
0.0
 48
0.0
 49
0.0
140
0.0
141
0.0
142
1.0
143
1.0
 70
   688
 72
     0
 73
     1
 74
     5
  7

 75
    16
 76
     0
 77
     2
 78
   300
147
1.0
148
0.0
149
0.0
100
AcDbLayout
  1
Layout2
 70
     1
 71
     2
 10
0.0
 20
0.0
 11
0.0
 21
0.0
 12
0.0
 22
0.0
 32
0.0
 14
0.0
 24
0.0
 34
0.0
 15
0.0
 25
0.0
 35
0.0
146
0.0
 13
0.0
 23
0.0
 33
0.0
 16
1.0
 26
0.0
 36
0.0
 17
0.0
 27
1.0
 37
0.0
 76
     0
330
167
331
16B
  0
LAYOUT
  5
22
102
{ACAD_REACTORS
330
1A
102
}
330
1A
100
AcDbPlotSettings
  1

  2
none_device
  4

  6

 40
0.0
 41
0.0
 42
0.0
 43
0.0
 44
0.0
 45
0.0
 46
0.0
 47
0.0
 48
0.0
 49
0.0
140
0.0
141
0.0
142
1.0
143
1.0
 70
  1712
 72
     0
 73
     0
 74
     0
  7

 75
     0
 76
     0
 77
     2
 78
   300
147
1.0
148
0.0
149
0.0
100
AcDbLayout
  1
Model
 70
     1
 71
     0
 10
0.0
 20
0.0
 11
12.0
 21
9.0
 12
0.0
 22
0.0
 32
0.0
 14
-60.0870701615699
 24
224.3696945806497
 34
0.0
 15
4961.010625913293
 25
718.3121602462616
 35
0.0
146
0.0
 13
0.0
 23
0.0
 33
0.0
 16
1.0
 26
0.0
 36
0.0
 17
0.0
 27
1.0
 37
0.0
 76
     0
330
1F
331
29
  0
MLINESTYLE
  5
18
102
{ACAD_REACTORS
330
17
102
}
330
17
100
AcDbMlineStyle
  2
Standard
 70
     0
  3

 62
   256
 51
90.0
 52
90.0
 71
     2
 49
0.5
 62
   256
  6
BYLAYER
 49
-0.5
 62
   256
  6
BYLAYER
  0
ACDBPLACEHOLDER
  5
F
102
{ACAD_REACTORS
330
E
102
}
330
E
  0
SCALE
  5
16D
102
{ACAD_REACTORS
330
16C
102
}
330
16C
100
AcDbScale
 70
     0
300
1:1
140
1.0
141
1.0
290
     1
  0
SCALE
  5
16E
102
{ACAD_REACTORS
330
16C
102
}
330
16C
100
AcDbScale
 70
     0
300
1:2
140
1.0
141
2.0
290
     0
  0
SCALE
  5
16F
102
{ACAD_REACTORS
330
16C
102
}
330
16C
100
AcDbScale
 70
     0
300
1:4
140
1.0
141
4.0
290
     0
  0
SCALE
  5
170
102
{ACAD_REACTORS
330
16C
102
}
330
16C
100
AcDbScale
 70
     0
300
1:5
140
1.0
141
5.0
290
     0
  0
SCALE
  5
171
102
{ACAD_REACTORS
330
16C
102
}
330
16C
100
AcDbScale
 70
     0
300
1:8
140
1.0
141
8.0
290
     0
  0
SCALE
  5
172
102
{ACAD_REACTORS
330
16C
102
}
330
16C
100
AcDbScale
 70
     0
300
1:10
140
1.0
141
10.0
290
     0
  0
SCALE
  5
173
102
{ACAD_REACTORS
330
16C
102
}
330
16C
100
AcDbScale
 70
     0
300
1:16
140
1.0
141
16.0
290
     0
  0
SCALE
  5
174
102
{ACAD_REACTORS
330
16C
102
}
330
16C
100
AcDbScale
 70
     0
300
1:20
140
1.0
141
20.0
290
     0
  0
SCALE
  5
175
102
{ACAD_REACTORS
330
16C
102
}
330
16C
100
AcDbScale
 70
     0
300
1:30
140
1.0
141
30.0
290
     0
  0
SCALE
  5
176
102
{ACAD_REACTORS
330
16C
102
}
330
16C
100
AcDbScale
 70
     0
300
1:40
140
1.0
141
40.0
290
     0
  0
SCALE
  5
177
102
{ACAD_REACTORS
330
16C
102
}
330
16C
100
AcDbScale
 70
     0
300
1:50
140
1.0
141
50.0
290
     0
  0
SCALE
  5
178
102
{ACAD_REACTORS
330
16C
102
}
330
16C
100
AcDbScale
 70
     0
300
1:100
140
1.0
141
100.0
290
     0
  0
SCALE
  5
179
102
{ACAD_REACTORS
330
16C
102
}
330
16C
100
AcDbScale
 70
     0
300
2:1
140
2.0
141
1.0
290
     0
  0
SCALE
  5
17A
102
{ACAD_REACTORS
330
16C
102
}
330
16C
100
AcDbScale
 70
     0
300
4:1
140
4.0
141
1.0
290
     0
  0
SCALE
  5
17B
102
{ACAD_REACTORS
330
16C
102
}
330
16C
100
AcDbScale
 70
     0
300
8:1
140
8.0
141
1.0
290
     0
  0
SCALE
  5
17C
102
{ACAD_REACTORS
330
16C
102
}
330
16C
100
AcDbScale
 70
     0
300
10:1
140
10.0
141
1.0
290
     0
  0
SCALE
  5
17D
102
{ACAD_REACTORS
330
16C
102
}
330
16C
100
AcDbScale
 70
     0
300
100:1
140
100.0
141
1.0
290
     0
  0
SCALE
  5
17E
102
{ACAD_REACTORS
330
16C
102
}
330
16C
100
AcDbScale
 70
     0
300
1/128" = 1'-0"
140
0.0078125
141
12.0
290
     0
  0
SCALE
  5
17F
102
{ACAD_REACTORS
330
16C
102
}
330
16C
100
AcDbScale
 70
     0
300
1/64" = 1'-0"
140
0.015625
141
12.0
290
     0
  0
SCALE
  5
180
102
{ACAD_REACTORS
330
16C
102
}
330
16C
100
AcDbScale
 70
     0
300
1/32" = 1'-0"
140
0.03125
141
12.0
290
     0
  0
SCALE
  5
181
102
{ACAD_REACTORS
330
16C
102
}
330
16C
100
AcDbScale
 70
     0
300
1/16" = 1'-0"
140
0.0625
141
12.0
290
     0
  0
SCALE
  5
182
102
{ACAD_REACTORS
330
16C
102
}
330
16C
100
AcDbScale
 70
     0
300
3/32" = 1'-0"
140
0.09375
141
12.0
290
     0
  0
SCALE
  5
183
102
{ACAD_REACTORS
330
16C
102
}
330
16C
100
AcDbScale
 70
     0
300
1/8" = 1'-0"
140
0.125
141
12.0
290
     0
  0
SCALE
  5
184
102
{ACAD_REACTORS
330
16C
102
}
330
16C
100
AcDbScale
 70
     0
300
3/16" = 1'-0"
140
0.1875
141
12.0
290
     0
  0
SCALE
  5
185
102
{ACAD_REACTORS
330
16C
102
}
330
16C
100
AcDbScale
 70
     0
300
1/4" = 1'-0"
140
0.25
141
12.0
290
     0
  0
SCALE
  5
186
102
{ACAD_REACTORS
330
16C
102
}
330
16C
100
AcDbScale
 70
     0
300
3/8" = 1'-0"
140
0.375
141
12.0
290
     0
  0
SCALE
  5
187
102
{ACAD_REACTORS
330
16C
102
}
330
16C
100
AcDbScale
 70
     0
300
1/2" = 1'-0"
140
0.5
141
12.0
290
     0
  0
SCALE
  5
188
102
{ACAD_REACTORS
330
16C
102
}
330
16C
100
AcDbScale
 70
     0
300
3/4" = 1'-0"
140
0.75
141
12.0
290
     0
  0
SCALE
  5
189
102
{ACAD_REACTORS
330
16C
102
}
330
16C
100
AcDbScale
 70
     0
300
1" = 1'-0"
140
1.0
141
12.0
290
     0
  0
SCALE
  5
18A
102
{ACAD_REACTORS
330
16C
102
}
330
16C
100
AcDbScale
 70
     0
300
1-1/2" = 1'-0"
140
1.5
141
12.0
290
     0
  0
SCALE
  5
18B
102
{ACAD_REACTORS
330
16C
102
}
330
16C
100
AcDbScale
 70
     0
300
3" = 1'-0"
140
3.0
141
12.0
290
     0
  0
SCALE
  5
18C
102
{ACAD_REACTORS
330
16C
102
}
330
16C
100
AcDbScale
 70
     0
300
6" = 1'-0"
140
6.0
141
12.0
290
     0
  0
SCALE
  5
18D
102
{ACAD_REACTORS
330
16C
102
}
330
16C
100
AcDbScale
 70
     0
300
1'-0" = 1'-0"
140
12.0
141
12.0
290
     0
  0
VISUALSTYLE
  5
2F
102
{ACAD_REACTORS
330
2A
102
}
330
2A
100
AcDbVisualStyle
  2
2dWireframe
 70
     4
 71
     0
 72
     2
 73
     0
 90
        0
 40
-0.6
 41
-30.0
 62
     5
 63
     7
421
 16777215
 74
     1
 91
        4
 64
     7
 65
   257
 75
     1
175
     1
 42
1.0
 92
        0
 66
   257
 43
1.0
 76
     1
 77
     6
 78
     2
 67
     7
 79
     5
170
     0
171
     0
290
     0
174
     0
 93
        1
 44
0.0
173
     0
291
     0
 45
0.0
1001
ACAD
1000
AcDbSavedByObjectVersion
1070
     0
  0
VISUALSTYLE
  5
31
102
{ACAD_REACTORS
330
2A
102
}
330
2A
100
AcDbVisualStyle
  2
3D Hidden
 70
     6
 71
     1
 72
     2
 73
     2
 90
        0
 40
-0.6
 41
-30.0
 62
     5
 63
     7
421
 16777215
 74
     2
 91
        2
 64
     7
 65
   257
 75
     2
175
     1
 42
40.0
 92
        0
 66
   257
 43
1.0
 76
     1
 77
     6
 78
     2
 67
     7
 79
     3
170
     0
171
     0
290
     0
174
     0
 93
        1
 44
0.0
173
     0
291
     0
 45
0.0
1001
ACAD
1000
AcDbSavedByObjectVersion
1070
     0
  0
VISUALSTYLE
  5
30
102
{ACAD_REACTORS
330
2A
102
}
330
2A
100
AcDbVisualStyle
  2
3dWireframe
 70
     5
 71
     0
 72
     2
 73
     0
 90
        0
 40
-0.6
 41
-30.0
 62
     5
 63
     7
421
 16777215
 74
     1
 91
        4
 64
     7
 65
   257
 75
     1
175
     1
 42
1.0
 92
        0
 66
   257
 43
1.0
 76
     1
 77
     6
 78
     2
 67
     7
 79
     5
170
     0
171
     0
290
     0
174
     0
 93
        1
 44
0.0
173
     0
291
     0
 45
0.0
1001
ACAD
1000
AcDbSavedByObjectVersion
1070
     0
  0
VISUALSTYLE
  5
32
102
{ACAD_REACTORS
330
2A
102
}
330
2A
100
AcDbVisualStyle
  2
Basic
 70
     7
 71
     1
 72
     0
 73
     1
 90
        0
 40
-0.6
 41
-30.0
 62
     5
 63
     7
421
 16777215
 74
     0
 91
        4
 64
     7
 65
   257
 75
     1
175
     1
 42
1.0
 92
        8
 66
     7
 43
1.0
 76
     1
 77
     6
 78
     2
 67
     7
 79
     5
170
     0
171
     0
290
     0
174
     0
 93
        1
 44
0.0
173
     0
291
     1
 45
0.0
1001
ACAD
1000
AcDbSavedByObjectVersion
1070
     0
  0
VISUALSTYLE
  5
36
102
{ACAD_REACTORS
330
2A
102
}
330
2A
100
AcDbVisualStyle
  2
Brighten
 70
    12
 71
     2
 72
     2
 73
     0
 90
        0
 40
-0.6
 41
-30.0
 62
     5
 63
     7
421
 16777215
 74
     1
 91
        4
 64
     7
 65
   257
 75
     1
175
     1
 42
1.0
 92
        8
 66
     7
 43
1.0
 76
     1
 77
     6
 78
     2
 67
     7
 79
     5
170
     0
171
     0
290
     0
174
     0
 93
        1
 44
50.0
173
     0
291
     1
 45
0.0
1001
ACAD
1000
AcDbSavedByObjectVersion
1070
     0
  0
VISUALSTYLE
  5
3A
102
{ACAD_REACTORS
330
2A
102
}
330
2A
100
AcDbVisualStyle
  2
ColorChange
 70
    16
 71
     2
 72
     2
 73
     3
 90
        0
 40
-0.6
 41
-30.0
 62
     5
 63
     8
421
  8421504
 74
     1
 91
        4
 64
     7
 65
   257
 75
     1
175
     1
 42
1.0
 92
        8
 66
     8
424
  8421504
 43
1.0
 76
     1
 77
     6
 78
     2
 67
     7
 79
     5
170
     0
171
     0
290
     0
174
     0
 93
        1
 44
0.0
173
     0
291
     1
 45
0.0
1001
ACAD
1000
AcDbSavedByObjectVersion
1070
     0
  0
VISUALSTYLE
  5
34
102
{ACAD_REACTORS
330
2A
102
}
330
2A
100
AcDbVisualStyle
  2
Conceptual
 70
     9
 71
     3
 72
     2
 73
     0
 90
        0
 40
-0.6
 41
-30.0
 62
     5
 63
     7
421
 16777215
 74
     2
 91
        2
 64
     7
 65
   257
 75
     1
175
     1
 42
40.0
 92
        8
 66
     7
 43
1.0
 76
     1
 77
     6
 78
     2
 67
     7
 79
     3
170
     0
171
     0
290
     0
174
     0
 93
        1
 44
0.0
173
     0
291
     0
 45
0.0
1001
ACAD
1000
AcDbSavedByObjectVersion
1070
     0
  0
VISUALSTYLE
  5
35
102
{ACAD_REACTORS
330
2A
102
}
330
2A
100
AcDbVisualStyle
  2
Dim
 70
    11
 71
     2
 72
     2
 73
     0
 90
        0
 40
-0.6
 41
-30.0
 62
     5
 63
     7
421
 16777215
 74
     1
 91
        4
 64
     7
 65
   257
 75
     1
175
     1
 42
1.0
 92
        8
 66
     7
 43
1.0
 76
     1
 77
     6
 78
     2
 67
     7
 79
     5
170
     0
171
     0
290
     0
174
     0
 93
        1
 44
-50.0
173
     0
291
     1
 45
0.0
1001
ACAD
1000
AcDbSavedByObjectVersion
1070
     0
  0
VISUALSTYLE
  5
39
102
{ACAD_REACTORS
330
2A
102
}
330
2A
100
AcDbVisualStyle
  2
Facepattern
 70
    15
 71
     2
 72
     2
 73
     0
 90
        0
 40
-0.6
 41
-30.0
 62
     5
 63
     7
421
 16777215
 74
     1
 91
        4
 64
     7
 65
   257
 75
     1
175
     1
 42
1.0
 92
        8
 66
     7
 43
1.0
 76
     1
 77
     6
 78
     2
 67
     7
 79
     5
170
     0
171
     0
290
     0
174
     0
 93
        1
 44
0.0
173
     0
291
     1
 45
0.0
1001
ACAD
1000
AcDbSavedByObjectVersion
1070
     0
  0
VISUALSTYLE
  5
2B
102
{ACAD_REACTORS
330
2A
102
}
330
2A
100
AcDbVisualStyle
  2
Flat
 70
     0
 71
     2
 72
     1
 73
     1
 90
        2
 40
-0.6
 41
30.0
 62
     5
 63
     7
421
 16777215
 74
     0
 91
        4
 64
     7
 65
   257
 75
     1
175
     1
 42
1.0
 92
        8
 66
     7
 43
1.0
 76
     1
 77
     6
 78
     2
 67
     7
 79
     5
170
     0
171
     0
290
     0
174
     0
 93
       13
 44
0.0
173
     0
291
     1
 45
0.0
1001
ACAD
1000
AcDbSavedByObjectVersion
1070
     0
  0
VISUALSTYLE
  5
2C
102
{ACAD_REACTORS
330
2A
102
}
330
2A
100
AcDbVisualStyle
  2
FlatWithEdges
 70
     1
 71
     2
 72
     1
 73
     1
 90
        2
 40
-0.6
 41
30.0
 62
     5
 63
     7
421
 16777215
 74
     1
 91
        4
 64
     7
 65
   257
 75
     1
175
     1
 42
1.0
 92
        0
 66
   257
 43
1.0
 76
     1
 77
     6
 78
     2
 67
     7
 79
     5
170
     0
171
     0
290
     0
174
     0
 93
       13
 44
0.0
173
     0
291
     1
 45
0.0
1001
ACAD
1000
AcDbSavedByObjectVersion
1070
     0
  0
VISUALSTYLE
  5
2D
102
{ACAD_REACTORS
330
2A
102
}
330
2A
100
AcDbVisualStyle
  2
Gouraud
 70
     2
 71
     2
 72
     2
 73
     1
 90
        2
 40
-0.6
 41
30.0
 62
     5
 63
     7
421
 16777215
 74
     0
 91
        4
 64
     7
 65
   257
 75
     1
175
     1
 42
1.0
 92
        0
 66
     7
 43
1.0
 76
     1
 77
     6
 78
     2
 67
     7
 79
     5
170
     0
171
     0
290
     0
174
     0
 93
       13
 44
0.0
173
     0
291
     1
 45
0.0
1001
ACAD
1000
AcDbSavedByObjectVersion
1070
     0
  0
VISUALSTYLE
  5
2E
102
{ACAD_REACTORS
330
2A
102
}
330
2A
100
AcDbVisualStyle
  2
GouraudWithEdges
 70
     3
 71
     2
 72
     2
 73
     1
 90
        2
 40
-0.6
 41
30.0
 62
     5
 63
     7
421
 16777215
 74
     1
 91
        4
 64
     7
 65
   257
 75
     1
175
     1
 42
1.0
 92
        0
 66
   257
 43
1.0
 76
     1
 77
     6
 78
     2
 67
     7
 79
     5
170
     0
171
     0
290
     0
174
     0
 93
       13
 44
0.0
173
     0
291
     1
 45
0.0
1001
ACAD
1000
AcDbSavedByObjectVersion
1070
     0
  0
VISUALSTYLE
  5
38
102
{ACAD_REACTORS
330
2A
102
}
330
2A
100
AcDbVisualStyle
  2
Linepattern
 70
    14
 71
     2
 72
     2
 73
     0
 90
        0
 40
-0.6
 41
-30.0
 62
     5
 63
     7
421
 16777215
 74
     1
 91
        4
 64
     7
 65
   257
 75
     7
175
     7
 42
1.0
 92
        8
 66
     7
 43
1.0
 76
     1
 77
     6
 78
     2
 67
     7
 79
     5
170
     0
171
     0
290
     0
174
     0
 93
        1
 44
0.0
173
     0
291
     1
 45
0.0
1001
ACAD
1000
AcDbSavedByObjectVersion
1070
     0
  0
VISUALSTYLE
  5
33
102
{ACAD_REACTORS
330
2A
102
}
330
2A
100
AcDbVisualStyle
  2
Realistic
 70
     8
 71
     2
 72
     2
 73
     0
 90
        0
 40
-0.6
 41
-30.0
 62
     5
 63
     7
421
 16777215
 74
     1
 91
        0
 64
     7
 65
   257
 75
     1
175
     1
 42
1.0
 92
        8
 66
     8
424
  7895160
 43
1.0
 76
     1
 77
     6
 78
     2
 67
     7
 79
     5
170
     0
171
     0
290
     0
174
     0
 93
       13
 44
0.0
173
     0
291
     0
 45
0.0
1001
ACAD
1000
AcDbSavedByObjectVersion
1070
     0
  0
VISUALSTYLE
  5
37
102
{ACAD_REACTORS
330
2A
102
}
330
2A
100
AcDbVisualStyle
  2
Thicken
 70
    13
 71
     2
 72
     2
 73
     0
 90
        0
 40
-0.6
 41
-30.0
 62
     5
 63
     7
421
 16777215
 74
     1
 91
        4
 64
     7
 65
   257
 75
     1
175
     1
 42
1.0
 92
       12
 66
     7
 43
1.0
 76
     1
 77
     6
 78
     2
 67
     7
 79
     5
170
     0
171
     0
290
     0
174
     0
 93
        1
 44
0.0
173
     0
291
     1
 45
0.0
1001
ACAD
1000
AcDbSavedByObjectVersion
1070
     0
  0
DICTIONARYVAR
  5
18F
102
{ACAD_REACTORS
330
18E
102
}
330
18E
100
DictionaryVariables
280
     0
  1
1:1
  0
ENDSEC
  0
EOF
