  0
SECTION
  2
HEADER
  9
$ACADVER
  1
AC1018
  9
$ACADMAINTVER
 70
    39
  9
$DWGCODEPAGE
  3
ANSI_1252
  9
$INSBASE
 10
0.0
 20
0.0
 30
0.0
  9
$EXTMIN
 10
161.2861005375703
 20
-0.0000000000000009
 30
0.0
  9
$EXTMAX
 10
422.8274460136849
 20
226.6916023260907
 30
0.0
  9
$LIMMIN
 10
0.0
 20
0.0
  9
$LIMMAX
 10
12.0
 20
9.0
  9
$ORTHOMODE
 70
     0
  9
$REGENMODE
 70
     1
  9
$FILLMODE
 70
     1
  9
$QTEXTMODE
 70
     0
  9
$MIRRTEXT
 70
     1
  9
$LTSCALE
 40
1.0
  9
$ATTMODE
 70
     1
  9
$TEXTSIZE
 40
0.2
  9
$TRACEWID
 40
0.05
  9
$TEXTSTYLE
  7
Standard
  9
$CLAYER
  8
0
  9
$CELTYPE
  6
ByLayer
  9
$CECOLOR
 62
   256
  9
$CELTSCALE
 40
1.0
  9
$DISPSILH
 70
     0
  9
$DIMSCALE
 40
1.0
  9
$DIMASZ
 40
0.18
  9
$DIMEXO
 40
0.0625
  9
$DIMDLI
 40
0.38
  9
$DIMRND
 40
0.0
  9
$DIMDLE
 40
0.0
  9
$DIMEXE
 40
0.18
  9
$DIMTP
 40
0.0
  9
$DIMTM
 40
0.0
  9
$DIMTXT
 40
0.18
  9
$DIMCEN
 40
0.09
  9
$DIMTSZ
 40
0.0
  9
$DIMTOL
 70
     0
  9
$DIMLIM
 70
     0
  9
$DIMTIH
 70
     1
  9
$DIMTOH
 70
     1
  9
$DIMSE1
 70
     0
  9
$DIMSE2
 70
     0
  9
$DIMTAD
 70
     0
  9
$DIMZIN
 70
     0
  9
$DIMBLK
  1

  9
$DIMASO
 70
     1
  9
$DIMSHO
 70
     1
  9
$DIMPOST
  1

  9
$DIMAPOST
  1

  9
$DIMALT
 70
     0
  9
$DIMALTD
 70
     2
  9
$DIMALTF
 40
25.4
  9
$DIMLFAC
 40
1.0
  9
$DIMTOFL
 70
     0
  9
$DIMTVP
 40
0.0
  9
$DIMTIX
 70
     0
  9
$DIMSOXD
 70
     0
  9
$DIMSAH
 70
     0
  9
$DIMBLK1
  1

  9
$DIMBLK2
  1

  9
$DIMSTYLE
  2
Standard
  9
$DIMCLRD
 70
     0
  9
$DIMCLRE
 70
     0
  9
$DIMCLRT
 70
     0
  9
$DIMTFAC
 40
1.0
  9
$DIMGAP
 40
0.09
  9
$DIMJUST
 70
     0
  9
$DIMSD1
 70
     0
  9
$DIMSD2
 70
     0
  9
$DIMTOLJ
 70
     1
  9
$DIMTZIN
 70
     0
  9
$DIMALTZ
 70
     0
  9
$DIMALTTZ
 70
     0
  9
$DIMUPT
 70
     0
  9
$DIMDEC
 70
     4
  9
$DIMTDEC
 70
     4
  9
$DIMALTU
 70
     2
  9
$DIMALTTD
 70
     2
  9
$DIMTXSTY
  7
Standard
  9
$DIMAUNIT
 70
     0
  9
$DIMADEC
 70
     0
  9
$DIMALTRND
 40
0.0
  9
$DIMAZIN
 70
     0
  9
$DIMDSEP
 70
    46
  9
$DIMATFIT
 70
     3
  9
$DIMFRAC
 70
     0
  9
$DIMLDRBLK
  1

  9
$DIMLUNIT
 70
     2
  9
$DIMLWD
 70
    -2
  9
$DIMLWE
 70
    -2
  9
$DIMTMOVE
 70
     0
  9
$LUNITS
 70
     2
  9
$LUPREC
 70
     3
  9
$SKETCHINC
 40
0.1
  9
$FILLETRAD
 40
0.5
  9
$AUNITS
 70
     0
  9
$AUPREC
 70
     0
  9
$MENU
  1
.
  9
$ELEVATION
 40
0.0
  9
$PELEVATION
 40
0.0
  9
$THICKNESS
 40
0.0
  9
$LIMCHECK
 70
     0
  9
$CHAMFERA
 40
0.5
  9
$CHAMFERB
 40
0.5
  9
$CHAMFERC
 40
1.0
  9
$CHAMFERD
 40
0.0
  9
$SKPOLY
 70
     0
  9
$TDCREATE
 40
2455009.714775046
  9
$TDUCREATE
 40
2455009.631441713
  9
$TDUPDATE
 40
2455009.721814294
  9
$TDUUPDATE
 40
2455009.638480961
  9
$TDINDWG
 40
0.0063572917
  9
$TDUSRTIMER
 40
0.0063572917
  9
$USRTIMER
 70
     1
  9
$ANGBASE
 50
0.0
  9
$ANGDIR
 70
     0
  9
$PDMODE
 70
     0
  9
$PDSIZE
 40
0.0
  9
$PLINEWID
 40
0.0
  9
$SPLFRAME
 70
     0
  9
$SPLINETYPE
 70
     6
  9
$SPLINESEGS
 70
     8
  9
$HANDSEED
  5
330
  9
$SURFTAB1
 70
     6
  9
$SURFTAB2
 70
     6
  9
$SURFTYPE
 70
     6
  9
$SURFU
 70
     6
  9
$SURFV
 70
     6
  9
$UCSBASE
  2

  9
$UCSNAME
  2

  9
$UCSORG
 10
0.0
 20
0.0
 30
0.0
  9
$UCSXDIR
 10
1.0
 20
0.0
 30
0.0
  9
$UCSYDIR
 10
0.0
 20
1.0
 30
0.0
  9
$UCSORTHOREF
  2

  9
$UCSORTHOVIEW
 70
     0
  9
$UCSORGTOP
 10
0.0
 20
0.0
 30
0.0
  9
$UCSORGBOTTOM
 10
0.0
 20
0.0
 30
0.0
  9
$UCSORGLEFT
 10
0.0
 20
0.0
 30
0.0
  9
$UCSORGRIGHT
 10
0.0
 20
0.0
 30
0.0
  9
$UCSORGFRONT
 10
0.0
 20
0.0
 30
0.0
  9
$UCSORGBACK
 10
0.0
 20
0.0
 30
0.0
  9
$PUCSBASE
  2

  9
$PUCSNAME
  2

  9
$PUCSORG
 10
0.0
 20
0.0
 30
0.0
  9
$PUCSXDIR
 10
1.0
 20
0.0
 30
0.0
  9
$PUCSYDIR
 10
0.0
 20
1.0
 30
0.0
  9
$PUCSORTHOREF
  2

  9
$PUCSORTHOVIEW
 70
     0
  9
$PUCSORGTOP
 10
0.0
 20
0.0
 30
0.0
  9
$PUCSORGBOTTOM
 10
0.0
 20
0.0
 30
0.0
  9
$PUCSORGLEFT
 10
0.0
 20
0.0
 30
0.0
  9
$PUCSORGRIGHT
 10
0.0
 20
0.0
 30
0.0
  9
$PUCSORGFRONT
 10
0.0
 20
0.0
 30
0.0
  9
$PUCSORGBACK
 10
0.0
 20
0.0
 30
0.0
  9
$USERI1
 70
     0
  9
$USERI2
 70
     0
  9
$USERI3
 70
     0
  9
$USERI4
 70
     0
  9
$USERI5
 70
     0
  9
$USERR1
 40
0.0
  9
$USERR2
 40
0.0
  9
$USERR3
 40
0.0
  9
$USERR4
 40
0.0
  9
$USERR5
 40
0.0
  9
$WORLDVIEW
 70
     1
  9
$SHADEDGE
 70
     3
  9
$SHADEDIF
 70
    70
  9
$TILEMODE
 70
     1
  9
$MAXACTVP
 70
    64
  9
$PINSBASE
 10
0.0
 20
0.0
 30
0.0
  9
$PLIMCHECK
 70
     0
  9
$PEXTMIN
 10
1.000000000000000E+20
 20
1.000000000000000E+20
 30
1.000000000000000E+20
  9
$PEXTMAX
 10
-1.000000000000000E+20
 20
-1.000000000000000E+20
 30
-1.000000000000000E+20
  9
$PLIMMIN
 10
0.0
 20
0.0
  9
$PLIMMAX
 10
12.0
 20
9.0
  9
$UNITMODE
 70
     0
  9
$VISRETAIN
 70
     1
  9
$PLINEGEN
 70
     0
  9
$PSLTSCALE
 70
     1
  9
$TREEDEPTH
 70
  3020
  9
$CMLSTYLE
  2
Standard
  9
$CMLJUST
 70
     0
  9
$CMLSCALE
 40
1.0
  9
$PROXYGRAPHICS
 70
     1
  9
$MEASUREMENT
 70
     0
  9
$CELWEIGHT
370
    -1
  9
$ENDCAPS
280
     0
  9
$JOINSTYLE
280
     0
  9
$LWDISPLAY
290
     0
  9
$INSUNITS
 70
     4
  9
$HYPERLINKBASE
  1

  9
$STYLESHEET
  1

  9
$XEDIT
290
     1
  9
$CEPSNTYPE
380
     0
  9
$PSTYLEMODE
290
     1
  9
$FINGERPRINTGUID
  2
{4442B385-7220-4ED7-B529-FF8B365E9746}
  9
$VERSIONGUID
  2
{A59CA5C2-D4D7-4268-80D5-536127128761}
  9
$EXTNAMES
290
     1
  9
$PSVPSCALE
 40
0.0
  9
$OLESTARTUP
290
     0
  9
$SORTENTS
280
   127
  9
$INDEXCTL
280
     0
  9
$HIDETEXT
280
     1
  9
$XCLIPFRAME
290
     0
  9
$HALOGAP
280
     0
  9
$OBSCOLOR
 70
   257
  9
$OBSLTYPE
280
     0
  9
$INTERSECTIONDISPLAY
280
     0
  9
$INTERSECTIONCOLOR
 70
   257
  9
$DIMASSOC
280
     2
  9
$PROJECTNAME
  1

  0
ENDSEC
  0
SECTION
  2
CLASSES
  0
CLASS
  1
ACDBDICTIONARYWDFLT
  2
AcDbDictionaryWithDefault
  3
ObjectDBX Classes
 90
        0
 91
        1
280
     0
281
     0
  0
CLASS
  1
TABLESTYLE
  2
AcDbTableStyle
  3
ObjectDBX Classes
 90
     2047
 91
        1
280
     0
281
     0
  0
CLASS
  1
DICTIONARYVAR
  2
AcDbDictionaryVar
  3
ObjectDBX Classes
 90
        0
 91
        1
280
     0
281
     0
  0
ENDSEC
  0
SECTION
  2
TABLES
  0
TABLE
  2
VPORT
  5
8
330
0
100
AcDbSymbolTable
 70
     3
  0
VPORT
  5
32F
330
8
100
AcDbSymbolTableRecord
100
AcDbViewportTableRecord
  2
*Active
 70
     0
 10
0.0
 20
0.0
 11
1.0
 21
1.0
 12
-14.80917905870223
 22
2.755223580805989
 13
0.0
 23
0.0
 14
0.5
 24
0.5
 15
0.5
 25
0.5
 16
0.0
 26
0.0
 36
1.0
 17
292.0567732756276
 27
113.3458011630453
 37
0.0
 40
429.5638186313232
 41
1.732472324723247
 42
50.0
 43
0.0
 44
0.0
 50
0.0
 51
0.0
 71
     0
 72
   100
 73
     1
 74
     3
 75
     0
 76
     0
 77
     0
 78
     0
281
     0
 65
     1
110
0.0
120
0.0
130
0.0
111
1.0
121
0.0
131
0.0
112
0.0
122
1.0
132
0.0
 79
     0
146
0.0
  0
ENDTAB
  0
TABLE
  2
LTYPE
  5
5
330
0
100
AcDbSymbolTable
 70
     1
  0
LTYPE
  5
14
330
5
100
AcDbSymbolTableRecord
100
AcDbLinetypeTableRecord
  2
ByBlock
 70
     0
  3

 72
    65
 73
     0
 40
0.0
  0
LTYPE
  5
15
330
5
100
AcDbSymbolTableRecord
100
AcDbLinetypeTableRecord
  2
ByLayer
 70
     0
  3

 72
    65
 73
     0
 40
0.0
  0
LTYPE
  5
16
330
5
100
AcDbSymbolTableRecord
100
AcDbLinetypeTableRecord
  2
Continuous
 70
     0
  3
Solid line
 72
    65
 73
     0
 40
0.0
  0
ENDTAB
  0
TABLE
  2
LAYER
  5
2
330
0
100
AcDbSymbolTable
 70
     2
  0
LAYER
  5
10
330
2
100
AcDbSymbolTableRecord
100
AcDbLayerTableRecord
  2
0
 70
     0
 62
     7
  6
Continuous
370
    -3
390
F
  0
LAYER
  5
2A
330
2
100
AcDbSymbolTableRecord
100
AcDbLayerTableRecord
  2
LINEE VISIBILI 2D
 70
     0
 62
     7
  6
Continuous
370
    -3
390
F
  0
ENDTAB
  0
TABLE
  2
STYLE
  5
3
330
0
100
AcDbSymbolTable
 70
     1
  0
STYLE
  5
11
330
3
100
AcDbSymbolTableRecord
100
AcDbTextStyleTableRecord
  2
Standard
 70
     0
 40
0.0
 41
1.0
 50
0.0
 71
     0
 42
0.2
  3
txt
  4

  0
ENDTAB
  0
TABLE
  2
VIEW
  5
6
330
0
100
AcDbSymbolTable
 70
     0
  0
ENDTAB
  0
TABLE
  2
UCS
  5
7
330
0
100
AcDbSymbolTable
 70
     0
  0
ENDTAB
  0
TABLE
  2
APPID
  5
9
330
0
100
AcDbSymbolTable
 70
     1
  0
APPID
  5
12
330
9
100
AcDbSymbolTableRecord
100
AcDbRegAppTableRecord
  2
ACAD
 70
     0
  0
ENDTAB
  0
TABLE
  2
DIMSTYLE
  5
A
330
0
100
AcDbSymbolTable
 70
     1
100
AcDbDimStyleTable
 71
     0
  0
DIMSTYLE
105
27
330
A
100
AcDbSymbolTableRecord
100
AcDbDimStyleTableRecord
  2
Standard
 70
     0
340
11
  0
ENDTAB
  0
TABLE
  2
BLOCK_RECORD
  5
1
330
0
100
AcDbSymbolTable
 70
     2
  0
BLOCK_RECORD
  5
1F
330
1
100
AcDbSymbolTableRecord
100
AcDbBlockTableRecord
  2
*Model_Space
340
22
  0
BLOCK_RECORD
  5
1B
330
1
100
AcDbSymbolTableRecord
100
AcDbBlockTableRecord
  2
*Paper_Space
340
1E
  0
BLOCK_RECORD
  5
23
330
1
100
AcDbSymbolTableRecord
100
AcDbBlockTableRecord
  2
*Paper_Space0
340
26
  0
ENDTAB
  0
ENDSEC
  0
SECTION
  2
BLOCKS
  0
BLOCK
  5
20
330
1F
100
AcDbEntity
  8
0
100
AcDbBlockBegin
  2
*Model_Space
 70
     0
 10
0.0
 20
0.0
 30
0.0
  3
*Model_Space
  1

  0
ENDBLK
  5
21
330
1F
100
AcDbEntity
  8
0
100
AcDbBlockEnd
  0
BLOCK
  5
1C
330
1B
100
AcDbEntity
 67
     1
  8
0
100
AcDbBlockBegin
  2
*Paper_Space
 70
     0
 10
0.0
 20
0.0
 30
0.0
  3
*Paper_Space
  1

  0
ENDBLK
  5
1D
330
1B
100
AcDbEntity
 67
     1
  8
0
100
AcDbBlockEnd
  0
BLOCK
  5
24
330
23
100
AcDbEntity
  8
0
100
AcDbBlockBegin
  2
*Paper_Space0
 70
     0
 10
0.0
 20
0.0
 30
0.0
  3
*Paper_Space0
  1

  0
ENDBLK
  5
25
330
23
100
AcDbEntity
  8
0
100
AcDbBlockEnd
  0
ENDSEC
  0
SECTION
  2
ENTITIES
  0
SPLINE
  5
2B
330
1F
100
AcDbEntity
  8
LINEE VISIBILI 2D
100
AcDbSpline
210
0.0
220
0.0
230
1.0
 70
    24
 71
     2
 72
     6
 73
     3
 74
     0
 42
0.0000000001
 43
0.0000000001
 40
0.0
 40
0.0
 40
0.0
 40
0.1273017421646849
 40
0.1273017421646849
 40
0.1273017421646849
 10
414.6369801409324
 20
8.18375098553264
 30
0.0
 10
414.6819844178161
 20
8.138739337576655
 30
0.0
 10
414.7269886946999
 20
8.093727689620671
 30
0.0
  0
SPLINE
  5
2C
330
1F
100
AcDbEntity
  8
LINEE VISIBILI 2D
100
AcDbSpline
210
0.0
220
0.0
230
1.0
 70
    24
 71
     2
 72
     6
 73
     3
 74
     0
 42
0.0000000001
 43
0.0000000001
 40
0.0
 40
0.0
 40
0.0
 40
0.2154473667123757
 40
0.2154473667123757
 40
0.2154473667123757
 10
414.4846483223647
 20
8.336107753925553
 30
0.0
 10
414.5608142316485
 20
8.259929369729096
 30
0.0
 10
414.6369801409324
 20
8.18375098553264
 30
0.0
  0
SPLINE
  5
2D
330
1F
100
AcDbEntity
  8
LINEE VISIBILI 2D
100
AcDbSpline
210
0.0
220
0.0
230
1.0
 70
    24
 71
     2
 72
     6
 73
     3
 74
     0
 42
0.0000000001
 43
0.0000000001
 40
0.0
 40
0.0
 40
0.0
 40
0.1414213562390937
 40
0.1414213562390937
 40
0.1414213562390937
 10
420.2202860693323
 20
2.59953058957727
 30
0.0
 10
420.2702819748489
 20
2.549526495427873
 30
0.0
 10
420.3202778803655
 20
2.499522401278476
 30
0.0
  0
SPLINE
  5
2E
330
1F
100
AcDbEntity
  8
LINEE VISIBILI 2D
100
AcDbSpline
210
0.0
220
0.0
230
1.0
 70
    24
 71
     2
 72
     6
 73
     3
 74
     0
 42
0.0000000001
 43
0.0000000001
 40
0.0
 40
0.0
 40
0.0
 40
94.69274720621147
 40
94.69274720621147
 40
94.69274720621147
 10
420.2278639705025
 20
97.29227749257342
 30
0.0
 10
420.2240750199174
 20
49.94590404107534
 30
0.0
 10
420.2202860693323
 20
2.59953058957727
 30
0.0
  0
SPLINE
  5
2F
330
1F
100
AcDbEntity
  8
LINEE VISIBILI 2D
100
AcDbSpline
210
0.0
220
0.0
230
1.0
 70
    24
 71
     2
 72
     6
 73
     3
 74
     0
 42
0.0000000001
 43
0.0000000001
 40
0.0
 40
0.0
 40
0.0
 40
0.0282842712476117
 40
0.0282842712476117
 40
0.0282842712476117
 10
420.2002877071254
 20
2.619532227236419
 30
0.0
 10
420.2102868882288
 20
2.609531408406834
 30
0.0
 10
420.2202860693323
 20
2.599530589577248
 30
0.0
  0
SPLINE
  5
30
330
1F
100
AcDbEntity
  8
LINEE VISIBILI 2D
100
AcDbSpline
210
0.0
220
0.0
230
1.0
 70
    12
 71
     2
 72
     6
 73
     3
 74
     0
 42
0.0000000001
 43
0.0000000001
 40
0.0
 40
0.0
 40
0.0
 40
0.0705332780939893
 40
0.0705332780939893
 40
0.0705332780939893
 10
420.7278263291549
 20
97.79974466362268
 30
0.0
 41
1.0
 10
420.7031915057747
 20
97.77450613941264
 30
0.0
 41
0.9999265603799429
 10
420.6779522247171
 20
97.74987209145075
 30
0.0
 41
1.0
  0
SPLINE
  5
31
330
1F
100
AcDbEntity
  8
LINEE VISIBILI 2D
100
AcDbSpline
210
0.0
220
0.0
230
1.0
 70
    12
 71
     2
 72
     6
 73
     3
 74
     0
 42
0.0000000001
 43
0.0000000001
 40
0.0
 40
0.0
 40
0.0
 40
0.1415112139530893
 40
0.1415112139530893
 40
0.1415112139530893
 10
420.3279294415687
 20
97.39988052077771
 30
0.0
 41
1.0
 10
420.2785414400685
 20
97.34920769752099
 30
0.0
 41
0.9999170458520445
 10
420.2278645744084
 20
97.29982384392631
 30
0.0
 41
1.0
  0
SPLINE
  5
32
330
1F
100
AcDbEntity
  8
LINEE VISIBILI 2D
100
AcDbSpline
210
0.0
220
0.0
230
1.0
 70
    12
 71
     2
 72
     6
 73
     3
 74
     0
 42
0.0000000001
 43
0.0000000001
 40
0.0
 40
0.0
 40
0.0
 40
0.0203198713029466
 40
0.0203198713029466
 40
0.0203198713029466
 10
420.2224699712227
 20
97.29406898726697
 30
0.0
 41
1.0
 10
420.2152781232138
 20
97.28689190334005
 30
0.0
 41
0.9999352021575472
 10
420.2079247444538
 20
97.27988041046851
 30
0.0
 41
1.0
  0
SPLINE
  5
33
330
1F
100
AcDbEntity
  8
LINEE VISIBILI 2D
100
AcDbSpline
210
0.0
220
0.0
230
1.0
 70
    12
 71
     2
 72
     6
 73
     3
 74
     0
 42
0.0000000001
 43
0.0000000001
 40
0.0
 40
0.0
 40
0.0
 40
0.1273061365502053
 40
0.1273061365502053
 40
0.1273061365502053
 10
414.7338386426201
 20
91.80624778254383
 30
0.0
 41
1.0
 10
414.6888374105024
 20
91.76122998222592
 30
0.0
 41
0.9999999746887501
 10
414.6438159254317
 20
91.71623243651955
 30
0.0
 41
1.0
  0
SPLINE
  5
34
330
1F
100
AcDbEntity
  8
LINEE VISIBILI 2D
100
AcDbSpline
210
0.0
220
0.0
230
1.0
 70
    12
 71
     2
 72
     6
 73
     3
 74
     0
 42
0.0000000001
 43
0.0000000001
 40
0.0
 40
0.0
 40
0.0
 40
0.2154499903260985
 40
0.2154499903260985
 40
0.2154499903260985
 10
414.6438159254321
 20
91.71623243651948
 30
0.0
 41
1.0
 10
414.5676416273511
 20
91.64006058542279
 30
0.0
 41
0.9999999996904508
 10
414.4914635387957
 20
91.56389252511058
 30
0.0
 41
1.0
  0
SPLINE
  5
35
330
1F
100
AcDbEntity
  8
LINEE VISIBILI 2D
100
AcDbSpline
210
0.0
220
0.0
230
1.0
 70
    24
 71
     2
 72
     6
 73
     3
 74
     0
 42
0.0000000001
 43
0.0000000001
 40
0.0
 40
0.0
 40
0.0
 40
95.71915614702785
 40
95.71915614702785
 40
95.71915614702785
 10
420.7402434867061
 20
2.079488010438019
 30
0.0
 10
372.8806655736503
 20
2.08340705481365
 30
0.0
 10
325.0210876605944
 20
2.087326099189281
 30
0.0
  0
SPLINE
  5
36
330
1F
100
AcDbEntity
  8
LINEE VISIBILI 2D
100
AcDbSpline
210
0.0
220
0.0
230
1.0
 70
    24
 71
     2
 72
     6
 73
     3
 74
     0
 42
0.0000000001
 43
0.0000000001
 40
0.0
 40
0.0
 40
0.0
 40
1.640487732352971
 40
1.640487732352971
 40
1.640487732352971
 10
325.0002438076921
 20
2.087327806015544
 30
0.0
 10
324.4201963155754
 20
1.507375302021319
 30
0.0
 10
323.8401488234586
 20
0.927422798027095
 30
0.0
  0
SPLINE
  5
37
330
1F
100
AcDbEntity
  8
LINEE VISIBILI 2D
100
AcDbSpline
210
0.0
220
0.0
230
1.0
 70
    24
 71
     2
 72
     6
 73
     3
 74
     0
 42
0.0000000001
 43
0.0000000001
 40
0.0
 40
0.0
 40
0.0
 40
99.39252261713733
 40
99.39252261713733
 40
99.39252261713733
 10
323.1775710136848
 20
0.25
 30
0.0
 10
372.8738323211517
 20
0.2496690823106284
 30
0.0
 10
422.5700936286186
 20
0.2493381646212569
 30
0.0
  0
SPLINE
  5
38
330
1F
100
AcDbEntity
  8
LINEE VISIBILI 2D
100
AcDbSpline
210
0.0
220
0.0
230
1.0
 70
    24
 71
     2
 72
     6
 73
     3
 74
     0
 42
0.0000000001
 43
0.0000000001
 40
0.0
 40
0.0
 40
0.0
 40
0.0282842712472148
 40
0.0282842712472148
 40
0.0282842712472148
 10
421.9201468569006
 20
0.8993913885452187
 30
0.0
 10
421.9101476757974
 20
0.9093922073748075
 30
0.0
 10
421.9001484946942
 20
0.9193930262043963
 30
0.0
  0
SPLINE
  5
39
330
1F
100
AcDbEntity
  8
LINEE VISIBILI 2D
100
AcDbSpline
210
0.0
220
0.0
230
1.0
 70
    24
 71
     2
 72
     6
 73
     3
 74
     0
 42
0.0000000001
 43
0.0000000001
 40
0.0
 40
0.0
 40
0.0
 40
0.0282842712477272
 40
0.0282842712477272
 40
0.0282842712477272
 10
325.0202454453513
 20
2.10732616822262
 30
0.0
 10
325.0102446265217
 20
2.097326987119082
 30
0.0
 10
325.0002438076921
 20
2.087327806015544
 30
0.0
  0
SPLINE
  5
3D
330
1F
100
AcDbEntity
  8
LINEE VISIBILI 2D
100
AcDbSpline
210
0.0
220
0.0
230
1.0
 70
    24
 71
     2
 72
     6
 73
     3
 74
     0
 42
0.0000000001
 43
0.0000000001
 40
0.0
 40
0.0
 40
0.0
 40
0.0073278060151666
 40
0.0073278060151666
 40
0.0073278060151666
 10
325.0075716136827
 20
2.087327205968529
 30
0.0
 10
325.0039077106874
 20
2.087327505992036
 30
0.0
 10
325.0002438076921
 20
2.087327806015544
 30
0.0
  0
SPLINE
  5
3E
330
1F
100
AcDbEntity
  8
LINEE VISIBILI 2D
100
AcDbSpline
210
0.0
220
0.0
230
1.0
 70
    12
 71
     2
 72
     6
 73
     3
 74
     0
 42
0.0000000001
 43
0.0000000001
 40
0.0
 40
0.0
 40
0.0
 40
0.1386611446128016
 40
0.1386611446128016
 40
0.1386611446128016
 10
323.2738372323051
 20
0.3537353878919589
 30
0.0
 41
1.0
 10
323.2184746828129
 20
0.3115545553828277
 30
0.0
 41
0.994192018499873
 10
323.1734209132995
 20
0.2585037083578844
 30
0.0
 41
1.0
  0
SPLINE
  5
3F
330
1F
100
AcDbEntity
  8
LINEE VISIBILI 2D
100
AcDbSpline
210
0.0
220
0.0
230
1.0
 70
    24
 71
     2
 72
     6
 73
     3
 74
     0
 42
0.0000000001
 43
0.0000000001
 40
0.0
 40
0.0
 40
0.0
 40
98.09257556417973
 40
98.09257556417973
 40
98.09257556417973
 10
421.920146856901
 20
0.8993913885448705
 30
0.0
 10
372.8738592392478
 20
0.9034076081993113
 30
0.0
 10
323.8275716215947
 20
0.9074238278537524
 30
0.0
  0
SPLINE
  5
40
330
1F
100
AcDbEntity
  8
LINEE VISIBILI 2D
100
AcDbSpline
210
0.0
220
0.0
230
1.0
 70
    24
 71
     2
 72
     6
 73
     3
 74
     0
 42
0.0000000001
 43
0.0000000001
 40
0.0
 40
0.0
 40
0.0
 40
0.0175674733263482
 40
0.0175674733263482
 40
0.0175674733263482
 10
323.8401488234586
 20
0.927422798027095
 30
0.0
 10
323.8339372751213
 20
0.9212122668885447
 30
0.0
 10
323.8277257267842
 20
0.9150017357499944
 30
0.0
  0
SPLINE
  5
41
330
1F
100
AcDbEntity
  8
LINEE VISIBILI 2D
100
AcDbSpline
210
0.0
220
0.0
230
1.0
 70
    24
 71
     2
 72
     6
 73
     3
 74
     0
 42
0.0000000001
 43
0.0000000001
 40
0.0
 40
0.0
 40
0.0
 40
95.69267383177836
 40
95.69267383177836
 40
95.69267383177836
 10
420.7202451244996
 20
2.099489648097232
 30
0.0
 10
372.8739083690241
 20
2.103407608203461
 30
0.0
 10
325.0275716135486
 20
2.107325568309689
 30
0.0
  0
SPLINE
  5
42
330
1F
100
AcDbEntity
  8
LINEE VISIBILI 2D
100
AcDbSpline
210
0.0
220
0.0
230
1.0
 70
    12
 71
     2
 72
     6
 73
     3
 74
     0
 42
0.0000000001
 43
0.0000000001
 40
0.0
 40
0.0
 40
0.0
 40
0.1534916279659715
 40
0.1534916279659715
 40
0.1534916279659715
 10
161.6354468904875
 20
171.5915954761145
 30
0.0
 41
1.0
 10
161.5437469767717
 20
171.5832947098595
 30
0.0
 41
0.7680010099701306
 10
161.5354387021915
 20
171.4915954761145
 30
0.0
 41
1.0
  0
SPLINE
  5
43
330
1F
100
AcDbEntity
  8
LINEE VISIBILI 2D
100
AcDbSpline
210
0.0
220
0.0
230
1.0
 70
    24
 71
     2
 72
     6
 73
     3
 74
     0
 42
0.0000000001
 43
0.0000000001
 40
0.0
 40
0.0
 40
0.0
 40
99.20048738761991
 40
99.20048738761991
 40
99.20048738761991
 10
260.8359342781075
 20
171.5915954761148
 30
0.0
 10
211.2356905842975
 20
171.5915954761146
 30
0.0
 10
161.6354468904875
 20
171.5915954761145
 30
0.0
  0
SPLINE
  5
44
330
1F
100
AcDbEntity
  8
LINEE VISIBILI 2D
100
AcDbSpline
210
0.0
220
0.0
230
1.0
 70
    24
 71
     2
 72
     6
 73
     3
 74
     0
 42
0.0000000001
 43
0.0000000001
 40
0.0
 40
0.0
 40
0.0
 40
0.0999999999999943
 40
0.0999999999999943
 40
0.0999999999999943
 10
163.8856311271476
 20
171.3915954761145
 30
0.0
 10
163.8856311271476
 20
171.4415954761145
 30
0.0
 10
163.8856311271476
 20
171.4915954761145
 30
0.0
  0
SPLINE
  5
45
330
1F
100
AcDbEntity
  8
LINEE VISIBILI 2D
100
AcDbSpline
210
0.0
220
0.0
230
1.0
 70
    12
 71
     2
 72
     6
 73
     3
 74
     0
 42
0.0000000001
 43
0.0000000001
 40
0.0
 40
0.0
 40
0.0
 40
0.0708982085740245
 40
0.0708982085740245
 40
0.0708982085740245
 10
213.6701883088892
 20
223.2852129873299
 30
0.0
 41
1.0
 10
213.7056430854041
 20
223.2848188629188
 30
0.0
 41
0.9996674009173124
 10
213.7410710224759
 20
223.2862533616516
 30
0.0
 41
1.0
  0
SPLINE
  5
46
330
1F
100
AcDbEntity
  8
LINEE VISIBILI 2D
100
AcDbSpline
210
0.0
220
0.0
230
1.0
 70
    12
 71
     2
 72
     6
 73
     3
 74
     0
 42
0.0000000001
 43
0.0000000001
 40
0.0
 40
0.0
 40
0.0
 40
0.1003949461888498
 40
0.1003949461888498
 40
0.1003949461888498
 10
213.146865917651
 20
223.296937590577
 30
0.0
 41
1.0
 10
213.1966604700788
 20
223.2894764181944
 30
0.0
 41
0.9954492337228145
 10
213.2469662005376
 20
223.2915977450952
 30
0.0
 41
1.0
  0
SPLINE
  5
47
330
1F
100
AcDbEntity
  8
LINEE VISIBILI 2D
100
AcDbSpline
210
0.0
220
0.0
230
1.0
 70
    12
 71
     2
 72
     6
 73
     3
 74
     0
 42
0.0000000001
 43
0.0000000001
 40
0.0
 40
0.0
 40
0.0
 40
0.4231993840742581
 40
0.4231993840742581
 40
0.4231993840742581
 10
213.2470466094788
 20
223.2915954761139
 30
0.0
 41
1.0
 10
213.4585803200167
 20
223.2859420056373
 30
0.0
 41
0.9999322873069242
 10
213.6701883088892
 20
223.2852129873299
 30
0.0
 41
1.0
  0
SPLINE
  5
48
330
1F
100
AcDbEntity
  8
LINEE VISIBILI 2D
100
AcDbSpline
210
0.0
220
0.0
230
1.0
 70
    24
 71
     2
 72
     6
 73
     3
 74
     0
 42
0.0000000001
 43
0.0000000001
 40
0.0
 40
0.0
 40
0.0
 40
0.2949916105249679
 40
0.2949916105249679
 40
0.2949916105249679
 10
168.531092398279
 20
222.5916023260907
 30
0.0
 10
168.3835965930165
 20
222.5916023260907
 30
0.0
 10
168.236100787754
 20
222.5916023260907
 30
0.0
  0
SPLINE
  5
49
330
1F
100
AcDbEntity
  8
LINEE VISIBILI 2D
100
AcDbSpline
210
0.0
220
0.0
230
1.0
 70
    24
 71
     2
 72
     6
 73
     3
 74
     0
 42
0.0000000001
 43
0.0000000001
 40
0.0
 40
0.0
 40
0.0
 40
0.6000000000000015
 40
0.6000000000000015
 40
0.6000000000000015
 10
168.236100787754
 20
223.5916023260907
 30
0.0
 10
168.536100787754
 20
223.5916023260907
 30
0.0
 10
168.836100787754
 20
223.5916023260907
 30
0.0
  0
SPLINE
  5
4A
330
1F
100
AcDbEntity
  8
LINEE VISIBILI 2D
100
AcDbSpline
210
0.0
220
0.0
230
1.0
 70
    24
 71
     2
 72
     6
 73
     3
 74
     0
 42
0.0000000001
 43
0.0000000001
 40
0.0
 40
0.0
 40
0.0
 40
0.8000000000000042
 40
0.8000000000000042
 40
0.8000000000000042
 10
168.236100787754
 20
226.4916023260907
 30
0.0
 10
167.836100787754
 20
226.4916023260907
 30
0.0
 10
167.436100787754
 20
226.4916023260907
 30
0.0
  0
SPLINE
  5
4B
330
1F
100
AcDbEntity
  8
LINEE VISIBILI 2D
100
AcDbSpline
210
0.0
220
0.0
230
1.0
 70
    24
 71
     2
 72
     6
 73
     3
 74
     0
 42
0.0000000001
 43
0.0000000001
 40
0.0
 40
0.0
 40
0.0
 40
0.7999999999999972
 40
0.7999999999999972
 40
0.7999999999999972
 10
168.236100787754
 20
226.6916023260907
 30
0.0
 10
168.636100787754
 20
226.6916023260907
 30
0.0
 10
169.036100787754
 20
226.6916023260907
 30
0.0
  0
SPLINE
  5
4C
330
1F
100
AcDbEntity
  8
LINEE VISIBILI 2D
100
AcDbSpline
210
0.0
220
0.0
230
1.0
 70
    24
 71
     2
 72
     6
 73
     3
 74
     0
 42
0.0000000001
 43
0.0000000001
 40
0.0
 40
0.0
 40
0.0
 40
0.0399999999999636
 40
0.0399999999999636
 40
0.0399999999999636
 10
168.2361007880814
 20
172.5926439412595
 30
0.0
 10
168.2161007880814
 20
172.5926439412595
 30
0.0
 10
168.1961007880815
 20
172.5926439412595
 30
0.0
  0
SPLINE
  5
4D
330
1F
100
AcDbEntity
  8
LINEE VISIBILI 2D
100
AcDbSpline
210
0.0
220
0.0
230
1.0
 70
    24
 71
     2
 72
     6
 73
     3
 74
     0
 42
0.0000000001
 43
0.0000000001
 40
0.0
 40
0.0
 40
0.0
 40
49.99895838483118
 40
49.99895838483118
 40
49.99895838483118
 10
168.2761007880815
 20
222.5916023260907
 30
0.0
 10
168.2761007880815
 20
197.5921231336751
 30
0.0
 10
168.2761007880815
 20
172.5926439412595
 30
0.0
  0
SPLINE
  5
4E
330
1F
100
AcDbEntity
  8
LINEE VISIBILI 2D
100
AcDbSpline
210
0.0
220
0.0
230
1.0
 70
    24
 71
     2
 72
     6
 73
     3
 74
     0
 42
0.0000000001
 43
0.0000000001
 40
0.0
 40
0.0
 40
0.0
 40
0.2949916105249883
 40
0.2949916105249883
 40
0.2949916105249883
 10
254.5310921480949
 20
222.5916023260907
 30
0.0
 10
254.3835963428325
 20
222.5916023260907
 30
0.0
 10
254.2361005375699
 20
222.5916023260907
 30
0.0
  0
SPLINE
  5
4F
330
1F
100
AcDbEntity
  8
LINEE VISIBILI 2D
100
AcDbSpline
210
0.0
220
0.0
230
1.0
 70
    24
 71
     2
 72
     6
 73
     3
 74
     0
 42
0.0000000001
 43
0.0000000001
 40
0.0
 40
0.0
 40
0.0
 40
0.5999999999999944
 40
0.5999999999999944
 40
0.5999999999999944
 10
254.2361005375699
 20
223.5916023260907
 30
0.0
 10
254.53610053757
 20
223.5916023260907
 30
0.0
 10
254.8361005375699
 20
223.5916023260907
 30
0.0
  0
SPLINE
  5
50
330
1F
100
AcDbEntity
  8
LINEE VISIBILI 2D
100
AcDbSpline
210
0.0
220
0.0
230
1.0
 70
    24
 71
     2
 72
     6
 73
     3
 74
     0
 42
0.0000000001
 43
0.0000000001
 40
0.0
 40
0.0
 40
0.0
 40
0.8000000000000113
 40
0.8000000000000113
 40
0.8000000000000113
 10
254.2361005375699
 20
226.4916023260907
 30
0.0
 10
253.8361005375699
 20
226.4916023260907
 30
0.0
 10
253.4361005375699
 20
226.4916023260907
 30
0.0
  0
SPLINE
  5
51
330
1F
100
AcDbEntity
  8
LINEE VISIBILI 2D
100
AcDbSpline
210
0.0
220
0.0
230
1.0
 70
    24
 71
     2
 72
     6
 73
     3
 74
     0
 42
0.0000000001
 43
0.0000000001
 40
0.0
 40
0.0
 40
0.0
 40
0.8000000000000113
 40
0.8000000000000113
 40
0.8000000000000113
 10
254.2361005375699
 20
226.6916023260907
 30
0.0
 10
254.6361005375699
 20
226.6916023260907
 30
0.0
 10
255.0361005375699
 20
226.6916023260907
 30
0.0
  0
SPLINE
  5
52
330
1F
100
AcDbEntity
  8
LINEE VISIBILI 2D
100
AcDbSpline
210
0.0
220
0.0
230
1.0
 70
    24
 71
     2
 72
     6
 73
     3
 74
     0
 42
0.0000000001
 43
0.0000000001
 40
0.0
 40
0.0
 40
0.0
 40
0.0399999999999636
 40
0.0399999999999636
 40
0.0399999999999636
 10
254.2361005378973
 20
172.5926439412595
 30
0.0
 10
254.2161005378973
 20
172.5926439412595
 30
0.0
 10
254.1961005378974
 20
172.5926439412595
 30
0.0
  0
SPLINE
  5
53
330
1F
100
AcDbEntity
  8
LINEE VISIBILI 2D
100
AcDbSpline
210
0.0
220
0.0
230
1.0
 70
    24
 71
     2
 72
     6
 73
     3
 74
     0
 42
0.0000000001
 43
0.0000000001
 40
0.0
 40
0.0
 40
0.0
 40
49.99895838483118
 40
49.99895838483118
 40
49.99895838483118
 10
254.2761005378974
 20
222.5916023260907
 30
0.0
 10
254.2761005378974
 20
197.5921231336751
 30
0.0
 10
254.2761005378974
 20
172.5926439412595
 30
0.0
  0
SPLINE
  5
54
330
1F
100
AcDbEntity
  8
LINEE VISIBILI 2D
100
AcDbSpline
210
0.0
220
0.0
230
1.0
 70
     8
 71
     3
 72
    27
 73
    23
 74
     0
 42
0.0000000001
 43
0.0000000001
 40
0.0
 40
0.0
 40
0.0
 40
0.0
 40
4.433926049866514
 40
6.393019222763046
 40
10.66785301111254
 40
15.13625916929354
 40
19.13150620474227
 40
22.1682889334922
 40
25.64705061793222
 40
29.5396051296977
 40
38.57309665880822
 40
43.52279023714573
 40
48.00213787618413
 40
51.96758833133335
 40
55.820498002678
 40
60.13625779977449
 40
61.00729454441974
 40
61.7936095064552
 40
63.02709256219206
 40
63.60035791805533
 40
66.82794701137949
 40
72.95313837418338
 40
72.95313837418338
 40
72.95313837418338
 40
72.95313837418338
 10
375.2603374561876
 20
223.2874048922614
 30
0.0
 10
375.2467571966637
 20
221.8093260883904
 30
0.0
 10
375.2385455055833
 20
219.6787522090313
 30
0.0
 10
375.3257473578499
 20
216.1220219553861
 30
0.0
 10
375.9806393117426
 20
212.5971897974415
 30
0.0
 10
377.5336870275404
 20
208.614907002711
 30
0.0
 10
379.9319671129053
 20
205.5589187814842
 30
0.0
 10
382.8228972825823
 20
203.5322330725069
 30
0.0
 10
386.0093399905336
 20
202.1404779539756
 30
0.0
 10
391.2366574165255
 20
200.5180628014715
 30
0.0
 10
397.0765673296328
 20
199.2893972499869
 30
0.0
 10
402.8767817662509
 20
197.1867453786789
 30
0.0
 10
406.7973562057016
 20
195.0048593299762
 30
0.0
 10
409.7475599336362
 20
192.0849153918634
 30
0.0
 10
411.618731460137
 20
188.4524880016456
 30
0.0
 10
412.3927367480807
 20
185.5327533039279
 30
0.0
 10
412.6750028243036
 20
183.557673418328
 30
0.0
 10
412.7741404237026
 20
182.6001985581555
 30
0.0
 10
412.8277025824847
 20
181.7366507637919
 30
0.0
 10
412.871381738484
 20
180.059239809787
 30
0.0
 10
412.9168349024717
 20
176.750814626849
 30
0.0
 10
412.9242014957569
 20
173.6329959479517
 30
0.0
 10
412.8815004816163
 20
171.5915921094872
 30
0.0
  0
SPLINE
  5
55
330
1F
100
AcDbEntity
  8
LINEE VISIBILI 2D
100
AcDbSpline
210
0.0
220
0.0
230
1.0
 70
    24
 71
     2
 72
     6
 73
     3
 74
     0
 42
0.0000000001
 43
0.0000000001
 40
0.0
 40
0.0
 40
0.0
 40
99.40033075106113
 40
99.40033075106113
 40
99.40033075106113
 10
161.5354387021916
 20
171.4915954761145
 30
0.0
 10
211.2356040777222
 20
171.4915954761145
 30
0.0
 10
260.9357694532528
 20
171.4915954761145
 30
0.0
  0
SPLINE
  5
56
330
1F
100
AcDbEntity
  8
LINEE VISIBILI 2D
100
AcDbSpline
210
0.0
220
0.0
230
1.0
 70
    12
 71
     2
 72
     6
 73
     3
 74
     0
 42
0.0000000001
 43
0.0000000001
 40
0.0
 40
0.0
 40
0.0
 40
0.153095000934138
 40
0.153095000934138
 40
0.153095000934138
 10
260.9357694532528
 20
171.4915954761145
 30
0.0
 41
1.0
 10
260.9269383792704
 20
171.5826142689185
 30
0.0
 41
0.7726119124679153
 10
260.8359342781075
 20
171.5915954761148
 30
0.0
 41
1.0
  0
SPLINE
  5
57
330
1F
100
AcDbEntity
  8
LINEE VISIBILI 2D
100
AcDbSpline
210
0.0
220
0.0
230
1.0
 70
    24
 71
     2
 72
     6
 73
     3
 74
     0
 42
0.0000000001
 43
0.0000000001
 40
0.0
 40
0.0
 40
0.0
 40
0.1000004408165595
 40
0.1000004408165595
 40
0.1000004408165595
 10
258.5859243814966
 20
171.4915959157376
 30
0.0
 10
258.5859166567496
 20
171.4415956959261
 30
0.0
 10
258.5859089320026
 20
171.3915954761145
 30
0.0
  0
SPLINE
  5
58
330
1F
100
AcDbEntity
  8
LINEE VISIBILI 2D
100
AcDbSpline
210
0.0
220
0.0
230
1.0
 70
    24
 71
     2
 72
     6
 73
     3
 74
     0
 42
0.0000000001
 43
0.0000000001
 40
0.0
 40
0.0
 40
0.0
 40
0.2949916105249741
 40
0.2949916105249741
 40
0.2949916105249741
 10
168.236100787754
 20
222.5916023260907
 30
0.0
 10
168.0886049824916
 20
222.5916023260907
 30
0.0
 10
167.941109177229
 20
222.5916023260907
 30
0.0
  0
SPLINE
  5
59
330
1F
100
AcDbEntity
  8
LINEE VISIBILI 2D
100
AcDbSpline
210
0.0
220
0.0
230
1.0
 70
    24
 71
     2
 72
     6
 73
     3
 74
     0
 42
0.0000000001
 43
0.0000000001
 40
0.0
 40
0.0
 40
0.0
 40
0.6000000000000015
 40
0.6000000000000015
 40
0.6000000000000015
 10
167.636100787754
 20
223.5916023260907
 30
0.0
 10
167.936100787754
 20
223.5916023260907
 30
0.0
 10
168.236100787754
 20
223.5916023260907
 30
0.0
  0
SPLINE
  5
5A
330
1F
100
AcDbEntity
  8
LINEE VISIBILI 2D
100
AcDbSpline
210
0.0
220
0.0
230
1.0
 70
    24
 71
     2
 72
     6
 73
     3
 74
     0
 42
0.0000000001
 43
0.0000000001
 40
0.0
 40
0.0
 40
0.0
 40
0.7999999999999972
 40
0.7999999999999972
 40
0.7999999999999972
 10
169.036100787754
 20
226.4916023260907
 30
0.0
 10
168.636100787754
 20
226.4916023260907
 30
0.0
 10
168.236100787754
 20
226.4916023260907
 30
0.0
  0
SPLINE
  5
5B
330
1F
100
AcDbEntity
  8
LINEE VISIBILI 2D
100
AcDbSpline
210
0.0
220
0.0
230
1.0
 70
    24
 71
     2
 72
     6
 73
     3
 74
     0
 42
0.0000000001
 43
0.0000000001
 40
0.0
 40
0.0
 40
0.0
 40
0.8000000000000042
 40
0.8000000000000042
 40
0.8000000000000042
 10
167.436100787754
 20
226.6916023260907
 30
0.0
 10
167.836100787754
 20
226.6916023260907
 30
0.0
 10
168.236100787754
 20
226.6916023260907
 30
0.0
  0
SPLINE
  5
5C
330
1F
100
AcDbEntity
  8
LINEE VISIBILI 2D
100
AcDbSpline
210
0.0
220
0.0
230
1.0
 70
    24
 71
     2
 72
     6
 73
     3
 74
     0
 42
0.0000000001
 43
0.0000000001
 40
0.0
 40
0.0
 40
0.0
 40
0.0400000000000986
 40
0.0400000000000986
 40
0.0400000000000986
 10
168.2761007880815
 20
172.5926439412595
 30
0.0
 10
168.2561007880815
 20
172.5926439412595
 30
0.0
 10
168.2361007880814
 20
172.5926439412595
 30
0.0
  0
SPLINE
  5
5D
330
1F
100
AcDbEntity
  8
LINEE VISIBILI 2D
100
AcDbSpline
210
0.0
220
0.0
230
1.0
 70
    24
 71
     2
 72
     6
 73
     3
 74
     0
 42
0.0000000001
 43
0.0000000001
 40
0.0
 40
0.0
 40
0.0
 40
49.99895838483118
 40
49.99895838483118
 40
49.99895838483118
 10
168.1961007880815
 20
172.5926439412595
 30
0.0
 10
168.1961007880815
 20
197.5921231336751
 30
0.0
 10
168.1961007880814
 20
222.5916023260907
 30
0.0
  0
SPLINE
  5
5E
330
1F
100
AcDbEntity
  8
LINEE VISIBILI 2D
100
AcDbSpline
210
0.0
220
0.0
230
1.0
 70
    24
 71
     2
 72
     6
 73
     3
 74
     0
 42
0.0000000001
 43
0.0000000001
 40
0.0
 40
0.0
 40
0.0
 40
0.2949916105249883
 40
0.2949916105249883
 40
0.2949916105249883
 10
254.2361005375699
 20
222.5916023260907
 30
0.0
 10
254.0886047323074
 20
222.5916023260907
 30
0.0
 10
253.941108927045
 20
222.5916023260907
 30
0.0
  0
SPLINE
  5
5F
330
1F
100
AcDbEntity
  8
LINEE VISIBILI 2D
100
AcDbSpline
210
0.0
220
0.0
230
1.0
 70
    12
 71
     2
 72
     6
 73
     3
 74
     0
 42
0.0000000001
 43
0.0000000001
 40
0.0
 40
0.0
 40
0.0
 40
4.272180297509235
 40
4.272180297509235
 40
4.272180297509235
 10
217.7082755658805
 20
223.7179757860285
 30
0.0
 41
1.0
 10
215.5721854176714
 20
223.7180923663725
 30
0.0
 41
0.9999999981490484
 10
213.436095271091
 20
223.7179490133179
 30
0.0
 41
1.0
  0
SPLINE
  5
60
330
1F
100
AcDbEntity
  8
LINEE VISIBILI 2D
100
AcDbSpline
210
0.0
220
0.0
230
1.0
 70
    12
 71
     2
 72
     6
 73
     3
 74
     0
 42
0.0000000001
 43
0.0000000001
 40
0.0
 40
0.0
 40
0.0
 40
4.272180038234329
 40
4.272180038234329
 40
4.272180038234329
 10
213.436095271091
 20
223.717949013313
 30
0.0
 41
1.0
 10
211.3000052541483
 20
223.7180923663668
 30
0.0
 41
0.9999999981490482
 10
209.1639152355764
 20
223.7179757860217
 30
0.0
 41
1.0
  0
SPLINE
  5
61
330
1F
100
AcDbEntity
  8
LINEE VISIBILI 2D
100
AcDbSpline
210
0.0
220
0.0
230
1.0
 70
    12
 71
     2
 72
     6
 73
     3
 74
     0
 42
0.0000000001
 43
0.0000000001
 40
0.0
 40
0.0
 40
0.0
 40
7.492543217432336
 40
7.492543217432336
 40
7.492543217432336
 10
205.9435518279804
 20
226.6915445341729
 30
0.0
 41
1.0
 10
209.6898234366309
 20
226.6915699658221
 30
0.0
 41
0.9999999999917784
 10
213.4360950453643
 20
226.6915650150783
 30
0.0
 41
1.0
  0
SPLINE
  5
62
330
1F
100
AcDbEntity
  8
LINEE VISIBILI 2D
100
AcDbSpline
210
0.0
220
0.0
230
1.0
 70
    12
 71
     2
 72
     6
 73
     3
 74
     0
 42
0.0000000001
 43
0.0000000001
 40
0.0
 40
0.0
 40
0.0
 40
7.490882196520439
 40
7.490882196520439
 40
7.490882196520439
 10
213.4360950453643
 20
226.6915650151787
 30
0.0
 41
1.0
 10
217.1815361434032
 20
226.6916131709916
 30
0.0
 41
0.9999999999646737
 10
220.9269772417223
 20
226.6915983621441
 30
0.0
 41
1.0
  0
SPLINE
  5
63
330
1F
100
AcDbEntity
  8
LINEE VISIBILI 2D
100
AcDbSpline
210
0.0
220
0.0
230
1.0
 70
    24
 71
     2
 72
     6
 73
     3
 74
     0
 42
0.0000000001
 43
0.0000000001
 40
0.0
 40
0.0
 40
0.0
 40
0.5999999999999944
 40
0.5999999999999944
 40
0.5999999999999944
 10
253.6361005375699
 20
223.5916023260907
 30
0.0
 10
253.9361005375699
 20
223.5916023260907
 30
0.0
 10
254.2361005375699
 20
223.5916023260907
 30
0.0
  0
SPLINE
  5
64
330
1F
100
AcDbEntity
  8
LINEE VISIBILI 2D
100
AcDbSpline
210
0.0
220
0.0
230
1.0
 70
    24
 71
     2
 72
     6
 73
     3
 74
     0
 42
0.0000000001
 43
0.0000000001
 40
0.0
 40
0.0
 40
0.0
 40
0.799999999999983
 40
0.799999999999983
 40
0.799999999999983
 10
255.0361005375699
 20
226.4916023260907
 30
0.0
 10
254.6361005375699
 20
226.4916023260907
 30
0.0
 10
254.2361005375699
 20
226.4916023260907
 30
0.0
  0
SPLINE
  5
65
330
1F
100
AcDbEntity
  8
LINEE VISIBILI 2D
100
AcDbSpline
210
0.0
220
0.0
230
1.0
 70
    24
 71
     2
 72
     6
 73
     3
 74
     0
 42
0.0000000001
 43
0.0000000001
 40
0.0
 40
0.0
 40
0.0
 40
0.8000000000000113
 40
0.8000000000000113
 40
0.8000000000000113
 10
253.4361005375699
 20
226.6916023260907
 30
0.0
 10
253.8361005375699
 20
226.6916023260907
 30
0.0
 10
254.2361005375699
 20
226.6916023260907
 30
0.0
  0
SPLINE
  5
66
330
1F
100
AcDbEntity
  8
LINEE VISIBILI 2D
100
AcDbSpline
210
0.0
220
0.0
230
1.0
 70
    24
 71
     2
 72
     6
 73
     3
 74
     0
 42
0.0000000001
 43
0.0000000001
 40
0.0
 40
0.0
 40
0.0
 40
0.0400000000001057
 40
0.0400000000001057
 40
0.0400000000001057
 10
254.2761005378974
 20
172.5926439412595
 30
0.0
 10
254.2561005378974
 20
172.5926439412595
 30
0.0
 10
254.2361005378973
 20
172.5926439412595
 30
0.0
  0
SPLINE
  5
67
330
1F
100
AcDbEntity
  8
LINEE VISIBILI 2D
100
AcDbSpline
210
0.0
220
0.0
230
1.0
 70
    24
 71
     2
 72
     6
 73
     3
 74
     0
 42
0.0000000001
 43
0.0000000001
 40
0.0
 40
0.0
 40
0.0
 40
49.99895838483118
 40
49.99895838483118
 40
49.99895838483118
 10
254.1961005378974
 20
172.5926439412595
 30
0.0
 10
254.1961005378973
 20
197.5921231336751
 30
0.0
 10
254.1961005378973
 20
222.5916023260907
 30
0.0
  0
SPLINE
  5
68
330
1F
100
AcDbEntity
  8
LINEE VISIBILI 2D
100
AcDbSpline
210
0.0
220
0.0
230
1.0
 70
    24
 71
     2
 72
     6
 73
     3
 74
     0
 42
0.0000000001
 43
0.0000000001
 40
0.0
 40
0.0
 40
0.0
 40
99.89966666666672
 40
99.89966666666672
 40
99.89966666666672
 10
422.8274043470181
 20
161.6415954761145
 30
0.0
 10
372.8775710136848
 20
161.6415954761145
 30
0.0
 10
322.9277376803515
 20
161.6415954761145
 30
0.0
  0
SPLINE
  5
69
330
1F
100
AcDbEntity
  8
LINEE VISIBILI 2D
100
AcDbSpline
210
0.0
220
0.0
230
1.0
 70
    24
 71
     2
 72
     6
 73
     3
 74
     0
 42
0.0000000001
 43
0.0000000001
 40
0.0
 40
0.0
 40
0.0
 40
9.750000000089031
 40
9.750000000089031
 40
9.750000000089031
 10
322.9277376803515
 20
161.6415954761145
 30
0.0
 10
322.9277168470181
 20
166.5165954761145
 30
0.0
 10
322.9276960136848
 20
171.3915954761145
 30
0.0
  0
SPLINE
  5
6A
330
1F
100
AcDbEntity
  8
LINEE VISIBILI 2D
100
AcDbSpline
210
0.0
220
0.0
230
1.0
 70
    24
 71
     2
 72
     6
 73
     3
 74
     0
 42
0.0000000001
 43
0.0000000001
 40
0.0
 40
0.0
 40
0.0
 40
9.750000000089031
 40
9.750000000089031
 40
9.750000000089031
 10
422.8274460136847
 20
171.3915954761145
 30
0.0
 10
422.8274251803514
 20
166.5165954761145
 30
0.0
 10
422.8274043470181
 20
161.6415954761145
 30
0.0
  0
SPLINE
  5
6B
330
1F
100
AcDbEntity
  8
LINEE VISIBILI 2D
100
AcDbSpline
210
0.0
220
0.0
230
1.0
 70
    24
 71
     2
 72
     6
 73
     3
 74
     0
 42
0.0000000001
 43
0.0000000001
 40
0.0
 40
0.0
 40
0.0
 40
99.89974999999995
 40
99.89974999999995
 40
99.89974999999995
 10
422.8274460136847
 20
171.3915954761145
 30
0.0
 10
372.8775710136848
 20
171.3915954761145
 30
0.0
 10
322.9276960136848
 20
171.3915954761145
 30
0.0
  0
SPLINE
  5
6C
330
1F
100
AcDbEntity
  8
LINEE VISIBILI 2D
100
AcDbSpline
210
0.0
220
0.0
230
1.0
 70
    12
 71
     2
 72
     6
 73
     3
 74
     0
 42
0.0000000001
 43
0.0000000001
 40
0.0
 40
0.0
 40
0.0
 40
0.1534792867481324
 40
0.1534792867481324
 40
0.1534792867481324
 10
422.4701018175851
 20
171.5915954761145
 30
0.0
 41
1.0
 10
422.5617940664342
 20
171.5832884049472
 30
0.0
 41
0.7679970529036954
 10
422.5700936286186
 20
171.4915954761145
 30
0.0
 41
1.0
  0
SPLINE
  5
6D
330
1F
100
AcDbEntity
  8
LINEE VISIBILI 2D
100
AcDbSpline
210
0.0
220
0.0
230
1.0
 70
    24
 71
     2
 72
     6
 73
     3
 74
     0
 42
0.0000000001
 43
0.0000000001
 40
0.0
 40
0.0
 40
0.0
 40
0.0999999999999943
 40
0.0999999999999943
 40
0.0999999999999943
 10
420.2202860693323
 20
171.3915954761145
 30
0.0
 10
420.2202860693323
 20
171.4415954761145
 30
0.0
 10
420.2202860693323
 20
171.4915954761145
 30
0.0
  0
SPLINE
  5
6E
330
1F
100
AcDbEntity
  8
LINEE VISIBILI 2D
100
AcDbSpline
210
0.0
220
0.0
230
1.0
 70
    24
 71
     2
 72
     6
 73
     3
 74
     0
 42
0.0000000001
 43
0.0000000001
 40
0.0
 40
0.0
 40
0.0
 40
99.39252261493379
 40
99.39252261493379
 40
99.39252261493379
 10
323.1775710136848
 20
171.4915954761145
 30
0.0
 10
372.8738323211517
 20
171.4915954761145
 30
0.0
 10
422.5700936286186
 20
171.4915954761145
 30
0.0
  0
SPLINE
  5
6F
330
1F
100
AcDbEntity
  8
LINEE VISIBILI 2D
100
AcDbSpline
210
0.0
220
0.0
230
1.0
 70
    24
 71
     2
 72
     6
 73
     3
 74
     0
 42
0.0000000001
 43
0.0000000001
 40
0.0
 40
0.0
 40
0.0
 40
99.19626458528616
 40
99.19626458528616
 40
99.19626458528616
 10
422.4701018175851
 20
171.5915954761145
 30
0.0
 10
372.8719695249452
 20
171.591578061851
 30
0.0
 10
323.2738372323051
 20
171.5915606475875
 30
0.0
  0
SPLINE
  5
70
330
1F
100
AcDbEntity
  8
LINEE VISIBILI 2D
100
AcDbSpline
210
0.0
220
0.0
230
1.0
 70
    12
 71
     2
 72
     6
 73
     3
 74
     0
 42
0.0000000001
 43
0.0000000001
 40
0.0
 40
0.0
 40
0.0
 40
0.1530509422320684
 40
0.1530509422320684
 40
0.1530509422320684
 10
323.1775710136848
 20
171.4915954761145
 30
0.0
 41
1.0
 10
323.1783131442924
 20
171.5872154598486
 30
0.0
 41
0.725669524603937
 10
323.2738372323051
 20
171.5915606475875
 30
0.0
 41
1.0
  0
SPLINE
  5
71
330
1F
100
AcDbEntity
  8
LINEE VISIBILI 2D
100
AcDbSpline
210
0.0
220
0.0
230
1.0
 70
    24
 71
     2
 72
     6
 73
     3
 74
     0
 42
0.0000000001
 43
0.0000000001
 40
0.0
 40
0.0
 40
0.0
 40
0.1001061682934319
 40
0.1001061682934319
 40
0.1001061682934319
 10
325.5248275994623
 20
171.4916990370973
 30
0.0
 10
325.5251888503964
 20
171.4416472566059
 30
0.0
 10
325.5255501013305
 20
171.3915954761145
 30
0.0
  0
SPLINE
  5
72
330
1F
100
AcDbEntity
  8
LINEE VISIBILI 2D
100
AcDbSpline
210
0.0
220
0.0
230
1.0
 70
    12
 71
     2
 72
     6
 73
     3
 74
     0
 42
0.0000000001
 43
0.0000000001
 40
0.0
 40
0.0
 40
0.0
 40
0.100380635717615
 40
0.100380635717615
 40
0.100380635717615
 10
374.6632843417797
 20
223.2950880362284
 30
0.0
 41
1.0
 10
374.7131939113241
 20
223.3020499208331
 30
0.0
 41
0.9939841558553307
 10
374.763421912862
 20
223.2979779641956
 30
0.0
 41
1.0
  0
SPLINE
  5
73
330
1F
100
AcDbEntity
  8
LINEE VISIBILI 2D
100
AcDbSpline
210
0.0
220
0.0
230
1.0
 70
    12
 71
     2
 72
     6
 73
     3
 74
     0
 42
0.0000000001
 43
0.0000000001
 40
0.0
 40
0.0
 40
0.0
 40
0.4232090865459761
 40
0.4232090865459761
 40
0.4232090865459761
 10
374.7635280966926
 20
223.2979779648987
 30
0.0
 41
1.0
 10
374.9751449419409
 20
223.2976158871753
 30
0.0
 41
0.9999106069957267
 10
375.1866764406445
 20
223.2915954761139
 30
0.0
 41
1.0
  0
SPLINE
  5
74
330
1F
100
AcDbEntity
  8
LINEE VISIBILI 2D
100
AcDbSpline
210
0.0
220
0.0
230
1.0
 70
    12
 71
     2
 72
     6
 73
     3
 74
     0
 42
0.0000000001
 43
0.0000000001
 40
0.0
 40
0.0
 40
0.0
 40
0.0709463523329595
 40
0.0709463523329595
 40
0.0709463523329595
 10
375.1866764406445
 20
223.2915954761139
 30
0.0
 41
1.0
 10
375.2221531151814
 20
223.2908977937531
 30
0.0
 41
0.9995621924927185
 10
375.2575264081467
 20
223.2881029160002
 30
0.0
 41
1.0
  0
SPLINE
  5
75
330
1F
100
AcDbEntity
  8
LINEE VISIBILI 2D
100
AcDbSpline
210
0.0
220
0.0
230
1.0
 70
    24
 71
     2
 72
     6
 73
     3
 74
     0
 42
0.0000000001
 43
0.0000000001
 40
0.0
 40
0.0
 40
0.0
 40
0.3000000000000682
 40
0.3000000000000682
 40
0.3000000000000682
 10
421.6275742634233
 20
222.5916023260907
 30
0.0
 10
421.4775742634233
 20
222.5916023260907
 30
0.0
 10
421.3275742634232
 20
222.5916023260907
 30
0.0
  0
SPLINE
  5
76
330
1F
100
AcDbEntity
  8
LINEE VISIBILI 2D
100
AcDbSpline
210
0.0
220
0.0
230
1.0
 70
    24
 71
     2
 72
     6
 73
     3
 74
     0
 42
0.0000000001
 43
0.0000000001
 40
0.0
 40
0.0
 40
0.0
 40
0.2949916105249599
 40
0.2949916105249599
 40
0.2949916105249599
 10
421.3275742634232
 20
222.5916023260907
 30
0.0
 10
421.1800784581607
 20
222.5916023260907
 30
0.0
 10
421.0325826528983
 20
222.5916023260907
 30
0.0
  0
SPLINE
  5
77
330
1F
100
AcDbEntity
  8
LINEE VISIBILI 2D
100
AcDbSpline
210
0.0
220
0.0
230
1.0
 70
    24
 71
     2
 72
     6
 73
     3
 74
     0
 42
0.0000000001
 43
0.0000000001
 40
0.0
 40
0.0
 40
0.0
 40
1.0
 40
1.0
 40
1.0
 10
421.6275742634233
 20
223.5916023260907
 30
0.0
 10
421.6275742634233
 20
223.0916023260907
 30
0.0
 10
421.6275742634233
 20
222.5916023260907
 30
0.0
  0
SPLINE
  5
78
330
1F
100
AcDbEntity
  8
LINEE VISIBILI 2D
100
AcDbSpline
210
0.0
220
0.0
230
1.0
 70
    24
 71
     2
 72
     6
 73
     3
 74
     0
 42
0.0000000001
 43
0.0000000001
 40
0.0
 40
0.0
 40
0.0
 40
1.0
 40
1.0
 40
1.0
 10
421.0275742634233
 20
222.5916023260907
 30
0.0
 10
421.0275742634233
 20
223.0916023260907
 30
0.0
 10
421.0275742634233
 20
223.5916023260907
 30
0.0
  0
SPLINE
  5
79
330
1F
100
AcDbEntity
  8
LINEE VISIBILI 2D
100
AcDbSpline
210
0.0
220
0.0
230
1.0
 70
    24
 71
     2
 72
     6
 73
     3
 74
     0
 42
0.0000000001
 43
0.0000000001
 40
0.0
 40
0.0
 40
0.0
 40
2.900000127156602
 40
2.900000127156602
 40
2.900000127156602
 10
421.9275742634232
 20
223.5916023260907
 30
0.0
 10
421.9275742634232
 20
225.041602389669
 30
0.0
 10
421.9275742634232
 20
226.4916024532473
 30
0.0
  0
SPLINE
  5
7A
330
1F
100
AcDbEntity
  8
LINEE VISIBILI 2D
100
AcDbSpline
210
0.0
220
0.0
230
1.0
 70
    24
 71
     2
 72
     6
 73
     3
 74
     0
 42
0.0000000001
 43
0.0000000001
 40
0.0
 40
0.0
 40
0.0
 40
2.900000127156602
 40
2.900000127156602
 40
2.900000127156602
 10
420.7275742634233
 20
226.4916024532473
 30
0.0
 10
420.7275742634233
 20
225.041602389669
 30
0.0
 10
420.7275742634233
 20
223.5916023260907
 30
0.0
  0
SPLINE
  5
7B
330
1F
100
AcDbEntity
  8
LINEE VISIBILI 2D
100
AcDbSpline
210
0.0
220
0.0
230
1.0
 70
    24
 71
     2
 72
     6
 73
     3
 74
     0
 42
0.0000000001
 43
0.0000000001
 40
0.0
 40
0.0
 40
0.0
 40
1.199999999999988
 40
1.199999999999988
 40
1.199999999999988
 10
420.7275742634233
 20
223.5916023260907
 30
0.0
 10
421.3275742634233
 20
223.5916023260907
 30
0.0
 10
421.9275742634232
 20
223.5916023260907
 30
0.0
  0
SPLINE
  5
7C
330
1F
100
AcDbEntity
  8
LINEE VISIBILI 2D
100
AcDbSpline
210
0.0
220
0.0
230
1.0
 70
    24
 71
     2
 72
     6
 73
     3
 74
     0
 42
0.0000000001
 43
0.0000000001
 40
0.0
 40
0.0
 40
0.0
 40
1.600000000000022
 40
1.600000000000022
 40
1.600000000000022
 10
422.1275742634233
 20
226.4916023260907
 30
0.0
 10
421.3275742634233
 20
226.4916023260907
 30
0.0
 10
420.5275742634233
 20
226.4916023260907
 30
0.0
  0
SPLINE
  5
7D
330
1F
100
AcDbEntity
  8
LINEE VISIBILI 2D
100
AcDbSpline
210
0.0
220
0.0
230
1.0
 70
    24
 71
     2
 72
     6
 73
     3
 74
     0
 42
0.0000000001
 43
0.0000000001
 40
0.0
 40
0.0
 40
0.0
 40
0.1999999999999886
 40
0.1999999999999886
 40
0.1999999999999886
 10
422.1275742634233
 20
226.6916023260907
 30
0.0
 10
422.1275742634233
 20
226.5916023260907
 30
0.0
 10
422.1275742634233
 20
226.4916023260907
 30
0.0
  0
SPLINE
  5
7E
330
1F
100
AcDbEntity
  8
LINEE VISIBILI 2D
100
AcDbSpline
210
0.0
220
0.0
230
1.0
 70
    24
 71
     2
 72
     6
 73
     3
 74
     0
 42
0.0000000001
 43
0.0000000001
 40
0.0
 40
0.0
 40
0.0
 40
0.1999999999999886
 40
0.1999999999999886
 40
0.1999999999999886
 10
420.5275742634233
 20
226.4916023260907
 30
0.0
 10
420.5275742634233
 20
226.5916023260907
 30
0.0
 10
420.5275742634233
 20
226.6916023260907
 30
0.0
  0
SPLINE
  5
7F
330
1F
100
AcDbEntity
  8
LINEE VISIBILI 2D
100
AcDbSpline
210
0.0
220
0.0
230
1.0
 70
    24
 71
     2
 72
     6
 73
     3
 74
     0
 42
0.0000000001
 43
0.0000000001
 40
0.0
 40
0.0
 40
0.0
 40
0.7999999999999546
 40
0.7999999999999546
 40
0.7999999999999546
 10
420.5275742634233
 20
226.6916023260907
 30
0.0
 10
420.9275742634233
 20
226.6916023260907
 30
0.0
 10
421.3275742634232
 20
226.6916023260907
 30
0.0
  0
SPLINE
  5
80
330
1F
100
AcDbEntity
  8
LINEE VISIBILI 2D
100
AcDbSpline
210
0.0
220
0.0
230
1.0
 70
    24
 71
     2
 72
     6
 73
     3
 74
     0
 42
0.0000000001
 43
0.0000000001
 40
0.0
 40
0.0
 40
0.0
 40
0.8000000000000682
 40
0.8000000000000682
 40
0.8000000000000682
 10
421.3275742634232
 20
226.6916023260907
 30
0.0
 10
421.7275742634233
 20
226.6916023260907
 30
0.0
 10
422.1275742634233
 20
226.6916023260907
 30
0.0
  0
SPLINE
  5
81
330
1F
100
AcDbEntity
  8
LINEE VISIBILI 2D
100
AcDbSpline
210
0.0
220
0.0
230
1.0
 70
    24
 71
     2
 72
     6
 73
     3
 74
     0
 42
0.0000000001
 43
0.0000000001
 40
0.0
 40
0.0
 40
0.0
 40
0.0400000000000205
 40
0.0400000000000205
 40
0.0400000000000205
 10
421.3275715168412
 20
172.5926439412595
 30
0.0
 10
421.3075715168413
 20
172.5926439412595
 30
0.0
 10
421.2875715168412
 20
172.5926439412595
 30
0.0
  0
SPLINE
  5
82
330
1F
100
AcDbEntity
  8
LINEE VISIBILI 2D
100
AcDbSpline
210
0.0
220
0.0
230
1.0
 70
    24
 71
     2
 72
     6
 73
     3
 74
     0
 42
0.0000000001
 43
0.0000000001
 40
0.0
 40
0.0
 40
0.0
 40
0.0400000000000205
 40
0.0400000000000205
 40
0.0400000000000205
 10
421.3675715168413
 20
172.5926439412595
 30
0.0
 10
421.3475715168413
 20
172.5926439412595
 30
0.0
 10
421.3275715168412
 20
172.5926439412595
 30
0.0
  0
SPLINE
  5
83
330
1F
100
AcDbEntity
  8
LINEE VISIBILI 2D
100
AcDbSpline
210
0.0
220
0.0
230
1.0
 70
    24
 71
     2
 72
     6
 73
     3
 74
     0
 42
0.0000000001
 43
0.0000000001
 40
0.0
 40
0.0
 40
0.0
 40
4.384995411333738
 40
4.384995411333738
 40
4.384995411333738
 10
378.784871426613
 20
223.7179490133141
 30
0.0
 10
380.3962212203316
 20
225.2047570142468
 30
0.0
 10
382.0075710140504
 20
226.6915650151794
 30
0.0
  0
SPLINE
  5
84
330
1F
100
AcDbEntity
  8
LINEE VISIBILI 2D
100
AcDbSpline
210
0.0
220
0.0
230
1.0
 70
    12
 71
     2
 72
     6
 73
     3
 74
     0
 42
0.0000000001
 43
0.0000000001
 40
0.0
 40
0.0
 40
0.0
 40
4.272149878593901
 40
4.272149878593901
 40
4.272149878593901
 10
378.7797208451325
 20
223.7179797418066
 30
0.0
 41
1.0
 10
376.6436459064599
 20
223.7180770397065
 30
0.0
 41
0.9999999988823049
 10
374.5075709681366
 20
223.7179723507292
 30
0.0
 41
1.0
  0
SPLINE
  5
85
330
1F
100
AcDbEntity
  8
LINEE VISIBILI 2D
100
AcDbSpline
210
0.0
220
0.0
230
1.0
 70
    24
 71
     2
 72
     6
 73
     3
 74
     0
 42
0.0000000001
 43
0.0000000001
 40
0.0
 40
0.0
 40
0.0
 40
4.277294030166119
 40
4.277294030166119
 40
4.277294030166119
 10
374.5075709681366
 20
223.717972350736
 30
0.0
 10
372.3689239533401
 20
223.7179373444468
 30
0.0
 10
370.2302769385435
 20
223.7179023381578
 30
0.0
  0
SPLINE
  5
86
330
1F
100
AcDbEntity
  8
LINEE VISIBILI 2D
100
AcDbSpline
210
0.0
220
0.0
230
1.0
 70
    24
 71
     2
 72
     6
 73
     3
 74
     0
 42
0.0000000001
 43
0.0000000001
 40
0.0
 40
0.0
 40
0.0
 40
4.385024053989122
 40
4.385024053989122
 40
4.385024053989122
 10
367.0075710133234
 20
226.6915537087146
 30
0.0
 10
368.6189239759335
 20
225.2047280234362
 30
0.0
 10
370.2302769385435
 20
223.7179023381578
 30
0.0
  0
SPLINE
  5
87
330
1F
100
AcDbEntity
  8
LINEE VISIBILI 2D
100
AcDbSpline
210
0.0
220
0.0
230
1.0
 70
    12
 71
     2
 72
     6
 73
     3
 74
     0
 42
0.0000000001
 43
0.0000000001
 40
0.0
 40
0.0
 40
0.0
 40
7.499999444458913
 40
7.499999444458913
 40
7.499999444458913
 10
367.0075710133234
 20
226.6915537086898
 30
0.0
 41
1.0
 10
370.7575707354818
 20
226.691521846934
 30
0.0
 41
0.9999999999742822
 10
374.5075704577114
 20
226.6915437739813
 30
0.0
 41
1.0
  0
SPLINE
  5
88
330
1F
100
AcDbEntity
  8
LINEE VISIBILI 2D
100
AcDbSpline
210
0.0
220
0.0
230
1.0
 70
    12
 71
     2
 72
     6
 73
     3
 74
     0
 42
0.0000000001
 43
0.0000000001
 40
0.0
 40
0.0
 40
0.0
 40
7.500000556370642
 40
7.500000556370642
 40
7.500000556370642
 10
374.5075704577114
 20
226.6915437742136
 30
0.0
 41
1.0
 10
378.2575707358931
 20
226.6915501130943
 30
0.0
 41
0.9999999999993482
 10
382.0075710140504
 20
226.6915650154802
 30
0.0
 41
1.0
  0
SPLINE
  5
89
330
1F
100
AcDbEntity
  8
LINEE VISIBILI 2D
100
AcDbSpline
210
0.0
220
0.0
230
1.0
 70
    24
 71
     2
 72
     6
 73
     3
 74
     0
 42
0.0000000001
 43
0.0000000001
 40
0.0
 40
0.0
 40
0.0
 40
0.3000000000000966
 40
0.3000000000000966
 40
0.3000000000000966
 10
324.7275755434872
 20
222.5916023260907
 30
0.0
 10
324.5775755434872
 20
222.5916023260907
 30
0.0
 10
324.4275755434872
 20
222.5916023260907
 30
0.0
  0
SPLINE
  5
8A
330
1F
100
AcDbEntity
  8
LINEE VISIBILI 2D
100
AcDbSpline
210
0.0
220
0.0
230
1.0
 70
    24
 71
     2
 72
     6
 73
     3
 74
     0
 42
0.0000000001
 43
0.0000000001
 40
0.0
 40
0.0
 40
0.0
 40
0.294991610567223
 40
0.294991610567223
 40
0.294991610567223
 10
324.4275751608656
 20
222.5916023260907
 30
0.0
 10
324.280079355582
 20
222.5916023260907
 30
0.0
 10
324.1325835502984
 20
222.5916023260907
 30
0.0
  0
SPLINE
  5
8B
330
1F
100
AcDbEntity
  8
LINEE VISIBILI 2D
100
AcDbSpline
210
0.0
220
0.0
230
1.0
 70
    24
 71
     2
 72
     6
 73
     3
 74
     0
 42
0.0000000001
 43
0.0000000001
 40
0.0
 40
0.0
 40
0.0
 40
1.0
 40
1.0
 40
1.0
 10
324.7275755434872
 20
223.5916023260907
 30
0.0
 10
324.7275755434872
 20
223.0916023260907
 30
0.0
 10
324.7275755434872
 20
222.5916023260907
 30
0.0
  0
SPLINE
  5
8C
330
1F
100
AcDbEntity
  8
LINEE VISIBILI 2D
100
AcDbSpline
210
0.0
220
0.0
230
1.0
 70
    24
 71
     2
 72
     6
 73
     3
 74
     0
 42
0.0000000001
 43
0.0000000001
 40
0.0
 40
0.0
 40
0.0
 40
1.0
 40
1.0
 40
1.0
 10
324.1275755434871
 20
222.5916023260907
 30
0.0
 10
324.1275755434871
 20
223.0916023260907
 30
0.0
 10
324.1275755434871
 20
223.5916023260907
 30
0.0
  0
SPLINE
  5
8D
330
1F
100
AcDbEntity
  8
LINEE VISIBILI 2D
100
AcDbSpline
210
0.0
220
0.0
230
1.0
 70
    24
 71
     2
 72
     6
 73
     3
 74
     0
 42
0.0000000001
 43
0.0000000001
 40
0.0
 40
0.0
 40
0.0
 40
2.900000127156602
 40
2.900000127156602
 40
2.900000127156602
 10
325.0275755434871
 20
223.5916023260907
 30
0.0
 10
325.0275755434871
 20
225.041602389669
 30
0.0
 10
325.0275755434871
 20
226.4916024532473
 30
0.0
  0
SPLINE
  5
8E
330
1F
100
AcDbEntity
  8
LINEE VISIBILI 2D
100
AcDbSpline
210
0.0
220
0.0
230
1.0
 70
    24
 71
     2
 72
     6
 73
     3
 74
     0
 42
0.0000000001
 43
0.0000000001
 40
0.0
 40
0.0
 40
0.0
 40
2.900000127156602
 40
2.900000127156602
 40
2.900000127156602
 10
323.8275755434871
 20
226.4916024532473
 30
0.0
 10
323.8275755434871
 20
225.041602389669
 30
0.0
 10
323.8275755434871
 20
223.5916023260907
 30
0.0
  0
SPLINE
  5
8F
330
1F
100
AcDbEntity
  8
LINEE VISIBILI 2D
100
AcDbSpline
210
0.0
220
0.0
230
1.0
 70
    24
 71
     2
 72
     6
 73
     3
 74
     0
 42
0.0000000001
 43
0.0000000001
 40
0.0
 40
0.0
 40
0.0
 40
1.199999999999988
 40
1.199999999999988
 40
1.199999999999988
 10
323.8275755434871
 20
223.5916023260907
 30
0.0
 10
324.4275755434872
 20
223.5916023260907
 30
0.0
 10
325.0275755434871
 20
223.5916023260907
 30
0.0
  0
SPLINE
  5
90
330
1F
100
AcDbEntity
  8
LINEE VISIBILI 2D
100
AcDbSpline
210
0.0
220
0.0
230
1.0
 70
    24
 71
     2
 72
     6
 73
     3
 74
     0
 42
0.0000000001
 43
0.0000000001
 40
0.0
 40
0.0
 40
0.0
 40
1.600000000000079
 40
1.600000000000079
 40
1.600000000000079
 10
325.2275755434872
 20
226.4916023260907
 30
0.0
 10
324.4275755434872
 20
226.4916023260907
 30
0.0
 10
323.6275755434871
 20
226.4916023260907
 30
0.0
  0
SPLINE
  5
91
330
1F
100
AcDbEntity
  8
LINEE VISIBILI 2D
100
AcDbSpline
210
0.0
220
0.0
230
1.0
 70
    24
 71
     2
 72
     6
 73
     3
 74
     0
 42
0.0000000001
 43
0.0000000001
 40
0.0
 40
0.0
 40
0.0
 40
0.1999999999999886
 40
0.1999999999999886
 40
0.1999999999999886
 10
325.2275755434872
 20
226.6916023260907
 30
0.0
 10
325.2275755434872
 20
226.5916023260907
 30
0.0
 10
325.2275755434872
 20
226.4916023260907
 30
0.0
  0
SPLINE
  5
92
330
1F
100
AcDbEntity
  8
LINEE VISIBILI 2D
100
AcDbSpline
210
0.0
220
0.0
230
1.0
 70
    24
 71
     2
 72
     6
 73
     3
 74
     0
 42
0.0000000001
 43
0.0000000001
 40
0.0
 40
0.0
 40
0.0
 40
0.1999999999999886
 40
0.1999999999999886
 40
0.1999999999999886
 10
323.6275755434871
 20
226.4916023260907
 30
0.0
 10
323.6275755434871
 20
226.5916023260907
 30
0.0
 10
323.6275755434871
 20
226.6916023260907
 30
0.0
  0
SPLINE
  5
93
330
1F
100
AcDbEntity
  8
LINEE VISIBILI 2D
100
AcDbSpline
210
0.0
220
0.0
230
1.0
 70
    24
 71
     2
 72
     6
 73
     3
 74
     0
 42
0.0000000001
 43
0.0000000001
 40
0.0
 40
0.0
 40
0.0
 40
0.7999996172625572
 40
0.7999996172625572
 40
0.7999996172625572
 10
323.6275755434871
 20
226.6916023260907
 30
0.0
 10
324.0275753521185
 20
226.6916023260907
 30
0.0
 10
324.4275751607497
 20
226.6916023260907
 30
0.0
  0
SPLINE
  5
94
330
1F
100
AcDbEntity
  8
LINEE VISIBILI 2D
100
AcDbSpline
210
0.0
220
0.0
230
1.0
 70
     8
 71
     3
 72
    20
 73
    16
 74
     0
 42
0.0000000001
 43
0.0000000001
 40
0.0
 40
0.0
 40
0.0
 40
0.0
 40
2.414193467583997
 40
4.845344967744863
 40
10.33111287994052
 40
16.56037610259092
 40
27.60517273782414
 40
32.05643756117598
 40
36.11745229051934
 40
39.56479920267553
 40
43.85165162160841
 40
48.59826130280437
 40
52.88162931495993
 40
54.87572923467041
 40
59.3311934993183
 40
59.3311934993183
 40
59.3311934993183
 40
59.3311934993183
 10
254.196100537896
 20
189.421777263935
 30
0.0
 10
253.8058753855604
 20
190.1299398305454
 30
0.0
 10
252.913751836122
 20
191.4732225031972
 30
0.0
 10
250.4700949339706
 20
193.945663929963
 30
0.0
 10
246.3165300870613
 20
196.2579801478608
 30
0.0
 10
239.0985643362331
 20
198.650590591605
 30
0.0
 10
231.9546126328308
 20
199.9262062033429
 30
0.0
 10
225.6671385337461
 20
201.6554497993643
 30
0.0
 10
221.9420144894606
 20
203.1055701322647
 30
0.0
 10
218.6013743047385
 20
205.2267845002262
 30
0.0
 10
215.7964307392511
 20
208.3699654973619
 30
0.0
 10
213.9830767520713
 20
212.4704942458275
 30
0.0
 10
213.221689292295
 20
216.0790669174959
 30
0.0
 10
213.1165626065308
 20
219.6649518618603
 30
0.0
 10
213.1284305728722
 20
221.8094377026356
 30
0.0
 10
213.1440457631209
 20
223.2964104736174
 30
0.0
  0
SPLINE
  5
95
330
1F
100
AcDbEntity
  8
LINEE VISIBILI 2D
100
AcDbSpline
210
0.0
220
0.0
230
1.0
 70
     8
 71
     3
 72
    20
 73
    16
 74
     0
 42
0.0000000001
 43
0.0000000001
 40
0.0
 40
0.0
 40
0.0
 40
0.0
 40
4.373097040002753
 40
6.341058836511388
 40
10.53172890744957
 40
15.17220493620498
 40
19.40195060928561
 40
22.67545585296345
 40
26.60189818542757
 40
30.84628837355278
 40
41.78634600091887
 40
47.94960866695183
 40
53.32194476331877
 40
55.66508167506281
 40
57.99361463526639
 40
57.99361463526639
 40
57.99361463526639
 40
57.99361463526639
 10
213.7438820005889
 20
223.2862082890643
 30
0.0
 10
213.728035465611
 20
221.8259708969121
 30
0.0
 10
213.7197713863977
 20
219.7187812475455
 30
0.0
 10
213.8125577298786
 20
216.1992311695475
 30
0.0
 10
214.5542280050249
 20
212.6637159179269
 30
0.0
 10
216.3341964450804
 20
208.6415932970608
 30
0.0
 10
219.0894626380014
 20
205.6020182095998
 30
0.0
 10
222.3491747195111
 20
203.5843535623269
 30
0.0
 10
225.9176689198005
 20
202.2100275966247
 30
0.0
 10
232.061998439319
 20
200.5208961902871
 30
0.0
 10
239.0806264146986
 20
199.2640773261307
 30
0.0
 10
246.2179495540953
 20
196.9354518051977
 30
0.0
 10
250.328639878615
 20
194.74689457178
 30
0.0
 10
252.8235481661377
 20
192.4777027867286
 30
0.0
 10
253.774609289907
 20
191.2457451253685
 30
0.0
 10
254.1961005378968
 20
190.5912848853278
 30
0.0
  0
SPLINE
  5
106
330
1F
100
AcDbEntity
  8
LINEE VISIBILI 2D
100
AcDbSpline
210
0.0
220
0.0
230
1.0
 70
    12
 71
     2
 72
     6
 73
     3
 74
     0
 42
0.0000000001
 43
0.0000000001
 40
0.0
 40
0.0
 40
0.0
 40
0.0843606668269003
 40
0.0843606668269003
 40
0.0843606668269003
 10
161.6111198933501
 20
42.42207479073898
 30
0.0
 41
1.0
 10
161.5663485811718
 20
42.43033300728856
 30
0.0
 41
0.893309057932829
 10
161.5330335768539
 20
42.39930432665198
 30
0.0
 41
1.0
  0
SPLINE
  5
107
330
1F
100
AcDbEntity
  8
LINEE VISIBILI 2D
100
AcDbSpline
210
0.0
220
0.0
230
1.0
 70
    24
 71
     2
 72
     6
 73
     3
 74
     0
 42
0.0000000001
 43
0.0000000001
 40
0.0
 40
0.0
 40
0.0
 40
2.350151388382479
 40
2.350151388382479
 40
2.350151388382479
 10
216.9185909325881
 20
73.6455706741896
 30
0.0
 10
215.9389255341118
 20
72.9966803952462
 30
0.0
 10
214.9592601356354
 20
72.3477901163028
 30
0.0
  0
SPLINE
  5
108
330
1F
100
AcDbEntity
  8
LINEE VISIBILI 2D
100
AcDbSpline
210
0.0
220
0.0
230
1.0
 70
    24
 71
     2
 72
     6
 73
     3
 74
     0
 42
0.0000000001
 43
0.0000000001
 40
0.0
 40
0.0
 40
0.0
 40
1.835090738554052
 40
1.835090738554052
 40
1.835090738554052
 10
259.812552172782
 20
70.15435435113679
 30
0.0
 10
259.9228817910923
 20
71.06524231351483
 30
0.0
 10
260.0332114094026
 20
71.97613027589286
 30
0.0
  0
SPLINE
  5
109
330
1F
100
AcDbEntity
  8
LINEE VISIBILI 2D
100
AcDbSpline
210
0.0
220
0.0
230
1.0
 70
    24
 71
     2
 72
     6
 73
     3
 74
     0
 42
0.0000000001
 43
0.0000000001
 40
0.0
 40
0.0
 40
0.0
 40
0.1280164937445007
 40
0.1280164937445007
 40
0.1280164937445007
 10
261.1836064399948
 20
72.17532460992837
 30
0.0
 10
261.1757385583236
 20
72.1118017628128
 30
0.0
 10
261.1678706766525
 20
72.04827891569724
 30
0.0
  0
SPLINE
  5
10A
330
1F
100
AcDbEntity
  8
LINEE VISIBILI 2D
100
AcDbSpline
210
0.0
220
0.0
230
1.0
 70
    24
 71
     2
 72
     6
 73
     3
 74
     0
 42
0.0000000001
 43
0.0000000001
 40
0.0
 40
0.0
 40
0.0
 40
0.0956900530256689
 40
0.0956900530256689
 40
0.0956900530256689
 10
259.8971999239508
 20
72.17986175991679
 30
0.0
 10
259.902934743068
 20
72.22736184846098
 30
0.0
 10
259.9086695621852
 20
72.27486193700518
 30
0.0
  0
SPLINE
  5
10D
330
1F
100
AcDbEntity
  8
LINEE VISIBILI 2D
100
AcDbSpline
210
0.0
220
0.0
230
1.0
 70
    24
 71
     2
 72
     6
 73
     3
 74
     0
 42
0.0000000001
 43
0.0000000001
 40
0.0
 40
0.0
 40
0.0
 40
0.239469983988298
 40
0.239469983988298
 40
0.239469983988298
 10
206.6709911384509
 20
6.656244535551842
 30
0.0
 10
206.7642875401177
 20
6.581196219489104
 30
0.0
 10
206.8575839417846
 20
6.506147903426367
 30
0.0
  0
SPLINE
  5
10E
330
1F
100
AcDbEntity
  8
LINEE VISIBILI 2D
100
AcDbSpline
210
0.0
220
0.0
230
1.0
 70
    24
 71
     2
 72
     6
 73
     3
 74
     0
 42
0.0000000001
 43
0.0000000001
 40
0.0
 40
0.0
 40
0.0
 40
0.2392256746681742
 40
0.2392256746681742
 40
0.2392256746681742
 10
251.8547566949983
 20
33.41268702393008
 30
0.0
 10
251.8680368584615
 20
33.53156035194567
 30
0.0
 10
251.8813170219248
 20
33.65043367996126
 30
0.0
  0
SPLINE
  5
10F
330
1F
100
AcDbEntity
  8
LINEE VISIBILI 2D
100
AcDbSpline
210
0.0
220
0.0
230
1.0
 70
    24
 71
     2
 72
     6
 73
     3
 74
     0
 42
0.0000000001
 43
0.0000000001
 40
0.0
 40
0.0
 40
0.0
 40
0.2165591257163372
 40
0.2165591257163372
 40
0.2165591257163372
 10
253.0707788092864
 20
34.13982041004469
 30
0.0
 10
252.977253731966
 20
34.19438709992939
 30
0.0
 10
252.8837286546456
 20
34.2489537898141
 30
0.0
  0
SPLINE
  5
110
330
1F
100
AcDbEntity
  8
LINEE VISIBILI 2D
100
AcDbSpline
210
0.0
220
0.0
230
1.0
 70
    24
 71
     2
 72
     6
 73
     3
 74
     0
 42
0.0000000001
 43
0.0000000001
 40
0.0
 40
0.0
 40
0.0
 40
0.2131221835438263
 40
0.2131221835438263
 40
0.2131221835438263
 10
167.8030243895002
 20
37.29397341654836
 30
0.0
 10
167.7059292547774
 20
37.25006668480062
 30
0.0
 10
167.6088341200545
 20
37.20615995305288
 30
0.0
  0
SPLINE
  5
111
330
1F
100
AcDbEntity
  8
LINEE VISIBILI 2D
100
AcDbSpline
210
0.0
220
0.0
230
1.0
 70
    12
 71
     2
 72
     6
 73
     3
 74
     0
 42
0.0000000001
 43
0.0000000001
 40
0.0
 40
0.0
 40
0.0
 40
0.2801774303698042
 40
0.2801774303698042
 40
0.2801774303698042
 10
210.6834547376911
 20
91.80755046625566
 30
0.0
 41
1.0
 10
210.5446309694555
 20
91.76475428083589
 30
0.0
 41
0.9473428734897373
 10
210.4083123685856
 20
91.81496176205614
 30
0.0
 41
1.0
  0
SPLINE
  5
112
330
1F
100
AcDbEntity
  8
LINEE VISIBILI 2D
100
AcDbSpline
210
0.0
220
0.0
230
1.0
 70
    12
 71
     2
 72
     6
 73
     3
 74
     0
 42
0.0000000001
 43
0.0000000001
 40
0.0
 40
0.0
 40
0.0
 40
0.07874372550459
 40
0.07874372550459
 40
0.07874372550459
 10
210.4083123685856
 20
91.81496176205614
 30
0.0
 41
1.0
 10
210.3636028494604
 20
91.82508691585146
 30
0.0
 41
0.8011425631840419
 10
210.3606298661912
 20
91.8708320927586
 30
0.0
 41
1.0
  0
SPLINE
  5
113
330
1F
100
AcDbEntity
  8
LINEE VISIBILI 2D
100
AcDbSpline
210
0.0
220
0.0
230
1.0
 70
    12
 71
     2
 72
     6
 73
     3
 74
     0
 42
0.0000000001
 43
0.0000000001
 40
0.0
 40
0.0
 40
0.0
 40
0.0881038911948373
 40
0.0881038911948373
 40
0.0881038911948373
 10
210.7495544120595
 20
91.86036097575279
 30
0.0
 41
1.0
 10
210.7306242915711
 20
91.81628293797945
 30
0.0
 41
0.8818405297740417
 10
210.6834547376911
 20
91.80755046625566
 30
0.0
 41
1.0
  0
SPLINE
  5
114
330
1F
100
AcDbEntity
  8
LINEE VISIBILI 2D
100
AcDbSpline
210
0.0
220
0.0
230
1.0
 70
    12
 71
     2
 72
     8
 73
     5
 74
     0
 42
0.0000000001
 43
0.0000000001
 40
0.0
 40
0.0
 40
0.0
 40
0.1467613595516928
 40
0.1467613595516928
 40
0.708078946087392
 40
0.708078946087392
 40
0.708078946087392
 10
210.1652462021559
 20
92.47178678145029
 30
0.0
 41
1.0
 10
210.1825037854261
 20
92.39187104196473
 30
0.0
 41
0.853159046639649
 10
210.2615023003459
 20
92.37080960235807
 30
0.0
 41
1.0
 10
210.5346777828092
 20
92.2706990231679
 30
0.0
 41
0.9478190195048137
 10
210.8128240948977
 20
92.35603132277624
 30
0.0
 41
1.0
  0
SPLINE
  5
115
330
1F
100
AcDbEntity
  8
LINEE VISIBILI 2D
100
AcDbSpline
210
0.0
220
0.0
230
1.0
 70
    12
 71
     2
 72
     6
 73
     3
 74
     0
 42
0.0000000001
 43
0.0000000001
 40
0.0
 40
0.0
 40
0.0
 40
0.1858662776475894
 40
0.1858662776475894
 40
0.1858662776475894
 10
210.8128240948977
 20
92.35603132277624
 30
0.0
 41
1.0
 10
210.9162511708212
 20
92.37093917107372
 30
0.0
 41
0.8419927850258131
 10
210.9459300776035
 20
92.47113181784557
 30
0.0
 41
1.0
  0
SPLINE
  5
116
330
1F
100
AcDbEntity
  8
LINEE VISIBILI 2D
100
AcDbSpline
210
0.0
220
0.0
230
1.0
 70
    12
 71
     2
 72
     6
 73
     3
 74
     0
 42
0.0000000001
 43
0.0000000001
 40
18.36708600299422
 40
18.36708600299422
 40
18.36708600299422
 40
25.1327412287183
 40
25.1327412287183
 40
25.1327412287183
 10
211.0796453481099
 20
94.23826733762707
 30
0.0
 41
319.1039697209535
 10
211.0793177494258
 20
94.14683987680838
 30
0.0
 41
314.322800081273
 10
210.9015656597205
 20
94.08665417686412
 30
0.0
 41
372.9664126040332
  0
SPLINE
  5
117
330
1F
100
AcDbEntity
  8
LINEE VISIBILI 2D
100
AcDbSpline
210
0.0
220
0.0
230
1.0
 70
    12
 71
     2
 72
     8
 73
     5
 74
     0
 42
0.0000000001
 43
0.0000000001
 40
0.0
 40
0.0
 40
0.0
 40
0.7513278301545584
 40
0.7513278301545584
 40
0.9460912646689642
 40
0.9460912646689642
 40
0.9460912646689642
 10
210.9015656597205
 20
94.08665417686412
 30
0.0
 41
1.0
 10
210.5291692142159
 20
93.97421028809345
 30
0.0
 41
0.9493519136009926
 10
210.1632227539397
 20
94.10614181941816
 30
0.0
 41
1.0
 10
210.0581158649024
 20
94.13320794120149
 30
0.0
 41
0.8527406827063915
 10
210.0344736612631
 20
94.23913753705923
 30
0.0
 41
1.0
  0
SPLINE
  5
118
330
1F
100
AcDbEntity
  8
LINEE VISIBILI 2D
100
AcDbSpline
210
0.0
220
0.0
230
1.0
 70
    12
 71
     2
 72
     6
 73
     3
 74
     0
 42
0.0000000001
 43
0.0000000001
 40
-50.26548245743669
 40
-50.26548245743669
 40
-50.26548245743669
 40
-37.6991118430775
 40
-37.6991118430775
 40
-37.6991118430775
 10
210.2135002395963
 20
94.51356815896451
 30
0.0
 41
373.8857243663643
 10
209.819682442793
 20
94.38101383030359
 30
0.0
 41
264.0610795567861
 10
210.1632134627891
 20
94.22867698071344
 30
0.0
 41
372.9264082734928
  0
SPLINE
  5
119
330
1F
100
AcDbEntity
  8
LINEE VISIBILI 2D
100
AcDbSpline
210
0.0
220
0.0
230
1.0
 70
    12
 71
     2
 72
     6
 73
     3
 74
     0
 42
0.0000000001
 43
0.0000000001
 40
0.0
 40
0.0
 40
0.0
 40
0.7494763490189249
 40
0.7494763490189249
 40
0.7494763490189249
 10
210.1650893787332
 20
94.22784966746371
 30
0.0
 41
1.0
 10
210.530359049268
 20
94.0972978382325
 30
0.0
 41
0.9498753405490154
 10
210.9017650645753
 20
94.20920531841913
 30
0.0
 41
1.0
  0
SPLINE
  5
11A
330
1F
100
AcDbEntity
  8
LINEE VISIBILI 2D
100
AcDbSpline
210
0.0
220
0.0
230
1.0
 70
    12
 71
     2
 72
     6
 73
     3
 74
     0
 42
0.0000000001
 43
0.0000000001
 40
-25.1327412287183
 40
-25.1327412287183
 40
-25.1327412287183
 40
-12.5663706143592
 40
-12.5663706143592
 40
-12.5663706143592
 10
210.9017650645753
 20
94.20920531841915
 30
0.0
 41
372.8610209051751
 10
211.2948967564999
 20
94.34217049845855
 30
0.0
 41
263.9686078537033
 10
210.95016533001
 20
94.49419629799105
 30
0.0
 41
373.8203369980466
  0
SPLINE
  5
11B
330
1F
100
AcDbEntity
  8
LINEE VISIBILI 2D
100
AcDbSpline
210
0.0
220
0.0
230
1.0
 70
    12
 71
     2
 72
     6
 73
     3
 74
     0
 42
0.0000000001
 43
0.0000000001
 40
0.0
 40
0.0
 40
0.0
 40
0.7494987413243523
 40
0.7494987413243523
 40
0.7494987413243523
 10
210.95016533001
 20
94.49419629799105
 30
0.0
 41
1.0
 10
210.5850225682526
 20
94.62518198983939
 30
0.0
 41
0.9498203052144621
 10
210.2135002395963
 20
94.51356815896451
 30
0.0
 41
1.0
  0
SPLINE
  5
11C
330
1F
100
AcDbEntity
  8
LINEE VISIBILI 2D
100
AcDbSpline
210
0.0
220
0.0
230
1.0
 70
    12
 71
     2
 72
     6
 73
     3
 74
     0
 42
0.0000000001
 43
0.0000000001
 40
0.0
 40
0.0
 40
0.0
 40
0.0111876164210264
 40
0.0111876164210264
 40
0.0111876164210264
 10
210.5132664185017
 20
63.5785237576059
 30
0.0
 41
1.0
 10
210.5073343444426
 20
63.58084691358754
 30
0.0
 41
0.826715905627285
 10
210.5073188806018
 20
63.58721765273048
 30
0.0
 41
1.0
  0
SPLINE
  5
11D
330
1F
100
AcDbEntity
  8
LINEE VISIBILI 2D
100
AcDbSpline
210
0.0
220
0.0
230
1.0
 70
    12
 71
     2
 72
     6
 73
     3
 74
     0
 42
0.0000000001
 43
0.0000000001
 40
0.0
 40
0.0
 40
0.0
 40
0.0121287633522053
 40
0.0121287633522053
 40
0.0121287633522053
 10
210.5557754914663
 20
63.5855876874868
 30
0.0
 41
1.0
 10
210.5538737406156
 20
63.57925246977984
 30
0.0
 41
0.8797908131595338
 10
210.5475324521801
 20
63.57737106055506
 30
0.0
 41
1.0
  0
SPLINE
  5
11E
330
1F
100
AcDbEntity
  8
LINEE VISIBILI 2D
100
AcDbSpline
210
0.0
220
0.0
230
1.0
 70
    12
 71
     2
 72
     6
 73
     3
 74
     0
 42
0.0000000001
 43
0.0000000001
 40
0.0
 40
0.0
 40
0.0
 40
0.0352400908364147
 40
0.0352400908364147
 40
0.0352400908364147
 10
210.5475324521801
 20
63.57737106055506
 30
0.0
 41
1.0
 10
210.5301524762281
 20
63.57060609657424
 30
0.0
 41
0.9191723971363693
 10
210.5132664185017
 20
63.5785237576059
 30
0.0
 41
1.0
  0
SPLINE
  5
11F
330
1F
100
AcDbEntity
  8
LINEE VISIBILI 2D
100
AcDbSpline
210
0.0
220
0.0
230
1.0
 70
    12
 71
     2
 72
     6
 73
     3
 74
     0
 42
0.0000000001
 43
0.0000000001
 40
0.0
 40
0.0
 40
0.0
 40
0.4034635590658488
 40
0.4034635590658488
 40
0.4034635590658488
 10
209.8692370965778
 20
44.70870306810737
 30
0.0
 41
1.0
 10
209.6709488394467
 20
44.62039268656638
 30
0.0
 41
0.8973366775320613
 10
209.4799602078594
 20
44.7235445116033
 30
0.0
 41
1.0
  0
SPLINE
  5
120
330
1F
100
AcDbEntity
  8
LINEE VISIBILI 2D
100
AcDbSpline
210
0.0
220
0.0
230
1.0
 70
    12
 71
     2
 72
     6
 73
     3
 74
     0
 42
0.0000000001
 43
0.0000000001
 40
0.0
 40
0.0
 40
0.0
 40
0.1265202083940645
 40
0.1265202083940645
 40
0.1265202083940645
 10
209.4799602078594
 20
44.7235445116033
 30
0.0
 41
1.0
 10
209.4187237802689
 20
44.75555128267028
 30
0.0
 41
0.877983191700123
 10
209.4124552653414
 20
44.82436290362763
 30
0.0
 41
1.0
  0
SPLINE
  5
121
330
1F
100
AcDbEntity
  8
LINEE VISIBILI 2D
100
AcDbSpline
210
0.0
220
0.0
230
1.0
 70
    12
 71
     2
 72
     6
 73
     3
 74
     0
 42
0.0000000001
 43
0.0000000001
 40
0.0
 40
0.0
 40
0.0
 40
0.1579224473125407
 40
0.1579224473125407
 40
0.1579224473125407
 10
209.9639486132983
 20
44.82505853745527
 30
0.0
 41
1.0
 10
209.9524058835701
 20
44.7377295623703
 30
0.0
 41
0.8515841802977289
 10
209.8692370965778
 20
44.70870306810737
 30
0.0
 41
1.0
  0
SPLINE
  5
122
330
1F
100
AcDbEntity
  8
LINEE VISIBILI 2D
100
AcDbSpline
210
0.0
220
0.0
230
1.0
 70
    12
 71
     2
 72
     8
 73
     5
 74
     0
 42
0.0000000001
 43
0.0000000001
 40
0.0
 40
0.0
 40
0.0
 40
0.2523142160926924
 40
0.2523142160926924
 40
1.061181509420735
 40
1.061181509420735
 40
1.061181509420735
 10
209.1345992799192
 20
45.5878792392687
 30
0.0
 41
1.0
 10
209.1473381056575
 20
45.45065969872
 30
0.0
 41
0.8778623995481623
 10
209.2696130249565
 20
45.38709615492334
 30
0.0
 41
1.0
 10
209.6526701509239
 20
45.18111118276441
 30
0.0
 41
0.8980720862487839
 10
210.0502443184384
 20
45.35745559530651
 30
0.0
 41
1.0
  0
SPLINE
  5
123
330
1F
100
AcDbEntity
  8
LINEE VISIBILI 2D
100
AcDbSpline
210
0.0
220
0.0
230
1.0
 70
    12
 71
     2
 72
     6
 73
     3
 74
     0
 42
0.0000000001
 43
0.0000000001
 40
0.0
 40
0.0
 40
0.0
 40
0.3151879915605464
 40
0.3151879915605464
 40
0.3151879915605464
 10
210.0502443184384
 20
45.35745559530651
 30
0.0
 41
1.0
 10
210.2163674363791
 20
45.41501812748466
 30
0.0
 41
0.8515649142745086
 10
210.2397813940876
 20
45.58926542878231
 30
0.0
 41
1.0
  0
SPLINE
  5
124
330
1F
100
AcDbEntity
  8
LINEE VISIBILI 2D
100
AcDbSpline
210
0.0
220
0.0
230
1.0
 70
    12
 71
     2
 72
     6
 73
     3
 74
     0
 42
0.0000000001
 43
0.0000000001
 40
18.34386318053654
 40
18.34386318053654
 40
18.34386318053654
 40
25.1327412287183
 40
25.1327412287183
 40
25.1327412287183
 10
210.425300225389
 20
47.82317161911505
 30
0.0
 41
225.0506541561925
 10
210.4250959614391
 20
47.63850437329517
 30
0.0
 41
221.4368566621407
 10
210.1713532393941
 20
47.51687062899508
 30
0.0
 41
262.8591410055367
  0
SPLINE
  5
125
330
1F
100
AcDbEntity
  8
LINEE VISIBILI 2D
100
AcDbSpline
210
0.0
220
0.0
230
1.0
 70
    12
 71
     2
 72
     8
 73
     5
 74
     0
 42
0.0000000001
 43
0.0000000001
 40
25.1327412287183
 40
25.1327412287183
 40
25.1327412287183
 40
37.6991118430775
 40
37.6991118430775
 40
38.03399648651827
 40
38.03399648651827
 40
38.03399648651827
 10
210.1713532393941
 20
47.51687062899508
 30
0.0
 41
262.8591410055367
 10
209.610839357019
 20
47.24818350490345
 30
0.0
 41
185.5534295703712
 10
209.1239894267636
 20
47.5561008447238
 30
0.0
 41
262.9245283738544
 10
208.9608380232538
 20
47.63913352182221
 30
0.0
 41
230.5247406007792
 10
208.9431719623943
 20
47.82134415879764
 30
0.0
 41
262.9245283738544
  0
SPLINE
  5
126
330
1F
100
AcDbEntity
  8
LINEE VISIBILI 2D
100
AcDbSpline
210
0.0
220
0.0
230
1.0
 70
    12
 71
     2
 72
     6
 73
     3
 74
     0
 42
0.0000000001
 43
0.0000000001
 40
-50.26548245743669
 40
-50.26548245743669
 40
-50.26548245743669
 40
-37.6991118430775
 40
-37.6991118430775
 40
-37.6991118430775
 10
209.1986181943015
 20
48.28429189142338
 30
0.0
 41
263.7784527678677
 10
208.6384100448504
 20
48.01784535463218
 30
0.0
 41
186.2034811515401
 10
209.1235595057055
 20
47.71130495278408
 30
0.0
 41
262.8191366749963
  0
SPLINE
  5
127
330
1F
100
AcDbEntity
  8
LINEE VISIBILI 2D
100
AcDbSpline
210
0.0
220
0.0
230
1.0
 70
    12
 71
     2
 72
     6
 73
     3
 74
     0
 42
0.0000000001
 43
0.0000000001
 40
-37.6991118430775
 40
-37.6991118430775
 40
-37.6991118430775
 40
-25.14104396231039
 40
-25.14104396231039
 40
-25.14104396231039
 10
209.1235595057055
 20
47.71130495278408
 30
0.0
 41
262.8191366749963
 10
209.6101483556648
 20
47.40385507674301
 30
0.0
 41
185.5300058912241
 10
210.1708199430597
 20
47.67184722586014
 30
0.0
 41
262.6517041947545
  0
SPLINE
  5
128
330
1F
100
AcDbEntity
  8
LINEE VISIBILI 2D
100
AcDbSpline
210
0.0
220
0.0
230
1.0
 70
    12
 71
     2
 72
     6
 73
     3
 74
     0
 42
0.0000000001
 43
0.0000000001
 40
-25.1327412287183
 40
-25.1327412287183
 40
-25.1327412287183
 40
-12.5663706143592
 40
-12.5663706143592
 40
-12.5663706143592
 10
210.1713433136375
 20
47.67209762483189
 30
0.0
 41
262.7537493066786
 10
210.7301779394974
 20
47.93971617020672
 30
0.0
 41
186.1110094484573
 10
210.2426090616859
 20
48.24536926050942
 30
0.0
 41
263.71306539955
  0
SPLINE
  5
129
330
1F
100
AcDbEntity
  8
LINEE VISIBILI 2D
100
AcDbSpline
210
0.0
220
0.0
230
1.0
 70
    12
 71
     2
 72
     6
 73
     3
 74
     0
 42
0.0000000001
 43
0.0000000001
 40
-12.5663706143592
 40
-12.5663706143592
 40
-12.5663706143592
 40
0.0
 40
0.0
 40
0.0
 10
210.2426090616859
 20
48.24536926050942
 30
0.0
 41
263.71306539955
 10
209.7569310447993
 20
48.54983698498713
 30
0.0
 41
186.8355842145695
 10
209.1986181943015
 20
48.28429189142338
 30
0.0
 41
263.7784527678677
  0
SPLINE
  5
12A
330
1F
100
AcDbEntity
  8
LINEE VISIBILI 2D
100
AcDbSpline
210
0.0
220
0.0
230
1.0
 70
    12
 71
     2
 72
     6
 73
     3
 74
     0
 42
0.0000000001
 43
0.0000000001
 40
0.0
 40
0.0
 40
0.0
 40
0.0192151993448181
 40
0.0192151993448181
 40
0.0192151993448181
 10
209.7088234227474
 20
10.1068132972008
 30
0.0
 41
1.0
 10
209.7001250847971
 20
10.11277667786018
 30
0.0
 41
0.8716915909584615
 10
209.70069945875
 20
10.12330725650281
 30
0.0
 41
1.0
  0
SPLINE
  5
12B
330
1F
100
AcDbEntity
  8
LINEE VISIBILI 2D
100
AcDbSpline
210
0.0
220
0.0
230
1.0
 70
    12
 71
     2
 72
     6
 73
     3
 74
     0
 42
0.0000000001
 43
0.0000000001
 40
0.0
 40
0.0
 40
0.0
 40
0.0200393465918893
 40
0.0200393465918893
 40
0.0200393465918893
 10
209.7674295889472
 20
10.12021496309961
 30
0.0
 41
1.0
 10
209.7656398611498
 20
10.10955058831797
 30
0.0
 41
0.8934341830961368
 10
209.7560126106722
 20
10.10462635606149
 30
0.0
 41
1.0
  0
SPLINE
  5
12C
330
1F
100
AcDbEntity
  8
LINEE VISIBILI 2D
100
AcDbSpline
210
0.0
220
0.0
230
1.0
 70
    12
 71
     2
 72
     6
 73
     3
 74
     0
 42
0.0000000001
 43
0.0000000001
 40
0.0
 40
0.0
 40
0.0
 40
0.049713413315041
 40
0.049713413315041
 40
0.049713413315041
 10
209.7560126106722
 20
10.10462635606149
 30
0.0
 41
1.0
 10
209.731746782539
 20
10.0912361284367
 30
0.0
 41
0.852239032197218
 10
209.7088234227474
 20
10.1068132972008
 30
0.0
 41
1.0
  0
SPLINE
  5
12D
330
1F
100
AcDbEntity
  8
LINEE VISIBILI 2D
100
AcDbSpline
210
0.0
220
0.0
230
1.0
 70
    12
 71
     2
 72
     6
 73
     3
 74
     0
 42
0.0000000001
 43
0.0000000001
 40
0.0
 40
0.0
 40
0.0
 40
0.2697154276353229
 40
0.2697154276353229
 40
0.2697154276353229
 10
209.8168130446316
 20
72.23311780528812
 30
0.0
 41
1.0
 10
209.6975126779819
 20
72.29626772606659
 30
0.0
 41
0.9986050629373643
 10
209.5855369478077
 20
72.37164627625849
 30
0.0
 41
1.0
  0
SPLINE
  5
12E
330
1F
100
AcDbEntity
  8
LINEE VISIBILI 2D
100
AcDbSpline
210
0.0
220
0.0
230
1.0
 70
    12
 71
     2
 72
     6
 73
     3
 74
     0
 42
0.0000000001
 43
0.0000000001
 40
0.0
 40
0.0
 40
0.0
 40
0.5676957215665689
 40
0.5676957215665689
 40
0.5676957215665689
 10
214.9591760948875
 20
72.34788569444592
 30
0.0
 41
1.0
 10
214.7204310719657
 20
72.19270688930444
 30
0.0
 41
0.9952813003051664
 10
214.4562092842524
 20
72.08656314510474
 30
0.0
 41
1.0
  0
SPLINE
  5
12F
330
1F
100
AcDbEntity
  8
LINEE VISIBILI 2D
100
AcDbSpline
210
0.0
220
0.0
230
1.0
 70
    12
 71
     2
 72
     6
 73
     3
 74
     0
 42
0.0000000001
 43
0.0000000001
 40
0.500000000000008
 40
0.500000000000008
 40
0.500000000000008
 40
0.750000000000004
 40
0.750000000000004
 40
0.750000000000004
 10
208.5352043246786
 20
77.18824277542248
 30
0.0
 41
323.3082947048976
 10
204.1926669255607
 20
75.5065000530349
 30
0.0
 41
225.6506898248924
 10
207.9278326247365
 20
73.52359959137763
 30
0.0
 41
314.3147119259056
  0
SPLINE
  5
130
330
1F
100
AcDbEntity
  8
LINEE VISIBILI 2D
100
AcDbSpline
210
0.0
220
0.0
230
1.0
 70
    12
 71
     2
 72
     6
 73
     3
 74
     0
 42
0.0000000001
 43
0.0000000001
 40
0.750000000000004
 40
0.750000000000004
 40
0.750000000000004
 40
1.0
 40
1.0
 40
1.0
 10
207.9278326247365
 20
73.52359959137763
 30
0.0
 41
314.3147119259056
 10
211.7789368797157
 20
71.47915640152952
 30
0.0
 41
218.8576223877376
 10
216.1531310484638
 20
73.26618179744426
 30
0.0
 41
313.7016935986649
  0
SPLINE
  5
131
330
1F
100
AcDbEntity
  8
LINEE VISIBILI 2D
100
AcDbSpline
210
0.0
220
0.0
230
1.0
 70
    12
 71
     2
 72
     6
 73
     3
 74
     0
 42
0.0000000001
 43
0.0000000001
 40
0.0
 40
0.0
 40
0.0
 40
0.3419058170145183
 40
0.3419058170145183
 40
0.3419058170145183
 10
260.3865558358645
 20
69.33309256746273
 30
0.0
 41
1.0
 10
260.2176605516781
 20
69.27164206828329
 30
0.0
 41
0.9283550338693851
 10
260.0530245892045
 20
69.34373076871709
 30
0.0
 41
1.0
  0
SPLINE
  5
132
330
1F
100
AcDbEntity
  8
LINEE VISIBILI 2D
100
AcDbSpline
210
0.0
220
0.0
230
1.0
 70
    12
 71
     2
 72
     6
 73
     3
 74
     0
 42
0.0000000001
 43
0.0000000001
 40
0.0
 40
0.0
 40
0.0
 40
0.144168583053706
 40
0.144168583053706
 40
0.144168583053706
 10
260.0530245892045
 20
69.34373076871709
 30
0.0
 41
1.0
 10
259.9706236712777
 20
69.36202921312101
 30
0.0
 41
0.7947182030028771
 10
259.9665930307535
 20
69.44634112378456
 30
0.0
 41
1.0
  0
SPLINE
  5
133
330
1F
100
AcDbEntity
  8
LINEE VISIBILI 2D
100
AcDbSpline
210
0.0
220
0.0
230
1.0
 70
    12
 71
     2
 72
     6
 73
     3
 74
     0
 42
0.0000000001
 43
0.0000000001
 40
0.0
 40
0.0
 40
0.0
 40
0.0766708945260988
 40
0.0766708945260988
 40
0.0766708945260988
 10
260.4381250842302
 20
69.38645585371009
 30
0.0
 41
1.0
 10
260.42493552714
 20
69.34760258119928
 30
0.0
 41
0.9043088061693822
 10
260.3865558358645
 20
69.33309256746274
 30
0.0
 41
1.0
  0
SPLINE
  5
134
330
1F
100
AcDbEntity
  8
LINEE VISIBILI 2D
100
AcDbSpline
210
0.0
220
0.0
230
1.0
 70
    12
 71
     2
 72
     6
 73
     3
 74
     0
 42
0.0000000001
 43
0.0000000001
 40
0.0
 40
0.0
 40
0.0
 40
2.080859093269211
 40
2.080859093269211
 40
2.080859093269211
 10
212.7162859575741
 20
71.721884959979
 30
0.0
 41
1.0
 10
212.7086771765053
 20
70.68143391801122
 30
0.0
 41
0.999928904926835
 10
212.7258817608427
 20
69.6410973058712
 30
0.0
 41
1.0
  0
SPLINE
  5
135
330
1F
100
AcDbEntity
  8
LINEE VISIBILI 2D
100
AcDbSpline
210
0.0
220
0.0
230
1.0
 70
    24
 71
     2
 72
     6
 73
     3
 74
     0
 42
0.0000000001
 43
0.0000000001
 40
0.0
 40
0.0
 40
0.0
 40
2.390717319055081
 40
2.390717319055081
 40
2.390717319055081
 10
209.5854648545715
 20
72.3715881877923
 30
0.0
 10
208.5950836704858
 20
73.04093670322837
 30
0.0
 10
207.6047024864001
 20
73.71028521866445
 30
0.0
  0
SPLINE
  5
136
330
1F
100
AcDbEntity
  8
LINEE VISIBILI 2D
100
AcDbSpline
210
0.0
220
0.0
230
1.0
 70
    24
 71
     2
 72
     6
 73
     3
 74
     0
 42
0.0000000001
 43
0.0000000001
 40
0.0
 40
0.0
 40
0.0
 40
0.5063204963549885
 40
0.5063204963549885
 40
0.5063204963549885
 10
260.5007204890437
 20
69.89384875063301
 30
0.0
 10
260.4698440833081
 20
69.64257846025602
 30
0.0
 10
260.4389676775725
 20
69.39130816987902
 30
0.0
  0
SPLINE
  5
137
330
1F
100
AcDbEntity
  8
LINEE VISIBILI 2D
100
AcDbSpline
210
0.0
220
0.0
230
1.0
 70
    24
 71
     2
 72
     6
 73
     3
 74
     0
 42
0.0000000001
 43
0.0000000001
 40
0.0
 40
0.0
 40
0.0
 40
1.836630622912652
 40
1.836630622912652
 40
1.836630622912652
 10
260.985775572724
 20
71.8774595982145
 30
0.0
 10
260.8732476162608
 20
70.96606480435767
 30
0.0
 10
260.7607196597976
 20
70.05467001050083
 30
0.0
  0
SPLINE
  5
138
330
1F
100
AcDbEntity
  8
LINEE VISIBILI 2D
100
AcDbSpline
210
0.0
220
0.0
230
1.0
 70
    24
 71
     2
 72
     6
 73
     3
 74
     0
 42
0.0000000001
 43
0.0000000001
 40
0.0
 40
0.0
 40
0.0
 40
0.5009789020017152
 40
0.5009789020017152
 40
0.5009789020017152
 10
259.9663274083732
 20
69.44637345235489
 30
0.0
 10
259.9965908793438
 20
69.6950280066818
 30
0.0
 10
260.0268543503144
 20
69.94368256100874
 30
0.0
  0
SPLINE
  5
139
330
1F
100
AcDbEntity
  8
LINEE VISIBILI 2D
100
AcDbSpline
210
0.0
220
0.0
230
1.0
 70
    24
 71
     2
 72
     6
 73
     3
 74
     0
 42
0.0000000001
 43
0.0000000001
 40
0.0
 40
0.0
 40
0.0
 40
0.2119178896682387
 40
0.2119178896682387
 40
0.2119178896682387
 10
165.9186273493843
 20
38.57286603682749
 30
0.0
 10
166.0153800811996
 20
38.61606565345348
 30
0.0
 10
166.112132813015
 20
38.65926527007948
 30
0.0
  0
SPLINE
  5
13A
330
1F
100
AcDbEntity
  8
LINEE VISIBILI 2D
100
AcDbSpline
210
0.0
220
0.0
230
1.0
 70
    24
 71
     2
 72
     6
 73
     3
 74
     0
 42
0.0000000001
 43
0.0000000001
 40
0.0
 40
0.0
 40
0.0
 40
0.2155046679646339
 40
0.2155046679646339
 40
0.2155046679646339
 10
254.9709256216302
 20
35.49517771338631
 30
0.0
 10
255.0643328603893
 20
35.44145943692448
 30
0.0
 10
255.1577400991485
 20
35.38774116046266
 30
0.0
  0
SPLINE
  5
13B
330
1F
100
AcDbEntity
  8
LINEE VISIBILI 2D
100
AcDbSpline
210
0.0
220
0.0
230
1.0
 70
    24
 71
     2
 72
     6
 73
     3
 74
     0
 42
0.0000000001
 43
0.0000000001
 40
0.0
 40
0.0
 40
0.0
 40
62.65497747927037
 40
62.65497747927037
 40
62.65497747927037
 10
259.5309120721773
 20
32.87274056540109
 30
0.0
 10
232.8615048297595
 20
16.43637028270054
 30
0.0
 10
206.1920975873417
 20
-0.0000000000000008
 30
0.0
  0
SPLINE
  5
13C
330
1F
100
AcDbEntity
  8
LINEE VISIBILI 2D
100
AcDbSpline
210
0.0
220
0.0
230
1.0
 70
    24
 71
     2
 72
     6
 73
     3
 74
     0
 42
0.0000000001
 43
0.0000000001
 40
0.0
 40
0.0
 40
0.0
 40
57.52747380470644
 40
57.52747380470644
 40
57.52747380470644
 10
206.1920975873417
 20
-0.0000000000000008
 30
0.0
 10
184.0913710493325
 20
18.40952055540648
 30
0.0
 10
161.9906445113233
 20
36.81904111081296
 30
0.0
  0
SPLINE
  5
13D
330
1F
100
AcDbEntity
  8
LINEE VISIBILI 2D
100
AcDbSpline
210
0.0
220
0.0
230
1.0
 70
    24
 71
     2
 72
     6
 73
     3
 74
     0
 42
0.0000000001
 43
0.0000000001
 40
0.0
 40
0.0
 40
0.0
 40
56.39453288249347
 40
56.39453288249347
 40
56.39453288249347
 10
161.2861005375703
 20
42.31874061668467
 30
0.0
 10
187.179601314867
 20
53.48173538756912
 30
0.0
 10
213.0731020921638
 20
64.64473015845356
 30
0.0
  0
SPLINE
  5
13E
330
1F
100
AcDbEntity
  8
LINEE VISIBILI 2D
100
AcDbSpline
210
0.0
220
0.0
230
1.0
 70
    24
 71
     2
 72
     6
 73
     3
 74
     0
 42
0.0000000001
 43
0.0000000001
 40
0.0
 40
0.0
 40
0.0
 40
0.0332805364705101
 40
0.0332805364705101
 40
0.0332805364705101
 10
213.0731020921638
 20
64.64473015845356
 30
0.0
 10
213.0729836864824
 20
64.62809031148804
 30
0.0
 10
213.072865280801
 20
64.61145046452251
 30
0.0
  0
SPLINE
  5
13F
330
1F
100
AcDbEntity
  8
LINEE VISIBILI 2D
100
AcDbSpline
210
0.0
220
0.0
230
1.0
 70
    24
 71
     2
 72
     6
 73
     3
 74
     0
 42
0.0000000001
 43
0.0000000001
 40
0.0
 40
0.0
 40
0.0
 40
5.544643980079989
 40
5.544643980079989
 40
5.544643980079989
 10
161.9906445113233
 20
36.81904111081296
 30
0.0
 10
161.6383725244468
 20
39.56889086374881
 30
0.0
 10
161.2861005375703
 20
42.31874061668467
 30
0.0
  0
SPLINE
  5
140
330
1F
100
AcDbEntity
  8
LINEE VISIBILI 2D
100
AcDbSpline
210
0.0
220
0.0
230
1.0
 70
    24
 71
     2
 72
     6
 73
     3
 74
     0
 42
0.0000000001
 43
0.0000000001
 40
0.0
 40
0.0
 40
0.0
 40
5.6200943263499
 40
5.6200943263499
 40
5.6200943263499
 10
259.5309120721773
 20
32.87274056540109
 30
0.0
 10
259.9000135189001
 20
35.65844140743255
 30
0.0
 10
260.2691149656228
 20
38.44414224946401
 30
0.0
  0
SPLINE
  5
141
330
1F
100
AcDbEntity
  8
LINEE VISIBILI 2D
100
AcDbSpline
210
0.0
220
0.0
230
1.0
 70
    24
 71
     2
 72
     6
 73
     3
 74
     0
 42
0.0000000001
 43
0.0000000001
 40
0.0
 40
0.0
 40
0.0
 40
63.09075530633862
 40
63.09075530633862
 40
63.09075530633862
 10
260.2691149656228
 20
38.44414224946401
 30
0.0
 10
233.1948482995132
 20
22.25479588299628
 30
0.0
 10
206.1205816334037
 20
6.065449516528557
 30
0.0
  0
SPLINE
  5
142
330
1F
100
AcDbEntity
  8
LINEE VISIBILI 2D
100
AcDbSpline
210
0.0
220
0.0
230
1.0
 70
    24
 71
     2
 72
     6
 73
     3
 74
     0
 42
0.0000000001
 43
0.0000000001
 40
0.0
 40
0.0
 40
0.0
 40
6.065871113799254
 40
6.065871113799254
 40
6.065871113799254
 10
206.1205816334037
 20
6.065449516528557
 30
0.0
 10
206.1563396103727
 20
3.032724758264278
 30
0.0
 10
206.1920975873417
 20
-0.0000000000000008
 30
0.0
  0
SPLINE
  5
143
330
1F
100
AcDbEntity
  8
LINEE VISIBILI 2D
100
AcDbSpline
210
0.0
220
0.0
230
1.0
 70
    24
 71
     2
 72
     6
 73
     3
 74
     0
 42
0.0000000001
 43
0.0000000001
 40
0.0
 40
0.0
 40
0.0
 40
57.65788593701032
 40
57.65788593701032
 40
57.65788593701032
 10
206.1205816334037
 20
6.065449516528557
 30
0.0
 10
183.703341085487
 20
24.19209506660662
 30
0.0
 10
161.2861005375703
 20
42.31874061668467
 30
0.0
  0
SPLINE
  5
144
330
1F
100
AcDbEntity
  8
LINEE VISIBILI 2D
100
AcDbSpline
210
0.0
220
0.0
230
1.0
 70
    24
 71
     2
 72
     6
 73
     3
 74
     0
 42
0.0000000001
 43
0.0000000001
 40
0.0
 40
0.0
 40
0.0
 40
1.250128788994591
 40
1.250128788994591
 40
1.250128788994591
 10
213.0731020921638
 20
64.64473015845356
 30
0.0
 10
213.6196021141649
 20
64.34134389768837
 30
0.0
 10
214.166102136166
 20
64.03795763692318
 30
0.0
  0
SPLINE
  5
145
330
1F
100
AcDbEntity
  8
LINEE VISIBILI 2D
100
AcDbSpline
210
0.0
220
0.0
230
1.0
 70
    24
 71
     2
 72
     6
 73
     3
 74
     0
 42
0.0000000001
 43
0.0000000001
 40
0.0
 40
0.0
 40
0.0
 40
7.690981447358955
 40
7.690981447358955
 40
7.690981447358955
 10
215.2149371070007
 20
63.4557030950182
 30
0.0
 10
218.5770879247352
 20
61.58922491815355
 30
0.0
 10
221.9392387424697
 20
59.7227467412889
 30
0.0
  0
SPLINE
  5
146
330
1F
100
AcDbEntity
  8
LINEE VISIBILI 2D
100
AcDbSpline
210
0.0
220
0.0
230
1.0
 70
    24
 71
     2
 72
     6
 73
     3
 74
     0
 42
0.0000000001
 43
0.0000000001
 40
0.0
 40
0.0
 40
0.0
 40
33.34347142940881
 40
33.34347142940881
 40
33.34347142940881
 10
223.4903009514577
 20
58.86168371319243
 30
0.0
 10
238.0665654373109
 20
50.76975653980512
 30
0.0
 10
252.6428299231642
 20
42.67782936641782
 30
0.0
  0
SPLINE
  5
147
330
1F
100
AcDbEntity
  8
LINEE VISIBILI 2D
100
AcDbSpline
210
0.0
220
0.0
230
1.0
 70
    24
 71
     2
 72
     6
 73
     3
 74
     0
 42
0.0000000001
 43
0.0000000001
 40
0.0
 40
0.0
 40
0.0
 40
4.095886661671962
 40
4.095886661671962
 40
4.095886661671962
 10
253.0507280252076
 20
42.45138714323354
 30
0.0
 10
254.8412652645891
 20
41.45738096583638
 30
0.0
 10
256.6318025039706
 20
40.46337478843923
 30
0.0
  0
SPLINE
  5
148
330
1F
100
AcDbEntity
  8
LINEE VISIBILI 2D
100
AcDbSpline
210
0.0
220
0.0
230
1.0
 70
    24
 71
     2
 72
     6
 73
     3
 74
     0
 42
0.0000000001
 43
0.0000000001
 40
0.0
 40
0.0
 40
0.0
 40
4.096602146822214
 40
4.096602146822214
 40
4.096602146822214
 10
256.687414931071
 20
40.4325018778613
 30
0.0
 10
258.4782649483469
 20
39.43832206366265
 30
0.0
 10
260.2691149656228
 20
38.44414224946401
 30
0.0
  0
SPLINE
  5
149
330
1F
100
AcDbEntity
  8
LINEE VISIBILI 2D
100
AcDbSpline
210
0.0
220
0.0
230
1.0
 70
    12
 71
     2
 72
     6
 73
     3
 74
     0
 42
0.0000000001
 43
0.0000000001
 40
0.0
 40
0.0
 40
0.0
 40
0.0304817645958197
 40
0.0304817645958197
 40
0.0304817645958197
 10
163.7986103411564
 20
42.27953261956642
 30
0.0
 41
1.0
 10
163.7960815368331
 20
42.29498586457632
 30
0.0
 41
0.9604442361079385
 10
163.7856787710277
 20
42.30668971420965
 30
0.0
 41
1.0
  0
SPLINE
  5
14A
330
1F
100
AcDbEntity
  8
LINEE VISIBILI 2D
100
AcDbSpline
210
0.0
220
0.0
230
1.0
 70
    12
 71
     2
 72
     6
 73
     3
 74
     0
 42
0.0000000001
 43
0.0000000001
 40
0.0
 40
0.0
 40
0.0
 40
0.1464958341242474
 40
0.1464958341242474
 40
0.1464958341242474
 10
206.1491088585371
 20
6.485362128442345
 30
0.0
 41
1.0
 10
206.1411898415142
 20
6.412491482820538
 30
0.0
 41
0.9989412392920256
 10
206.1400019791297
 20
6.339201437064631
 30
0.0
 41
1.0
  0
SPLINE
  5
14B
330
1F
100
AcDbEntity
  8
LINEE VISIBILI 2D
100
AcDbSpline
210
0.0
220
0.0
230
1.0
 70
    24
 71
     2
 72
     6
 73
     3
 74
     0
 42
0.0000000001
 43
0.0000000001
 40
0.0
 40
0.0
 40
0.0
 40
62.75736625127978
 40
62.75736625127978
 40
62.75736625127978
 10
206.1400019791297
 20
6.339201437064631
 30
0.0
 10
233.0816437383057
 20
22.42552152649286
 30
0.0
 10
260.0232854974816
 20
38.5118416159211
 30
0.0
  0
SPLINE
  5
14C
330
1F
100
AcDbEntity
  8
LINEE VISIBILI 2D
100
AcDbSpline
210
0.0
220
0.0
230
1.0
 70
    12
 71
     2
 72
     6
 73
     3
 74
     0
 42
0.0000000001
 43
0.0000000001
 40
0.0
 40
0.0
 40
0.0
 40
0.1203712134004617
 40
0.1203712134004617
 40
0.1203712134004617
 10
260.0232854974816
 20
38.5118416159211
 30
0.0
 41
1.0
 10
259.9995842925537
 20
38.57776062867497
 30
0.0
 41
0.8015516057558562
 10
259.9296443848283
 20
38.5738270978377
 30
0.0
 41
1.0
  0
SPLINE
  5
14D
330
1F
100
AcDbEntity
  8
LINEE VISIBILI 2D
100
AcDbSpline
210
0.0
220
0.0
230
1.0
 70
     8
 71
     3
 72
    22
 73
    18
 74
     0
 42
0.0000000001
 43
0.0000000001
 40
0.0
 40
0.0
 40
0.0
 40
0.0
 40
1.331166656803589
 40
2.60107280920916
 40
5.308797494287158
 40
7.923116201093775
 40
10.77762577226059
 40
13.54829048509444
 40
16.92361635905782
 40
21.17116579234572
 40
32.71055325840585
 40
36.36453239878262
 40
39.3876927143957
 40
42.28319870880334
 40
44.70679714792789
 40
46.89438507741869
 40
49.13121478185122
 40
49.13121478185122
 40
49.13121478185122
 40
49.13121478185122
 10
212.7258817608427
 20
69.64109730586861
 30
0.0
 10
212.7342783174929
 20
69.19769149362483
 30
0.0
 10
212.7953769037966
 20
68.33014560883843
 30
0.0
 10
213.2058954546761
 20
66.60294431181132
 30
0.0
 10
214.1744977233805
 20
64.60704393343501
 30
0.0
 10
215.977689994263
 20
62.5322307082497
 30
0.0
 10
218.3093887182514
 20
61.03053017491884
 30
0.0
 10
221.0953616536306
 20
59.90968286824934
 30
0.0
 10
224.4596855222067
 20
59.05119232573404
 30
0.0
 10
230.7430277054764
 20
57.90946995622404
 30
0.0
 10
237.195212185717
 20
57.20319202880648
 30
0.0
 10
243.1325291822554
 20
55.90673726717314
 30
0.0
 10
246.1954798974052
 20
55.00624016109317
 30
0.0
 10
248.7628661389541
 20
53.91709279450909
 30
0.0
 10
250.8466395340575
 20
52.49893532627318
 30
0.0
 10
252.3307296537921
 20
50.73506546118256
 30
0.0
 10
252.9327154793115
 20
49.3714192000199
 30
0.0
 10
253.1323430400621
 20
48.65319819433107
 30
0.0
  0
SPLINE
  5
14E
330
1F
100
AcDbEntity
  8
LINEE VISIBILI 2D
100
AcDbSpline
210
0.0
220
0.0
230
1.0
 70
    24
 71
     2
 72
     6
 73
     3
 74
     0
 42
0.0000000001
 43
0.0000000001
 40
0.0
 40
0.0
 40
0.0
 40
0.4978557871061212
 40
0.4978557871061212
 40
0.4978557871061212
 10
209.9636478557904
 20
45.32295417216923
 30
0.0
 10
209.963798227111
 20
45.07402632403401
 30
0.0
 10
209.9639485984316
 20
44.8250984758988
 30
0.0
  0
SPLINE
  5
14F
330
1F
100
AcDbEntity
  8
LINEE VISIBILI 2D
100
AcDbSpline
210
0.0
220
0.0
230
1.0
 70
    24
 71
     2
 72
     6
 73
     3
 74
     0
 42
0.0000000001
 43
0.0000000001
 40
0.0
 40
0.0
 40
0.0
 40
1.964980313047039
 40
1.964980313047039
 40
1.964980313047039
 10
209.1345992659965
 20
45.58787866763339
 30
0.0
 10
209.1318909025
 20
46.5703650911695
 30
0.0
 10
209.1291825390034
 20
47.55285151470562
 30
0.0
  0
SPLINE
  5
150
330
1F
100
AcDbEntity
  8
LINEE VISIBILI 2D
100
AcDbSpline
210
0.0
220
0.0
230
1.0
 70
    24
 71
     2
 72
     6
 73
     3
 74
     0
 42
0.0000000001
 43
0.0000000001
 40
0.0
 40
0.0
 40
0.0
 40
57.34849309783563
 40
57.34849309783563
 40
57.34849309783563
 10
161.5207240222025
 20
42.36654792823673
 30
0.0
 10
183.830363000666
 20
24.35287468265068
 30
0.0
 10
206.1400019791297
 20
6.339201437064631
 30
0.0
  0
SPLINE
  5
151
330
1F
100
AcDbEntity
  8
LINEE VISIBILI 2D
100
AcDbSpline
210
0.0
220
0.0
230
1.0
 70
    24
 71
     2
 72
     6
 73
     3
 74
     0
 42
0.0000000001
 43
0.0000000001
 40
0.0
 40
0.0
 40
0.0
 40
55.12006708884814
 40
55.12006708884814
 40
55.12006708884814
 10
163.2930360553613
 20
42.29719538565507
 30
0.0
 10
184.8059793928306
 20
25.07079942107171
 30
0.0
 10
206.3189227302999
 20
7.844403456488357
 30
0.0
  0
SPLINE
  5
152
330
1F
100
AcDbEntity
  8
LINEE VISIBILI 2D
100
AcDbSpline
210
0.0
220
0.0
230
1.0
 70
    24
 71
     2
 72
     6
 73
     3
 74
     0
 42
0.0000000001
 43
0.0000000001
 40
0.0
 40
0.0
 40
0.0
 40
55.09642181370336
 40
55.09642181370336
 40
55.09642181370336
 10
163.3088975141595
 20
42.32507156976541
 30
0.0
 10
184.8147043149687
 20
25.1086782768991
 30
0.0
 10
206.3205111157779
 20
7.892284984032782
 30
0.0
  0
SPLINE
  5
153
330
1F
100
AcDbEntity
  8
LINEE VISIBILI 2D
100
AcDbSpline
210
0.0
220
0.0
230
1.0
 70
    12
 71
     2
 72
     6
 73
     3
 74
     0
 42
0.0000000001
 43
0.0000000001
 40
0.0
 40
0.0
 40
0.0
 40
0.0290125227224327
 40
0.0290125227224327
 40
0.0290125227224327
 10
206.3207223690324
 20
7.873350061604002
 30
0.0
 41
1.0
 10
206.320482179596
 20
7.858835749208717
 30
0.0
 41
0.9989630459685796
 10
206.3189227302999
 20
7.844403456488357
 30
0.0
 41
1.0
  0
SPLINE
  5
154
330
1F
100
AcDbEntity
  8
LINEE VISIBILI 2D
100
AcDbSpline
210
0.0
220
0.0
230
1.0
 70
    24
 71
     2
 72
     6
 73
     3
 74
     0
 42
0.0000000001
 43
0.0000000001
 40
0.0
 40
0.0
 40
0.0
 40
60.25157281722164
 40
60.25157281722164
 40
60.25157281722164
 10
258.1511036163251
 20
38.61429188448086
 30
0.0
 10
232.2358073660515
 20
23.25328843425682
 30
0.0
 10
206.3205111157779
 20
7.892284984032782
 30
0.0
  0
SPLINE
  5
155
330
1F
100
AcDbEntity
  8
LINEE VISIBILI 2D
100
AcDbSpline
210
0.0
220
0.0
230
1.0
 70
    24
 71
     2
 72
     6
 73
     3
 74
     0
 42
0.0000000001
 43
0.0000000001
 40
0.0
 40
0.0
 40
0.0
 40
0.0175364763427129
 40
0.0175364763427129
 40
0.0175364763427129
 10
258.1489610825539
 20
38.59688678317239
 30
0.0
 10
258.1500323494395
 20
38.60558933382663
 30
0.0
 10
258.1511036163251
 20
38.61429188448086
 30
0.0
  0
SPLINE
  5
156
330
1F
100
AcDbEntity
  8
LINEE VISIBILI 2D
100
AcDbSpline
210
0.0
220
0.0
230
1.0
 70
    24
 71
     2
 72
     6
 73
     3
 74
     0
 42
0.0000000001
 43
0.0000000001
 40
0.0
 40
0.0
 40
0.0
 40
0.4988147924252325
 40
0.4988147924252325
 40
0.4988147924252325
 10
162.498518017091
 20
75.74507372287675
 30
0.0
 10
162.5269805378004
 20
75.49729572909922
 30
0.0
 10
162.5554430585098
 20
75.24951773532167
 30
0.0
  0
SPLINE
  5
157
330
1F
100
AcDbEntity
  8
LINEE VISIBILI 2D
100
AcDbSpline
210
0.0
220
0.0
230
1.0
 70
    24
 71
     2
 72
     6
 73
     3
 74
     0
 42
0.0000000001
 43
0.0000000001
 40
0.0
 40
0.0
 40
0.0
 40
1.789504361393295
 40
1.789504361393295
 40
1.789504361393295
 10
162.5020105155515
 20
77.71703267733072
 30
0.0
 10
162.6036364258987
 20
76.82807056384809
 30
0.0
 10
162.7052623362459
 20
75.93910845036545
 30
0.0
  0
SPLINE
  5
158
330
1F
100
AcDbEntity
  8
LINEE VISIBILI 2D
100
AcDbSpline
210
0.0
220
0.0
230
1.0
 70
    24
 71
     2
 72
     6
 73
     3
 74
     0
 42
0.0000000001
 43
0.0000000001
 40
0.0
 40
0.0
 40
0.0
 40
0.4930926263970548
 40
0.4930926263970548
 40
0.4930926263970548
 10
162.1019665923856
 20
75.21391820907865
 30
0.0
 10
162.0735638938607
 20
75.45882302991379
 30
0.0
 10
162.0451611953357
 20
75.70372785074892
 30
0.0
  0
SPLINE
  5
159
330
1F
100
AcDbEntity
  8
LINEE VISIBILI 2D
100
AcDbSpline
210
0.0
220
0.0
230
1.0
 70
    24
 71
     2
 72
     6
 73
     3
 74
     0
 42
0.0000000001
 43
0.0000000001
 40
0.0
 40
0.0
 40
0.0
 40
99.89966666666667
 40
99.89966666666667
 40
99.89966666666667
 10
422.8274043470181
 20
0.0
 30
0.0
 10
372.8775710136848
 20
0.0
 30
0.0
 10
322.9277376803515
 20
0.0
 30
0.0
  0
SPLINE
  5
15A
330
1F
100
AcDbEntity
  8
LINEE VISIBILI 2D
100
AcDbSpline
210
0.0
220
0.0
230
1.0
 70
    24
 71
     2
 72
     6
 73
     3
 74
     0
 42
0.0000000001
 43
0.0000000001
 40
0.0
 40
0.0
 40
0.0
 40
0.1414213562372797
 40
0.1414213562372797
 40
0.1414213562372797
 10
422.4701018175851
 20
0.3493463529172018
 30
0.0
 10
422.5200977231018
 20
0.2993422587692294
 30
0.0
 10
422.5700936286186
 20
0.2493381646212569
 30
0.0
  0
SPLINE
  5
15B
330
1F
100
AcDbEntity
  8
LINEE VISIBILI 2D
100
AcDbSpline
210
0.0
220
0.0
230
1.0
 70
    24
 71
     2
 72
     6
 73
     3
 74
     0
 42
0.0000000001
 43
0.0000000001
 40
0.0
 40
0.0
 40
0.0
 40
99.40033105775915
 40
99.40033105775915
 40
99.40033105775915
 10
422.5700936286186
 20
0.2493381646212569
 30
0.0
 10
422.573997849756
 20
49.94950354015182
 30
0.0
 10
422.5779020708934
 20
99.64966891568238
 30
0.0
  0
SPLINE
  5
15C
330
1F
100
AcDbEntity
  8
LINEE VISIBILI 2D
100
AcDbSpline
210
0.0
220
0.0
230
1.0
 70
    12
 71
     2
 72
     6
 73
     3
 74
     0
 42
0.0000000001
 43
0.0000000001
 40
0.0
 40
0.0
 40
0.0
 40
0.1411970796800064
 40
0.1411970796800064
 40
0.1411970796800064
 10
422.5779020708934
 20
99.64966891568238
 30
0.0
 41
1.0
 10
422.5288452193524
 20
99.59888929386345
 30
0.0
 41
0.9998509292140498
 10
422.4780643433946
 20
99.54983374053714
 30
0.0
 41
1.0
  0
SPLINE
  5
15D
330
1F
100
AcDbEntity
  8
LINEE VISIBILI 2D
100
AcDbSpline
210
0.0
220
0.0
230
1.0
 70
    24
 71
     2
 72
     6
 73
     3
 74
     0
 42
0.0000000001
 43
0.0000000001
 40
0.0
 40
0.0
 40
0.0
 40
0.0707106781221417
 40
0.0707106781221417
 40
0.0707106781221417
 10
421.920146856901
 20
0.8993913885448705
 30
0.0
 10
421.9451448096607
 20
0.8743893414698149
 30
0.0
 10
421.9701427624205
 20
0.8493872943947593
 30
0.0
  0
SPLINE
  5
15E
330
1F
100
AcDbEntity
  8
LINEE VISIBILI 2D
100
AcDbSpline
210
0.0
220
0.0
230
1.0
 70
    12
 71
     2
 72
     6
 73
     3
 74
     0
 42
0.0000000001
 43
0.0000000001
 40
0.0
 40
0.0
 40
0.0
 40
0.0644541432559179
 40
0.0644541432559179
 40
0.0644541432559179
 10
421.9780307772639
 20
99.04984674129075
 30
0.0
 41
1.0
 10
421.9555435734869
 20
99.02676050957857
 30
0.0
 41
0.9999535819153727
 10
421.9326156919378
 20
99.00411187438688
 30
0.0
 41
1.0
  0
SPLINE
  5
15F
330
1F
100
AcDbEntity
  8
LINEE VISIBILI 2D
100
AcDbSpline
210
0.0
220
0.0
230
1.0
 70
    24
 71
     2
 72
     6
 73
     3
 74
     0
 42
0.0000000001
 43
0.0000000001
 40
0.0
 40
0.0
 40
0.0
 40
5.520550575525498
 40
5.520550575525498
 40
5.520550575525498
 10
421.9279515764979
 20
98.99977163327532
 30
0.0
 10
421.9277319731232
 20
96.23949635424821
 30
0.0
 10
421.9275123697484
 20
93.47922107522114
 30
0.0
  0
SPLINE
  5
160
330
1F
100
AcDbEntity
  8
LINEE VISIBILI 2D
100
AcDbSpline
210
0.0
220
0.0
230
1.0
 70
    24
 71
     2
 72
     6
 73
     3
 74
     0
 42
0.0000000001
 43
0.0000000001
 40
0.0
 40
0.0
 40
0.0
 40
84.93380703109203
 40
84.93380703109203
 40
84.93380703109203
 10
421.9274281540791
 20
92.42068347121035
 30
0.0
 10
421.9240495507322
 20
49.95378009006265
 30
0.0
 10
421.9206709473851
 20
7.486876708914946
 30
0.0
  0
SPLINE
  5
161
330
1F
100
AcDbEntity
  8
LINEE VISIBILI 2D
100
AcDbSpline
210
0.0
220
0.0
230
1.0
 70
    24
 71
     2
 72
     6
 73
     3
 74
     0
 42
0.0000000001
 43
0.0000000001
 40
0.0
 40
0.0
 40
0.0
 40
5.513638057022358
 40
5.513638057022358
 40
5.513638057022358
 10
421.9205855137007
 20
6.413029428117789
 30
0.0
 10
421.9203661853008
 20
3.65621040833133
 30
0.0
 10
421.920146856901
 20
0.8993913885448705
 30
0.0
  0
SPLINE
  5
162
330
1F
100
AcDbEntity
  8
LINEE VISIBILI 2D
100
AcDbSpline
210
0.0
220
0.0
230
1.0
 70
    12
 71
     2
 72
     6
 73
     3
 74
     0
 42
0.0000000001
 43
0.0000000001
 40
0.0
 40
0.0
 40
0.0
 40
0.0278977142018686
 40
0.0278977142018686
 40
0.0278977142018686
 10
421.9277638521822
 20
98.99954999644609
 30
0.0
 41
1.0
 10
421.9183580688582
 20
98.98923567096382
 30
0.0
 41
0.9989089295966092
 10
421.9080309923992
 20
98.97984388934858
 30
0.0
 41
1.0
  0
SPLINE
  5
163
330
1F
100
AcDbEntity
  8
LINEE VISIBILI 2D
100
AcDbSpline
210
0.0
220
0.0
230
1.0
 70
    12
 71
     2
 72
     6
 73
     3
 74
     0
 42
0.0000000001
 43
0.0000000001
 40
0.0
 40
0.0
 40
0.0
 40
0.0193105803580735
 40
0.0193105803580735
 40
0.0193105803580735
 10
420.7478271479842
 20
97.8197438447259
 30
0.0
 41
1.0
 10
420.7411701869115
 20
97.8127497227566
 30
0.0
 41
0.9999336788165505
 10
420.7343539018662
 20
97.80591078051228
 30
0.0
 41
1.0
  0
SPLINE
  5
164
330
1F
100
AcDbEntity
  8
LINEE VISIBILI 2D
100
AcDbSpline
210
0.0
220
0.0
230
1.0
 70
    24
 71
     2
 72
     6
 73
     3
 74
     0
 42
0.0000000001
 43
0.0000000001
 40
0.0
 40
0.0
 40
0.0
 40
0.0282842712473203
 40
0.0282842712473203
 40
0.0282842712473203
 10
420.7202451244996
 20
2.099489648097232
 30
0.0
 10
420.7302443056028
 20
2.089488829267626
 30
0.0
 10
420.7402434867061
 20
2.079488010438019
 30
0.0
  0
SPLINE
  5
165
330
1F
100
AcDbEntity
  8
LINEE VISIBILI 2D
100
AcDbSpline
210
0.0
220
0.0
230
1.0
 70
    24
 71
     2
 72
     6
 73
     3
 74
     0
 42
0.0000000001
 43
0.0000000001
 40
0.0
 40
0.0
 40
0.0
 40
4.320697364425045
 40
4.320697364425045
 40
4.320697364425045
 10
420.7278263291549
 20
97.79974466362268
 30
0.0
 10
420.7276551901601
 20
95.63939598818882
 30
0.0
 10
420.7274840511654
 20
93.47904731275496
 30
0.0
  0
SPLINE
  5
166
330
1F
100
AcDbEntity
  8
LINEE VISIBILI 2D
100
AcDbSpline
210
0.0
220
0.0
230
1.0
 70
    24
 71
     2
 72
     6
 73
     3
 74
     0
 42
0.0000000001
 43
0.0000000001
 40
0.0
 40
0.0
 40
0.0
 40
84.94982996241999
 40
84.94982996241999
 40
84.94982996241999
 10
420.7274002383161
 20
92.42104777017175
 30
0.0
 10
420.7240354508124
 20
49.94613292223801
 30
0.0
 10
420.7206706633087
 20
7.471218074304277
 30
0.0
  0
SPLINE
  5
167
330
1F
100
AcDbEntity
  8
LINEE VISIBILI 2D
100
AcDbSpline
210
0.0
220
0.0
230
1.0
 70
    24
 71
     2
 72
     6
 73
     3
 74
     0
 42
0.0000000001
 43
0.0000000001
 40
0.0
 40
0.0
 40
0.0
 40
4.329388953759796
 40
4.329388953759796
 40
4.329388953759796
 10
420.7205880910213
 20
6.428878588272429
 30
0.0
 10
420.7204166077604
 20
4.264184118184831
 30
0.0
 10
420.7202451244996
 20
2.099489648097232
 30
0.0
  0
SPLINE
  5
168
330
1F
100
AcDbEntity
  8
LINEE VISIBILI 2D
100
AcDbSpline
210
0.0
220
0.0
230
1.0
 70
    24
 71
     2
 72
     6
 73
     3
 74
     0
 42
0.0000000001
 43
0.0000000001
 40
0.0
 40
0.0
 40
0.0
 40
0.0707106781188157
 40
0.0707106781188157
 40
0.0707106781188157
 10
420.6702492189826
 20
2.149493742245198
 30
0.0
 10
420.6952471717411
 20
2.124491695171215
 30
0.0
 10
420.7202451244996
 20
2.099489648097232
 30
0.0
  0
SPLINE
  5
169
330
1F
100
AcDbEntity
  8
LINEE VISIBILI 2D
100
AcDbSpline
210
0.0
220
0.0
230
1.0
 70
     8
 71
     3
 72
    22
 73
    18
 74
     0
 42
0.0000000001
 43
0.0000000001
 40
0.0
 40
0.0
 40
0.0
 40
0.0
 40
2.154350239757246
 40
4.287244673228299
 40
6.615859348684434
 40
9.465939405669919
 40
12.44633279367547
 40
16.05638274687314
 40
27.61778714068084
 40
31.80242293552786
 40
35.26672021270718
 40
38.10457031624521
 40
41.04178395397333
 40
43.84208949227832
 40
46.66107190705345
 40
47.97470303452945
 40
49.37403104230516
 40
49.37403104230516
 40
49.37403104230516
 40
49.37403104230516
 10
252.7179018176144
 20
48.51614361928659
 30
0.0
 10
252.5273922171152
 20
49.20832029897049
 30
0.0
 10
251.9431641188811
 20
50.53014068806187
 30
0.0
 10
250.4953739219561
 20
52.22330226971901
 30
0.0
 10
248.4513634103689
 20
53.58401682170764
 30
0.0
 10
245.9345866121156
 20
54.63052375222572
 30
0.0
 10
242.9101701369453
 20
55.51035960044686
 30
0.0
 10
236.9918916141769
 20
56.78740768677734
 30
0.0
 10
230.5675581274528
 20
57.48813876327586
 30
0.0
 10
224.2685962989346
 20
58.64027494799671
 30
0.0
 10
220.8784071212936
 20
59.51099825424741
 30
0.0
 10
218.0168981261993
 20
60.67481192713605
 30
0.0
 10
215.6088274510023
 20
62.25605413393896
 30
0.0
 10
213.733915185602
 20
64.44279611618405
 30
0.0
 10
212.7425876846154
 20
66.55413445314758
 30
0.0
 10
212.3327707926789
 20
68.357908461145
 30
0.0
 10
212.2771933644711
 20
69.26321113134358
 30
0.0
 10
212.2701519652103
 20
69.72934864679856
 30
0.0
  0
SPLINE
  5
16A
330
1F
100
AcDbEntity
  8
LINEE VISIBILI 2D
100
AcDbSpline
210
0.0
220
0.0
230
1.0
 70
     8
 71
     3
 72
    13
 73
     9
 74
     0
 42
0.0000000001
 43
0.0000000001
 40
0.0
 40
0.0
 40
0.0
 40
0.0
 40
1.311830376100824
 40
2.727381580486586
 40
4.512732285742263
 40
5.5208368357085
 40
6.042790411239864
 40
8.38040306621376
 40
8.38040306621376
 40
8.38040306621376
 40
8.38040306621376
 10
252.3179555024784
 20
40.19294175539963
 30
0.0
 10
252.3855266971602
 20
40.62497120351578
 30
0.0
 10
252.5129044692307
 20
41.52520062381948
 30
0.0
 10
252.6846891588126
 20
43.0197492747878
 30
0.0
 10
252.8156146151021
 20
44.41660327302322
 30
0.0
 10
252.9054183016174
 20
45.51822848505206
 30
0.0
 10
253.0038548716145
 20
46.80338860444815
 30
0.0
 10
252.9293236911069
 20
47.76407220395633
 30
0.0
 10
252.7179018176141
 20
48.51614361928749
 30
0.0
  0
SPLINE
  5
16B
330
1F
100
AcDbEntity
  8
LINEE VISIBILI 2D
100
AcDbSpline
210
0.0
220
0.0
230
1.0
 70
    12
 71
     2
 72
     6
 73
     3
 74
     0
 42
0.0000000001
 43
0.0000000001
 40
0.0
 40
0.0
 40
0.0
 40
1.980382006518023
 40
1.980382006518023
 40
1.980382006518023
 10
212.2701519652103
 20
69.72934864679693
 30
0.0
 41
1.0
 10
212.2539480268898
 20
70.71944881992859
 30
0.0
 41
0.9999367471541463
 10
212.2600186809594
 20
71.70966297232769
 30
0.0
 41
1.0
  0
SPLINE
  5
16C
330
1F
100
AcDbEntity
  8
LINEE VISIBILI 2D
100
AcDbSpline
210
0.0
220
0.0
230
1.0
 70
    24
 71
     2
 72
     6
 73
     3
 74
     0
 42
0.0000000001
 43
0.0000000001
 40
0.0
 40
0.0
 40
0.0
 40
31.83089629671028
 40
31.83089629671028
 40
31.83089629671028
 10
256.2961718133164
 20
37.71718293267638
 30
0.0
 10
258.2269400004116
 20
53.51508228577653
 30
0.0
 10
260.1577081875068
 20
69.31298163887667
 30
0.0
  0
SPLINE
  5
16D
330
1F
100
AcDbEntity
  8
LINEE VISIBILI 2D
100
AcDbSpline
210
0.0
220
0.0
230
1.0
 70
    24
 71
     2
 72
     6
 73
     3
 74
     0
 42
0.0000000001
 43
0.0000000001
 40
0.0
 40
0.0
 40
0.0
 40
31.82979068774281
 40
31.82979068774281
 40
31.82979068774281
 10
260.2207926195588
 20
69.30631694593213
 30
0.0
 10
258.2876585731248
 20
53.50926384844278
 30
0.0
 10
256.3545245266908
 20
37.71221075095344
 30
0.0
  0
SPLINE
  5
16E
330
1F
100
AcDbEntity
  8
LINEE VISIBILI 2D
100
AcDbSpline
210
0.0
220
0.0
230
1.0
 70
    24
 71
     2
 72
     6
 73
     3
 74
     0
 42
0.0000000001
 43
0.0000000001
 40
0.0
 40
0.0
 40
0.0
 40
1.790727070035439
 40
1.790727070035439
 40
1.790727070035439
 10
161.7985834491021
 20
75.85282269944873
 30
0.0
 10
161.6949510901395
 20
76.74216863552496
 30
0.0
 10
161.591318731177
 20
77.63151457160117
 30
0.0
  0
SPLINE
  5
16F
330
1F
100
AcDbEntity
  8
LINEE VISIBILI 2D
100
AcDbSpline
210
0.0
220
0.0
230
1.0
 70
    24
 71
     2
 72
     6
 73
     3
 74
     0
 42
0.0000000001
 43
0.0000000001
 40
0.0
 40
0.0
 40
0.0
 40
0.1165641597889487
 40
0.1165641597889487
 40
0.1165641597889487
 10
162.6208915167489
 20
78.01896751289415
 30
0.0
 10
162.6274901903699
 20
77.96106018742259
 30
0.0
 10
162.6340888639909
 20
77.90315286195102
 30
0.0
  0
SPLINE
  5
170
330
1F
100
AcDbEntity
  8
LINEE VISIBILI 2D
100
AcDbSpline
210
0.0
220
0.0
230
1.0
 70
    24
 71
     2
 72
     6
 73
     3
 74
     0
 42
0.0000000001
 43
0.0000000001
 40
0.0
 40
0.0
 40
0.0
 40
0.104108887173197
 40
0.104108887173197
 40
0.104108887173197
 10
161.4193045073366
 20
77.78930756348035
 30
0.0
 10
161.4132607726731
 20
77.84100996544029
 30
0.0
 10
161.4072170380095
 20
77.89271236740022
 30
0.0
  0
SPLINE
  5
171
330
1F
100
AcDbEntity
  8
LINEE VISIBILI 2D
100
AcDbSpline
210
0.0
220
0.0
230
1.0
 70
    24
 71
     2
 72
     6
 73
     3
 74
     0
 42
0.0000000001
 43
0.0000000001
 40
0.0
 40
0.0
 40
0.0
 40
30.98318199853279
 40
30.98318199853279
 40
30.98318199853279
 10
165.8651428397485
 20
44.34840188753435
 30
0.0
 10
164.0877385536743
 20
59.7376912048614
 30
0.0
 10
162.3103342676001
 20
75.12698052218846
 30
0.0
  0
SPLINE
  5
172
330
1F
100
AcDbEntity
  8
LINEE VISIBILI 2D
100
AcDbSpline
210
0.0
220
0.0
230
1.0
 70
    24
 71
     2
 72
     6
 73
     3
 74
     0
 42
0.0000000001
 43
0.0000000001
 40
0.0
 40
0.0
 40
0.0
 40
30.98608134062367
 40
30.98608134062367
 40
30.98608134062367
 10
162.3706635830731
 20
75.13275982808835
 30
0.0
 10
164.1459997099029
 20
59.74177250275054
 30
0.0
 10
165.9213358367327
 20
44.35078517741271
 30
0.0
  0
SPLINE
  5
173
330
1F
100
AcDbEntity
  8
LINEE VISIBILI 2D
100
AcDbSpline
210
0.0
220
0.0
230
1.0
 70
    24
 71
     2
 72
     6
 73
     3
 74
     0
 42
0.0000000001
 43
0.0000000001
 40
0.0
 40
0.0
 40
0.0
 40
99.90000000000001
 40
99.90000000000001
 40
99.90000000000001
 10
322.9276960136848
 20
0.0
 30
0.0
 10
322.9276960136848
 20
49.95
 30
0.0
 10
322.9276960136848
 20
99.90000000000001
 30
0.0
  0
SPLINE
  5
174
330
1F
100
AcDbEntity
  8
LINEE VISIBILI 2D
100
AcDbSpline
210
0.0
220
0.0
230
1.0
 70
    24
 71
     2
 72
     6
 73
     3
 74
     0
 42
0.0000000001
 43
0.0000000001
 40
0.0
 40
0.0
 40
0.0
 40
99.90000000000001
 40
99.90000000000001
 40
99.90000000000001
 10
422.8274460136849
 20
99.90000000000001
 30
0.0
 10
422.8274460136848
 20
49.95
 30
0.0
 10
422.8274460136847
 20
0.0
 30
0.0
  0
SPLINE
  5
175
330
1F
100
AcDbEntity
  8
LINEE VISIBILI 2D
100
AcDbSpline
210
0.0
220
0.0
230
1.0
 70
    24
 71
     2
 72
     6
 73
     3
 74
     0
 42
0.0000000001
 43
0.0000000001
 40
0.0
 40
0.0
 40
0.0
 40
99.89966666666678
 40
99.89966666666678
 40
99.89966666666678
 10
322.9277376803515
 20
99.90000000000001
 30
0.0
 10
372.8775710136849
 20
99.90000000000001
 30
0.0
 10
422.8274043470182
 20
99.90000000000001
 30
0.0
  0
SPLINE
  5
176
330
1F
100
AcDbEntity
  8
LINEE VISIBILI 2D
100
AcDbSpline
210
0.0
220
0.0
230
1.0
 70
     8
 71
     3
 72
    15
 73
    11
 74
     0
 42
0.0000000001
 43
0.0000000001
 40
0.0
 40
0.0
 40
0.0
 40
0.0
 40
0.8548910926961841
 40
1.585459315903339
 40
2.199615417708872
 40
2.733443233487815
 40
3.250819298960748
 40
3.820781391056153
 40
4.488543734119073
 40
5.270014162133101
 40
5.270014162133101
 40
5.270014162133101
 40
5.270014162133101
 10
216.1531310484638
 20
73.26618179744426
 30
0.0
 10
216.4169152495002
 20
73.37408608503295
 30
0.0
 10
216.8934717369019
 20
73.60582557075064
 30
0.0
 10
217.4883776006825
 20
74.04155940140746
 30
0.0
 10
217.8887938698346
 20
74.53155385020997
 30
0.0
 10
218.069604023567
 20
75.07002141689913
 30
0.0
 10
217.9932748521542
 20
75.61936476521262
 30
0.0
 10
217.6851855462477
 20
76.12695367646503
 30
0.0
 10
217.1827569590774
 20
76.58160109467409
 30
0.0
 10
216.7653337766761
 20
76.8284548791394
 30
0.0
 10
216.5324159502563
 20
76.94497651116416
 30
0.0
  0
SPLINE
  5
177
330
1F
100
AcDbEntity
  8
LINEE VISIBILI 2D
100
AcDbSpline
210
0.0
220
0.0
230
1.0
 70
    12
 71
     2
 72
     8
 73
     5
 74
     0
 42
0.0000000001
 43
0.0000000001
 40
-33.88954875321333
 40
-33.88954875321333
 40
-33.88954875321333
 40
-28.2743338823081
 40
-28.2743338823081
 40
-27.58910252579777
 40
-27.58910252579777
 40
-27.58910252579777
 10
259.8125523554898
 20
70.15435534672302
 30
0.0
 41
268.8986515972926
 10
259.7991604676381
 20
70.04482063294766
 30
0.0
 41
258.2228669111127
 10
259.9873720445632
 20
69.95999608237737
 30
0.0
 41
312.613117541028
 10
260.3174353283282
 20
69.81615543912323
 30
0.0
 41
290.4008569457576
 10
260.6559588928247
 20
69.93876742149904
 30
0.0
 41
312.613117541028
  0
SPLINE
  5
178
330
1F
100
AcDbEntity
  8
LINEE VISIBILI 2D
100
AcDbSpline
210
0.0
220
0.0
230
1.0
 70
    12
 71
     2
 72
     6
 73
     3
 74
     0
 42
0.0000000001
 43
0.0000000001
 40
0.0
 40
0.0
 40
0.0
 40
0.1626342774306857
 40
0.1626342774306857
 40
0.1626342774306857
 10
260.6559588928247
 20
69.93876742149904
 30
0.0
 41
1.0
 10
260.7393952532772
 20
69.96856389460321
 30
0.0
 41
0.8811822039385791
 10
260.7607059979856
 20
70.05455987250321
 30
0.0
 41
1.0
  0
SPLINE
  5
179
330
1F
100
AcDbEntity
  8
LINEE VISIBILI 2D
100
AcDbSpline
210
0.0
220
0.0
230
1.0
 70
    12
 71
     2
 72
     6
 73
     3
 74
     0
 42
0.0000000001
 43
0.0000000001
 40
0.0
 40
0.0
 40
0.0
 40
0.2157893705729541
 40
0.2157893705729541
 40
0.2157893705729541
 10
261.1678520269212
 20
72.04812907122351
 30
0.0
 41
1.0
 10
261.1390109062345
 20
71.93410084374581
 30
0.0
 41
0.8804757424532208
 10
261.0279379397455
 20
71.89540920357011
 30
0.0
 41
1.0
  0
SPLINE
  5
17A
330
1F
100
AcDbEntity
  8
LINEE VISIBILI 2D
100
AcDbSpline
210
0.0
220
0.0
230
1.0
 70
    12
 71
     2
 72
     8
 73
     5
 74
     0
 42
0.0000000001
 43
0.0000000001
 40
25.1327412287183
 40
25.1327412287183
 40
25.1327412287183
 40
37.6991118430775
 40
37.6991118430775
 40
45.18080236787645
 40
45.18080236787645
 40
45.18080236787645
 10
261.0279379397455
 20
71.89540920357011
 30
0.0
 41
310.9078094486985
 10
260.6273895648609
 20
71.70340291335631
 30
0.0
 41
219.5289688535151
 10
260.131709526623
 20
71.92345193386621
 30
0.0
 41
310.9731968170163
 10
259.8795845874538
 20
72.03537866407612
 30
0.0
 41
256.9610726668356
 10
259.8972001815174
 20
72.17986316525629
 30
0.0
 41
267.6038279128447
  0
SPLINE
  5
17B
330
1F
100
AcDbEntity
  8
LINEE VISIBILI 2D
100
AcDbSpline
210
0.0
220
0.0
230
1.0
 70
    12
 71
     2
 72
     6
 73
     3
 74
     0
 42
0.0000000001
 43
0.0000000001
 40
-50.26548245743669
 40
-50.26548245743669
 40
-50.26548245743669
 40
-37.6991118430775
 40
-37.6991118430775
 40
-37.6991118430775
 10
260.0551566098965
 20
72.47270894345587
 30
0.0
 41
311.8271212110296
 10
259.6543944456846
 20
72.28209820155038
 30
0.0
 41
220.179020434684
 10
260.1486389053115
 20
72.06292834635701
 30
0.0
 41
310.8678051181582
  0
SPLINE
  5
17C
330
1F
100
AcDbEntity
  8
LINEE VISIBILI 2D
100
AcDbSpline
210
0.0
220
0.0
230
1.0
 70
    12
 71
     2
 72
     6
 73
     3
 74
     0
 42
0.0000000001
 43
0.0000000001
 40
-37.6991118430775
 40
-37.6991118430775
 40
-37.6991118430775
 40
-25.1327412287183
 40
-25.1327412287183
 40
-25.1327412287183
 10
260.1486389053115
 20
72.06292834635701
 30
0.0
 41
310.8678051181582
 10
260.6445152164265
 20
71.84303485603257
 30
0.0
 41
219.4544456685718
 10
261.0451747870929
 20
72.03490545028426
 30
0.0
 41
310.8024177498404
  0
SPLINE
  5
17D
330
1F
100
AcDbEntity
  8
LINEE VISIBILI 2D
100
AcDbSpline
210
0.0
220
0.0
230
1.0
 70
    12
 71
     2
 72
     6
 73
     3
 74
     0
 42
0.0000000001
 43
0.0000000001
 40
-25.1327412287183
 40
-25.1327412287183
 40
-25.1327412287183
 40
-12.5663706143592
 40
-12.5663706143592
 40
-12.5663706143592
 10
261.0451747870929
 20
72.03490545028426
 30
0.0
 41
310.8024177498404
 10
261.4446836370842
 20
72.22622497955253
 30
0.0
 41
220.0865487316012
 10
260.9489141716773
 20
72.44485822146407
 30
0.0
 41
311.7617338427119
  0
SPLINE
  5
17E
330
1F
100
AcDbEntity
  8
LINEE VISIBILI 2D
100
AcDbSpline
210
0.0
220
0.0
230
1.0
 70
    12
 71
     2
 72
     6
 73
     3
 74
     0
 42
0.0000000001
 43
0.0000000001
 40
-12.5663706143592
 40
-12.5663706143592
 40
-12.5663706143592
 40
0.0
 40
0.0
 40
0.0
 10
260.9489141716773
 20
72.44485822146407
 30
0.0
 41
311.7617338427119
 10
260.4547715357469
 20
72.66277403516089
 30
0.0
 41
220.8111234977134
 10
260.0551566098965
 20
72.47270894345587
 30
0.0
 41
311.8271212110296
  0
SPLINE
  5
17F
330
1F
100
AcDbEntity
  8
LINEE VISIBILI 2D
100
AcDbSpline
210
0.0
220
0.0
230
1.0
 70
    12
 71
     2
 72
     6
 73
     3
 74
     0
 42
0.0000000001
 43
0.0000000001
 40
0.0
 40
0.0
 40
0.0
 40
0.0164864956350049
 40
0.0164864956350049
 40
0.0164864956350049
 10
256.3065808433788
 20
37.70237656086719
 30
0.0
 41
1.0
 10
256.2985797015572
 20
37.70605191539581
 30
0.0
 41
0.9070050054004944
 10
256.2962240961286
 20
37.71453587817417
 30
0.0
 41
1.0
  0
SPLINE
  5
180
330
1F
100
AcDbEntity
  8
LINEE VISIBILI 2D
100
AcDbSpline
210
0.0
220
0.0
230
1.0
 70
    12
 71
     2
 72
     6
 73
     3
 74
     0
 42
0.0000000001
 43
0.0000000001
 40
0.0
 40
0.0
 40
0.0
 40
0.0141390176924218
 40
0.0141390176924218
 40
0.0141390176924218
 10
256.3541529423763
 20
37.71225622286996
 30
0.0
 41
1.0
 10
256.3549344445274
 20
37.70416151187748
 30
0.0
 41
0.8150111746681249
 10
256.3475456325032
 20
37.70076437359146
 30
0.0
 41
1.0
  0
SPLINE
  5
181
330
1F
100
AcDbEntity
  8
LINEE VISIBILI 2D
100
AcDbSpline
210
0.0
220
0.0
230
1.0
 70
    12
 71
     2
 72
     6
 73
     3
 74
     0
 42
0.0000000001
 43
0.0000000001
 40
0.0
 40
0.0
 40
0.0
 40
0.0425251517584731
 40
0.0425251517584731
 40
0.0425251517584731
 10
256.3475456325032
 20
37.70076437359145
 30
0.0
 41
1.0
 10
256.3266568532029
 20
37.69124445526579
 30
0.0
 41
0.8929432791424144
 10
256.3065808433788
 20
37.70237656086719
 30
0.0
 41
1.0
  0
SPLINE
  5
182
330
1F
100
AcDbEntity
  8
LINEE VISIBILI 2D
100
AcDbSpline
210
0.0
220
0.0
230
1.0
 70
    12
 71
     2
 72
     6
 73
     3
 74
     0
 42
0.0000000001
 43
0.0000000001
 40
0.0
 40
0.0
 40
0.0
 40
0.3198774670602296
 40
0.3198774670602296
 40
0.3198774670602296
 10
162.4480861189798
 20
75.15162377912158
 30
0.0
 41
1.0
 10
162.2901572449766
 20
75.09346648317927
 30
0.0
 41
0.9271442967511823
 10
162.1361676036976
 20
75.16137075914177
 30
0.0
 41
1.0
  0
SPLINE
  5
183
330
1F
100
AcDbEntity
  8
LINEE VISIBILI 2D
100
AcDbSpline
210
0.0
220
0.0
230
1.0
 70
    12
 71
     2
 72
     6
 73
     3
 74
     0
 42
0.0000000001
 43
0.0000000001
 40
0.0
 40
0.0
 40
0.0
 40
0.0655443765333391
 40
0.0655443765333391
 40
0.0655443765333391
 10
162.1361676036976
 20
75.16137075914177
 30
0.0
 41
1.0
 10
162.1035931488473
 20
75.17761177221238
 30
0.0
 41
0.8570370442828673
 10
162.1026587328878
 20
75.21399847969153
 30
0.0
 41
1.0
  0
SPLINE
  5
184
330
1F
100
AcDbEntity
  8
LINEE VISIBILI 2D
100
AcDbSpline
210
0.0
220
0.0
230
1.0
 70
    12
 71
     2
 72
     6
 73
     3
 74
     0
 42
0.0000000001
 43
0.0000000001
 40
0.0
 40
0.0
 40
0.0
 40
0.1472151355129621
 40
0.1472151355129621
 40
0.1472151355129621
 10
162.5556506368989
 20
75.24191551229673
 30
0.0
 41
1.0
 10
162.528275865831
 20
75.16531041234813
 30
0.0
 41
0.8631758124978803
 10
162.4480861189798
 20
75.15162377912158
 30
0.0
 41
1.0
  0
SPLINE
  5
185
330
1F
100
AcDbEntity
  8
LINEE VISIBILI 2D
100
AcDbSpline
210
0.0
220
0.0
230
1.0
 70
    12
 71
     2
 72
     8
 73
     5
 74
     0
 42
0.0000000001
 43
0.0000000001
 40
0.0
 40
0.0
 40
0.0
 40
0.115051449516603
 40
0.115051449516603
 40
9.5398294102859
 40
9.5398294102859
 40
9.5398294102859
 10
161.7985833845388
 20
75.85282340879873
 30
0.0
 41
1.0
 10
161.8106428779073
 20
75.79239385399384
 30
0.0
 41
0.9032261313472803
 10
161.8651090537627
 20
75.76357375403022
 30
0.0
 41
1.0
 10
162.1031452360207
 20
75.6110418181928
 30
0.0
 41
0.7062748878589872
 10
162.4902790206504
 20
75.74412730062495
 30
0.0
 41
0.9998498558935411
  0
SPLINE
  5
186
330
1F
100
AcDbEntity
  8
LINEE VISIBILI 2D
100
AcDbSpline
210
0.0
220
0.0
230
1.0
 70
    12
 71
     2
 72
     6
 73
     3
 74
     0
 42
0.0000000001
 43
0.0000000001
 40
-18.8495559215388
 40
-18.8495559215388
 40
-18.8495559215388
 40
-12.52603527282067
 40
-12.52603527282067
 40
-12.52603527282067
 10
162.4902790206504
 20
75.74412730062495
 30
0.0
 41
326.5740111200949
 10
162.7184956517113
 20
75.82258162739683
 30
0.0
 41
262.5561490083494
 10
162.7052696343415
 20
75.93904439940768
 30
0.0
 41
284.7672832948452
  0
SPLINE
  5
187
330
1F
100
AcDbEntity
  8
LINEE VISIBILI 2D
100
AcDbSpline
210
0.0
220
0.0
230
1.0
 70
    12
 71
     2
 72
     6
 73
     3
 74
     0
 42
0.0000000001
 43
0.0000000001
 40
16.70666650381807
 40
16.70666650381807
 40
16.70666650381807
 40
25.1327412287183
 40
25.1327412287183
 40
25.1327412287183
 10
162.634098969673
 20
77.90306386312271
 30
0.0
 41
283.4402797850832
 10
162.6514753001768
 20
77.74948766726288
 30
0.0
 41
261.3182767815636
 10
162.3458195629329
 20
77.64599462512851
 30
0.0
 41
324.9177435540037
  0
SPLINE
  5
188
330
1F
100
AcDbEntity
  8
LINEE VISIBILI 2D
100
AcDbSpline
210
0.0
220
0.0
230
1.0
 70
    12
 71
     2
 72
     8
 73
     5
 74
     0
 42
0.0000000001
 43
0.0000000001
 40
25.1327412287183
 40
25.1327412287183
 40
25.1327412287183
 40
37.6991118430775
 40
37.6991118430775
 40
37.85148891251811
 40
37.85148891251811
 40
37.85148891251811
 10
162.3458195629329
 20
77.64599462512851
 30
0.0
 41
324.9177435540037
 10
161.8266295838146
 20
77.47020027927681
 30
0.0
 41
229.4354882633531
 10
161.5080823858875
 20
77.67167140969572
 30
0.0
 41
324.9831309223214
 10
161.4355761671812
 20
77.70927055684333
 30
0.0
 41
293.2043632258731
 10
161.4193044182611
 20
77.7893085341066
 30
0.0
 41
324.9831309223214
  0
SPLINE
  5
189
330
1F
100
AcDbEntity
  8
LINEE VISIBILI 2D
100
AcDbSpline
210
0.0
220
0.0
230
1.0
 70
    12
 71
     2
 72
     6
 73
     3
 74
     0
 42
0.0000000001
 43
0.0000000001
 40
-50.26548245743669
 40
-50.26548245743669
 40
-50.26548245743669
 40
-37.6991118430775
 40
-37.6991118430775
 40
-37.6991118430775
 10
161.6932849109343
 20
78.18224773782773
 30
0.0
 41
325.8370553163348
 10
161.1746654400313
 20
78.00768666813159
 30
0.0
 41
230.085539844522
 10
161.4922877893439
 20
77.80699782799029
 30
0.0
 41
324.8777392234633
  0
SPLINE
  5
18A
330
1F
100
AcDbEntity
  8
LINEE VISIBILI 2D
100
AcDbSpline
210
0.0
220
0.0
230
1.0
 70
    12
 71
     2
 72
     6
 73
     3
 74
     0
 42
0.0000000001
 43
0.0000000001
 40
-37.6991118430775
 40
-37.6991118430775
 40
-37.6991118430775
 40
-25.1327412287183
 40
-25.1327412287183
 40
-25.1327412287183
 10
161.4922877893439
 20
77.80699782799029
 30
0.0
 41
324.8777392234633
 10
161.8109135401699
 20
77.60567499126041
 30
0.0
 41
229.3609650784098
 10
162.330293606965
 20
77.78133995439851
 30
0.0
 41
324.8123518551456
  0
SPLINE
  5
18B
330
1F
100
AcDbEntity
  8
LINEE VISIBILI 2D
100
AcDbSpline
210
0.0
220
0.0
230
1.0
 70
    12
 71
     2
 72
     6
 73
     3
 74
     0
 42
0.0000000001
 43
0.0000000001
 40
-25.1327412287183
 40
-25.1327412287183
 40
-25.1327412287183
 40
-12.5663706143592
 40
-12.5663706143592
 40
-12.5663706143592
 10
162.330293606965
 20
77.78133995439851
 30
0.0
 41
324.8123518551456
 10
162.8482462319082
 20
77.95652212750233
 30
0.0
 41
229.9930681414392
 10
162.5288633541955
 20
78.15674073866723
 30
0.0
 41
325.7716679480171
  0
SPLINE
  5
18C
330
1F
100
AcDbEntity
  8
LINEE VISIBILI 2D
100
AcDbSpline
210
0.0
220
0.0
230
1.0
 70
    12
 71
     2
 72
     6
 73
     3
 74
     0
 42
0.0000000001
 43
0.0000000001
 40
-12.5663706143592
 40
-12.5663706143592
 40
-12.5663706143592
 40
0.0
 40
0.0
 40
0.0
 10
162.5288633541955
 20
78.15674073866723
 30
0.0
 41
325.7716679480171
 10
162.2104835067279
 20
78.35633055806953
 30
0.0
 41
230.7176429075514
 10
161.6932849109343
 20
78.18224773782773
 30
0.0
 41
325.8370553163348
  0
SPLINE
  5
18D
330
1F
100
AcDbEntity
  8
LINEE VISIBILI 2D
100
AcDbSpline
210
0.0
220
0.0
230
1.0
 70
    24
 71
     2
 72
     6
 73
     3
 74
     0
 42
0.0000000001
 43
0.0000000001
 40
0.0
 40
0.0
 40
0.0
 40
5.513430688514628
 40
5.513430688514628
 40
5.513430688514628
 10
323.8275710136848
 20
0.9074244358134279
 30
0.0
 10
323.8275710136848
 20
3.664139780070742
 30
0.0
 10
323.8275710136848
 20
6.420855124328056
 30
0.0
  0
SPLINE
  5
18E
330
1F
100
AcDbEntity
  8
LINEE VISIBILI 2D
100
AcDbSpline
210
0.0
220
0.0
230
1.0
 70
    24
 71
     2
 72
     6
 73
     3
 74
     0
 42
0.0000000001
 43
0.0000000001
 40
0.0
 40
0.0
 40
0.0
 40
5.520854440285503
 40
5.520854440285503
 40
5.520854440285503
 10
323.8275710136849
 20
93.47914555971444
 30
0.0
 10
323.8275710136849
 20
96.23957277985718
 30
0.0
 10
323.8275710136849
 20
98.99999999999995
 30
0.0
  0
SPLINE
  5
18F
330
1F
100
AcDbEntity
  8
LINEE VISIBILI 2D
100
AcDbSpline
210
0.0
220
0.0
230
1.0
 70
    24
 71
     2
 72
     6
 73
     3
 74
     0
 42
0.0000000001
 43
0.0000000001
 40
0.0
 40
0.0
 40
0.0
 40
0.0256593368107739
 40
0.0256593368107739
 40
0.0256593368107739
 10
323.8294271226252
 20
0.9018561089403643
 30
0.0
 10
323.838499068155
 20
0.9109280544701865
 30
0.0
 10
323.8475710136849
 20
0.9200000000000088
 30
0.0
  0
SPLINE
  5
190
330
1F
100
AcDbEntity
  8
LINEE VISIBILI 2D
100
AcDbSpline
210
0.0
220
0.0
230
1.0
 70
    24
 71
     2
 72
     6
 73
     3
 74
     0
 42
0.0000000001
 43
0.0000000001
 40
0.0
 40
0.0
 40
0.0
 40
0.0191158756575448
 40
0.0191158756575448
 40
0.0191158756575448
 10
323.8475710136849
 20
98.98000000000003
 30
0.0
 10
323.8408125310319
 20
98.98675848265291
 30
0.0
 10
323.834054048379
 20
98.9935169653058
 30
0.0
  0
SPLINE
  5
191
330
1F
100
AcDbEntity
  8
LINEE VISIBILI 2D
100
AcDbSpline
210
0.0
220
0.0
230
1.0
 70
    24
 71
     2
 72
     6
 73
     3
 74
     0
 42
0.0000000001
 43
0.0000000001
 40
0.0
 40
0.0
 40
0.0
 40
0.0256935006527212
 40
0.0256935006527212
 40
0.0256935006527212
 10
325.0094029651409
 20
2.081831951456036
 30
0.0
 10
325.0184869894129
 20
2.090915975728012
 30
0.0
 10
325.0275710136848
 20
2.099999999999987
 30
0.0
  0
SPLINE
  5
192
330
1F
100
AcDbEntity
  8
LINEE VISIBILI 2D
100
AcDbSpline
210
0.0
220
0.0
230
1.0
 70
    24
 71
     2
 72
     6
 73
     3
 74
     0
 42
0.0000000001
 43
0.0000000001
 40
0.0
 40
0.0
 40
0.0
 40
4.298454210806415
 40
4.298454210806415
 40
4.298454210806415
 10
325.0275710136848
 20
2.122390640895005
 30
0.0
 10
325.0275710136848
 20
4.271617746298213
 30
0.0
 10
325.0275710136848
 20
6.420844851701421
 30
0.0
  0
SPLINE
  5
193
330
1F
100
AcDbEntity
  8
LINEE VISIBILI 2D
100
AcDbSpline
210
0.0
220
0.0
230
1.0
 70
    24
 71
     2
 72
     6
 73
     3
 74
     0
 42
0.0000000001
 43
0.0000000001
 40
0.0
 40
0.0
 40
0.0
 40
84.94168938669449
 40
84.94168938669449
 40
84.94168938669449
 10
325.0275710136848
 20
7.479155648667464
 30
0.0
 10
325.0275710136848
 20
49.95000034201471
 30
0.0
 10
325.0275710136848
 20
92.42084503536196
 30
0.0
  0
SPLINE
  5
194
330
1F
100
AcDbEntity
  8
LINEE VISIBILI 2D
100
AcDbSpline
210
0.0
220
0.0
230
1.0
 70
    24
 71
     2
 72
     6
 73
     3
 74
     0
 42
0.0000000001
 43
0.0000000001
 40
0.0
 40
0.0
 40
0.0
 40
4.316246033481917
 40
4.316246033481917
 40
4.316246033481917
 10
325.0275710136848
 20
93.47915496463647
 30
0.0
 10
325.0275710136848
 20
95.63727798137742
 30
0.0
 10
325.0275710136848
 20
97.79540099811839
 30
0.0
  0
SPLINE
  5
195
330
1F
100
AcDbEntity
  8
LINEE VISIBILI 2D
100
AcDbSpline
210
0.0
220
0.0
230
1.0
 70
    24
 71
     2
 72
     6
 73
     3
 74
     0
 42
0.0000000001
 43
0.0000000001
 40
0.0
 40
0.0
 40
0.0
 40
4.315871610345409
 40
4.315871610345409
 40
4.315871610345409
 10
325.0275706616441
 20
97.79540135021305
 30
0.0
 10
325.0274054650253
 20
95.63746555136349
 30
0.0
 10
325.0272402684065
 20
93.47952975251393
 30
0.0
  0
SPLINE
  5
196
330
1F
100
AcDbEntity
  8
LINEE VISIBILI 2D
100
AcDbSpline
210
0.0
220
0.0
230
1.0
 70
    24
 71
     2
 72
     6
 73
     3
 74
     0
 42
0.0000000001
 43
0.0000000001
 40
0.0
 40
0.0
 40
0.0
 40
84.93348546333875
 40
84.93348546333875
 40
84.93348546333875
 10
325.0271591871179
 20
92.42037844127764
 30
0.0
 10
325.023908227432
 20
49.95363583404376
 30
0.0
 10
325.020657267746
 20
7.486893226809874
 30
0.0
  0
SPLINE
  5
197
330
1F
100
AcDbEntity
  8
LINEE VISIBILI 2D
100
AcDbSpline
210
0.0
220
0.0
230
1.0
 70
    24
 71
     2
 72
     6
 73
     3
 74
     0
 42
0.0000000001
 43
0.0000000001
 40
0.0
 40
0.0
 40
0.0
 40
4.305690319785848
 40
4.305690319785848
 40
4.305690319785848
 10
325.0205750591797
 20
6.413016475391964
 30
0.0
 10
325.0204102522655
 20
4.260171321807278
 30
0.0
 10
325.0202454453513
 20
2.107326168222591
 30
0.0
  0
SPLINE
  5
198
330
1F
100
AcDbEntity
  8
LINEE VISIBILI 2D
100
AcDbSpline
210
0.0
220
0.0
230
1.0
 70
    12
 71
     2
 72
     6
 73
     3
 74
     0
 42
0.0000000001
 43
0.0000000001
 40
0.0
 40
0.0
 40
0.0
 40
0.0127689135762494
 40
0.0127689135762494
 40
0.0127689135762494
 10
165.869901367485
 20
44.33731517182522
 30
0.0
 41
1.0
 10
165.8634949181216
 20
44.34143341941951
 30
0.0
 41
0.7742012382816622
 10
165.8662575439069
 20
44.34853063404666
 30
0.0
 41
1.0
  0
SPLINE
  5
199
330
1F
100
AcDbEntity
  8
LINEE VISIBILI 2D
100
AcDbSpline
210
0.0
220
0.0
230
1.0
 70
    12
 71
     2
 72
     6
 73
     3
 74
     0
 42
0.0000000001
 43
0.0000000001
 40
0.0
 40
0.0
 40
0.0
 40
0.0166241996507328
 40
0.0166241996507328
 40
0.0166241996507328
 10
165.9207110236518
 20
44.34642792984135
 30
0.0
 41
1.0
 10
165.9166402368326
 20
44.33871324701014
 30
0.0
 41
0.9308446460818091
 10
165.9084083622865
 20
44.33582813384573
 30
0.0
 41
1.0
  0
SPLINE
  5
19A
330
1F
100
AcDbEntity
  8
LINEE VISIBILI 2D
100
AcDbSpline
210
0.0
220
0.0
230
1.0
 70
    12
 71
     2
 72
     6
 73
     3
 74
     0
 42
0.0000000001
 43
0.0000000001
 40
0.0
 40
0.0
 40
0.0
 40
0.0399931160127632
 40
0.0399931160127632
 40
0.0399931160127632
 10
165.9084083622865
 20
44.33582813384573
 30
0.0
 41
1.0
 10
165.888777001975
 20
44.32678685558033
 30
0.0
 41
0.8914808276280963
 10
165.869901367485
 20
44.33731517182522
 30
0.0
 41
1.0
  0
SPLINE
  5
19B
330
1F
100
AcDbEntity
  8
LINEE VISIBILI 2D
100
AcDbSpline
210
0.0
220
0.0
230
1.0
 70
    24
 71
     2
 72
     6
 73
     3
 74
     0
 42
0.0000000001
 43
0.0000000001
 40
0.0
 40
0.0
 40
0.0
 40
3.233788789753019
 40
3.233788789753019
 40
3.233788789753019
 10
206.8978975906922
 20
12.4220221226095
 30
0.0
 10
208.2964778242438
 20
13.23339183766033
 30
0.0
 10
209.6950580577955
 20
14.04476155271115
 30
0.0
  0
SPLINE
  5
19C
330
1F
100
AcDbEntity
  8
LINEE VISIBILI 2D
100
AcDbSpline
210
0.0
220
0.0
230
1.0
 70
    24
 71
     2
 72
     6
 73
     3
 74
     0
 42
0.0000000001
 43
0.0000000001
 40
0.0
 40
0.0
 40
0.0
 40
48.80375765322069
 40
48.80375765322069
 40
48.80375765322069
 10
209.7626531123293
 20
14.08397602094132
 30
0.0
 10
230.8697739586643
 20
26.3290215433878
 30
0.0
 10
251.9768948049992
 20
38.57406706583427
 30
0.0
  0
SPLINE
  5
19D
330
1F
100
AcDbEntity
  8
LINEE VISIBILI 2D
100
AcDbSpline
210
0.0
220
0.0
230
1.0
 70
    24
 71
     2
 72
     6
 73
     3
 74
     0
 42
0.0000000001
 43
0.0000000001
 40
0.0
 40
0.0
 40
0.0
 40
61.89430135992747
 40
61.89430135992747
 40
61.89430135992747
 10
206.2017943881975
 20
6.918577770116893
 30
0.0
 10
232.7920117051551
 20
22.75165953726987
 30
0.0
 10
259.3822290221126
 20
38.58474130442285
 30
0.0
  0
SPLINE
  5
19E
330
1F
100
AcDbEntity
  8
LINEE VISIBILI 2D
100
AcDbSpline
210
0.0
220
0.0
230
1.0
 70
    24
 71
     2
 72
     6
 73
     3
 74
     0
 42
0.0000000001
 43
0.0000000001
 40
0.0
 40
0.0
 40
0.0
 40
3.873532572692072
 40
3.873532572692072
 40
3.873532572692072
 10
206.3666377993551
 20
8.289525858339551
 30
0.0
 10
208.0335286063458
 20
9.275699618635552
 30
0.0
 10
209.7004194133365
 20
10.26187337893155
 30
0.0
  0
SPLINE
  5
19F
330
1F
100
AcDbEntity
  8
LINEE VISIBILI 2D
100
AcDbSpline
210
0.0
220
0.0
230
1.0
 70
    24
 71
     2
 72
     6
 73
     3
 74
     0
 42
0.0000000001
 43
0.0000000001
 40
0.0
 40
0.0
 40
0.0
 40
54.07919797898209
 40
54.07919797898209
 40
54.07919797898209
 10
209.7672902309029
 20
10.30143580577855
 30
0.0
 10
233.0391012377608
 20
24.06961382516703
 30
0.0
 10
256.3109122446188
 20
37.8377918445555
 30
0.0
  0
SPLINE
  5
1A0
330
1F
100
AcDbEntity
  8
LINEE VISIBILI 2D
100
AcDbSpline
210
0.0
220
0.0
230
1.0
 70
    24
 71
     2
 72
     6
 73
     3
 74
     0
 42
0.0000000001
 43
0.0000000001
 40
0.0
 40
0.0
 40
0.0
 40
1.504229706485899
 40
1.504229706485899
 40
1.504229706485899
 10
256.3744956422679
 20
37.87540935260643
 30
0.0
 10
257.0218083012656
 20
38.25837550511851
 30
0.0
 10
257.6691209602634
 20
38.6413416576306
 30
0.0
  0
SPLINE
  5
1A1
330
1F
100
AcDbEntity
  8
LINEE VISIBILI 2D
100
AcDbSpline
210
0.0
220
0.0
230
1.0
 70
    12
 71
     2
 72
     6
 73
     3
 74
     0
 42
0.0000000001
 43
0.0000000001
 40
0.0
 40
0.0
 40
0.0
 40
0.0490728092020043
 40
0.0490728092020043
 40
0.0490728092020043
 10
325.0739127198508
 20
2.15366347992802
 30
0.0
 41
1.0
 10
325.0542431150355
 20
2.138962297263522
 30
0.0
 41
0.9987773815640284
 10
325.0361213510339
 20
2.122390640895005
 30
0.0
 41
1.0
  0
SPLINE
  5
1A2
330
1F
100
AcDbEntity
  8
LINEE VISIBILI 2D
100
AcDbSpline
210
0.0
220
0.0
230
1.0
 70
    12
 71
     2
 72
     6
 73
     3
 74
     0
 42
0.0000000001
 43
0.0000000001
 40
0.0
 40
0.0
 40
0.0
 40
0.062336366266061
 40
0.062336366266061
 40
0.062336366266061
 10
323.7738570526681
 20
0.8537142651500602
 30
0.0
 41
1.0
 10
323.7985311044405
 20
0.8727948270882579
 30
0.0
 41
0.9989044703637837
 10
323.8213132619098
 20
0.8940985820575498
 30
0.0
 41
1.0
  0
SPLINE
  5
1A3
330
1F
100
AcDbEntity
  8
LINEE VISIBILI 2D
100
AcDbSpline
210
0.0
220
0.0
230
1.0
 70
    24
 71
     2
 72
     6
 73
     3
 74
     0
 42
0.0000000001
 43
0.0000000001
 40
0.0
 40
0.0
 40
0.0
 40
84.94170906424526
 40
84.94170906424526
 40
84.94170906424526
 10
323.8275710136848
 20
7.479145376039513
 30
0.0
 10
323.8275710136849
 20
49.94999990816214
 30
0.0
 10
323.8275710136849
 20
92.42085444028477
 30
0.0
  0
SPLINE
  5
1A4
330
1F
100
AcDbEntity
  8
LINEE VISIBILI 2D
100
AcDbSpline
210
0.0
220
0.0
230
1.0
 70
    24
 71
     2
 72
     6
 73
     3
 74
     0
 42
0.0000000001
 43
0.0000000001
 40
0.0
 40
0.0
 40
0.0
 40
0.4679666231675227
 40
0.4679666231675227
 40
0.4679666231675227
 10
210.3601882449959
 20
91.87083226075021
 30
0.0
 10
210.3602772534887
 20
92.10481555540431
 30
0.0
 10
210.3603662619814
 20
92.33879885005842
 30
0.0
  0
SPLINE
  5
1A5
330
1F
100
AcDbEntity
  8
LINEE VISIBILI 2D
100
AcDbSpline
210
0.0
220
0.0
230
1.0
 70
    24
 71
     2
 72
     6
 73
     3
 74
     0
 42
0.0000000001
 43
0.0000000001
 40
0.0
 40
0.0
 40
0.0
 40
0.0946068617891145
 40
0.0946068617891145
 40
0.0946068617891145
 10
210.034473583208
 20
94.23913579743437
 30
0.0
 10
210.0344559556386
 20
94.28643922504448
 30
0.0
 10
210.0344383280691
 20
94.33374265265459
 30
0.0
  0
SPLINE
  5
1A6
330
1F
100
AcDbEntity
  8
LINEE VISIBILI 2D
100
AcDbSpline
210
0.0
220
0.0
230
1.0
 70
    12
 71
     2
 72
     6
 73
     3
 74
     0
 42
0.0000000001
 43
0.0000000001
 40
0.0
 40
0.0
 40
0.0
 40
1.256637061435984
 40
1.256637061435984
 40
1.256637061435984
 10
325.2275755434872
 20
6.950000250183698
 30
0.0
 41
1.0
 10
325.2275755434871
 20
7.750000250183726
 30
0.0
 41
0.7071067811865653
 10
324.4275755434872
 20
7.750000250183698
 30
0.0
 41
1.0
  0
SPLINE
  5
1A7
330
1F
100
AcDbEntity
  8
LINEE VISIBILI 2D
100
AcDbSpline
210
0.0
220
0.0
230
1.0
 70
    24
 71
     2
 72
     6
 73
     3
 74
     0
 42
0.0000000001
 43
0.0000000001
 40
0.0
 40
0.0
 40
0.0
 40
0.1094705155098983
 40
0.1094705155098983
 40
0.1094705155098983
 10
211.0798686932997
 20
94.34785848024612
 30
0.0
 10
211.0797571905137
 20
94.29312333606407
 30
0.0
 10
211.0796456877277
 20
94.23838819188203
 30
0.0
  0
SPLINE
  5
1A8
330
1F
100
AcDbEntity
  8
LINEE VISIBILI 2D
100
AcDbSpline
210
0.0
220
0.0
230
1.0
 70
    12
 71
     2
 72
     6
 73
     3
 74
     0
 42
0.0000000001
 43
0.0000000001
 40
0.0
 40
0.0
 40
0.0
 40
0.0242944002094155
 40
0.0242944002094155
 40
0.0242944002094155
 10
258.16769595936
 20
38.58449629020723
 30
0.0
 41
1.0
 10
258.1533120269683
 20
38.58310641500499
 30
0.0
 41
0.7771654523125031
 10
258.1489610825539
 20
38.59688678317239
 30
0.0
 41
1.0
  0
SPLINE
  5
1A9
330
1F
100
AcDbEntity
  8
LINEE VISIBILI 2D
100
AcDbSpline
210
0.0
220
0.0
230
1.0
 70
    24
 71
     2
 72
     6
 73
     3
 74
     0
 42
0.0000000001
 43
0.0000000001
 40
0.0
 40
0.0
 40
0.0
 40
8.36643571283138
 40
8.36643571283138
 40
8.36643571283138
 10
210.5072650632771
 20
63.58721769527249
 30
0.0
 10
210.5104944678333
 20
67.77043430515313
 30
0.0
 10
210.5137238723894
 20
71.95365091503377
 30
0.0
  0
SPLINE
  5
1AA
330
1F
100
AcDbEntity
  8
LINEE VISIBILI 2D
100
AcDbSpline
210
0.0
220
0.0
230
1.0
 70
    12
 71
     2
 72
     6
 73
     3
 74
     0
 42
0.0000000001
 43
0.0000000001
 40
0.0
 40
0.0
 40
0.0
 40
1.256637061435908
 40
1.256637061435908
 40
1.256637061435908
 10
324.4275755434872
 20
7.750000250183695
 30
0.0
 41
1.0
 10
323.6275755434871
 20
7.750000250183695
 30
0.0
 41
0.7071067811865444
 10
323.6275755434871
 20
6.950000250183698
 30
0.0
 41
1.0
  0
SPLINE
  5
1AB
330
1F
100
AcDbEntity
  8
LINEE VISIBILI 2D
100
AcDbSpline
210
0.0
220
0.0
230
1.0
 70
    24
 71
     2
 72
     6
 73
     3
 74
     0
 42
0.0000000001
 43
0.0000000001
 40
0.0
 40
0.0
 40
0.0
 40
14.10243560744144
 40
14.10243560744144
 40
14.10243560744144
 10
210.5181498306261
 20
77.68682608364864
 30
0.0
 10
210.523593303972
 20
84.73804178621412
 30
0.0
 10
210.5290367773179
 20
91.7892574887796
 30
0.0
  0
SPLINE
  5
1AC
330
1F
100
AcDbEntity
  8
LINEE VISIBILI 2D
100
AcDbSpline
210
0.0
220
0.0
230
1.0
 70
    24
 71
     2
 72
     6
 73
     3
 74
     0
 42
0.0000000001
 43
0.0000000001
 40
0.0
 40
0.0
 40
0.0
 40
0.7999996173786315
 40
0.7999996173786315
 40
0.7999996173786315
 10
324.4275755434872
 20
226.6916023260907
 30
0.0
 10
324.8275753521765
 20
226.6916023260907
 30
0.0
 10
325.2275751608658
 20
226.6916023260907
 30
0.0
  0
SPLINE
  5
1AD
330
1F
100
AcDbEntity
  8
LINEE VISIBILI 2D
100
AcDbSpline
210
0.0
220
0.0
230
1.0
 70
    24
 71
     2
 72
     6
 73
     3
 74
     0
 42
0.0000000001
 43
0.0000000001
 40
0.0
 40
0.0
 40
0.0
 40
0.0399996173786121
 40
0.0399996173786121
 40
0.0399996173786121
 10
324.4675724142837
 20
172.5926439412595
 30
0.0
 10
324.4475726055944
 20
172.5926439412595
 30
0.0
 10
324.4275727969051
 20
172.5926439412595
 30
0.0
  0
SPLINE
  5
1AE
330
1F
100
AcDbEntity
  8
LINEE VISIBILI 2D
100
AcDbSpline
210
0.0
220
0.0
230
1.0
 70
    24
 71
     2
 72
     6
 73
     3
 74
     0
 42
0.0000000001
 43
0.0000000001
 40
0.0
 40
0.0
 40
0.0
 40
0.0399996173784985
 40
0.0399996173784985
 40
0.0399996173784985
 10
324.4275724142836
 20
172.5926439412595
 30
0.0
 10
324.4075726055944
 20
172.5926439412595
 30
0.0
 10
324.3875727969051
 20
172.5926439412595
 30
0.0
  0
SPLINE
  5
1AF
330
1F
100
AcDbEntity
  8
LINEE VISIBILI 2D
100
AcDbSpline
210
0.0
220
0.0
230
1.0
 70
    12
 71
     2
 72
     6
 73
     3
 74
     0
 42
0.0000000001
 43
0.0000000001
 40
0.0
 40
0.0
 40
0.0
 40
0.0344835461607435
 40
0.0344835461607435
 40
0.0344835461607435
 10
161.5207240222025
 20
42.36654792823673
 30
0.0
 41
1.0
 10
161.5222244051002
 20
42.38455801082717
 30
0.0
 41
0.9324575619890078
 10
161.5354675142595
 20
42.3968557457222
 30
0.0
 41
1.0
  0
SPLINE
  5
1B3
330
1F
100
AcDbEntity
  8
LINEE VISIBILI 2D
100
AcDbSpline
210
0.0
220
0.0
230
1.0
 70
    12
 71
     2
 72
     6
 73
     3
 74
     0
 42
0.0000000001
 43
0.0000000001
 40
0.0
 40
0.0
 40
0.0
 40
0.0365357204254891
 40
0.0365357204254891
 40
0.0365357204254891
 10
259.4224267608283
 20
38.5936816278453
 30
0.0
 41
1.0
 10
259.4038531133571
 20
38.59394111859121
 30
0.0
 41
0.9753448833950095
 10
259.3869769185531
 20
38.58617956173862
 30
0.0
 41
1.0
  0
SPLINE
  5
1B4
330
1F
100
AcDbEntity
  8
LINEE VISIBILI 2D
100
AcDbSpline
210
0.0
220
0.0
230
1.0
 70
    24
 71
     2
 72
     6
 73
     3
 74
     0
 42
0.0000000001
 43
0.0000000001
 40
0.0
 40
0.0
 40
0.0
 40
54.51362864917112
 40
54.51362864917112
 40
54.51362864917112
 10
163.7770630155906
 20
42.31504968738032
 30
0.0
 10
185.0723799562984
 20
25.30201340575981
 30
0.0
 10
206.3676968970062
 20
8.288977124139297
 30
0.0
  0
SPLINE
  5
1B7
330
1F
100
AcDbEntity
  8
LINEE VISIBILI 2D
100
AcDbSpline
210
0.0
220
0.0
230
1.0
 70
    12
 71
     2
 72
     6
 73
     3
 74
     0
 42
0.0000000001
 43
0.0000000001
 40
0.0
 40
0.0
 40
0.0
 40
0.0196170067850985
 40
0.0196170067850985
 40
0.0196170067850985
 10
206.2023382827771
 20
6.917524709576025
 30
0.0
 41
1.0
 10
206.1982257919542
 20
6.908453453418449
 30
0.0
 41
0.9773494109253045
 10
206.1982342521502
 20
6.898493523826827
 30
0.0
 41
1.0
  0
SPLINE
  5
1B8
330
1F
100
AcDbEntity
  8
LINEE VISIBILI 2D
100
AcDbSpline
210
0.0
220
0.0
230
1.0
 70
    12
 71
     2
 72
     6
 73
     3
 74
     0
 42
0.0000000001
 43
0.0000000001
 40
0.0
 40
0.0
 40
0.0
 40
0.0692725631667393
 40
0.0692725631667393
 40
0.0692725631667393
 10
212.664738506069
 20
61.05343361595045
 30
0.0
 41
1.0
 10
212.6611434122298
 20
61.01897081468186
 30
0.0
 41
0.9994144302362581
 10
212.6599137764603
 20
60.98434282936842
 30
0.0
 41
1.0
  0
SPLINE
  5
1B9
330
1F
100
AcDbEntity
  8
LINEE VISIBILI 2D
100
AcDbSpline
210
0.0
220
0.0
230
1.0
 70
    24
 71
     2
 72
     6
 73
     3
 74
     0
 42
0.0000000001
 43
0.0000000001
 40
0.0
 40
0.0
 40
0.0
 40
0.2334983337446034
 40
0.2334983337446034
 40
0.2334983337446034
 10
212.6599137764603
 20
60.98434282936842
 30
0.0
 10
212.6554721008066
 20
60.86767818398361
 30
0.0
 10
212.6510304251529
 20
60.7510135385988
 30
0.0
  0
SPLINE
  5
1BA
330
1F
100
AcDbEntity
  8
LINEE VISIBILI 2D
100
AcDbSpline
210
0.0
220
0.0
230
1.0
 70
    24
 71
     2
 72
     6
 73
     3
 74
     0
 42
0.0000000001
 43
0.0000000001
 40
0.0
 40
0.0
 40
0.0
 40
44.99780253719642
 40
44.99780253719642
 40
44.99780253719642
 10
212.6510304251529
 20
60.7510135385988
 30
0.0
 10
232.1852129548693
 20
49.58784771568568
 30
0.0
 10
251.7193954845856
 20
38.42468189277257
 30
0.0
  0
SPLINE
  5
1BB
330
1F
100
AcDbEntity
  8
LINEE VISIBILI 2D
100
AcDbSpline
210
0.0
220
0.0
230
1.0
 70
    24
 71
     2
 72
     6
 73
     3
 74
     0
 42
0.0000000001
 43
0.0000000001
 40
0.0
 40
0.0
 40
0.0
 40
1.09251051557527
 40
1.09251051557527
 40
1.09251051557527
 10
162.2013610304951
 20
42.33991384449915
 30
0.0
 10
162.7471985429282
 20
42.3185546150771
 30
0.0
 10
163.2930360553613
 20
42.29719538565507
 30
0.0
  0
SPLINE
  5
1BC
330
1F
100
AcDbEntity
  8
LINEE VISIBILI 2D
100
AcDbSpline
210
0.0
220
0.0
230
1.0
 70
    12
 71
     2
 72
     6
 73
     3
 74
     0
 42
0.0000000001
 43
0.0000000001
 40
0.0
 40
0.0
 40
0.0
 40
0.0189486143602163
 40
0.0189486143602163
 40
0.0189486143602163
 10
212.9433323143881
 20
63.41315789325159
 30
0.0
 41
1.0
 10
212.9431699776248
 20
63.40368008583734
 30
0.0
 41
0.999226317960818
 10
212.9422632156068
 20
63.39424435750036
 30
0.0
 41
1.0
  0
SPLINE
  5
1BD
330
1F
100
AcDbEntity
  8
LINEE VISIBILI 2D
100
AcDbSpline
210
0.0
220
0.0
230
1.0
 70
    24
 71
     2
 72
     6
 73
     3
 74
     0
 42
0.0000000001
 43
0.0000000001
 40
0.0
 40
0.0
 40
0.0
 40
0.1014013770378209
 40
0.1014013770378209
 40
0.1014013770378209
 10
208.9431719440108
 20
47.82134337438026
 30
0.0
 10
208.943007928032
 20
47.87204379760384
 30
0.0
 10
208.9428439120532
 20
47.92274422082742
 30
0.0
  0
SPLINE
  5
1BF
330
1F
100
AcDbEntity
  8
LINEE VISIBILI 2D
100
AcDbSpline
210
0.0
220
0.0
230
1.0
 70
    24
 71
     2
 72
     6
 73
     3
 74
     0
 42
0.0000000001
 43
0.0000000001
 40
0.0
 40
0.0
 40
0.0
 40
1.039557595324677
 40
1.039557595324677
 40
1.039557595324677
 10
256.5123147457545
 20
39.00163009829711
 30
0.0
 10
256.965767636655
 20
38.74756224469611
 30
0.0
 10
257.4192205275553
 20
38.49349439109513
 30
0.0
  0
SPLINE
  5
1C3
330
1F
100
AcDbEntity
  8
LINEE VISIBILI 2D
100
AcDbSpline
210
0.0
220
0.0
230
1.0
 70
    12
 71
     2
 72
     6
 73
     3
 74
     0
 42
0.0000000001
 43
0.0000000001
 40
0.0
 40
0.0
 40
0.0
 40
0.0888996106900221
 40
0.0888996106900221
 40
0.0888996106900221
 10
163.7771152339578
 20
42.31508802896036
 30
0.0
 41
1.0
 10
163.7401694051468
 20
42.34313231696007
 30
0.0
 41
0.9386081141724076
 10
163.6938559639918
 20
42.34057467657722
 30
0.0
 41
1.0
  0
SPLINE
  5
1C4
330
1F
100
AcDbEntity
  8
LINEE VISIBILI 2D
100
AcDbSpline
210
0.0
220
0.0
230
1.0
 70
    24
 71
     2
 72
     6
 73
     3
 74
     0
 42
0.0000000001
 43
0.0000000001
 40
0.0
 40
0.0
 40
0.0
 40
1.96503388356437
 40
1.96503388356437
 40
1.96503388356437
 10
210.2400043350127
 20
47.55438207570199
 30
0.0
 10
210.2398928792641
 20
46.57186514024151
 30
0.0
 10
210.2397814235155
 20
45.58934820478104
 30
0.0
  0
SPLINE
  5
1C5
330
1F
100
AcDbEntity
  8
LINEE VISIBILI 2D
100
AcDbSpline
210
0.0
220
0.0
230
1.0
 70
    24
 71
     2
 72
     6
 73
     3
 74
     0
 42
0.0000000001
 43
0.0000000001
 40
0.0
 40
0.0
 40
0.0
 40
1.633514542630401
 40
1.633514542630401
 40
1.633514542630401
 10
210.1652461457535
 20
92.47178553303527
 30
0.0
 10
210.1651878072503
 20
93.288542802267
 30
0.0
 10
210.1651294687471
 20
94.10530007149873
 30
0.0
  0
SPLINE
  5
1C6
330
1F
100
AcDbEntity
  8
LINEE VISIBILI 2D
100
AcDbSpline
210
0.0
220
0.0
230
1.0
 70
    24
 71
     2
 72
     6
 73
     3
 74
     0
 42
0.0000000001
 43
0.0000000001
 40
0.0
 40
0.0
 40
0.0
 40
0.4731476347763838
 40
0.4731476347763838
 40
0.4731476347763838
 10
210.7505879100663
 20
92.33855641342154
 30
0.0
 10
210.7502841325901
 20
92.10198279106929
 30
0.0
 10
210.7499803551139
 20
91.86540916871704
 30
0.0
  0
SPLINE
  5
1C7
330
1F
100
AcDbEntity
  8
LINEE VISIBILI 2D
100
AcDbSpline
210
0.0
220
0.0
230
1.0
 70
    24
 71
     2
 72
     6
 73
     3
 74
     0
 42
0.0000000001
 43
0.0000000001
 40
0.0
 40
0.0
 40
0.0
 40
54.07516872766093
 40
54.07516872766093
 40
54.07516872766093
 10
163.3524560426615
 20
42.35892209631375
 30
0.0
 10
188.1605680730461
 20
53.11013345686004
 30
0.0
 10
212.9686801034306
 20
63.86134481740633
 30
0.0
  0
SPLINE
  5
1C8
330
1F
100
AcDbEntity
  8
LINEE VISIBILI 2D
100
AcDbSpline
210
0.0
220
0.0
230
1.0
 70
    24
 71
     2
 72
     6
 73
     3
 74
     0
 42
0.0000000001
 43
0.0000000001
 40
0.0
 40
0.0
 40
0.0
 40
1.633603474428593
 40
1.633603474428593
 40
1.633603474428593
 10
210.9487660750265
 20
94.10482082652412
 30
0.0
 10
210.9473481848136
 20
93.28802031997211
 30
0.0
 10
210.9459302946007
 20
92.47121981342008
 30
0.0
  0
SPLINE
  5
1C9
330
1F
100
AcDbEntity
  8
LINEE VISIBILI 2D
100
AcDbSpline
210
0.0
220
0.0
230
1.0
 70
    24
 71
     2
 72
     6
 73
     3
 74
     0
 42
0.0000000001
 43
0.0000000001
 40
0.0
 40
0.0
 40
0.0
 40
37.02610256961121
 40
37.02610256961121
 40
37.02610256961121
 10
220.2103169536384
 20
59.81744993210831
 30
0.0
 10
236.3736259943529
 20
50.79079447572804
 30
0.0
 10
252.5369350350674
 20
41.76413901934777
 30
0.0
  0
SPLINE
  5
1CA
330
1F
100
AcDbEntity
  8
LINEE VISIBILI 2D
100
AcDbSpline
210
0.0
220
0.0
230
1.0
 70
    24
 71
     2
 72
     6
 73
     3
 74
     0
 42
0.0000000001
 43
0.0000000001
 40
0.0
 40
0.0
 40
0.0
 40
4.097869475794295
 40
4.097869475794295
 40
4.097869475794295
 10
252.9412338490244
 20
41.53835195521253
 30
0.0
 10
254.7301105103271
 20
40.53932550370661
 30
0.0
 10
256.5189871716297
 20
39.5402990522007
 30
0.0
  0
SPLINE
  5
1CB
330
1F
100
AcDbEntity
  8
LINEE VISIBILI 2D
100
AcDbSpline
210
0.0
220
0.0
230
1.0
 70
    24
 71
     2
 72
     6
 73
     3
 74
     0
 42
0.0000000001
 43
0.0000000001
 40
0.0
 40
0.0
 40
0.0
 40
7.46916148110999
 40
7.46916148110999
 40
7.46916148110999
 10
215.2780270439857
 20
63.386977061751
 30
0.0
 10
218.5430253849149
 20
61.57400184364846
 30
0.0
 10
221.808023725844
 20
59.76102662554592
 30
0.0
  0
SPLINE
  5
1CC
330
1F
100
AcDbEntity
  8
LINEE VISIBILI 2D
100
AcDbSpline
210
0.0
220
0.0
230
1.0
 70
    24
 71
     2
 72
     6
 73
     3
 74
     0
 42
0.0000000001
 43
0.0000000001
 40
0.0
 40
0.0
 40
0.0
 40
33.4657230743813
 40
33.4657230743813
 40
33.4657230743813
 10
223.3810849606174
 20
58.88754347566165
 30
0.0
 10
238.0099734365448
 20
50.76447280123855
 30
0.0
 10
252.6388619124722
 20
42.64140212681545
 30
0.0
  0
SPLINE
  5
1CD
330
1F
100
AcDbEntity
  8
LINEE VISIBILI 2D
100
AcDbSpline
210
0.0
220
0.0
230
1.0
 70
    24
 71
     2
 72
     6
 73
     3
 74
     0
 42
0.0000000001
 43
0.0000000001
 40
0.0
 40
0.0
 40
0.0
 40
4.095684284271556
 40
4.095684284271556
 40
4.095684284271556
 10
253.0466239341535
 20
42.41498166254615
 30
0.0
 10
254.8369724795607
 20
41.42084408400596
 30
0.0
 10
256.6273210249678
 20
40.42670650546576
 30
0.0
  0
SPLINE
  5
1CE
330
1F
100
AcDbEntity
  8
LINEE VISIBILI 2D
100
AcDbSpline
210
0.0
220
0.0
230
1.0
 70
    24
 71
     2
 72
     6
 73
     3
 74
     0
 42
0.0000000001
 43
0.0000000001
 40
0.0
 40
0.0
 40
0.0
 40
3.783995058850712
 40
3.783995058850712
 40
3.783995058850712
 10
256.6829272444813
 20
40.39582970633038
 30
0.0
 10
258.3370269209279
 20
39.47734785472376
 30
0.0
 10
259.9911265973746
 20
38.55886600311715
 30
0.0
  0
SPLINE
  5
1CF
330
1F
100
AcDbEntity
  8
LINEE VISIBILI 2D
100
AcDbSpline
210
0.0
220
0.0
230
1.0
 70
    24
 71
     2
 72
     6
 73
     3
 74
     0
 42
0.0000000001
 43
0.0000000001
 40
0.0
 40
0.0
 40
0.0
 40
3.201126088089065
 40
3.201126088089065
 40
3.201126088089065
 10
212.9695336051564
 20
63.86117986119669
 30
0.0
 10
214.3669475010101
 20
63.08077197961409
 30
0.0
 10
215.7643613968637
 20
62.3003640980315
 30
0.0
  0
SPLINE
  5
1D0
330
1F
100
AcDbEntity
  8
LINEE VISIBILI 2D
100
AcDbSpline
210
0.0
220
0.0
230
1.0
 70
    24
 71
     2
 72
     6
 73
     3
 74
     0
 42
0.0000000001
 43
0.0000000001
 40
0.0
 40
0.0
 40
0.0
 40
1.311565739457271
 40
1.311565739457271
 40
1.311565739457271
 10
213.0606663830991
 20
64.61822421964036
 30
0.0
 10
213.6339917790191
 20
64.2998703872106
 30
0.0
 10
214.2073171749391
 20
63.98151655478082
 30
0.0
  0
SPLINE
  5
1D1
330
1F
100
AcDbEntity
  8
LINEE VISIBILI 2D
100
AcDbSpline
210
0.0
220
0.0
230
1.0
 70
    24
 71
     2
 72
     6
 73
     3
 74
     0
 42
0.0000000001
 43
0.0000000001
 40
0.0
 40
0.0
 40
0.0
 40
47.77508294405016
 40
47.77508294405016
 40
47.77508294405016
 10
169.2360619599426
 20
41.81609303237723
 30
0.0
 10
188.0671771690498
 20
27.11902742188705
 30
0.0
 10
206.8982923781569
 20
12.42196181139687
 30
0.0
  0
SPLINE
  5
1D2
330
1F
100
AcDbEntity
  8
LINEE VISIBILI 2D
100
AcDbSpline
210
0.0
220
0.0
230
1.0
 70
    12
 71
     2
 72
     6
 73
     3
 74
     0
 42
0.0000000001
 43
0.0000000001
 40
0.0
 40
0.0
 40
0.0
 40
1.25663706143587
 40
1.25663706143587
 40
1.25663706143587
 10
421.3275748283814
 20
93.7499999999996
 30
0.0
 41
1.0
 10
420.5275748283814
 20
93.74999999999955
 30
0.0
 41
0.7071067811865664
 10
420.5275748283815
 20
92.94999999999959
 30
0.0
 41
1.0
  0
SPLINE
  5
1D3
330
1F
100
AcDbEntity
  8
LINEE VISIBILI 2D
100
AcDbSpline
210
0.0
220
0.0
230
1.0
 70
    24
 71
     2
 72
     6
 73
     3
 74
     0
 42
0.0000000001
 43
0.0000000001
 40
0.0
 40
0.0
 40
0.0
 40
4.37835308253593
 40
4.37835308253593
 40
4.37835308253593
 10
220.9311926757299
 20
226.687029869541
 30
0.0
 10
219.3222910769882
 20
225.2024661038494
 30
0.0
 10
217.7133894782466
 20
223.7179023381578
 30
0.0
  0
SPLINE
  5
1D4
330
1F
100
AcDbEntity
  8
LINEE VISIBILI 2D
100
AcDbSpline
210
0.0
220
0.0
230
1.0
 70
    24
 71
     2
 72
     6
 73
     3
 74
     0
 42
0.0000000001
 43
0.0000000001
 40
0.0
 40
0.0
 40
0.0
 40
1.756915801937488
 40
1.756915801937488
 40
1.756915801937488
 10
256.5744433802798
 20
39.50932865578365
 30
0.0
 10
257.3414042833844
 20
39.08100721470992
 30
0.0
 10
258.1083651864889
 20
38.65268577363618
 30
0.0
  0
SPLINE
  5
1D5
330
1F
100
AcDbEntity
  8
LINEE VISIBILI 2D
100
AcDbSpline
210
0.0
220
0.0
230
1.0
 70
    12
 71
     2
 72
     6
 73
     3
 74
     0
 42
0.0000000001
 43
0.0000000001
 40
0.0
 40
0.0
 40
0.0
 40
1.256637061435933
 40
1.256637061435933
 40
1.256637061435933
 10
324.4275755434872
 20
6.150000250183694
 30
0.0
 41
1.0
 10
325.227575543487
 20
6.150000250183778
 30
0.0
 41
0.7071067811866586
 10
325.2275755434872
 20
6.950000250183698
 30
0.0
 41
1.0
  0
SPLINE
  5
1D6
330
1F
100
AcDbEntity
  8
LINEE VISIBILI 2D
100
AcDbSpline
210
0.0
220
0.0
230
1.0
 70
    24
 71
     2
 72
     6
 73
     3
 74
     0
 42
0.0000000001
 43
0.0000000001
 40
0.0
 40
0.0
 40
0.0
 40
1.0
 40
1.0
 40
1.0
 10
254.53610053757
 20
223.5916023260907
 30
0.0
 10
254.53610053757
 20
223.0916023260907
 30
0.0
 10
254.53610053757
 20
222.5916023260907
 30
0.0
  0
SPLINE
  5
1D7
330
1F
100
AcDbEntity
  8
LINEE VISIBILI 2D
100
AcDbSpline
210
0.0
220
0.0
230
1.0
 70
    24
 71
     2
 72
     6
 73
     3
 74
     0
 42
0.0000000001
 43
0.0000000001
 40
0.0
 40
0.0
 40
0.0
 40
0.0078886219534552
 40
0.0078886219534552
 40
0.0078886219534552
 10
163.316078241279
 20
42.30410108103209
 30
0.0
 10
163.3124593085352
 20
42.30253235069279
 30
0.0
 10
163.3088403757915
 20
42.30096362035351
 30
0.0
  0
SPLINE
  5
1D9
330
1F
100
AcDbEntity
  8
LINEE VISIBILI 2D
100
AcDbSpline
210
0.0
220
0.0
230
1.0
 70
    24
 71
     2
 72
     6
 73
     3
 74
     0
 42
0.0000000001
 43
0.0000000001
 40
0.0
 40
0.0
 40
0.0
 40
0.1999999999999886
 40
0.1999999999999886
 40
0.1999999999999886
 10
253.4361005375699
 20
226.4916023260907
 30
0.0
 10
253.4361005375699
 20
226.5916023260907
 30
0.0
 10
253.4361005375699
 20
226.6916023260907
 30
0.0
  0
SPLINE
  5
1DA
330
1F
100
AcDbEntity
  8
LINEE VISIBILI 2D
100
AcDbSpline
210
0.0
220
0.0
230
1.0
 70
    24
 71
     2
 72
     6
 73
     3
 74
     0
 42
0.0000000001
 43
0.0000000001
 40
0.0
 40
0.0
 40
0.0
 40
1.0
 40
1.0
 40
1.0
 10
253.9361005375699
 20
222.5916023260907
 30
0.0
 10
253.9361005375699
 20
223.0916023260907
 30
0.0
 10
253.9361005375699
 20
223.5916023260907
 30
0.0
  0
SPLINE
  5
1DB
330
1F
100
AcDbEntity
  8
LINEE VISIBILI 2D
100
AcDbSpline
210
0.0
220
0.0
230
1.0
 70
    12
 71
     2
 72
     6
 73
     3
 74
     0
 42
0.0000000001
 43
0.0000000001
 40
0.0
 40
0.0
 40
0.0
 40
0.0823654105426086
 40
0.0823654105426086
 40
0.0823654105426086
 10
257.7494666219613
 20
38.6591626296293
 30
0.0
 41
1.0
 10
257.707489502242
 20
38.65881985884316
 30
0.0
 41
0.9718046172867692
 10
257.6703369690664
 20
38.63927797177026
 30
0.0
 41
1.0
  0
SPLINE
  5
1DC
330
1F
100
AcDbEntity
  8
LINEE VISIBILI 2D
100
AcDbSpline
210
0.0
220
0.0
230
1.0
 70
    24
 71
     2
 72
     6
 73
     3
 74
     0
 42
0.0000000001
 43
0.0000000001
 40
0.0
 40
0.0
 40
0.0
 40
49.99895838483121
 40
49.99895838483121
 40
49.99895838483121
 10
324.3875727969051
 20
172.5926439412595
 30
0.0
 10
324.3875727969051
 20
197.5921231336751
 30
0.0
 10
324.3875727969051
 20
222.5916023260907
 30
0.0
  0
SPLINE
  5
1DD
330
1F
100
AcDbEntity
  8
LINEE VISIBILI 2D
100
AcDbSpline
210
0.0
220
0.0
230
1.0
 70
    24
 71
     2
 72
     6
 73
     3
 74
     0
 42
0.0000000001
 43
0.0000000001
 40
0.0
 40
0.0
 40
0.0
 40
49.99895838483121
 40
49.99895838483121
 40
49.99895838483121
 10
324.4675727969051
 20
222.5916023260907
 30
0.0
 10
324.4675727969051
 20
197.5921231336751
 30
0.0
 10
324.4675727969051
 20
172.5926439412595
 30
0.0
  0
SPLINE
  5
1DE
330
1F
100
AcDbEntity
  8
LINEE VISIBILI 2D
100
AcDbSpline
210
0.0
220
0.0
230
1.0
 70
    12
 71
     2
 72
     6
 73
     3
 74
     0
 42
0.0000000001
 43
0.0000000001
 40
0.0
 40
0.0
 40
0.0
 40
1.256637061435927
 40
1.256637061435927
 40
1.256637061435927
 10
421.3275748283814
 20
92.14999999999959
 30
0.0
 41
1.0
 10
422.1275748283814
 20
92.14999999999957
 30
0.0
 41
0.7071067811865413
 10
422.1275748283814
 20
92.94999999999959
 30
0.0
 41
1.0
  0
SPLINE
  5
1DF
330
1F
100
AcDbEntity
  8
LINEE VISIBILI 2D
100
AcDbSpline
210
0.0
220
0.0
230
1.0
 70
    24
 71
     2
 72
     6
 73
     3
 74
     0
 42
0.0000000001
 43
0.0000000001
 40
0.0
 40
0.0
 40
0.0
 40
49.99895838483121
 40
49.99895838483121
 40
49.99895838483121
 10
421.2875715168412
 20
172.5926439412595
 30
0.0
 10
421.2875715168412
 20
197.5921231336751
 30
0.0
 10
421.2875715168412
 20
222.5916023260907
 30
0.0
  0
SPLINE
  5
1E1
330
1F
100
AcDbEntity
  8
LINEE VISIBILI 2D
100
AcDbSpline
210
0.0
220
0.0
230
1.0
 70
    24
 71
     2
 72
     6
 73
     3
 74
     0
 42
0.0000000001
 43
0.0000000001
 40
0.0
 40
0.0
 40
0.0
 40
49.99895838483121
 40
49.99895838483121
 40
49.99895838483121
 10
421.3675715168413
 20
222.5916023260907
 30
0.0
 10
421.3675715168413
 20
197.5921231336751
 30
0.0
 10
421.3675715168413
 20
172.5926439412595
 30
0.0
  0
SPLINE
  5
1E4
330
1F
100
AcDbEntity
  8
LINEE VISIBILI 2D
100
AcDbSpline
210
0.0
220
0.0
230
1.0
 70
    12
 71
     2
 72
     6
 73
     3
 74
     0
 42
0.0000000001
 43
0.0000000001
 40
0.0
 40
0.0
 40
0.0
 40
1.256637061436004
 40
1.256637061436004
 40
1.256637061436004
 10
422.1275748283814
 20
92.94999999999959
 30
0.0
 41
1.0
 10
422.1275748283816
 20
93.7499999999998
 30
0.0
 41
0.7071067811863592
 10
421.3275748283814
 20
93.74999999999957
 30
0.0
 41
1.0
  0
SPLINE
  5
1E5
330
1F
100
AcDbEntity
  8
LINEE VISIBILI 2D
100
AcDbSpline
210
0.0
220
0.0
230
1.0
 70
    24
 71
     2
 72
     6
 73
     3
 74
     0
 42
0.0000000001
 43
0.0000000001
 40
0.0
 40
0.0
 40
0.0
 40
4.379536456725081
 40
4.379536456725081
 40
4.379536456725081
 10
209.1588013278434
 20
223.7179023381578
 30
0.0
 10
207.54946487778
 20
225.2028673493427
 30
0.0
 10
205.9401284277166
 20
226.6878323605276
 30
0.0
  0
SPLINE
  5
1E7
330
1F
100
AcDbEntity
  8
LINEE VISIBILI 2D
100
AcDbSpline
210
0.0
220
0.0
230
1.0
 70
    12
 71
     2
 72
     6
 73
     3
 74
     0
 42
0.0000000001
 43
0.0000000001
 40
0.0
 40
0.0
 40
0.0
 40
0.081332643434929
 40
0.081332643434929
 40
0.081332643434929
 10
252.0555829160731
 20
38.59113826729357
 30
0.0
 41
1.0
 10
252.0140403382459
 20
38.59280140276385
 30
0.0
 41
0.9675059849689635
 10
251.9769958621093
 20
38.57392658939015
 30
0.0
 41
1.0
  0
SPLINE
  5
1E9
330
1F
100
AcDbEntity
  8
LINEE VISIBILI 2D
100
AcDbSpline
210
0.0
220
0.0
230
1.0
 70
    12
 71
     2
 72
     6
 73
     3
 74
     0
 42
0.0000000001
 43
0.0000000001
 40
0.0
 40
0.0
 40
0.0
 40
0.0188327430399611
 40
0.0188327430399611
 40
0.0188327430399611
 10
213.0280994078025
 20
64.31527677082495
 30
0.0
 41
1.0
 10
213.028999653295
 20
64.32465488175707
 30
0.0
 41
0.9992280562872704
 10
213.029160855425
 20
64.33407472360682
 30
0.0
 41
1.0
  0
SPLINE
  5
1EA
330
1F
100
AcDbEntity
  8
LINEE VISIBILI 2D
100
AcDbSpline
210
0.0
220
0.0
230
1.0
 70
    24
 71
     2
 72
     6
 73
     3
 74
     0
 42
0.0000000001
 43
0.0000000001
 40
0.0
 40
0.0
 40
0.0
 40
34.54870954843288
 40
34.54870954843288
 40
34.54870954843288
 10
209.7006157984396
 20
10.12330713793634
 30
0.0
 10
209.6761334821729
 20
27.39764456319479
 30
0.0
 10
209.6516511659062
 20
44.67198198845323
 30
0.0
  0
SPLINE
  5
1EB
330
1F
100
AcDbEntity
  8
LINEE VISIBILI 2D
100
AcDbSpline
210
0.0
220
0.0
230
1.0
 70
    24
 71
     2
 72
     6
 73
     3
 74
     0
 42
0.0000000001
 43
0.0000000001
 40
0.0
 40
0.0
 40
0.0
 40
56.08120062269636
 40
56.08120062269636
 40
56.08120062269636
 10
161.5605561633337
 20
42.4138329229946
 30
0.0
 10
187.309614950186
 20
53.51614067462925
 30
0.0
 10
213.0586737370383
 20
64.61844842626391
 30
0.0
  0
SPLINE
  5
1EC
330
1F
100
AcDbEntity
  8
LINEE VISIBILI 2D
100
AcDbSpline
210
0.0
220
0.0
230
1.0
 70
    12
 71
     2
 72
     6
 73
     3
 74
     0
 42
0.0000000001
 43
0.0000000001
 40
0.0
 40
0.0
 40
0.0
 40
1.256637061435927
 40
1.256637061435927
 40
1.256637061435927
 10
323.6275755434871
 20
6.950000250183698
 30
0.0
 41
1.0
 10
323.6275755434871
 20
6.150000250183695
 30
0.0
 41
0.7071067811865507
 10
324.4275755434872
 20
6.150000250183666
 30
0.0
 41
1.0
  0
SPLINE
  5
1ED
330
1F
100
AcDbEntity
  8
LINEE VISIBILI 2D
100
AcDbSpline
210
0.0
220
0.0
230
1.0
 70
    12
 71
     2
 72
     6
 73
     3
 74
     0
 42
0.0000000001
 43
0.0000000001
 40
0.0
 40
0.0
 40
0.0
 40
1.256637061435908
 40
1.256637061435908
 40
1.256637061435908
 10
420.5275748283815
 20
92.94999999999959
 30
0.0
 41
1.0
 10
420.5275748283813
 20
92.1499999999995
 30
0.0
 41
0.7071067811864408
 10
421.3275748283814
 20
92.14999999999962
 30
0.0
 41
1.0
  0
SPLINE
  5
1EE
330
1F
100
AcDbEntity
  8
LINEE VISIBILI 2D
100
AcDbSpline
210
0.0
220
0.0
230
1.0
 70
    24
 71
     2
 72
     6
 73
     3
 74
     0
 42
0.0000000001
 43
0.0000000001
 40
0.0
 40
0.0
 40
0.0
 40
53.36776416342093
 40
53.36776416342093
 40
53.36776416342093
 10
164.0001383564827
 20
42.13683262309811
 30
0.0
 10
188.4717353354353
 20
52.77499525817486
 30
0.0
 10
212.9433323143881
 20
63.41315789325159
 30
0.0
  0
SPLINE
  5
1EF
330
1F
100
AcDbEntity
  8
LINEE VISIBILI 2D
100
AcDbSpline
210
0.0
220
0.0
230
1.0
 70
    24
 71
     2
 72
     6
 73
     3
 74
     0
 42
0.0000000001
 43
0.0000000001
 40
0.0
 40
0.0
 40
0.0
 40
5.031741914432148
 40
5.031741914432148
 40
5.031741914432148
 10
164.1252648902967
 20
42.03686781555404
 30
0.0
 10
166.6392421667411
 20
41.93927208365714
 30
0.0
 10
169.1532194431855
 20
41.84167635176024
 30
0.0
  0
SPLINE
  5
1F0
330
1F
100
AcDbEntity
  8
LINEE VISIBILI 2D
100
AcDbSpline
210
0.0
220
0.0
230
1.0
 70
    24
 71
     2
 72
     6
 73
     3
 74
     0
 42
0.0000000001
 43
0.0000000001
 40
0.0
 40
0.0
 40
0.0
 40
47.22991425069968
 40
47.22991425069968
 40
47.22991425069968
 10
169.4596608514543
 20
41.64158145712063
 30
0.0
 10
191.0553456383036
 20
51.19629749785971
 30
0.0
 10
212.6510304251529
 20
60.7510135385988
 30
0.0
  0
SPLINE
  5
1F1
330
1F
100
AcDbEntity
  8
LINEE VISIBILI 2D
100
AcDbSpline
210
0.0
220
0.0
230
1.0
 70
    24
 71
     2
 72
     6
 73
     3
 74
     0
 42
0.0000000001
 43
0.0000000001
 40
0.0
 40
0.0
 40
0.0
 40
0.2600138170228263
 40
0.2600138170228263
 40
0.2600138170228263
 10
206.879724887782
 20
6.519385472037834
 30
0.0
 10
206.8784788473888
 20
6.649386409126893
 30
0.0
 10
206.8772328069957
 20
6.779387346215953
 30
0.0
  0
SPLINE
  5
1F2
330
1F
100
AcDbEntity
  8
LINEE VISIBILI 2D
100
AcDbSpline
210
0.0
220
0.0
230
1.0
 70
    24
 71
     2
 72
     6
 73
     3
 74
     0
 42
0.0000000001
 43
0.0000000001
 40
0.0
 40
0.0
 40
0.0
 40
34.55029681355322
 40
34.55029681355322
 40
34.55029681355322
 10
209.7251543206199
 20
44.67208486754279
 30
0.0
 10
209.7463323773713
 20
27.39694944213821
 30
0.0
 10
209.7675104341226
 20
10.12181401673362
 30
0.0
  0
SPLINE
  5
1F3
330
1F
100
AcDbEntity
  8
LINEE VISIBILI 2D
100
AcDbSpline
210
0.0
220
0.0
230
1.0
 70
    12
 71
     2
 72
     6
 73
     3
 74
     0
 42
0.0000000001
 43
0.0000000001
 40
0.0
 40
0.0
 40
0.0
 40
0.0155091145027818
 40
0.0155091145027818
 40
0.0155091145027818
 10
163.2948831555512
 20
42.29720207227548
 30
0.0
 41
1.0
 10
163.3029813410965
 20
42.29741802389496
 30
0.0
 41
0.9370582094358354
 10
163.3089635172703
 20
42.30288069837311
 30
0.0
 41
1.0
  0
SPLINE
  5
1F4
330
1F
100
AcDbEntity
  8
LINEE VISIBILI 2D
100
AcDbSpline
210
0.0
220
0.0
230
1.0
 70
     8
 71
     3
 72
    12
 73
     8
 74
     0
 42
0.0000000001
 43
0.0000000001
 40
0.0
 40
0.0
 40
0.0
 40
0.0
 40
0.5487497300954214
 40
1.147494925158214
 40
2.425961680093314
 40
3.680422942715784
 40
4.763092189270645
 40
4.763092189270645
 40
4.763092189270645
 40
4.763092189270645
 10
214.4562092842524
 20
72.08656314510474
 30
0.0
 10
214.286814500497
 20
72.01740390313202
 30
0.0
 10
213.9228107203031
 20
71.89788736932122
 30
0.0
 10
213.1294066709503
 20
71.7348063349409
 30
0.0
 10
212.0829204243459
 20
71.67635750789925
 30
0.0
 10
210.8812945975938
 20
71.81814282260204
 30
0.0
 10
210.136689523924
 20
72.06465241367081
 30
0.0
 10
209.8168130446316
 20
72.23311780528812
 30
0.0
  0
SPLINE
  5
1F5
330
1F
100
AcDbEntity
  8
LINEE VISIBILI 2D
100
AcDbSpline
210
0.0
220
0.0
230
1.0
 70
     8
 71
     3
 72
    13
 73
     9
 74
     0
 42
0.0000000001
 43
0.0000000001
 40
0.0
 40
0.0
 40
0.0
 40
0.0
 40
0.625164819152217
 40
1.219433432070961
 40
2.46909214215783
 40
3.921694701731545
 40
5.783827296734227
 40
8.578492815097231
 40
8.578492815097231
 40
8.578492815097231
 40
8.578492815097231
 10
253.1323430400623
 20
48.65319819433004
 30
0.0
 10
253.1904105604192
 20
48.45213908190813
 30
0.0
 10
253.2750245774778
 20
48.05626947142084
 30
0.0
 10
253.4036341852346
 20
47.24018085506692
 30
0.0
 10
253.4045404625987
 20
46.13926188618039
 30
0.0
 10
253.2621112348471
 20
44.62389477729477
 30
0.0
 10
253.0836145915857
 20
42.59555858154219
 30
0.0
 10
252.8848942513645
 20
41.05519799986181
 30
0.0
 10
252.7417766949786
 20
40.1348299716378
 30
0.0
  0
SPLINE
  5
1F6
330
1F
100
AcDbEntity
  8
LINEE VISIBILI 2D
100
AcDbSpline
210
0.0
220
0.0
230
1.0
 70
     8
 71
     3
 72
    12
 73
     8
 74
     0
 42
0.0000000001
 43
0.0000000001
 40
0.0
 40
0.0
 40
0.0
 40
0.0
 40
0.8918611129594516
 40
1.876639121064582
 40
4.025693446820799
 40
6.212405813734695
 40
8.191006438766493
 40
8.191006438766493
 40
8.191006438766493
 40
8.191006438766493
 10
216.5324159502563
 20
76.94497651116416
 30
0.0
 10
216.2661356625323
 20
77.07741789000287
 30
0.0
 10
215.6852399625495
 20
77.31259309849606
 30
0.0
 10
214.3871067783069
 20
77.66226031817798
 30
0.0
 10
212.6177625363358
 20
77.86192429229979
 30
0.0
 10
210.5089084745045
 20
77.74884636202759
 30
0.0
 10
209.1514375439934
 20
77.42497196114031
 30
0.0
 10
208.5352043246786
 20
77.18824277542248
 30
0.0
  0
SPLINE
  5
1F7
330
1F
100
AcDbEntity
  8
LINEE VISIBILI 2D
100
AcDbSpline
210
0.0
220
0.0
230
1.0
 70
    24
 71
     2
 72
     6
 73
     3
 74
     0
 42
0.0000000001
 43
0.0000000001
 40
0.0
 40
0.0
 40
0.0
 40
56.56927034621728
 40
56.56927034621728
 40
56.56927034621728
 10
162.1373578677435
 20
42.39143683088602
 30
0.0
 10
184.1700326517086
 20
24.65498203462294
 30
0.0
 10
206.2027074356737
 20
6.918527238359841
 30
0.0
  0
SPLINE
  5
1F8
330
1F
100
AcDbEntity
  8
LINEE VISIBILI 2D
100
AcDbSpline
210
0.0
220
0.0
230
1.0
 70
    12
 71
     2
 72
     6
 73
     3
 74
     0
 42
0.0000000001
 43
0.0000000001
 40
0.0
 40
0.0
 40
0.0
 40
0.0114705177663033
 40
0.0114705177663033
 40
0.0114705177663033
 10
325.028481395653
 20
2.115309373064832
 30
0.0
 41
1.0
 10
325.0243021226751
 20
2.111381009138397
 30
0.0
 41
0.9998821067874501
 10
325.0202454453513
 20
2.107326168222606
 30
0.0
 41
1.0
  0
SPLINE
  5
1F9
330
1F
100
AcDbEntity
  8
LINEE VISIBILI 2D
100
AcDbSpline
210
0.0
220
0.0
230
1.0
 70
    12
 71
     2
 72
     6
 73
     3
 74
     0
 42
0.0000000001
 43
0.0000000001
 40
0.0
 40
0.0
 40
0.0
 40
0.143709883635575
 40
0.143709883635575
 40
0.143709883635575
 10
325.5248275994623
 20
2.6045529765126
 30
0.0
 41
1.0
 10
325.4638604156391
 20
2.56461518699009
 30
0.0
 41
0.9789625274398122
 10
325.42392460611
 20
2.503646706178038
 30
0.0
 41
1.0
  0
SPLINE
  5
1FA
330
1F
100
AcDbEntity
  8
LINEE VISIBILI 2D
100
AcDbSpline
210
0.0
220
0.0
230
1.0
 70
    24
 71
     2
 72
     6
 73
     3
 74
     0
 42
0.0000000001
 43
0.0000000001
 40
0.0
 40
0.0
 40
0.0
 40
94.69545860305682
 40
94.69545860305682
 40
94.69545860305682
 10
420.2202860693323
 20
2.59953058957727
 30
0.0
 10
372.8725568343973
 20
2.602041783044935
 30
0.0
 10
325.5248275994623
 20
2.6045529765126
 30
0.0
  0
SPLINE
  5
1FB
330
1F
100
AcDbEntity
  8
LINEE VISIBILI 2D
100
AcDbSpline
210
0.0
220
0.0
230
1.0
 70
    24
 71
     2
 72
     6
 73
     3
 74
     0
 42
0.0000000001
 43
0.0000000001
 40
0.0
 40
0.0
 40
0.0
 40
7.74104931275418
 40
7.74104931275418
 40
7.74104931275418
 10
331.0179008781581
 20
8.097164926889085
 30
0.0
 10
328.2790944513243
 20
5.362224256242491
 30
0.0
 10
325.5402880244905
 20
2.627283585595897
 30
0.0
  0
SPLINE
  5
1FC
330
1F
100
AcDbEntity
  8
LINEE VISIBILI 2D
100
AcDbSpline
210
0.0
220
0.0
230
1.0
 70
    12
 71
     2
 72
     6
 73
     3
 74
     0
 42
0.0000000001
 43
0.0000000001
 40
0.0
 40
0.0
 40
0.0
 40
0.1284812648468294
 40
0.1284812648468294
 40
0.1284812648468294
 10
331.1086043041322
 20
8.187860925825091
 30
0.0
 41
1.0
 10
331.0587189923248
 20
8.147046896430934
 30
0.0
 41
0.9950397993221091
 10
331.0179008781581
 20
8.097164926889085
 30
0.0
 41
1.0
  0
SPLINE
  5
1FD
330
1F
100
AcDbEntity
  8
LINEE VISIBILI 2D
100
AcDbSpline
210
0.0
220
0.0
230
1.0
 70
    12
 71
     2
 72
     6
 73
     3
 74
     0
 42
0.0000000001
 43
0.0000000001
 40
0.0
 40
0.0
 40
0.0
 40
0.2164592296027068
 40
0.2164592296027068
 40
0.2164592296027068
 10
331.2616516461675
 20
8.340895735863888
 30
0.0
 41
1.0
 10
331.1830550173448
 20
8.266451458403663
 30
0.0
 41
0.9996332319610115
 10
331.1086043041322
 20
8.187860925825091
 30
0.0
 41
1.0
  0
SPLINE
  5
1FF
330
1F
100
AcDbEntity
  8
LINEE VISIBILI 2D
100
AcDbSpline
210
0.0
220
0.0
230
1.0
 70
    24
 71
     2
 72
     6
 73
     3
 74
     0
 42
0.0000000001
 43
0.0000000001
 40
0.0
 40
0.0
 40
0.0
 40
99.40033105776002
 40
99.40033105776002
 40
99.40033105776002
 10
422.5779020708934
 20
99.64966891568238
 30
0.0
 10
372.8777365422891
 20
99.6498344578412
 30
0.0
 10
323.1775710136848
 20
99.65000000000003
 30
0.0
  0
SPLINE
  5
200
330
1F
100
AcDbEntity
  8
LINEE VISIBILI 2D
100
AcDbSpline
210
0.0
220
0.0
230
1.0
 70
    24
 71
     2
 72
     6
 73
     3
 74
     0
 42
0.0000000001
 43
0.0000000001
 40
0.0
 40
0.0
 40
0.0
 40
0.1414213562372412
 40
0.1414213562372412
 40
0.1414213562372412
 10
323.1775710136848
 20
99.65000000000003
 30
0.0
 10
323.2275710136848
 20
99.60000000000007
 30
0.0
 10
323.2775710136848
 20
99.55000000000012
 30
0.0
  0
SPLINE
  5
201
330
1F
100
AcDbEntity
  8
LINEE VISIBILI 2D
100
AcDbSpline
210
0.0
220
0.0
230
1.0
 70
    24
 71
     2
 72
     6
 73
     3
 74
     0
 42
0.0000000001
 43
0.0000000001
 40
0.0
 40
0.0
 40
0.0
 40
0.0642067072842203
 40
0.0642067072842203
 40
0.0642067072842203
 10
323.7775710136848
 20
99.05000000000015
 30
0.0
 10
323.800271512744
 20
99.02729950094096
 30
0.0
 10
323.8229720118031
 20
99.00459900188174
 30
0.0
  0
SPLINE
  5
202
330
1F
100
AcDbEntity
  8
LINEE VISIBILI 2D
100
AcDbSpline
210
0.0
220
0.0
230
1.0
 70
    24
 71
     2
 72
     6
 73
     3
 74
     0
 42
0.0000000001
 43
0.0000000001
 40
0.0
 40
0.0
 40
0.0
 40
98.10038056307888
 40
98.10038056307888
 40
98.10038056307888
 10
323.8275710136849
 20
98.99999999999995
 30
0.0
 10
372.8777612950914
 20
98.99988581663762
 30
0.0
 10
421.9279515764979
 20
98.99977163327532
 30
0.0
  0
SPLINE
  5
203
330
1F
100
AcDbEntity
  8
LINEE VISIBILI 2D
100
AcDbSpline
210
0.0
220
0.0
230
1.0
 70
    24
 71
     2
 72
     6
 73
     3
 74
     0
 42
0.0000000001
 43
0.0000000001
 40
0.0
 40
0.0
 40
0.0
 40
0.0191158756574945
 40
0.0191158756574945
 40
0.0191158756574945
 10
325.0075710136848
 20
97.82
 30
0.0
 10
325.0143294963377
 20
97.81324151734715
 30
0.0
 10
325.0210879789906
 20
97.8064830346943
 30
0.0
  0
SPLINE
  5
204
330
1F
100
AcDbEntity
  8
LINEE VISIBILI 2D
100
AcDbSpline
210
0.0
220
0.0
230
1.0
 70
    12
 71
     2
 72
     6
 73
     3
 74
     0
 42
0.0000000001
 43
0.0000000001
 40
0.0
 40
0.0
 40
0.0
 40
0.0106455071689908
 40
0.0106455071689908
 40
0.0106455071689908
 10
325.0357014312941
 20
2.108390438444986
 30
0.0
 41
1.0
 10
325.0393551141503
 20
2.112261360814065
 30
0.0
 41
0.9999541350644776
 10
325.0429339828993
 20
2.116201555844374
 30
0.0
 41
1.0
  0
SPLINE
  5
205
330
1F
100
AcDbEntity
  8
LINEE VISIBILI 2D
100
AcDbSpline
210
0.0
220
0.0
230
1.0
 70
    24
 71
     2
 72
     6
 73
     3
 74
     0
 42
0.0000000001
 43
0.0000000001
 40
0.0
 40
0.0
 40
0.0
 40
94.69544706322711
 40
94.69544706322711
 40
94.69544706322711
 10
325.5275710136848
 20
97.30000000000011
 30
0.0
 10
325.5261993065735
 20
49.95227648825634
 30
0.0
 10
325.5248275994623
 20
2.6045529765126
 30
0.0
  0
SPLINE
  5
206
330
1F
100
AcDbEntity
  8
LINEE VISIBILI 2D
100
AcDbSpline
210
0.0
220
0.0
230
1.0
 70
    24
 71
     2
 72
     6
 73
     3
 74
     0
 42
0.0000000001
 43
0.0000000001
 40
0.0
 40
0.0
 40
0.0
 40
0.0270047175027748
 40
0.0270047175027748
 40
0.0270047175027748
 10
325.5284757948146
 20
2.600904781129753
 30
0.0
 10
325.5380234042497
 20
2.610452390564875
 30
0.0
 10
325.5475710136848
 20
2.619999999999997
 30
0.0
  0
SPLINE
  5
207
330
1F
100
AcDbEntity
  8
LINEE VISIBILI 2D
100
AcDbSpline
210
0.0
220
0.0
230
1.0
 70
    24
 71
     2
 72
     6
 73
     3
 74
     0
 42
0.0000000001
 43
0.0000000001
 40
0.0
 40
0.0
 40
0.0
 40
7.537756818293852
 40
7.537756818293852
 40
7.537756818293852
 10
325.5475710136848
 20
2.619999999999997
 30
0.0
 10
328.2109060841845
 20
5.286662851802008
 30
0.0
 10
330.874241154684
 20
7.953325703604019
 30
0.0
  0
SPLINE
  5
209
330
1F
100
AcDbEntity
  8
LINEE VISIBILI 2D
100
AcDbSpline
210
0.0
220
0.0
230
1.0
 70
    12
 71
     2
 72
     6
 73
     3
 74
     0
 42
0.0000000001
 43
0.0000000001
 40
0.0
 40
0.0
 40
0.0
 40
1.256637061435933
 40
1.256637061435933
 40
1.256637061435933
 10
323.6275751608656
 20
92.94999999999959
 30
0.0
 41
1.0
 10
323.6275751608656
 20
92.14999999999959
 30
0.0
 41
0.7071067811865288
 10
324.4275751608656
 20
92.14999999999959
 30
0.0
 41
1.0
  0
SPLINE
  5
20A
330
1F
100
AcDbEntity
  8
LINEE VISIBILI 2D
100
AcDbSpline
210
0.0
220
0.0
230
1.0
 70
    12
 71
     2
 72
     6
 73
     3
 74
     0
 42
0.0000000001
 43
0.0000000001
 40
0.0
 40
0.0
 40
0.0
 40
1.256637061435935
 40
1.256637061435935
 40
1.256637061435935
 10
324.4275751608656
 20
92.14999999999959
 30
0.0
 41
1.0
 10
325.2275751608656
 20
92.14999999999957
 30
0.0
 41
0.7071067811865476
 10
325.2275751608656
 20
92.94999999999959
 30
0.0
 41
1.0
  0
SPLINE
  5
20B
330
1F
100
AcDbEntity
  8
LINEE VISIBILI 2D
100
AcDbSpline
210
0.0
220
0.0
230
1.0
 70
    12
 71
     2
 72
     6
 73
     3
 74
     0
 42
0.0000000001
 43
0.0000000001
 40
0.0
 40
0.0
 40
0.0
 40
1.256637061435983
 40
1.256637061435983
 40
1.256637061435983
 10
325.2275751608656
 20
92.94999999999959
 30
0.0
 41
1.0
 10
325.2275751608658
 20
93.74999999999971
 30
0.0
 41
0.7071067811864471
 10
324.4275751608656
 20
93.7499999999996
 30
0.0
 41
1.0
  0
SPLINE
  5
20C
330
1F
100
AcDbEntity
  8
LINEE VISIBILI 2D
100
AcDbSpline
210
0.0
220
0.0
230
1.0
 70
    12
 71
     2
 72
     6
 73
     3
 74
     0
 42
0.0000000001
 43
0.0000000001
 40
0.0
 40
0.0
 40
0.0
 40
1.256637061435914
 40
1.256637061435914
 40
1.256637061435914
 10
324.4275751608656
 20
93.7499999999996
 30
0.0
 41
1.0
 10
323.6275751608657
 20
93.74999999999952
 30
0.0
 41
0.7071067811866355
 10
323.6275751608656
 20
92.94999999999959
 30
0.0
 41
1.0
  0
SPLINE
  5
20D
330
1F
100
AcDbEntity
  8
LINEE VISIBILI 2D
100
AcDbSpline
210
0.0
220
0.0
230
1.0
 70
    12
 71
     2
 72
     6
 73
     3
 74
     0
 42
0.0000000001
 43
0.0000000001
 40
0.0
 40
0.0
 40
0.0
 40
1.256637061435913
 40
1.256637061435913
 40
1.256637061435913
 10
420.5275742634233
 20
6.950000250183698
 30
0.0
 41
1.0
 10
420.5275742634232
 20
6.150000250183707
 30
0.0
 41
0.707106781186557
 10
421.3275742634232
 20
6.150000250183651
 30
0.0
 41
1.0
  0
SPLINE
  5
20E
330
1F
100
AcDbEntity
  8
LINEE VISIBILI 2D
100
AcDbSpline
210
0.0
220
0.0
230
1.0
 70
    12
 71
     2
 72
     6
 73
     3
 74
     0
 42
0.0000000001
 43
0.0000000001
 40
0.0
 40
0.0
 40
0.0
 40
1.256637061435961
 40
1.256637061435961
 40
1.256637061435961
 10
421.3275742634232
 20
6.150000250183694
 30
0.0
 41
1.0
 10
422.1275742634232
 20
6.150000250183693
 30
0.0
 41
0.7071067811865765
 10
422.1275742634233
 20
6.950000250183698
 30
0.0
 41
1.0
  0
SPLINE
  5
20F
330
1F
100
AcDbEntity
  8
LINEE VISIBILI 2D
100
AcDbSpline
210
0.0
220
0.0
230
1.0
 70
    12
 71
     2
 72
     6
 73
     3
 74
     0
 42
0.0000000001
 43
0.0000000001
 40
0.0
 40
0.0
 40
0.0
 40
1.25663706143601
 40
1.25663706143601
 40
1.25663706143601
 10
422.1275742634233
 20
6.950000250183698
 30
0.0
 41
1.0
 10
422.1275742634234
 20
7.750000250183816
 30
0.0
 41
0.707106781186475
 10
421.3275742634232
 20
7.750000250183703
 30
0.0
 41
1.0
  0
SPLINE
  5
210
330
1F
100
AcDbEntity
  8
LINEE VISIBILI 2D
100
AcDbSpline
210
0.0
220
0.0
230
1.0
 70
     8
 71
     3
 72
    12
 73
     8
 74
     0
 42
0.0000000001
 43
0.0000000001
 40
0.0
 40
0.0
 40
0.0
 40
0.0
 40
3.489493748620337
 40
7.350159307227849
 40
11.44446974901943
 40
14.74279491050897
 40
18.01459542961523
 40
18.01459542961523
 40
18.01459542961523
 40
18.01459542961523
 10
256.3722142619702
 20
171.5915954761148
 30
0.0
 10
256.3941808948125
 20
172.7530279905669
 30
0.0
 10
256.4344847681117
 20
175.2076654951199
 30
0.0
 10
256.360634086408
 20
179.0147620530588
 30
0.0
 10
256.3447403660431
 20
182.7767855822359
 30
0.0
 10
255.6172297671856
 20
186.2766892730201
 30
0.0
 10
254.7905517280683
 20
188.3113137979787
 30
0.0
 10
254.2761005378974
 20
189.274649851775
 30
0.0
  0
SPLINE
  5
211
330
1F
100
AcDbEntity
  8
LINEE VISIBILI 2D
100
AcDbSpline
210
0.0
220
0.0
230
1.0
 70
     8
 71
     3
 72
    13
 73
     9
 74
     0
 42
0.0000000001
 43
0.0000000001
 40
0.0
 40
0.0
 40
0.0
 40
0.0
 40
1.720943970658916
 40
3.524770866455711
 40
7.330761280839082
 40
8.794601694801084
 40
10.58242151751693
 40
19.360486610309
 40
19.360486610309
 40
19.360486610309
 40
19.360486610309
 10
254.2761005378974
 20
190.4658929124903
 30
0.0
 10
254.5828244428574
 20
189.9806893495721
 30
0.0
 10
255.1483826824758
 20
188.9498790552833
 30
0.0
 10
256.0918495200433
 20
186.6904713014928
 30
0.0
 10
256.6550308625568
 20
184.3901104071374
 30
0.0
 10
256.9080351996301
 20
182.0485026835514
 30
0.0
 10
257.0068924771488
 20
178.0393811660323
 30
0.0
 10
257.0357200269524
 20
174.5172125159544
 30
0.0
 10
256.9721349093291
 20
171.5915954761148
 30
0.0
  0
SPLINE
  5
212
330
1F
100
AcDbEntity
  8
LINEE VISIBILI 2D
100
AcDbSpline
210
0.0
220
0.0
230
1.0
 70
    24
 71
     2
 72
     6
 73
     3
 74
     0
 42
0.0000000001
 43
0.0000000001
 40
0.0
 40
0.0
 40
0.0
 40
1.0
 40
1.0
 40
1.0
 10
168.536100787754
 20
223.5916023260907
 30
0.0
 10
168.536100787754
 20
223.0916023260907
 30
0.0
 10
168.536100787754
 20
222.5916023260907
 30
0.0
  0
SPLINE
  5
213
330
1F
100
AcDbEntity
  8
LINEE VISIBILI 2D
100
AcDbSpline
210
0.0
220
0.0
230
1.0
 70
    24
 71
     2
 72
     6
 73
     3
 74
     0
 42
0.0000000001
 43
0.0000000001
 40
0.0
 40
0.0
 40
0.0
 40
2.900000190734886
 40
2.900000190734886
 40
2.900000190734886
 10
167.636100787754
 20
223.5916023260907
 30
0.0
 10
167.636100787754
 20
225.0416024214581
 30
0.0
 10
167.636100787754
 20
226.4916025168256
 30
0.0
  0
SPLINE
  5
215
330
1F
100
AcDbEntity
  8
LINEE VISIBILI 2D
100
AcDbSpline
210
0.0
220
0.0
230
1.0
 70
     8
 71
     3
 72
    24
 73
    20
 74
     0
 42
0.0000000001
 43
0.0000000001
 40
0.0
 40
0.0
 40
0.0
 40
0.0
 40
9.247328288911079
 40
10.99221430655045
 40
12.61965286244951
 40
16.84282930407291
 40
20.58534602410761
 40
24.32540134088109
 40
28.74377822398864
 40
33.65191644960964
 40
42.77411233334603
 40
46.61593945201456
 40
50.23330158874299
 40
53.40392655024746
 40
57.50357316004374
 40
62.06336381941611
 40
66.45886241037
 40
68.47458495653277
 40
72.96107271858446
 40
72.96107271858446
 40
72.96107271858446
 40
72.96107271858446
 10
412.281624980261
 20
171.5915918988665
 30
0.0
 10
412.333801277871
 20
174.6734846295229
 30
0.0
 10
412.3227023508255
 20
178.3383983010671
 30
0.0
 10
412.2011071422978
 20
182.5434352211408
 30
0.0
 10
411.8834595509751
 20
185.0591479127592
 30
0.0
 10
411.0888864560392
 20
188.1700489421065
 30
0.0
 10
409.2862881178647
 20
191.6720202745143
 30
0.0
 10
406.453674282706
 20
194.5165390841419
 30
0.0
 10
402.6179239388004
 20
196.6405566404799
 30
0.0
 10
396.8299071379915
 20
198.7413203130907
 30
0.0
 10
390.9798586955322
 20
199.9550582888759
 30
0.0
 10
385.70764954896
 20
201.6162478954705
 30
0.0
 10
382.4501921399722
 20
203.0396138893276
 30
0.0
 10
379.4784053252769
 20
205.1685734562922
 30
0.0
 10
377.0114982728423
 20
208.3057281925334
 30
0.0
 10
375.4165586204584
 20
212.3919814809637
 30
0.0
 10
374.7324727711277
 20
215.9979061563202
 30
0.0
 10
374.6356668458474
 20
219.6325582221336
 30
0.0
 10
374.648760595813
 20
221.7995138288618
 30
0.0
 10
374.6604641018608
 20
223.2951273848136
 30
0.0
  0
SPLINE
  5
216
330
1F
100
AcDbEntity
  8
LINEE VISIBILI 2D
100
AcDbSpline
210
0.0
220
0.0
230
1.0
 70
    24
 71
     2
 72
     6
 73
     3
 74
     0
 42
0.0000000001
 43
0.0000000001
 40
0.0
 40
0.0
 40
0.0
 40
0.1999999999999886
 40
0.1999999999999886
 40
0.1999999999999886
 10
167.436100787754
 20
226.4916023260907
 30
0.0
 10
167.436100787754
 20
226.5916023260907
 30
0.0
 10
167.436100787754
 20
226.6916023260907
 30
0.0
  0
SPLINE
  5
219
330
1F
100
AcDbEntity
  8
LINEE VISIBILI 2D
100
AcDbSpline
210
0.0
220
0.0
230
1.0
 70
    24
 71
     2
 72
     6
 73
     3
 74
     0
 42
0.0000000001
 43
0.0000000001
 40
0.0
 40
0.0
 40
0.0
 40
1.0
 40
1.0
 40
1.0
 10
167.936100787754
 20
222.5916023260907
 30
0.0
 10
167.936100787754
 20
223.0916023260907
 30
0.0
 10
167.936100787754
 20
223.5916023260907
 30
0.0
  0
SPLINE
  5
21A
330
1F
100
AcDbEntity
  8
LINEE VISIBILI 2D
100
AcDbSpline
210
0.0
220
0.0
230
1.0
 70
    12
 71
     2
 72
     6
 73
     3
 74
     0
 42
0.0000000001
 43
0.0000000001
 40
0.0
 40
0.0
 40
0.0
 40
1.256637061435838
 40
1.256637061435838
 40
1.256637061435838
 10
421.3275742634232
 20
7.750000250183695
 30
0.0
 41
1.0
 10
420.5275742634234
 20
7.750000250183581
 30
0.0
 41
0.7071067811866281
 10
420.5275742634233
 20
6.950000250183698
 30
0.0
 41
1.0
  0
SPLINE
  5
21B
330
1F
100
AcDbEntity
  8
LINEE VISIBILI 2D
100
AcDbSpline
210
0.0
220
0.0
230
1.0
 70
    24
 71
     2
 72
     6
 73
     3
 74
     0
 42
0.0000000001
 43
0.0000000001
 40
0.0
 40
0.0
 40
0.0
 40
0.1999999999999886
 40
0.1999999999999886
 40
0.1999999999999886
 10
169.036100787754
 20
226.6916023260907
 30
0.0
 10
169.036100787754
 20
226.5916023260907
 30
0.0
 10
169.036100787754
 20
226.4916023260907
 30
0.0
  0
SPLINE
  5
21C
330
1F
100
AcDbEntity
  8
LINEE VISIBILI 2D
100
AcDbSpline
210
0.0
220
0.0
230
1.0
 70
    24
 71
     2
 72
     6
 73
     3
 74
     0
 42
0.0000000001
 43
0.0000000001
 40
0.0
 40
0.0
 40
0.0
 40
99.39149629164216
 40
99.39149629164216
 40
99.39149629164216
 10
323.1775710136848
 20
99.65000000000003
 30
0.0
 10
323.1775710136848
 20
49.95425185417896
 30
0.0
 10
323.1775710136848
 20
0.258503708357872
 30
0.0
  0
SPLINE
  5
21D
330
1F
100
AcDbEntity
  8
LINEE VISIBILI 2D
100
AcDbSpline
210
0.0
220
0.0
230
1.0
 70
    24
 71
     2
 72
     6
 73
     3
 74
     0
 42
0.0000000001
 43
0.0000000001
 40
0.0
 40
0.0
 40
0.0
 40
2.900000190734886
 40
2.900000190734886
 40
2.900000190734886
 10
168.836100787754
 20
226.4916025168256
 30
0.0
 10
168.836100787754
 20
225.0416024214581
 30
0.0
 10
168.836100787754
 20
223.5916023260907
 30
0.0
  0
SPLINE
  5
21E
330
1F
100
AcDbEntity
  8
LINEE VISIBILI 2D
100
AcDbSpline
210
0.0
220
0.0
230
1.0
 70
    24
 71
     2
 72
     6
 73
     3
 74
     0
 42
0.0000000001
 43
0.0000000001
 40
0.0
 40
0.0
 40
0.0
 40
4.318996541771014
 40
4.318996541771014
 40
4.318996541771014
 10
325.0075710136848
 20
93.50100345822898
 30
0.0
 10
325.0075710136848
 20
95.66050172911449
 30
0.0
 10
325.0075710136848
 20
97.82
 30
0.0
  0
SPLINE
  5
21F
330
1F
100
AcDbEntity
  8
LINEE VISIBILI 2D
100
AcDbSpline
210
0.0
220
0.0
230
1.0
 70
    24
 71
     2
 72
     6
 73
     3
 74
     0
 42
0.0000000001
 43
0.0000000001
 40
0.0
 40
0.0
 40
0.0
 40
4.311668583421358
 40
4.311668583421358
 40
4.311668583421358
 10
325.0075710136848
 20
2.087327806015545
 30
0.0
 10
325.0075710136848
 20
4.243162097726225
 30
0.0
 10
325.0075710136848
 20
6.398996389436904
 30
0.0
  0
SPLINE
  5
220
330
1F
100
AcDbEntity
  8
LINEE VISIBILI 2D
100
AcDbSpline
210
0.0
220
0.0
230
1.0
 70
    24
 71
     2
 72
     6
 73
     3
 74
     0
 42
0.0000000001
 43
0.0000000001
 40
0.0
 40
0.0
 40
0.0
 40
1.637913710673514
 40
1.637913710673514
 40
1.637913710673514
 10
323.8475710136849
 20
0.9200000000000088
 30
0.0
 10
324.4266609595927
 20
1.499089945907847
 30
0.0
 10
325.0057509055005
 20
2.078179891815685
 30
0.0
  0
SPLINE
  5
221
330
1F
100
AcDbEntity
  8
LINEE VISIBILI 2D
100
AcDbSpline
210
0.0
220
0.0
230
1.0
 70
    24
 71
     2
 72
     6
 73
     3
 74
     0
 42
0.0000000001
 43
0.0000000001
 40
0.0
 40
0.0
 40
0.0
 40
84.89799243093857
 40
84.89799243093857
 40
84.89799243093857
 10
325.0075710136848
 20
7.50100411092575
 30
0.0
 10
325.0075710136848
 20
49.95000032639503
 30
0.0
 10
325.0075710136848
 20
92.39899654186432
 30
0.0
  0
SPLINE
  5
222
330
1F
100
AcDbEntity
  8
LINEE VISIBILI 2D
100
AcDbSpline
210
0.0
220
0.0
230
1.0
 70
    24
 71
     2
 72
     6
 73
     3
 74
     0
 42
0.0000000001
 43
0.0000000001
 40
0.0
 40
0.0
 40
0.0
 40
0.028284271247597
 40
0.028284271247597
 40
0.028284271247597
 10
325.5275710136848
 20
97.30000000000011
 30
0.0
 10
325.5375710136848
 20
97.29
 30
0.0
 10
325.5475710136848
 20
97.27999999999992
 30
0.0
  0
SPLINE
  5
223
330
1F
100
AcDbEntity
  8
LINEE VISIBILI 2D
100
AcDbSpline
210
0.0
220
0.0
230
1.0
 70
    24
 71
     2
 72
     6
 73
     3
 74
     0
 42
0.0000000001
 43
0.0000000001
 40
0.0
 40
0.0
 40
0.0
 40
94.70029356088744
 40
94.70029356088744
 40
94.70029356088744
 10
325.5275710136848
 20
97.30000000000011
 30
0.0
 10
372.8777177940466
 20
97.29991192196321
 30
0.0
 10
420.2278645744084
 20
97.29982384392631
 30
0.0
  0
SPLINE
  5
225
330
1F
100
AcDbEntity
  8
LINEE VISIBILI 2D
100
AcDbSpline
210
0.0
220
0.0
230
1.0
 70
    24
 71
     2
 72
     6
 73
     3
 74
     0
 42
0.0000000001
 43
0.0000000001
 40
0.0
 40
0.0
 40
0.0
 40
95.7002553158107
 40
95.7002553158107
 40
95.7002553158107
 10
325.0275710136848
 20
97.8000000000001
 30
0.0
 10
372.8776986714198
 20
97.79987233181138
 30
0.0
 10
420.7278263291549
 20
97.79974466362268
 30
0.0
  0
SPLINE
  5
226
330
1F
100
AcDbEntity
  8
LINEE VISIBILI 2D
100
AcDbSpline
210
0.0
220
0.0
230
1.0
 70
    24
 71
     2
 72
     6
 73
     3
 74
     0
 42
0.0000000001
 43
0.0000000001
 40
0.0
 40
0.0
 40
0.0
 40
0.0707106781187713
 40
0.0707106781187713
 40
0.0707106781187713
 10
325.0275710136848
 20
97.8000000000001
 30
0.0
 10
325.0525710136848
 20
97.77500000000001
 30
0.0
 10
325.0775710136848
 20
97.74999999999991
 30
0.0
  0
SPLINE
  5
227
330
1F
100
AcDbEntity
  8
LINEE VISIBILI 2D
100
AcDbSpline
210
0.0
220
0.0
230
1.0
 70
    24
 71
     2
 72
     6
 73
     3
 74
     0
 42
0.0000000001
 43
0.0000000001
 40
0.0
 40
0.0
 40
0.0
 40
0.1414213562372412
 40
0.1414213562372412
 40
0.1414213562372412
 10
325.4275710136848
 20
97.40000000000001
 30
0.0
 10
325.4775710136848
 20
97.35000000000006
 30
0.0
 10
325.5275710136848
 20
97.30000000000011
 30
0.0
  0
SPLINE
  5
22A
330
1F
100
AcDbEntity
  8
LINEE VISIBILI 2D
100
AcDbSpline
210
0.0
220
0.0
230
1.0
 70
    24
 71
     2
 72
     6
 73
     3
 74
     0
 42
0.0000000001
 43
0.0000000001
 40
0.0
 40
0.0
 40
0.0
 40
0.0134684899534741
 40
0.0134684899534741
 40
0.0134684899534741
 10
163.3105391578549
 20
42.3117035023058
 30
0.0
 10
163.3097183360072
 20
42.3183875360356
 30
0.0
 10
163.3088975141595
 20
42.32507156976541
 30
0.0
  0
SPLINE
  5
22B
330
1F
100
AcDbEntity
  8
LINEE VISIBILI 2D
100
AcDbSpline
210
0.0
220
0.0
230
1.0
 70
    24
 71
     2
 72
     6
 73
     3
 74
     0
 42
0.0000000001
 43
0.0000000001
 40
0.0
 40
0.0
 40
0.0
 40
0.1999999999999886
 40
0.1999999999999886
 40
0.1999999999999886
 10
255.0361005375699
 20
226.6916023260907
 30
0.0
 10
255.0361005375699
 20
226.5916023260907
 30
0.0
 10
255.0361005375699
 20
226.4916023260907
 30
0.0
  0
SPLINE
  5
22C
330
1F
100
AcDbEntity
  8
LINEE VISIBILI 2D
100
AcDbSpline
210
0.0
220
0.0
230
1.0
 70
    24
 71
     2
 72
     6
 73
     3
 74
     0
 42
0.0000000001
 43
0.0000000001
 40
0.0
 40
0.0
 40
0.0
 40
8.352726551631224
 40
8.352726551631224
 40
8.352726551631224
 10
210.5632842845711
 20
71.93910560230547
 30
0.0
 10
210.5595569672304
 20
67.76274398976679
 30
0.0
 10
210.5558296498897
 20
63.5863823772281
 30
0.0
  0
SPLINE
  5
22D
330
1F
100
AcDbEntity
  8
LINEE VISIBILI 2D
100
AcDbSpline
210
0.0
220
0.0
230
1.0
 70
    12
 71
     2
 72
     6
 73
     3
 74
     0
 42
0.0000000001
 43
0.0000000001
 40
0.0
 40
0.0
 40
0.0
 40
0.0376055309321414
 40
0.0376055309321414
 40
0.0376055309321414
 10
206.3679609336724
 20
8.285209309011966
 30
0.0
 41
1.0
 10
206.3559717614411
 20
8.269371576604823
 30
0.0
 41
0.9217633972546956
 10
206.358909115854
 20
8.249726069035778
 30
0.0
 41
1.0
  0
SPLINE
  5
22E
330
1F
100
AcDbEntity
  8
LINEE VISIBILI 2D
100
AcDbSpline
210
0.0
220
0.0
230
1.0
 70
    12
 71
     2
 72
     6
 73
     3
 74
     0
 42
0.0000000001
 43
0.0000000001
 40
0.0
 40
0.0
 40
0.0
 40
0.0546197700422969
 40
0.0546197700422969
 40
0.0546197700422969
 10
163.3090264122323
 20
42.32943057517579
 30
0.0
 41
1.0
 10
163.3240997787796
 20
42.35612722744991
 30
0.0
 41
0.8439536100120758
 10
163.3546703570369
 20
42.35381262883845
 30
0.0
 41
1.0
  0
SPLINE
  5
22F
330
1F
100
AcDbEntity
  8
LINEE VISIBILI 2D
100
AcDbSpline
210
0.0
220
0.0
230
1.0
 70
    24
 71
     2
 72
     6
 73
     3
 74
     0
 42
0.0000000001
 43
0.0000000001
 40
0.0
 40
0.0
 40
0.0
 40
14.09531933688283
 40
14.09531933688283
 40
14.09531933688283
 10
210.5810001101685
 20
91.78922492307775
 30
0.0
 10
210.5747102205303
 20
84.7415680614347
 30
0.0
 10
210.5684203308922
 20
77.69391119979167
 30
0.0
  0
SPLINE
  5
230
330
1F
100
AcDbEntity
  8
LINEE VISIBILI 2D
100
AcDbSpline
210
0.0
220
0.0
230
1.0
 70
    24
 71
     2
 72
     6
 73
     3
 74
     0
 42
0.0000000001
 43
0.0000000001
 40
0.0
 40
0.0
 40
0.0
 40
0.0189361008478903
 40
0.0189361008478903
 40
0.0189361008478903
 10
206.3205111157779
 20
7.892284984032782
 30
0.0
 10
206.3206167424052
 20
7.882817522818392
 30
0.0
 10
206.3207223690324
 20
7.873350061604002
 30
0.0
  0
SPLINE
  5
231
330
1F
100
AcDbEntity
  8
LINEE VISIBILI 2D
100
AcDbSpline
210
0.0
220
0.0
230
1.0
 70
    24
 71
     2
 72
     6
 73
     3
 74
     0
 42
0.0000000001
 43
0.0000000001
 40
0.0
 40
0.0
 40
0.0
 40
2.900000190734886
 40
2.900000190734886
 40
2.900000190734886
 10
254.8361005375699
 20
226.4916025168256
 30
0.0
 10
254.8361005375699
 20
225.0416024214581
 30
0.0
 10
254.8361005375699
 20
223.5916023260907
 30
0.0
  0
SPLINE
  5
232
330
1F
100
AcDbEntity
  8
LINEE VISIBILI 2D
100
AcDbSpline
210
0.0
220
0.0
230
1.0
 70
    12
 71
     2
 72
     6
 73
     3
 74
     0
 42
0.0000000001
 43
0.0000000001
 40
0.0
 40
0.0
 40
0.0
 40
0.0725236964733285
 40
0.0725236964733285
 40
0.0725236964733285
 10
206.3250097524349
 20
7.964641507209539
 30
0.0
 41
1.0
 10
206.321034619277
 20
7.928570545053378
 30
0.0
 41
0.9988641458361147
 10
206.3205111157779
 20
7.892284984032782
 30
0.0
 41
1.0
  0
SPLINE
  5
233
330
1F
100
AcDbEntity
  8
LINEE VISIBILI 2D
100
AcDbSpline
210
0.0
220
0.0
230
1.0
 70
    24
 71
     2
 72
     6
 73
     3
 74
     0
 42
0.0000000001
 43
0.0000000001
 40
0.0
 40
0.0
 40
0.0
 40
2.900000190734886
 40
2.900000190734886
 40
2.900000190734886
 10
253.6361005375699
 20
223.5916023260907
 30
0.0
 10
253.6361005375699
 20
225.0416024214581
 30
0.0
 10
253.6361005375699
 20
226.4916025168256
 30
0.0
  0
SPLINE
  5
234
330
1F
100
AcDbEntity
  8
LINEE VISIBILI 2D
100
AcDbSpline
210
0.0
220
0.0
230
1.0
 70
    12
 71
     2
 72
     6
 73
     3
 74
     0
 42
0.0000000001
 43
0.0000000001
 40
0.0
 40
0.0
 40
0.0
 40
0.0605897941234235
 40
0.0605897941234235
 40
0.0605897941234235
 10
258.1511036163251
 20
38.61429188448086
 30
0.0
 41
1.0
 10
258.1398735802041
 20
38.64825383327623
 30
0.0
 41
0.785437917627863
 10
258.1042272362406
 20
38.64527627735001
 30
0.0
 41
1.0
  0
SPLINE
  5
235
330
1F
100
AcDbEntity
  8
LINEE VISIBILI 2D
100
AcDbSpline
210
0.0
220
0.0
230
1.0
 70
    12
 71
     2
 72
     6
 73
     3
 74
     0
 42
0.0000000001
 43
0.0000000001
 40
0.0
 40
0.0
 40
0.0
 40
0.034900529996931
 40
0.034900529996931
 40
0.034900529996931
 10
162.0952886739242
 20
42.40314388258407
 30
0.0
 41
1.0
 10
162.1128085973158
 20
42.40073910549961
 30
0.0
 41
0.9802755062067307
 10
162.1280280752451
 20
42.39173365381566
 30
0.0
 41
1.0
  0
SPLINE
  5
236
330
1F
100
AcDbEntity
  8
LINEE VISIBILI 2D
100
AcDbSpline
210
0.0
220
0.0
230
1.0
 70
    24
 71
     2
 72
     6
 73
     3
 74
     0
 42
0.0000000001
 43
0.0000000001
 40
0.0
 40
0.0
 40
0.0
 40
55.42374802792619
 40
55.42374802792619
 40
55.42374802792619
 10
162.1494046141536
 20
42.37182378840428
 30
0.0
 10
187.5893378643101
 20
53.36080725337241
 30
0.0
 10
213.0292711144667
 20
64.34979071834056
 30
0.0
  0
SPLINE
  5
237
330
1F
100
AcDbEntity
  8
LINEE VISIBILI 2D
100
AcDbSpline
210
0.0
220
0.0
230
1.0
 70
    12
 71
     2
 72
     6
 73
     3
 74
     0
 42
0.0000000001
 43
0.0000000001
 40
0.0
 40
0.0
 40
0.0
 40
0.0881935818874472
 40
0.0881935818874472
 40
0.0881935818874472
 10
169.2355492777592
 20
41.81538406518092
 30
0.0
 41
1.0
 10
169.1991504214654
 20
41.84345431984222
 30
0.0
 41
0.9401226822834434
 10
169.1532194431855
 20
41.84167635176024
 30
0.0
 41
1.0
  0
SPLINE
  5
23B
330
1F
100
AcDbEntity
  8
LINEE VISIBILI 2D
100
AcDbSpline
210
0.0
220
0.0
230
1.0
 70
    12
 71
     2
 72
     6
 73
     3
 74
     0
 42
0.0000000001
 43
0.0000000001
 40
0.0
 40
0.0
 40
0.0
 40
0.04707821838873
 40
0.04707821838873
 40
0.04707821838873
 10
213.0319245203049
 20
64.39678068556466
 30
0.0
 41
1.0
 10
213.0296264554576
 20
64.37334055232948
 30
0.0
 41
0.9991464567033386
 10
213.0292711144667
 20
64.34979071834056
 30
0.0
 41
1.0
  0
SPLINE
  5
23C
330
1F
100
AcDbEntity
  8
LINEE VISIBILI 2D
100
AcDbSpline
210
0.0
220
0.0
230
1.0
 70
    12
 71
     2
 72
     6
 73
     3
 74
     0
 42
0.0000000001
 43
0.0000000001
 40
0.0
 40
0.0
 40
0.0
 40
0.0947391497890388
 40
0.0947391497890388
 40
0.0947391497890388
 10
212.9500402090885
 20
63.70732442089708
 30
0.0
 41
1.0
 10
212.9454602468667
 20
63.66015099089471
 30
0.0
 41
0.9991880036641692
 10
212.9446933602539
 20
63.6127619580172
 30
0.0
 41
1.0
  0
SPLINE
  5
23D
330
1F
100
AcDbEntity
  8
LINEE VISIBILI 2D
100
AcDbSpline
210
0.0
220
0.0
230
1.0
 70
    24
 71
     2
 72
     6
 73
     3
 74
     0
 42
0.0000000001
 43
0.0000000001
 40
0.0
 40
0.0
 40
0.0
 40
4.105805986330007
 40
4.105805986330007
 40
4.105805986330007
 10
252.8750561207898
 20
41.03957165822766
 30
0.0
 10
254.6660002708307
 20
40.03611276480948
 30
0.0
 10
256.4569444208717
 20
39.03265387139131
 30
0.0
  0
SPLINE
  5
23E
330
1F
100
AcDbEntity
  8
LINEE VISIBILI 2D
100
AcDbSpline
210
0.0
220
0.0
230
1.0
 70
    24
 71
     2
 72
     6
 73
     3
 74
     0
 42
0.0000000001
 43
0.0000000001
 40
0.0
 40
0.0
 40
0.0
 40
0.199608705012588
 40
0.199608705012588
 40
0.199608705012588
 10
212.9446933602539
 20
63.6127619580172
 30
0.0
 10
212.944012837321
 20
63.51295992563439
 30
0.0
 10
212.9433323143881
 20
63.41315789325159
 30
0.0
  0
SPLINE
  5
23F
330
1F
100
AcDbEntity
  8
LINEE VISIBILI 2D
100
AcDbSpline
210
0.0
220
0.0
230
1.0
 70
    24
 71
     2
 72
     6
 73
     3
 74
     0
 42
0.0000000001
 43
0.0000000001
 40
0.0
 40
0.0
 40
0.0
 40
45.31147617335476
 40
45.31147617335476
 40
45.31147617335476
 10
212.9433323143881
 20
63.41315789325159
 30
0.0
 10
232.7081052852913
 20
52.33903410575606
 30
0.0
 10
252.4728782561946
 20
41.26491031826051
 30
0.0
  0
SPLINE
  5
241
330
1F
100
AcDbEntity
  8
LINEE VISIBILI 2D
100
AcDbSpline
210
0.0
220
0.0
230
1.0
 70
    12
 71
     2
 72
     6
 73
     3
 74
     0
 42
0.0000000001
 43
0.0000000001
 40
0.0
 40
0.0
 40
0.0
 40
0.0121498899851392
 40
0.0121498899851392
 40
0.0121498899851392
 10
213.0595991303811
 20
64.616302197586
 30
0.0
 41
1.0
 10
213.0561903622167
 20
64.61101343182441
 30
0.0
 41
0.949022542987765
 10
213.0566231181745
 20
64.60473621381318
 30
0.0
 41
1.0
  0
SPLINE
  5
244
330
1F
100
AcDbEntity
  8
LINEE VISIBILI 2D
100
AcDbSpline
210
0.0
220
0.0
230
1.0
 70
    24
 71
     2
 72
     6
 73
     3
 74
     0
 42
0.0000000001
 43
0.0000000001
 40
0.0
 40
0.0
 40
0.0
 40
99.89999999999998
 40
99.89999999999998
 40
99.89999999999998
 10
261.1861005375703
 20
161.6415954761145
 30
0.0
 10
211.2361005375703
 20
161.6415954761145
 30
0.0
 10
161.2861005375703
 20
161.6415954761145
 30
0.0
  0
SPLINE
  5
245
330
1F
100
AcDbEntity
  8
LINEE VISIBILI 2D
100
AcDbSpline
210
0.0
220
0.0
230
1.0
 70
    24
 71
     2
 72
     6
 73
     3
 74
     0
 42
0.0000000001
 43
0.0000000001
 40
0.0
 40
0.0
 40
0.0
 40
9.75
 40
9.75
 40
9.75
 10
161.2861005375703
 20
171.3915954761145
 30
0.0
 10
161.2861005375703
 20
166.5165954761145
 30
0.0
 10
161.2861005375703
 20
161.6415954761145
 30
0.0
  0
SPLINE
  5
246
330
1F
100
AcDbEntity
  8
LINEE VISIBILI 2D
100
AcDbSpline
210
0.0
220
0.0
230
1.0
 70
    12
 71
     2
 72
     6
 73
     3
 74
     0
 42
0.0000000001
 43
0.0000000001
 40
0.0
 40
0.0
 40
0.0
 40
0.0375587096662658
 40
0.0375587096662658
 40
0.0375587096662658
 10
206.8992651843443
 20
12.41952435143312
 30
0.0
 41
1.0
 10
206.8848455962264
 20
12.4046342222879
 30
0.0
 41
0.8647840830804048
 10
206.8906297222627
 20
12.38472984203012
 30
0.0
 41
1.0
  0
SPLINE
  5
247
330
1F
100
AcDbEntity
  8
LINEE VISIBILI 2D
100
AcDbSpline
210
0.0
220
0.0
230
1.0
 70
    24
 71
     2
 72
     6
 73
     3
 74
     0
 42
0.0000000001
 43
0.0000000001
 40
0.0
 40
0.0
 40
0.0
 40
9.75
 40
9.75
 40
9.75
 10
261.1861005375703
 20
161.6415954761145
 30
0.0
 10
261.1861005375703
 20
166.5165954761145
 30
0.0
 10
261.1861005375703
 20
171.3915954761145
 30
0.0
  0
SPLINE
  5
248
330
1F
100
AcDbEntity
  8
LINEE VISIBILI 2D
100
AcDbSpline
210
0.0
220
0.0
230
1.0
 70
    24
 71
     2
 72
     6
 73
     3
 74
     0
 42
0.0000000001
 43
0.0000000001
 40
0.0
 40
0.0
 40
0.0
 40
99.89999999999998
 40
99.89999999999998
 40
99.89999999999998
 10
261.1861005375703
 20
171.3915954761145
 30
0.0
 10
211.2361005375703
 20
171.3915954761145
 30
0.0
 10
161.2861005375703
 20
171.3915954761145
 30
0.0
  0
SPLINE
  5
24B
330
1F
100
AcDbEntity
  8
LINEE VISIBILI 2D
100
AcDbSpline
210
0.0
220
0.0
230
1.0
 70
    24
 71
     2
 72
     6
 73
     3
 74
     0
 42
0.0000000001
 43
0.0000000001
 40
0.0
 40
0.0
 40
0.0
 40
55.3999157850376
 40
55.3999157850376
 40
55.3999157850376
 10
162.1720619846988
 20
42.36349977795639
 30
0.0
 10
187.6006114200619
 20
53.34878725078161
 30
0.0
 10
213.029160855425
 20
64.33407472360682
 30
0.0
  0
SPLINE
  5
24D
330
1F
100
AcDbEntity
  8
LINEE VISIBILI 2D
100
AcDbSpline
210
0.0
220
0.0
230
1.0
 70
    24
 71
     2
 72
     6
 73
     3
 74
     0
 42
0.0000000001
 43
0.0000000001
 40
0.0
 40
0.0
 40
0.0
 40
0.0157163815023428
 40
0.0157163815023428
 40
0.0157163815023428
 10
213.0292711144667
 20
64.34979071834056
 30
0.0
 10
213.0292159849458
 20
64.34193272097369
 30
0.0
 10
213.029160855425
 20
64.33407472360682
 30
0.0
  0
SPLINE
  5
24E
330
1F
100
AcDbEntity
  8
LINEE VISIBILI 2D
100
AcDbSpline
210
0.0
220
0.0
230
1.0
 70
    24
 71
     2
 72
     6
 73
     3
 74
     0
 42
0.0000000001
 43
0.0000000001
 40
0.0
 40
0.0
 40
0.0
 40
0.4978209669910039
 40
0.4978209669910039
 40
0.4978209669910039
 10
209.4124552577852
 20
44.82436261483392
 30
0.0
 10
209.4119477023569
 20
45.07327258084865
 30
0.0
 10
209.4114401469286
 20
45.32218254686337
 30
0.0
  0
SPLINE
  5
24F
330
1F
100
AcDbEntity
  8
LINEE VISIBILI 2D
100
AcDbSpline
210
0.0
220
0.0
230
1.0
 70
    24
 71
     2
 72
     6
 73
     3
 74
     0
 42
0.0000000001
 43
0.0000000001
 40
0.0
 40
0.0
 40
0.0
 40
0.1278755432802155
 40
0.1278755432802155
 40
0.1278755432802155
 10
210.4253759973821
 20
47.9511617939423
 30
0.0
 10
210.4253381600534
 20
47.88722403349796
 30
0.0
 10
210.4253003227247
 20
47.8232862730536
 30
0.0
  0
LINE
  5
2C1
330
1F
100
AcDbEntity
  8
LINEE VISIBILI 2D
 62
   253
100
AcDbLine
 10
332.926111411269
 20
8.348937940985189
 30
0.0
 11
333.5687401055368
 21
91.57207102671888
 31
0.0
  0
LINE
  5
2C2
330
1F
100
AcDbEntity
  8
LINEE VISIBILI 2D
 62
   253
100
AcDbLine
 10
334.5905713414735
 20
8.348801644498434
 30
0.0
 11
334.5905713414739
 21
91.57207102671886
 31
0.0
  0
LINE
  5
2C3
330
1F
100
AcDbEntity
  8
LINEE VISIBILI 2D
 62
   253
100
AcDbLine
 10
336.2550312716781
 20
8.348665348011678
 30
0.0
 11
336.3914297735135
 21
91.57207102671886
 31
0.0
  0
LINE
  5
2C4
330
1F
100
AcDbEntity
  8
LINEE VISIBILI 2D
 62
   253
100
AcDbLine
 10
337.9194912018825
 20
8.348529051524922
 30
0.0
 11
337.919491201883
 21
91.57207102671886
 31
0.0
  0
LINE
  5
2C5
330
1F
100
AcDbEntity
  8
LINEE VISIBILI 2D
 62
   253
100
AcDbLine
 10
339.5839511320871
 20
8.348392755038167
 30
0.0
 11
338.975724322666
 21
91.57207102671884
 31
0.0
  0
LINE
  5
2C6
330
1F
100
AcDbEntity
  8
LINEE VISIBILI 2D
 62
   253
100
AcDbLine
 10
341.2484110622916
 20
8.348256458551411
 30
0.0
 11
341.248411062292
 21
91.57207102671883
 31
0.0
  0
LINE
  5
2C7
330
1F
100
AcDbEntity
  8
LINEE VISIBILI 2D
 62
   253
100
AcDbLine
 10
342.9128709924961
 20
8.348120162064654
 30
0.0
 11
343.4022437749852
 21
91.57207102671883
 31
0.0
  0
LINE
  5
2C8
330
1F
100
AcDbEntity
  8
LINEE VISIBILI 2D
 62
   253
100
AcDbLine
 10
344.5773309227007
 20
8.347983865577898
 30
0.0
 11
345.2199596169685
 21
91.57111695131158
 31
0.0
  0
LINE
  5
2C9
330
1F
100
AcDbEntity
  8
LINEE VISIBILI 2D
 62
   253
100
AcDbLine
 10
346.2417908529052
 20
8.347847569091143
 30
0.0
 11
346.2417908529056
 21
91.57111695131156
 31
0.0
  0
LINE
  5
2CA
330
1F
100
AcDbEntity
  8
LINEE VISIBILI 2D
 62
   253
100
AcDbLine
 10
347.9062507831097
 20
8.347711272604387
 30
0.0
 11
348.0426492849451
 21
91.57111695131156
 31
0.0
  0
LINE
  5
2CB
330
1F
100
AcDbEntity
  8
LINEE VISIBILI 2D
 62
   253
100
AcDbLine
 10
349.5707107133142
 20
8.34757497611763
 30
0.0
 11
349.5707107133147
 21
91.57111695131156
 31
0.0
  0
LINE
  5
2CC
330
1F
100
AcDbEntity
  8
LINEE VISIBILI 2D
 62
   253
100
AcDbLine
 10
351.2351706435187
 20
8.347438679630876
 30
0.0
 11
350.6269438340977
 21
91.57111695131154
 31
0.0
  0
LINE
  5
2CD
330
1F
100
AcDbEntity
  8
LINEE VISIBILI 2D
 62
   253
100
AcDbLine
 10
352.8996305737233
 20
8.347302383144119
 30
0.0
 11
352.8996305737237
 21
91.57111695131154
 31
0.0
  0
LINE
  5
2CE
330
1F
100
AcDbEntity
  8
LINEE VISIBILI 2D
 62
   253
100
AcDbLine
 10
354.5640905039278
 20
8.347166086657363
 30
0.0
 11
355.0534632864169
 21
91.57111695131154
 31
0.0
  0
LINE
  5
2CF
330
1F
100
AcDbEntity
  8
LINEE VISIBILI 2D
 62
   253
100
AcDbLine
 10
356.2285504341324
 20
8.347029790170607
 30
0.0
 11
356.8711791284002
 21
91.57016287590428
 31
0.0
  0
LINE
  5
2D0
330
1F
100
AcDbEntity
  8
LINEE VISIBILI 2D
 62
   253
100
AcDbLine
 10
357.8930103643369
 20
8.346893493683852
 30
0.0
 11
357.8930103643373
 21
91.57016287590428
 31
0.0
  0
LINE
  5
2D1
330
1F
100
AcDbEntity
  8
LINEE VISIBILI 2D
 62
   253
100
AcDbLine
 10
359.5574702945414
 20
8.346757197197096
 30
0.0
 11
359.6938687963769
 21
91.57016287590428
 31
0.0
  0
LINE
  5
2D2
330
1F
100
AcDbEntity
  8
LINEE VISIBILI 2D
 62
   253
100
AcDbLine
 10
361.221930224746
 20
8.346620900710339
 30
0.0
 11
361.2219302247464
 21
91.57016287590428
 31
0.0
  0
LINE
  5
2D3
330
1F
100
AcDbEntity
  8
LINEE VISIBILI 2D
 62
   253
100
AcDbLine
 10
362.8863901549505
 20
8.346484604223585
 30
0.0
 11
362.2781633455294
 21
91.57016287590426
 31
0.0
  0
LINE
  5
2D4
330
1F
100
AcDbEntity
  8
LINEE VISIBILI 2D
 62
   253
100
AcDbLine
 10
364.550850085155
 20
8.346348307736828
 30
0.0
 11
364.5508500851554
 21
91.57016287590424
 31
0.0
  0
LINE
  5
2D5
330
1F
100
AcDbEntity
  8
LINEE VISIBILI 2D
 62
   253
100
AcDbLine
 10
366.2153100153596
 20
8.346212011250072
 30
0.0
 11
366.7046827978487
 21
91.57016287590424
 31
0.0
  0
LINE
  5
2D6
330
1F
100
AcDbEntity
  8
LINEE VISIBILI 2D
 62
   253
100
AcDbLine
 10
367.8797699455641
 20
8.346075714763317
 30
0.0
 11
368.5223986398319
 21
91.569208800497
 31
0.0
  0
LINE
  5
2D7
330
1F
100
AcDbEntity
  8
LINEE VISIBILI 2D
 62
   253
100
AcDbLine
 10
369.5442298757686
 20
8.345939418276563
 30
0.0
 11
369.544229875769
 21
91.569208800497
 31
0.0
  0
LINE
  5
2D8
330
1F
100
AcDbEntity
  8
LINEE VISIBILI 2D
 62
   253
100
AcDbLine
 10
371.2086898059731
 20
8.345803121789806
 30
0.0
 11
371.3450883078086
 21
91.569208800497
 31
0.0
  0
LINE
  5
2D9
330
1F
100
AcDbEntity
  8
LINEE VISIBILI 2D
 62
   253
100
AcDbLine
 10
372.8731497361776
 20
8.34566682530305
 30
0.0
 11
372.8731497361781
 21
91.569208800497
 31
0.0
  0
LINE
  5
2DA
330
1F
100
AcDbEntity
  8
LINEE VISIBILI 2D
 62
   253
100
AcDbLine
 10
374.5376096663822
 20
8.345530528816295
 30
0.0
 11
373.9293828569611
 21
91.56920880049696
 31
0.0
  0
LINE
  5
2DB
330
1F
100
AcDbEntity
  8
LINEE VISIBILI 2D
 62
   253
100
AcDbLine
 10
376.2020695965867
 20
8.345394232329539
 30
0.0
 11
376.2020695965871
 21
91.56920880049696
 31
0.0
  0
LINE
  5
2DC
330
1F
100
AcDbEntity
  8
LINEE VISIBILI 2D
 62
   253
100
AcDbLine
 10
377.8665295267913
 20
8.345257935842782
 30
0.0
 11
378.3559023092804
 21
91.56920880049696
 31
0.0
  0
LINE
  5
2DD
330
1F
100
AcDbEntity
  8
LINEE VISIBILI 2D
 62
   253
100
AcDbLine
 10
379.5309894569958
 20
8.345121639356026
 30
0.0
 11
380.1736181512636
 21
91.5682547250897
 31
0.0
  0
LINE
  5
2DE
330
1F
100
AcDbEntity
  8
LINEE VISIBILI 2D
 62
   253
100
AcDbLine
 10
381.1954493872002
 20
8.344985342869271
 30
0.0
 11
381.1954493872007
 21
91.5682547250897
 31
0.0
  0
LINE
  5
2DF
330
1F
100
AcDbEntity
  8
LINEE VISIBILI 2D
 62
   253
100
AcDbLine
 10
382.8599093174048
 20
8.344849046382515
 30
0.0
 11
382.9963078192403
 21
91.5682547250897
 31
0.0
  0
LINE
  5
2E0
330
1F
100
AcDbEntity
  8
LINEE VISIBILI 2D
 62
   253
100
AcDbLine
 10
384.5243692476093
 20
8.344712749895759
 30
0.0
 11
384.5243692476098
 21
91.5682547250897
 31
0.0
  0
LINE
  5
2E1
330
1F
100
AcDbEntity
  8
LINEE VISIBILI 2D
 62
   253
100
AcDbLine
 10
386.1888291778139
 20
8.344576453409004
 30
0.0
 11
385.5806023683928
 21
91.56825472508968
 31
0.0
  0
LINE
  5
2E2
330
1F
100
AcDbEntity
  8
LINEE VISIBILI 2D
 62
   253
100
AcDbLine
 10
387.8532891080184
 20
8.344440156922248
 30
0.0
 11
387.8532891080188
 21
91.56825472508968
 31
0.0
  0
LINE
  5
2E3
330
1F
100
AcDbEntity
  8
LINEE VISIBILI 2D
 62
   253
100
AcDbLine
 10
389.517749038223
 20
8.344303860435491
 30
0.0
 11
390.007121820712
 21
91.56825472508968
 31
0.0
  0
LINE
  5
2E4
330
1F
100
AcDbEntity
  8
LINEE VISIBILI 2D
 62
   253
100
AcDbLine
 10
391.1822089684275
 20
8.344167563948735
 30
0.0
 11
391.8248376626954
 21
91.56730064968241
 31
0.0
  0
LINE
  5
2E5
330
1F
100
AcDbEntity
  8
LINEE VISIBILI 2D
 62
   253
100
AcDbLine
 10
392.8466688986321
 20
8.34403126746198
 30
0.0
 11
392.8466688986325
 21
91.56730064968241
 31
0.0
  0
LINE
  5
2E6
330
1F
100
AcDbEntity
  8
LINEE VISIBILI 2D
 62
   253
100
AcDbLine
 10
394.5111288288366
 20
8.343894970975224
 30
0.0
 11
394.647527330672
 21
91.56730064968241
 31
0.0
  0
LINE
  5
2E7
330
1F
100
AcDbEntity
  8
LINEE VISIBILI 2D
 62
   253
100
AcDbLine
 10
396.1755887590411
 20
8.343758674488467
 30
0.0
 11
396.1755887590415
 21
91.56730064968241
 31
0.0
  0
LINE
  5
2E8
330
1F
100
AcDbEntity
  8
LINEE VISIBILI 2D
 62
   253
100
AcDbLine
 10
397.8400486892456
 20
8.343622378001713
 30
0.0
 11
397.2318218798246
 21
91.56730064968238
 31
0.0
  0
LINE
  5
2E9
330
1F
100
AcDbEntity
  8
LINEE VISIBILI 2D
 62
   253
100
AcDbLine
 10
399.5045086194501
 20
8.343486081514956
 30
0.0
 11
399.5045086194506
 21
91.56730064968238
 31
0.0
  0
LINE
  5
2EA
330
1F
100
AcDbEntity
  8
LINEE VISIBILI 2D
 62
   253
100
AcDbLine
 10
401.1689685496547
 20
8.3433497850282
 30
0.0
 11
401.6583413321438
 21
91.56730064968238
 31
0.0
  0
LINE
  5
2EB
330
1F
100
AcDbEntity
  8
LINEE VISIBILI 2D
 62
   253
100
AcDbLine
 10
402.8334284798591
 20
8.341713625158782
 30
0.0
 11
402.8334284798596
 21
91.5649830073792
 31
0.0
  0
LINE
  5
2EC
330
1F
100
AcDbEntity
  8
LINEE VISIBILI 2D
 62
   253
100
AcDbLine
 10
404.4978884100637
 20
8.341577328672025
 30
0.0
 11
404.6342869118991
 21
91.5649830073792
 31
0.0
  0
LINE
  5
2ED
330
1F
100
AcDbEntity
  8
LINEE VISIBILI 2D
 62
   253
100
AcDbLine
 10
406.1623483402683
 20
8.341441032185269
 30
0.0
 11
406.1623483402687
 21
91.5649830073792
 31
0.0
  0
LINE
  5
2EE
330
1F
100
AcDbEntity
  8
LINEE VISIBILI 2D
 62
   253
100
AcDbLine
 10
407.8268082704728
 20
8.341304735698514
 30
0.0
 11
407.2185814610516
 21
91.56498300737917
 31
0.0
  0
LINE
  5
2EF
330
1F
100
AcDbEntity
  8
LINEE VISIBILI 2D
 62
   253
100
AcDbLine
 10
409.4912682006773
 20
8.341168439211758
 30
0.0
 11
409.4912682006777
 21
91.56498300737917
 31
0.0
  0
LINE
  5
2F0
330
1F
100
AcDbEntity
  8
LINEE VISIBILI 2D
 62
   253
100
AcDbLine
 10
411.1557281308818
 20
8.341032142725001
 30
0.0
 11
411.6451009133709
 21
91.56498300737917
 31
0.0
  0
LINE
  5
2F1
330
1F
100
AcDbEntity
  8
LINEE VISIBILI 2D
 62
   253
100
AcDbLine
 10
412.8201792416064
 20
8.340895846960441
 30
0.0
 11
413.3095520240955
 21
91.56484671161463
 31
0.0
  0
LINE
  5
2F2
330
1F
100
AcDbEntity
  8
LINEE VISIBILI 2D
 62
   253
100
AcDbLine
 10
331.2697285561258
 20
89.67947806103534
 30
0.0
 11
414.4928616418595
 21
89.0368493667675
 31
0.0
  0
LINE
  5
2F3
330
1F
100
AcDbEntity
  8
LINEE VISIBILI 2D
 62
   253
100
AcDbLine
 10
331.2695922596391
 20
88.01501813083085
 30
0.0
 11
414.4928616418595
 21
88.0150181308304
 31
0.0
  0
LINE
  5
2F4
330
1F
100
AcDbEntity
  8
LINEE VISIBILI 2D
 62
   253
100
AcDbLine
 10
331.2694559631523
 20
86.3505582006263
 30
0.0
 11
414.4928616418595
 21
86.21415969879086
 31
0.0
  0
LINE
  5
2F5
330
1F
100
AcDbEntity
  8
LINEE VISIBILI 2D
 62
   253
100
AcDbLine
 10
331.2693196666656
 20
84.68609827042177
 30
0.0
 11
414.4928616418594
 21
84.68609827042131
 31
0.0
  0
LINE
  5
2F6
330
1F
100
AcDbEntity
  8
LINEE VISIBILI 2D
 62
   253
100
AcDbLine
 10
331.2691833701788
 20
83.02163834021722
 30
0.0
 11
414.4928616418594
 21
83.62986514963829
 31
0.0
  0
LINE
  5
2F7
330
1F
100
AcDbEntity
  8
LINEE VISIBILI 2D
 62
   253
100
AcDbLine
 10
331.269047073692
 20
81.35717841001268
 30
0.0
 11
414.4928616418594
 21
81.35717841001229
 31
0.0
  0
LINE
  5
2F8
330
1F
100
AcDbEntity
  8
LINEE VISIBILI 2D
 62
   253
100
AcDbLine
 10
331.2689107772053
 20
79.69271847980813
 30
0.0
 11
414.4928616418594
 21
79.20334569731908
 31
0.0
  0
LINE
  5
2F9
330
1F
100
AcDbEntity
  8
LINEE VISIBILI 2D
 62
   253
100
AcDbLine
 10
331.2687744807186
 20
78.02825854960365
 30
0.0
 11
414.4919075664522
 21
77.3856298553358
 31
0.0
  0
LINE
  5
2FA
330
1F
100
AcDbEntity
  8
LINEE VISIBILI 2D
 62
   253
100
AcDbLine
 10
331.2686381842318
 20
76.36379861939916
 30
0.0
 11
414.4919075664522
 21
76.36379861939871
 31
0.0
  0
LINE
  5
2FB
330
1F
100
AcDbEntity
  8
LINEE VISIBILI 2D
 62
   253
100
AcDbLine
 10
331.268501887745
 20
74.69933868919461
 30
0.0
 11
414.4919075664522
 21
74.56294018735916
 31
0.0
  0
LINE
  5
2FC
330
1F
100
AcDbEntity
  8
LINEE VISIBILI 2D
 62
   253
100
AcDbLine
 10
331.2683655912583
 20
73.03487875899008
 30
0.0
 11
414.4919075664522
 21
73.03487875898962
 31
0.0
  0
LINE
  5
2FD
330
1F
100
AcDbEntity
  8
LINEE VISIBILI 2D
 62
   253
100
AcDbLine
 10
331.2682292947715
 20
71.37041882878553
 30
0.0
 11
414.4919075664522
 21
71.9786456382066
 31
0.0
  0
LINE
  5
2FE
330
1F
100
AcDbEntity
  8
LINEE VISIBILI 2D
 62
   253
100
AcDbLine
 10
331.2680929982848
 20
69.70595889858099
 30
0.0
 11
414.4919075664521
 21
69.70595889858059
 31
0.0
  0
LINE
  5
2FF
330
1F
100
AcDbEntity
  8
LINEE VISIBILI 2D
 62
   253
100
AcDbLine
 10
331.267956701798
 20
68.04149896837644
 30
0.0
 11
414.4919075664521
 21
67.55212618588739
 31
0.0
  0
LINE
  5
300
330
1F
100
AcDbEntity
  8
LINEE VISIBILI 2D
 62
   253
100
AcDbLine
 10
331.2678204053112
 20
66.3770390381719
 30
0.0
 11
414.4909534910448
 21
65.73441034390405
 31
0.0
  0
LINE
  5
301
330
1F
100
AcDbEntity
  8
LINEE VISIBILI 2D
 62
   253
100
AcDbLine
 10
331.2676841088245
 20
64.71257910796736
 30
0.0
 11
414.4909534910448
 21
64.71257910796696
 31
0.0
  0
LINE
  5
302
330
1F
100
AcDbEntity
  8
LINEE VISIBILI 2D
 62
   253
100
AcDbLine
 10
331.2675478123377
 20
63.04811917776281
 30
0.0
 11
414.4909534910448
 21
62.91172067592741
 31
0.0
  0
LINE
  5
303
330
1F
100
AcDbEntity
  8
LINEE VISIBILI 2D
 62
   253
100
AcDbLine
 10
331.2674115158509
 20
61.38365924755833
 30
0.0
 11
414.4909534910448
 21
61.38365924755787
 31
0.0
  0
LINE
  5
304
330
1F
100
AcDbEntity
  8
LINEE VISIBILI 2D
 62
   253
100
AcDbLine
 10
331.2672752193642
 20
59.71919931735378
 30
0.0
 11
414.4909534910448
 21
60.32742612677485
 31
0.0
  0
LINE
  5
305
330
1F
100
AcDbEntity
  8
LINEE VISIBILI 2D
 62
   253
100
AcDbLine
 10
331.2671389228774
 20
58.05473938714929
 30
0.0
 11
414.4909534910448
 21
58.05473938714884
 31
0.0
  0
LINE
  5
306
330
1F
100
AcDbEntity
  8
LINEE VISIBILI 2D
 62
   253
100
AcDbLine
 10
331.2670026263907
 20
56.39027945694476
 30
0.0
 11
414.4909534910448
 21
55.90090667445564
 31
0.0
  0
LINE
  5
307
330
1F
100
AcDbEntity
  8
LINEE VISIBILI 2D
 62
   253
100
AcDbLine
 10
331.266866329904
 20
54.72581952674021
 30
0.0
 11
414.4899994156376
 21
54.08319083247237
 31
0.0
  0
LINE
  5
308
330
1F
100
AcDbEntity
  8
LINEE VISIBILI 2D
 62
   253
100
AcDbLine
 10
331.2667300334172
 20
53.06135959653566
 30
0.0
 11
414.4899994156376
 21
53.06135959653527
 31
0.0
  0
LINE
  5
309
330
1F
100
AcDbEntity
  8
LINEE VISIBILI 2D
 62
   253
100
AcDbLine
 10
331.2665937369304
 20
51.39689966633112
 30
0.0
 11
414.4899994156376
 21
51.26050116449572
 31
0.0
  0
LINE
  5
30A
330
1F
100
AcDbEntity
  8
LINEE VISIBILI 2D
 62
   253
100
AcDbLine
 10
331.2664574404437
 20
49.73243973612664
 30
0.0
 11
414.4899994156376
 21
49.73243973612618
 31
0.0
  0
LINE
  5
30B
330
1F
100
AcDbEntity
  8
LINEE VISIBILI 2D
 62
   253
100
AcDbLine
 10
331.2663211439569
 20
48.06797980592209
 30
0.0
 11
414.4899994156375
 21
48.67620661534316
 31
0.0
  0
LINE
  5
30C
330
1F
100
AcDbEntity
  8
LINEE VISIBILI 2D
 62
   253
100
AcDbLine
 10
331.2661848474702
 20
46.40351987571761
 30
0.0
 11
414.4899994156375
 21
46.40351987571714
 31
0.0
  0
LINE
  5
30D
330
1F
100
AcDbEntity
  8
LINEE VISIBILI 2D
 62
   253
100
AcDbLine
 10
331.2660485509834
 20
44.73905994551306
 30
0.0
 11
414.4899994156375
 21
44.24968716302394
 31
0.0
  0
LINE
  5
30E
330
1F
100
AcDbEntity
  8
LINEE VISIBILI 2D
 62
   253
100
AcDbLine
 10
331.2659122544967
 20
43.07460001530851
 30
0.0
 11
414.4890453402303
 21
42.43197132104067
 31
0.0
  0
LINE
  5
30F
330
1F
100
AcDbEntity
  8
LINEE VISIBILI 2D
 62
   253
100
AcDbLine
 10
331.2657759580099
 20
41.41014008510397
 30
0.0
 11
414.4890453402303
 21
41.41014008510357
 31
0.0
  0
LINE
  5
310
330
1F
100
AcDbEntity
  8
LINEE VISIBILI 2D
 62
   253
100
AcDbLine
 10
331.2656396615232
 20
39.74568015489943
 30
0.0
 11
414.4890453402303
 21
39.60928165306403
 31
0.0
  0
LINE
  5
311
330
1F
100
AcDbEntity
  8
LINEE VISIBILI 2D
 62
   253
100
AcDbLine
 10
331.2655033650364
 20
38.08122022469495
 30
0.0
 11
414.4890453402303
 21
38.08122022469449
 31
0.0
  0
LINE
  5
312
330
1F
100
AcDbEntity
  8
LINEE VISIBILI 2D
 62
   253
100
AcDbLine
 10
331.2653670685496
 20
36.4167602944904
 30
0.0
 11
414.4890453402302
 21
37.02498710391147
 31
0.0
  0
LINE
  5
313
330
1F
100
AcDbEntity
  8
LINEE VISIBILI 2D
 62
   253
100
AcDbLine
 10
331.2652307720629
 20
34.75230036428591
 30
0.0
 11
414.4890453402302
 21
34.75230036428546
 31
0.0
  0
LINE
  5
314
330
1F
100
AcDbEntity
  8
LINEE VISIBILI 2D
 62
   253
100
AcDbLine
 10
331.2650944755761
 20
33.08784043408137
 30
0.0
 11
414.4890453402302
 21
32.59846765159226
 31
0.0
  0
LINE
  5
315
330
1F
100
AcDbEntity
  8
LINEE VISIBILI 2D
 62
   253
100
AcDbLine
 10
331.2649581790894
 20
31.42338050387677
 30
0.0
 11
414.488091264823
 21
30.78075180960893
 31
0.0
  0
LINE
  5
316
330
1F
100
AcDbEntity
  8
LINEE VISIBILI 2D
 62
   253
100
AcDbLine
 10
331.2648218826026
 20
29.75892057367229
 30
0.0
 11
414.488091264823
 21
29.75892057367183
 31
0.0
  0
LINE
  5
317
330
1F
100
AcDbEntity
  8
LINEE VISIBILI 2D
 62
   253
100
AcDbLine
 10
331.2646855861158
 20
28.09446064346774
 30
0.0
 11
414.488091264823
 21
27.95806214163228
 31
0.0
  0
LINE
  5
318
330
1F
100
AcDbEntity
  8
LINEE VISIBILI 2D
 62
   253
100
AcDbLine
 10
331.2645492896291
 20
26.4300007132632
 30
0.0
 11
414.488091264823
 21
26.43000071326274
 31
0.0
  0
LINE
  5
319
330
1F
100
AcDbEntity
  8
LINEE VISIBILI 2D
 62
   253
100
AcDbLine
 10
331.2644129931423
 20
24.76554078305865
 30
0.0
 11
414.488091264823
 21
25.37376759247973
 31
0.0
  0
LINE
  5
31A
330
1F
100
AcDbEntity
  8
LINEE VISIBILI 2D
 62
   253
100
AcDbLine
 10
331.2642766966556
 20
23.10108085285411
 30
0.0
 11
414.488091264823
 21
23.10108085285371
 31
0.0
  0
LINE
  5
31B
330
1F
100
AcDbEntity
  8
LINEE VISIBILI 2D
 62
   253
100
AcDbLine
 10
331.2641404001688
 20
21.43662092264957
 30
0.0
 11
414.488091264823
 21
20.94724814016051
 31
0.0
  0
LINE
  5
31C
330
1F
100
AcDbEntity
  8
LINEE VISIBILI 2D
 62
   253
100
AcDbLine
 10
331.2625042402994
 20
19.77216099244508
 30
0.0
 11
414.4857736225198
 21
19.77216099244468
 31
0.0
  0
LINE
  5
31D
330
1F
100
AcDbEntity
  8
LINEE VISIBILI 2D
 62
   253
100
AcDbLine
 10
331.2623679438126
 20
18.10770106224054
 30
0.0
 11
414.4857736225198
 21
17.97130256040508
 31
0.0
  0
LINE
  5
31E
330
1F
100
AcDbEntity
  8
LINEE VISIBILI 2D
 62
   253
100
AcDbLine
 10
331.2622316473259
 20
16.44324113203605
 30
0.0
 11
414.4857736225198
 21
16.44324113203559
 31
0.0
  0
LINE
  5
31F
330
1F
100
AcDbEntity
  8
LINEE VISIBILI 2D
 62
   253
100
AcDbLine
 10
331.2620953508392
 20
14.77878120183151
 30
0.0
 11
414.4857736225198
 21
15.38700801125252
 31
0.0
  0
LINE
  5
320
330
1F
100
AcDbEntity
  8
LINEE VISIBILI 2D
 62
   253
100
AcDbLine
 10
331.2619590543524
 20
13.11432127162696
 30
0.0
 11
414.4857736225198
 21
13.11432127162651
 31
0.0
  0
LINE
  5
321
330
1F
100
AcDbEntity
  8
LINEE VISIBILI 2D
 62
   253
100
AcDbLine
 10
331.2618227578656
 20
11.44986134142242
 30
0.0
 11
414.4857736225198
 21
10.96048855893331
 31
0.0
  0
LINE
  5
322
330
1F
100
AcDbEntity
  8
LINEE VISIBILI 2D
 62
   253
100
AcDbLine
 10
331.2616864621011
 20
9.785410230697822
 30
0.0
 11
414.4856373267552
 21
9.296037448208709
 31
0.0
  0
LWPOLYLINE
  5
325
330
1F
100
AcDbEntity
  8
0
100
AcDbPolyline
 90
        4
 70
     1
 43
0.0
 10
414.4914635387957
 20
91.56389252511058
 10
331.2616516461675
 20
91.56389252511056
 10
331.2616516461675
 20
8.340895735863888
 10
414.4914635387957
 20
8.340895735863895
  0
LINE
  5
327
330
1F
100
AcDbEntity
  8
0
100
AcDbLine
 10
322.9276960136848
 20
99.90000000000001
 30
0.0
 11
331.2616516461675
 21
91.56389252511056
 31
0.0
  0
LINE
  5
328
330
1F
100
AcDbEntity
  8
0
100
AcDbLine
 10
422.8274460136849
 20
99.90000000000001
 30
0.0
 11
414.4914635387957
 21
91.56389252511058
 31
0.0
  0
LINE
  5
329
330
1F
100
AcDbEntity
  8
0
100
AcDbLine
 10
414.4914635387957
 20
8.340895735863895
 30
0.0
 11
422.5700936286186
 21
0.2493381646212569
 31
0.0
  0
LWPOLYLINE
  5
32A
330
1F
100
AcDbEntity
  8
0
100
AcDbPolyline
 90
        4
 70
     1
 43
0.0
 10
324.1986713933946
 20
172.5926439412595
 10
324.6482729149559
 20
172.5926439412595
 10
324.6482729149559
 20
171.5915611301619
 10
324.1986713933946
 20
171.5915611301619
  0
LWPOLYLINE
  5
32B
330
1F
100
AcDbEntity
  8
0
100
AcDbPolyline
 90
        4
 70
     1
 43
0.0
 10
421.0944514602771
 20
172.5926778831404
 10
421.5440529818384
 20
172.5926778831404
 10
421.5440529818384
 20
171.5915950720429
 10
421.0944514602771
 20
171.5915950720429
  0
ENDSEC
  0
SECTION
  2
OBJECTS
  0
DICTIONARY
  5
C
330
0
100
AcDbDictionary
281
     1
  3
ACAD_COLOR
350
253
  3
ACAD_GROUP
350
D
  3
ACAD_LAYOUT
350
1A
  3
ACAD_MATERIAL
350
252
  3
ACAD_MLINESTYLE
350
17
  3
ACAD_PLOTSETTINGS
350
19
  3
ACAD_PLOTSTYLENAME
350
E
  3
ACAD_TABLESTYLE
350
254
  3
AcDbVariableDictionary
350
32D
  0
DICTIONARY
  5
253
102
{ACAD_REACTORS
330
C
102
}
330
C
100
AcDbDictionary
281
     1
  0
DICTIONARY
  5
D
102
{ACAD_REACTORS
330
C
102
}
330
C
100
AcDbDictionary
281
     1
  0
DICTIONARY
  5
1A
102
{ACAD_REACTORS
330
C
102
}
330
C
100
AcDbDictionary
281
     1
  3
Layout1
350
1E
  3
Layout2
350
26
  3
Model
350
22
  0
DICTIONARY
  5
252
102
{ACAD_REACTORS
330
C
102
}
330
C
100
AcDbDictionary
281
     1
  0
DICTIONARY
  5
17
102
{ACAD_REACTORS
330
C
102
}
330
C
100
AcDbDictionary
281
     1
  3
Standard
350
18
  0
DICTIONARY
  5
19
102
{ACAD_REACTORS
330
C
102
}
330
C
100
AcDbDictionary
281
     1
  0
ACDBDICTIONARYWDFLT
  5
E
102
{ACAD_REACTORS
330
C
102
}
330
C
100
AcDbDictionary
281
     1
  3
Normal
350
F
100
AcDbDictionaryWithDefault
340
F
  0
DICTIONARY
  5
254
102
{ACAD_REACTORS
330
C
102
}
330
C
100
AcDbDictionary
281
     1
  3
Standard
350
255
  0
DICTIONARY
  5
32D
102
{ACAD_REACTORS
330
C
102
}
330
C
100
AcDbDictionary
281
     1
  3
CTABLESTYLE
350
32E
  0
LAYOUT
  5
1E
102
{ACAD_REACTORS
330
1A
102
}
330
1A
100
AcDbPlotSettings
  1

  2
none_device
  4

  6

 40
0.0
 41
0.0
 42
0.0
 43
0.0
 44
0.0
 45
0.0
 46
0.0
 47
0.0
 48
0.0
 49
0.0
140
0.0
141
0.0
142
1.0
143
1.0
 70
   688
 72
     0
 73
     0
 74
     5
  7

 75
    16
147
1.0
 76
     0
 77
     2
 78
   300
148
0.0
149
0.0
100
AcDbLayout
  1
Layout1
 70
     1
 71
     1
 10
0.0
 20
0.0
 11
12.0
 21
9.0
 12
0.0
 22
0.0
 32
0.0
 14
1.000000000000000E+20
 24
1.000000000000000E+20
 34
1.000000000000000E+20
 15
-1.000000000000000E+20
 25
-1.000000000000000E+20
 35
-1.000000000000000E+20
146
0.0
 13
0.0
 23
0.0
 33
0.0
 16
1.0
 26
0.0
 36
0.0
 17
0.0
 27
1.0
 37
0.0
 76
     0
330
1B
  0
LAYOUT
  5
26
102
{ACAD_REACTORS
330
1A
102
}
330
1A
100
AcDbPlotSettings
  1

  2
none_device
  4

  6

 40
0.0
 41
0.0
 42
0.0
 43
0.0
 44
0.0
 45
0.0
 46
0.0
 47
0.0
 48
0.0
 49
0.0
140
0.0
141
0.0
142
1.0
143
1.0
 70
   688
 72
     0
 73
     0
 74
     5
  7

 75
    16
147
1.0
 76
     0
 77
     2
 78
   300
148
0.0
149
0.0
100
AcDbLayout
  1
Layout2
 70
     1
 71
     2
 10
0.0
 20
0.0
 11
0.0
 21
0.0
 12
0.0
 22
0.0
 32
0.0
 14
0.0
 24
0.0
 34
0.0
 15
0.0
 25
0.0
 35
0.0
146
0.0
 13
0.0
 23
0.0
 33
0.0
 16
1.0
 26
0.0
 36
0.0
 17
0.0
 27
1.0
 37
0.0
 76
     0
330
23
  0
LAYOUT
  5
22
102
{ACAD_REACTORS
330
1A
102
}
330
1A
100
AcDbPlotSettings
  1

  2
none_device
  4

  6

 40
0.0
 41
0.0
 42
0.0
 43
0.0
 44
0.0
 45
0.0
 46
0.0
 47
0.0
 48
0.0
 49
0.0
140
0.0
141
0.0
142
1.0
143
1.0
 70
  1712
 72
     0
 73
     0
 74
     0
  7

 75
     0
147
1.0
 76
     0
 77
     2
 78
   300
148
0.0
149
0.0
100
AcDbLayout
  1
Model
 70
     1
 71
     0
 10
0.0
 20
0.0
 11
12.0
 21
9.0
 12
0.0
 22
0.0
 32
0.0
 14
161.2861005375703
 24
0.0
 34
0.0
 15
422.8274460136849
 25
226.6916023260907
 35
0.0
146
0.0
 13
0.0
 23
0.0
 33
0.0
 16
1.0
 26
0.0
 36
0.0
 17
0.0
 27
1.0
 37
0.0
 76
     0
330
1F
  0
MLINESTYLE
  5
18
102
{ACAD_REACTORS
330
17
102
}
330
17
100
AcDbMlineStyle
  2
STANDARD
 70
     0
  3

 62
   256
 51
90.0
 52
90.0
 71
     2
 49
0.5
 62
   256
  6
BYLAYER
 49
-0.5
 62
   256
  6
BYLAYER
  0
ACDBPLACEHOLDER
  5
F
102
{ACAD_REACTORS
330
E
102
}
330
E
  0
TABLESTYLE
  5
255
102
{ACAD_REACTORS
330
254
102
}
330
254
100
AcDbTableStyle
  3
Standard
 70
     0
 71
     0
 40
0.06
 41
0.06
280
     0
281
     0
  7
Standard
140
0.18
170
     2
 62
     0
 63
     7
283
     0
274
    -2
284
     1
 64
     0
275
    -2
285
     1
 65
     0
276
    -2
286
     1
 66
     0
277
    -2
287
     1
 67
     0
278
    -2
288
     1
 68
     0
279
    -2
289
     1
 69
     0
  7
Standard
140
0.25
170
     5
 62
     0
 63
     7
283
     0
274
    -2
284
     1
 64
     0
275
    -2
285
     1
 65
     0
276
    -2
286
     1
 66
     0
277
    -2
287
     1
 67
     0
278
    -2
288
     1
 68
     0
279
    -2
289
     1
 69
     0
  7
Standard
140
0.18
170
     5
 62
     0
 63
     7
283
     0
274
    -2
284
     1
 64
     0
275
    -2
285
     1
 65
     0
276
    -2
286
     1
 66
     0
277
    -2
287
     1
 67
     0
278
    -2
288
     1
 68
     0
279
    -2
289
     1
 69
     0
  0
DICTIONARYVAR
  5
32E
102
{ACAD_REACTORS
330
32D
102
}
330
32D
100
DictionaryVariables
280
     0
  1
STANDARD
  0
ENDSEC
  0
EOF
