  0
SECTION
  2
HEADER
  9
$ACADVER
  1
AC1018
  9
$ACADMAINTVER
 70
    39
  9
$DWGCODEPAGE
  3
ANSI_1252
  9
$INSBASE
 10
0.0
 20
0.0
 30
0.0
  9
$EXTMIN
 10
0.0
 20
-0.0000000000000071
 30
0.0
  9
$EXTMAX
 10
507.6969995970275
 20
171.5915954761148
 30
0.0
  9
$LIMMIN
 10
0.0
 20
0.0
  9
$LIMMAX
 10
12.0
 20
9.0
  9
$ORTHOMODE
 70
     0
  9
$REGENMODE
 70
     1
  9
$FILLMODE
 70
     1
  9
$QTEXTMODE
 70
     0
  9
$MIRRTEXT
 70
     1
  9
$LTSCALE
 40
1.0
  9
$ATTMODE
 70
     1
  9
$TEXTSIZE
 40
0.2
  9
$TRACEWID
 40
0.05
  9
$TEXTSTYLE
  7
Standard
  9
$CLAYER
  8
LINEE VISIBILI 2D
  9
$CELTYPE
  6
ByLayer
  9
$CECOLOR
 62
   256
  9
$CELTSCALE
 40
1.0
  9
$DISPSILH
 70
     0
  9
$DIMSCALE
 40
1.0
  9
$DIMASZ
 40
0.18
  9
$DIMEXO
 40
0.0625
  9
$DIMDLI
 40
0.38
  9
$DIMRND
 40
0.0
  9
$DIMDLE
 40
0.0
  9
$DIMEXE
 40
0.18
  9
$DIMTP
 40
0.0
  9
$DIMTM
 40
0.0
  9
$DIMTXT
 40
0.18
  9
$DIMCEN
 40
0.09
  9
$DIMTSZ
 40
0.0
  9
$DIMTOL
 70
     0
  9
$DIMLIM
 70
     0
  9
$DIMTIH
 70
     1
  9
$DIMTOH
 70
     1
  9
$DIMSE1
 70
     0
  9
$DIMSE2
 70
     0
  9
$DIMTAD
 70
     0
  9
$DIMZIN
 70
     0
  9
$DIMBLK
  1

  9
$DIMASO
 70
     1
  9
$DIMSHO
 70
     1
  9
$DIMPOST
  1

  9
$DIMAPOST
  1

  9
$DIMALT
 70
     0
  9
$DIMALTD
 70
     2
  9
$DIMALTF
 40
25.4
  9
$DIMLFAC
 40
1.0
  9
$DIMTOFL
 70
     0
  9
$DIMTVP
 40
0.0
  9
$DIMTIX
 70
     0
  9
$DIMSOXD
 70
     0
  9
$DIMSAH
 70
     0
  9
$DIMBLK1
  1

  9
$DIMBLK2
  1

  9
$DIMSTYLE
  2
Standard
  9
$DIMCLRD
 70
     0
  9
$DIMCLRE
 70
     0
  9
$DIMCLRT
 70
     0
  9
$DIMTFAC
 40
1.0
  9
$DIMGAP
 40
0.09
  9
$DIMJUST
 70
     0
  9
$DIMSD1
 70
     0
  9
$DIMSD2
 70
     0
  9
$DIMTOLJ
 70
     1
  9
$DIMTZIN
 70
     0
  9
$DIMALTZ
 70
     0
  9
$DIMALTTZ
 70
     0
  9
$DIMUPT
 70
     0
  9
$DIMDEC
 70
     4
  9
$DIMTDEC
 70
     4
  9
$DIMALTU
 70
     2
  9
$DIMALTTD
 70
     2
  9
$DIMTXSTY
  7
Standard
  9
$DIMAUNIT
 70
     0
  9
$DIMADEC
 70
     0
  9
$DIMALTRND
 40
0.0
  9
$DIMAZIN
 70
     0
  9
$DIMDSEP
 70
    46
  9
$DIMATFIT
 70
     3
  9
$DIMFRAC
 70
     0
  9
$DIMLDRBLK
  1

  9
$DIMLUNIT
 70
     2
  9
$DIMLWD
 70
    -2
  9
$DIMLWE
 70
    -2
  9
$DIMTMOVE
 70
     0
  9
$LUNITS
 70
     2
  9
$LUPREC
 70
     3
  9
$SKETCHINC
 40
0.1
  9
$FILLETRAD
 40
0.5
  9
$AUNITS
 70
     0
  9
$AUPREC
 70
     0
  9
$MENU
  1
.
  9
$ELEVATION
 40
0.0
  9
$PELEVATION
 40
0.0
  9
$THICKNESS
 40
0.0
  9
$LIMCHECK
 70
     0
  9
$CHAMFERA
 40
0.5
  9
$CHAMFERB
 40
0.5
  9
$CHAMFERC
 40
1.0
  9
$CHAMFERD
 40
0.0
  9
$SKPOLY
 70
     0
  9
$TDCREATE
 40
2455009.677501482
  9
$TDUCREATE
 40
2455009.594168148
  9
$TDUPDATE
 40
2455009.738416308
  9
$TDUUPDATE
 40
2455009.655082974
  9
$TDINDWG
 40
0.0513341435
  9
$TDUSRTIMER
 40
0.0513341435
  9
$USRTIMER
 70
     1
  9
$ANGBASE
 50
0.0
  9
$ANGDIR
 70
     0
  9
$PDMODE
 70
    34
  9
$PDSIZE
 40
0.0
  9
$PLINEWID
 40
0.0
  9
$SPLFRAME
 70
     0
  9
$SPLINETYPE
 70
     6
  9
$SPLINESEGS
 70
     8
  9
$HANDSEED
  5
17B
  9
$SURFTAB1
 70
     6
  9
$SURFTAB2
 70
     6
  9
$SURFTYPE
 70
     6
  9
$SURFU
 70
     6
  9
$SURFV
 70
     6
  9
$UCSBASE
  2

  9
$UCSNAME
  2

  9
$UCSORG
 10
0.0
 20
0.0
 30
0.0
  9
$UCSXDIR
 10
1.0
 20
0.0
 30
0.0
  9
$UCSYDIR
 10
0.0
 20
1.0
 30
0.0
  9
$UCSORTHOREF
  2

  9
$UCSORTHOVIEW
 70
     0
  9
$UCSORGTOP
 10
0.0
 20
0.0
 30
0.0
  9
$UCSORGBOTTOM
 10
0.0
 20
0.0
 30
0.0
  9
$UCSORGLEFT
 10
0.0
 20
0.0
 30
0.0
  9
$UCSORGRIGHT
 10
0.0
 20
0.0
 30
0.0
  9
$UCSORGFRONT
 10
0.0
 20
0.0
 30
0.0
  9
$UCSORGBACK
 10
0.0
 20
0.0
 30
0.0
  9
$PUCSBASE
  2

  9
$PUCSNAME
  2

  9
$PUCSORG
 10
0.0
 20
0.0
 30
0.0
  9
$PUCSXDIR
 10
1.0
 20
0.0
 30
0.0
  9
$PUCSYDIR
 10
0.0
 20
1.0
 30
0.0
  9
$PUCSORTHOREF
  2

  9
$PUCSORTHOVIEW
 70
     0
  9
$PUCSORGTOP
 10
0.0
 20
0.0
 30
0.0
  9
$PUCSORGBOTTOM
 10
0.0
 20
0.0
 30
0.0
  9
$PUCSORGLEFT
 10
0.0
 20
0.0
 30
0.0
  9
$PUCSORGRIGHT
 10
0.0
 20
0.0
 30
0.0
  9
$PUCSORGFRONT
 10
0.0
 20
0.0
 30
0.0
  9
$PUCSORGBACK
 10
0.0
 20
0.0
 30
0.0
  9
$USERI1
 70
     0
  9
$USERI2
 70
     0
  9
$USERI3
 70
     0
  9
$USERI4
 70
     0
  9
$USERI5
 70
     0
  9
$USERR1
 40
0.0
  9
$USERR2
 40
0.0
  9
$USERR3
 40
0.0
  9
$USERR4
 40
0.0
  9
$USERR5
 40
0.0
  9
$WORLDVIEW
 70
     1
  9
$SHADEDGE
 70
     3
  9
$SHADEDIF
 70
    70
  9
$TILEMODE
 70
     1
  9
$MAXACTVP
 70
    64
  9
$PINSBASE
 10
0.0
 20
0.0
 30
0.0
  9
$PLIMCHECK
 70
     0
  9
$PEXTMIN
 10
1.000000000000000E+20
 20
1.000000000000000E+20
 30
1.000000000000000E+20
  9
$PEXTMAX
 10
-1.000000000000000E+20
 20
-1.000000000000000E+20
 30
-1.000000000000000E+20
  9
$PLIMMIN
 10
0.0
 20
0.0
  9
$PLIMMAX
 10
12.0
 20
9.0
  9
$UNITMODE
 70
     0
  9
$VISRETAIN
 70
     1
  9
$PLINEGEN
 70
     0
  9
$PSLTSCALE
 70
     1
  9
$TREEDEPTH
 70
  3020
  9
$CMLSTYLE
  2
Standard
  9
$CMLJUST
 70
     0
  9
$CMLSCALE
 40
1.0
  9
$PROXYGRAPHICS
 70
     1
  9
$MEASUREMENT
 70
     0
  9
$CELWEIGHT
370
    -1
  9
$ENDCAPS
280
     0
  9
$JOINSTYLE
280
     0
  9
$LWDISPLAY
290
     0
  9
$INSUNITS
 70
     4
  9
$HYPERLINKBASE
  1

  9
$STYLESHEET
  1

  9
$XEDIT
290
     1
  9
$CEPSNTYPE
380
     0
  9
$PSTYLEMODE
290
     1
  9
$FINGERPRINTGUID
  2
{B6AD5D44-4B25-4E1C-8132-AF2C2C318093}
  9
$VERSIONGUID
  2
{2BF915AB-9F36-49F3-B062-896F3F187647}
  9
$EXTNAMES
290
     1
  9
$PSVPSCALE
 40
0.0
  9
$OLESTARTUP
290
     0
  9
$SORTENTS
280
   127
  9
$INDEXCTL
280
     0
  9
$HIDETEXT
280
     1
  9
$XCLIPFRAME
290
     0
  9
$HALOGAP
280
     0
  9
$OBSCOLOR
 70
   257
  9
$OBSLTYPE
280
     0
  9
$INTERSECTIONDISPLAY
280
     0
  9
$INTERSECTIONCOLOR
 70
   257
  9
$DIMASSOC
280
     2
  9
$PROJECTNAME
  1

  0
ENDSEC
  0
SECTION
  2
CLASSES
  0
CLASS
  1
ACDBDICTIONARYWDFLT
  2
AcDbDictionaryWithDefault
  3
ObjectDBX Classes
 90
        0
 91
        1
280
     0
281
     0
  0
CLASS
  1
TABLESTYLE
  2
AcDbTableStyle
  3
ObjectDBX Classes
 90
     2047
 91
        1
280
     0
281
     0
  0
CLASS
  1
DICTIONARYVAR
  2
AcDbDictionaryVar
  3
ObjectDBX Classes
 90
        0
 91
        1
280
     0
281
     0
  0
ENDSEC
  0
SECTION
  2
TABLES
  0
TABLE
  2
VPORT
  5
8
330
0
100
AcDbSymbolTable
 70
     9
  0
VPORT
  5
17A
330
8
100
AcDbSymbolTableRecord
100
AcDbViewportTableRecord
  2
*Active
 70
     0
 10
0.0
 20
0.0
 11
1.0
 21
1.0
 12
26.55998673253015
 22
3.349107272674331
 13
0.0
 23
0.0
 14
0.5
 24
0.5
 15
0.5
 25
0.5
 16
0.0
 26
0.0
 36
1.0
 17
130.7706727380572
 27
85.7957977380574
 37
0.0
 40
230.9485783979257
 41
1.732472324723247
 42
50.0
 43
0.0
 44
0.0
 50
0.0
 51
0.0
 71
     0
 72
   100
 73
     1
 74
     3
 75
     0
 76
     0
 77
     0
 78
     0
281
     0
 65
     1
110
0.0
120
0.0
130
0.0
111
1.0
121
0.0
131
0.0
112
0.0
122
1.0
132
0.0
 79
     0
146
0.0
  0
ENDTAB
  0
TABLE
  2
LTYPE
  5
5
330
0
100
AcDbSymbolTable
 70
     1
  0
LTYPE
  5
14
330
5
100
AcDbSymbolTableRecord
100
AcDbLinetypeTableRecord
  2
ByBlock
 70
     0
  3

 72
    65
 73
     0
 40
0.0
  0
LTYPE
  5
15
330
5
100
AcDbSymbolTableRecord
100
AcDbLinetypeTableRecord
  2
ByLayer
 70
     0
  3

 72
    65
 73
     0
 40
0.0
  0
LTYPE
  5
16
330
5
100
AcDbSymbolTableRecord
100
AcDbLinetypeTableRecord
  2
Continuous
 70
     0
  3
Solid line
 72
    65
 73
     0
 40
0.0
  0
ENDTAB
  0
TABLE
  2
LAYER
  5
2
330
0
100
AcDbSymbolTable
 70
     2
  0
LAYER
  5
10
330
2
100
AcDbSymbolTableRecord
100
AcDbLayerTableRecord
  2
0
 70
     0
 62
     7
  6
Continuous
370
    -3
390
F
  0
LAYER
  5
2A
330
2
100
AcDbSymbolTableRecord
100
AcDbLayerTableRecord
  2
LINEE VISIBILI 2D
 70
     0
 62
     7
  6
Continuous
370
    -3
390
F
  0
ENDTAB
  0
TABLE
  2
STYLE
  5
3
330
0
100
AcDbSymbolTable
 70
     1
  0
STYLE
  5
11
330
3
100
AcDbSymbolTableRecord
100
AcDbTextStyleTableRecord
  2
Standard
 70
     0
 40
0.0
 41
1.0
 50
0.0
 71
     0
 42
0.2
  3
txt
  4

  0
ENDTAB
  0
TABLE
  2
VIEW
  5
6
330
0
100
AcDbSymbolTable
 70
     0
  0
ENDTAB
  0
TABLE
  2
UCS
  5
7
330
0
100
AcDbSymbolTable
 70
     0
  0
ENDTAB
  0
TABLE
  2
APPID
  5
9
330
0
100
AcDbSymbolTable
 70
     1
  0
APPID
  5
12
330
9
100
AcDbSymbolTableRecord
100
AcDbRegAppTableRecord
  2
ACAD
 70
     0
  0
ENDTAB
  0
TABLE
  2
DIMSTYLE
  5
A
330
0
100
AcDbSymbolTable
 70
     1
100
AcDbDimStyleTable
 71
     0
  0
DIMSTYLE
105
27
330
A
100
AcDbSymbolTableRecord
100
AcDbDimStyleTableRecord
  2
Standard
 70
     0
340
11
  0
ENDTAB
  0
TABLE
  2
BLOCK_RECORD
  5
1
330
0
100
AcDbSymbolTable
 70
     1
  0
BLOCK_RECORD
  5
1F
330
1
100
AcDbSymbolTableRecord
100
AcDbBlockTableRecord
  2
*Model_Space
340
22
  0
BLOCK_RECORD
  5
1B
330
1
100
AcDbSymbolTableRecord
100
AcDbBlockTableRecord
  2
*Paper_Space
340
1E
  0
BLOCK_RECORD
  5
23
330
1
100
AcDbSymbolTableRecord
100
AcDbBlockTableRecord
  2
*Paper_Space0
340
26
  0
ENDTAB
  0
ENDSEC
  0
SECTION
  2
BLOCKS
  0
BLOCK
  5
20
330
1F
100
AcDbEntity
  8
0
100
AcDbBlockBegin
  2
*Model_Space
 70
     0
 10
0.0
 20
0.0
 30
0.0
  3
*Model_Space
  1

  0
ENDBLK
  5
21
330
1F
100
AcDbEntity
  8
0
100
AcDbBlockEnd
  0
BLOCK
  5
1C
330
1B
100
AcDbEntity
 67
     1
  8
0
100
AcDbBlockBegin
  2
*Paper_Space
 70
     0
 10
0.0
 20
0.0
 30
0.0
  3
*Paper_Space
  1

  0
ENDBLK
  5
1D
330
1B
100
AcDbEntity
 67
     1
  8
0
100
AcDbBlockEnd
  0
BLOCK
  5
24
330
23
100
AcDbEntity
  8
0
100
AcDbBlockBegin
  2
*Paper_Space0
 70
     0
 10
0.0
 20
0.0
 30
0.0
  3
*Paper_Space0
  1

  0
ENDBLK
  5
25
330
23
100
AcDbEntity
  8
0
100
AcDbBlockEnd
  0
ENDSEC
  0
SECTION
  2
ENTITIES
  0
SPLINE
  5
2B
330
1F
100
AcDbEntity
  8
LINEE VISIBILI 2D
100
AcDbSpline
210
0.0
220
0.0
230
1.0
 70
    24
 71
     2
 72
     6
 73
     3
 74
     0
 42
0.0000000001
 43
0.0000000001
 40
0.0
 40
0.0
 40
0.0
 40
0.0999999999999943
 40
0.0999999999999943
 40
0.0999999999999943
 10
2.599530589577264
 20
171.3915954761145
 30
0.0
 10
2.599530589577267
 20
171.4415954761144
 30
0.0
 10
2.59953058957727
 20
171.4915954761145
 30
0.0
  0
SPLINE
  5
2C
330
1F
100
AcDbEntity
  8
LINEE VISIBILI 2D
100
AcDbSpline
210
0.0
220
0.0
230
1.0
 70
    24
 71
     2
 72
     6
 73
     3
 74
     0
 42
0.0000000001
 43
0.0000000001
 40
0.0
 40
0.0
 40
0.0
 40
0.1000004408165595
 40
0.1000004408165595
 40
0.1000004408165595
 10
97.29982384392631
 20
171.4915959157376
 30
0.0
 10
97.29981611917928
 20
171.441595695926
 30
0.0
 10
97.29980839443223
 20
171.3915954761145
 30
0.0
  0
SPLINE
  5
2D
330
1F
100
AcDbEntity
  8
LINEE VISIBILI 2D
100
AcDbSpline
210
0.0
220
0.0
230
1.0
 70
    24
 71
     2
 72
     6
 73
     3
 74
     0
 42
0.0000000001
 43
0.0000000001
 40
0.0
 40
0.0
 40
0.0
 40
99.20048738761991
 40
99.20048738761991
 40
99.20048738761991
 10
99.54983374053711
 20
171.5915954761148
 30
0.0
 10
49.94959004672715
 20
171.5915954761146
 30
0.0
 10
0.3493463529172018
 20
171.5915954761145
 30
0.0
  0
SPLINE
  5
2E
330
1F
100
AcDbEntity
  8
LINEE VISIBILI 2D
100
AcDbSpline
210
0.0
220
0.0
230
1.0
 70
    12
 71
     2
 72
     6
 73
     3
 74
     0
 42
0.0000000001
 43
0.0000000001
 40
0.0
 40
0.0
 40
0.0
 40
0.1530950009341625
 40
0.1530950009341625
 40
0.1530950009341625
 10
99.64966891568238
 20
171.4915954761145
 30
0.0
 41
1.0
 10
99.64083784170005
 20
171.5826142689184
 30
0.0
 41
0.7726119124678346
 10
99.54983374053711
 20
171.5915954761148
 30
0.0
 41
1.0
  0
SPLINE
  5
2F
330
1F
100
AcDbEntity
  8
LINEE VISIBILI 2D
100
AcDbSpline
210
0.0
220
0.0
230
1.0
 70
    24
 71
     2
 72
     6
 73
     3
 74
     0
 42
0.0000000001
 43
0.0000000001
 40
0.0
 40
0.0
 40
0.0
 40
99.40033075106113
 40
99.40033075106113
 40
99.40033075106113
 10
0.2493381646212569
 20
171.4915954761145
 30
0.0
 10
49.94950354015182
 20
171.4915954761145
 30
0.0
 10
99.64966891568238
 20
171.4915954761145
 30
0.0
  0
SPLINE
  5
30
330
1F
100
AcDbEntity
  8
LINEE VISIBILI 2D
100
AcDbSpline
210
0.0
220
0.0
230
1.0
 70
    12
 71
     2
 72
     6
 73
     3
 74
     0
 42
0.0000000001
 43
0.0000000001
 40
0.0
 40
0.0
 40
0.0
 40
0.1534916279659973
 40
0.1534916279659973
 40
0.1534916279659973
 10
0.3493463529172018
 20
171.5915954761145
 30
0.0
 41
1.0
 10
0.2576464392013202
 20
171.5832947098594
 30
0.0
 41
0.7680010099699365
 10
0.2493381646212556
 20
171.4915954761145
 30
0.0
 41
1.0
  0
SPLINE
  5
31
330
1F
100
AcDbEntity
  8
LINEE VISIBILI 2D
100
AcDbSpline
210
0.0
220
0.0
230
1.0
 70
    24
 71
     2
 72
     6
 73
     3
 74
     0
 42
0.0000000001
 43
0.0000000001
 40
0.0
 40
0.0
 40
0.0
 40
9.75
 40
9.75
 40
9.75
 10
0.0
 20
171.3915954761145
 30
0.0
 10
0.0
 20
166.5165954761144
 30
0.0
 10
0.0
 20
161.6415954761144
 30
0.0
  0
SPLINE
  5
32
330
1F
100
AcDbEntity
  8
LINEE VISIBILI 2D
100
AcDbSpline
210
0.0
220
0.0
230
1.0
 70
    24
 71
     2
 72
     6
 73
     3
 74
     0
 42
0.0000000001
 43
0.0000000001
 40
0.0
 40
0.0
 40
0.0
 40
99.89999999999998
 40
99.89999999999998
 40
99.89999999999998
 10
99.89999999999998
 20
171.3915954761145
 30
0.0
 10
49.94999999999999
 20
171.3915954761145
 30
0.0
 10
0.0
 20
171.3915954761145
 30
0.0
  0
SPLINE
  5
33
330
1F
100
AcDbEntity
  8
LINEE VISIBILI 2D
100
AcDbSpline
210
0.0
220
0.0
230
1.0
 70
    24
 71
     2
 72
     6
 73
     3
 74
     0
 42
0.0000000001
 43
0.0000000001
 40
0.0
 40
0.0
 40
0.0
 40
9.75
 40
9.75
 40
9.75
 10
99.89999999999998
 20
161.6415954761144
 30
0.0
 10
99.89999999999998
 20
166.5165954761144
 30
0.0
 10
99.89999999999998
 20
171.3915954761145
 30
0.0
  0
SPLINE
  5
34
330
1F
100
AcDbEntity
  8
LINEE VISIBILI 2D
100
AcDbSpline
210
0.0
220
0.0
230
1.0
 70
    24
 71
     2
 72
     6
 73
     3
 74
     0
 42
0.0000000001
 43
0.0000000001
 40
0.0
 40
0.0
 40
0.0
 40
99.89999999999998
 40
99.89999999999998
 40
99.89999999999998
 10
99.89999999999998
 20
161.6415954761144
 30
0.0
 10
49.94999999999999
 20
161.6415954761144
 30
0.0
 10
0.0
 20
161.6415954761144
 30
0.0
  0
SPLINE
  5
35
330
1F
100
AcDbEntity
  8
LINEE VISIBILI 2D
100
AcDbSpline
210
0.0
220
0.0
230
1.0
 70
    24
 71
     2
 72
     6
 73
     3
 74
     0
 42
0.0000000001
 43
0.0000000001
 40
0.0
 40
0.0
 40
0.0
 40
0.1001061682934601
 40
0.1001061682934601
 40
0.1001061682934601
 10
164.2387270618919
 20
171.4916990370973
 30
0.0
 10
164.239088312826
 20
171.4416472566059
 30
0.0
 10
164.2394495637601
 20
171.3915954761144
 30
0.0
  0
SPLINE
  5
36
330
1F
100
AcDbEntity
  8
LINEE VISIBILI 2D
100
AcDbSpline
210
0.0
220
0.0
230
1.0
 70
    12
 71
     2
 72
     6
 73
     3
 74
     0
 42
0.0000000001
 43
0.0000000001
 40
0.0
 40
0.0
 40
0.0
 40
0.1530509422321251
 40
0.1530509422321251
 40
0.1530509422321251
 10
161.8914704761144
 20
171.4915954761145
 30
0.0
 41
1.0
 10
161.892212606722
 20
171.5872154598486
 30
0.0
 41
0.7256695246040367
 10
161.9877366947347
 20
171.5915606475875
 30
0.0
 41
1.0
  0
SPLINE
  5
37
330
1F
100
AcDbEntity
  8
LINEE VISIBILI 2D
100
AcDbSpline
210
0.0
220
0.0
230
1.0
 70
    24
 71
     2
 72
     6
 73
     3
 74
     0
 42
0.0000000001
 43
0.0000000001
 40
0.0
 40
0.0
 40
0.0
 40
99.19626458528616
 40
99.19626458528616
 40
99.19626458528616
 10
261.1840012800148
 20
171.5915954761145
 30
0.0
 10
211.5858689873748
 20
171.591578061851
 30
0.0
 10
161.9877366947347
 20
171.5915606475875
 30
0.0
  0
SPLINE
  5
38
330
1F
100
AcDbEntity
  8
LINEE VISIBILI 2D
100
AcDbSpline
210
0.0
220
0.0
230
1.0
 70
    24
 71
     2
 72
     6
 73
     3
 74
     0
 42
0.0000000001
 43
0.0000000001
 40
0.0
 40
0.0
 40
0.0
 40
99.39252261493379
 40
99.39252261493379
 40
99.39252261493379
 10
161.8914704761144
 20
171.4915954761145
 30
0.0
 10
211.5877317835814
 20
171.4915954761145
 30
0.0
 10
261.2839930910483
 20
171.4915954761145
 30
0.0
  0
SPLINE
  5
39
330
1F
100
AcDbEntity
  8
LINEE VISIBILI 2D
100
AcDbSpline
210
0.0
220
0.0
230
1.0
 70
    24
 71
     2
 72
     6
 73
     3
 74
     0
 42
0.0000000001
 43
0.0000000001
 40
0.0
 40
0.0
 40
0.0
 40
0.0999999999999943
 40
0.0999999999999943
 40
0.0999999999999943
 10
258.9341855317619
 20
171.3915954761145
 30
0.0
 10
258.9341855317619
 20
171.4415954761144
 30
0.0
 10
258.9341855317619
 20
171.4915954761145
 30
0.0
  0
SPLINE
  5
3A
330
1F
100
AcDbEntity
  8
LINEE VISIBILI 2D
100
AcDbSpline
210
0.0
220
0.0
230
1.0
 70
    12
 71
     2
 72
     6
 73
     3
 74
     0
 42
0.0000000001
 43
0.0000000001
 40
0.0
 40
0.0
 40
0.0
 40
0.1534792867481914
 40
0.1534792867481914
 40
0.1534792867481914
 10
261.1840012800148
 20
171.5915954761145
 30
0.0
 41
1.0
 10
261.2756935288639
 20
171.5832884049473
 30
0.0
 41
0.7679970529033893
 10
261.2839930910483
 20
171.4915954761145
 30
0.0
 41
1.0
  0
SPLINE
  5
3B
330
1F
100
AcDbEntity
  8
LINEE VISIBILI 2D
100
AcDbSpline
210
0.0
220
0.0
230
1.0
 70
    24
 71
     2
 72
     6
 73
     3
 74
     0
 42
0.0000000001
 43
0.0000000001
 40
0.0
 40
0.0
 40
0.0
 40
99.89975000000001
 40
99.89975000000001
 40
99.89975000000001
 10
261.5413454761145
 20
171.3915954761145
 30
0.0
 10
211.5914704761145
 20
171.3915954761145
 30
0.0
 10
161.6415954761144
 20
171.3915954761145
 30
0.0
  0
SPLINE
  5
3C
330
1F
100
AcDbEntity
  8
LINEE VISIBILI 2D
100
AcDbSpline
210
0.0
220
0.0
230
1.0
 70
    24
 71
     2
 72
     6
 73
     3
 74
     0
 42
0.0000000001
 43
0.0000000001
 40
0.0
 40
0.0
 40
0.0
 40
9.750000000089031
 40
9.750000000089031
 40
9.750000000089031
 10
261.5413454761145
 20
171.3915954761145
 30
0.0
 10
261.5413246427812
 20
166.5165954761144
 30
0.0
 10
261.5413038094479
 20
161.6415954761144
 30
0.0
  0
SPLINE
  5
3D
330
1F
100
AcDbEntity
  8
LINEE VISIBILI 2D
100
AcDbSpline
210
0.0
220
0.0
230
1.0
 70
    24
 71
     2
 72
     6
 73
     3
 74
     0
 42
0.0000000001
 43
0.0000000001
 40
0.0
 40
0.0
 40
0.0
 40
9.750000000089031
 40
9.750000000089031
 40
9.750000000089031
 10
161.6416371427811
 20
161.6415954761144
 30
0.0
 10
161.6416163094478
 20
166.5165954761144
 30
0.0
 10
161.6415954761144
 20
171.3915954761145
 30
0.0
  0
SPLINE
  5
3E
330
1F
100
AcDbEntity
  8
LINEE VISIBILI 2D
100
AcDbSpline
210
0.0
220
0.0
230
1.0
 70
    24
 71
     2
 72
     6
 73
     3
 74
     0
 42
0.0000000001
 43
0.0000000001
 40
0.0
 40
0.0
 40
0.0
 40
99.89966666666672
 40
99.89966666666672
 40
99.89966666666672
 10
261.5413038094479
 20
161.6415954761144
 30
0.0
 10
211.5914704761145
 20
161.6415954761144
 30
0.0
 10
161.6416371427811
 20
161.6415954761144
 30
0.0
  0
SPLINE
  5
3F
330
1F
100
AcDbEntity
  8
LINEE VISIBILI 2D
100
AcDbSpline
210
0.0
220
0.0
230
1.0
 70
    24
 71
     2
 72
     6
 73
     3
 74
     0
 42
0.0000000001
 43
0.0000000001
 40
0.0
 40
0.0
 40
0.0
 40
83.22299681392815
 40
83.22299681392815
 40
83.22299681392815
 10
169.9755511085971
 20
8.340895735863888
 30
0.0
 10
169.9765645298005
 20
49.95239413048736
 30
0.0
 10
169.9775779510038
 20
91.56389252511083
 30
0.0
  0
SPLINE
  5
42
330
1F
100
AcDbEntity
  8
LINEE VISIBILI 2D
100
AcDbSpline
210
0.0
220
0.0
230
1.0
 70
    24
 71
     2
 72
     6
 73
     3
 74
     0
 42
0.0000000001
 43
0.0000000001
 40
0.0
 40
0.0
 40
0.0
 40
94.69544706322711
 40
94.69544706322711
 40
94.69544706322711
 10
164.2414704761145
 20
97.30000000000011
 30
0.0
 10
164.2400987690032
 20
49.95227648825634
 30
0.0
 10
164.2387270618919
 20
2.6045529765126
 30
0.0
  0
SPLINE
  5
45
330
1F
100
AcDbEntity
  8
LINEE VISIBILI 2D
100
AcDbSpline
210
0.0
220
0.0
230
1.0
 70
     8
 71
     2
 72
     6
 73
     3
 74
     0
 42
0.0000000001
 43
0.0000000001
 40
0.0
 40
0.0
 40
0.0
 40
95.67301035722337
 40
95.67301035722337
 40
95.67301035722337
 10
163.7414704761144
 20
2.122390640895004
 30
0.0
 10
163.7414704761144
 20
49.95889581950669
 30
0.0
 10
163.741470488385
 20
97.80000000000008
 30
0.0
  0
SPLINE
  5
49
330
1F
100
AcDbEntity
  8
LINEE VISIBILI 2D
100
AcDbSpline
210
0.0
220
0.0
230
1.0
 70
    24
 71
     2
 72
     6
 73
     3
 74
     0
 42
0.0000000001
 43
0.0000000001
 40
0.0
 40
0.0
 40
0.0
 40
98.09257556418652
 40
98.09257556418652
 40
98.09257556418652
 10
162.5414704761144
 20
0.9074244358134324
 30
0.0
 10
162.5414704761145
 20
49.95371221790669
 30
0.0
 10
162.5414704761145
 20
98.99999999999996
 30
0.0
  0
SPLINE
  5
4B
330
1F
100
AcDbEntity
  8
LINEE VISIBILI 2D
100
AcDbSpline
210
0.0
220
0.0
230
1.0
 70
    24
 71
     2
 72
     6
 73
     3
 74
     0
 42
0.0000000001
 43
0.0000000001
 40
0.0
 40
0.0
 40
0.0
 40
99.39149629164218
 40
99.39149629164218
 40
99.39149629164218
 10
161.8914704761144
 20
99.65000000000005
 30
0.0
 10
161.8914704761144
 20
49.95425185417897
 30
0.0
 10
161.8914704761144
 20
0.258503708357872
 30
0.0
  0
SPLINE
  5
4E
330
1F
100
AcDbEntity
  8
LINEE VISIBILI 2D
100
AcDbSpline
210
0.0
220
0.0
230
1.0
 70
    24
 71
     2
 72
     6
 73
     3
 74
     0
 42
0.0000000001
 43
0.0000000001
 40
0.0
 40
0.0
 40
0.0
 40
83.22778505022137
 40
83.22778505022137
 40
83.22778505022137
 10
169.9775779510038
 20
91.56389252511083
 30
0.0
 10
211.5914704761145
 20
91.56389252511061
 30
0.0
 10
253.2053630012252
 20
91.5638925251104
 30
0.0
  0
SPLINE
  5
52
330
1F
100
AcDbEntity
  8
LINEE VISIBILI 2D
100
AcDbSpline
210
0.0
220
0.0
230
1.0
 70
    24
 71
     2
 72
     6
 73
     3
 74
     0
 42
0.0000000001
 43
0.0000000001
 40
0.0
 40
0.0
 40
0.0
 40
94.70029356088744
 40
94.70029356088744
 40
94.70029356088744
 10
164.2414704761145
 20
97.30000000000011
 30
0.0
 10
211.5916172564763
 20
97.29991192196321
 30
0.0
 10
258.9417640368381
 20
97.29982384392632
 30
0.0
  0
SPLINE
  5
55
330
1F
100
AcDbEntity
  8
LINEE VISIBILI 2D
100
AcDbSpline
210
0.0
220
0.0
230
1.0
 70
    24
 71
     2
 72
     6
 73
     3
 74
     0
 42
0.0000000001
 43
0.0000000001
 40
0.0
 40
0.0
 40
0.0
 40
95.70025531581064
 40
95.70025531581064
 40
95.70025531581064
 10
163.7414704761144
 20
97.8000000000001
 30
0.0
 10
211.5915981338495
 20
97.79987233181138
 30
0.0
 10
259.4417257915845
 20
97.79974466362267
 30
0.0
  0
SPLINE
  5
57
330
1F
100
AcDbEntity
  8
LINEE VISIBILI 2D
100
AcDbSpline
210
0.0
220
0.0
230
1.0
 70
    24
 71
     2
 72
     6
 73
     3
 74
     0
 42
0.0000000001
 43
0.0000000001
 40
0.0
 40
0.0
 40
0.0
 40
98.10038056307888
 40
98.10038056307888
 40
98.10038056307888
 10
162.5414704761145
 20
98.99999999999996
 30
0.0
 10
211.591660757521
 20
98.99988581663764
 30
0.0
 10
260.6418510389276
 20
98.99977163327534
 30
0.0
  0
SPLINE
  5
5A
330
1F
100
AcDbEntity
  8
LINEE VISIBILI 2D
100
AcDbSpline
210
0.0
220
0.0
230
1.0
 70
    24
 71
     2
 72
     6
 73
     3
 74
     0
 42
0.0000000001
 43
0.0000000001
 40
0.0
 40
0.0
 40
0.0
 40
99.40033105775995
 40
99.40033105775995
 40
99.40033105775995
 10
261.2918015333231
 20
99.6496689156824
 30
0.0
 10
211.5916360047187
 20
99.64983445784122
 30
0.0
 10
161.8914704761144
 20
99.65000000000005
 30
0.0
  0
SPLINE
  5
5B
330
1F
100
AcDbEntity
  8
LINEE VISIBILI 2D
100
AcDbSpline
210
0.0
220
0.0
230
1.0
 70
    24
 71
     2
 72
     6
 73
     3
 74
     0
 42
0.0000000001
 43
0.0000000001
 40
0.0
 40
0.0
 40
0.0
 40
83.2229968139282
 40
83.2229968139282
 40
83.2229968139282
 10
253.1985477847944
 20
8.336107753925553
 30
0.0
 10
211.5870494466957
 20
8.33850174489472
 30
0.0
 10
169.9755511085971
 20
8.340895735863888
 30
0.0
  0
SPLINE
  5
5F
330
1F
100
AcDbEntity
  8
LINEE VISIBILI 2D
100
AcDbSpline
210
0.0
220
0.0
230
1.0
 70
    24
 71
     2
 72
     6
 73
     3
 74
     0
 42
0.0000000001
 43
0.0000000001
 40
0.0
 40
0.0
 40
0.0
 40
94.69545860305677
 40
94.69545860305677
 40
94.69545860305677
 10
258.9341855317619
 20
2.59953058957727
 30
0.0
 10
211.5864562968269
 20
2.602041783044935
 30
0.0
 10
164.2387270618919
 20
2.6045529765126
 30
0.0
  0
SPLINE
  5
61
330
1F
100
AcDbEntity
  8
LINEE VISIBILI 2D
100
AcDbSpline
210
0.0
220
0.0
230
1.0
 70
    12
 71
     2
 72
     6
 73
     3
 74
     0
 42
0.0000000001
 43
0.0000000001
 40
0.0
 40
0.0
 40
0.0
 40
0.0114705177663021
 40
0.0114705177663021
 40
0.0114705177663021
 10
163.7423808580826
 20
2.11530937306483
 30
0.0
 41
1.0
 10
163.7382015851047
 20
2.111381009138393
 30
0.0
 41
0.9998821067874589
 10
163.734144907781
 20
2.107326168222606
 30
0.0
 41
1.0
  0
SPLINE
  5
63
330
1F
100
AcDbEntity
  8
LINEE VISIBILI 2D
100
AcDbSpline
210
0.0
220
0.0
230
1.0
 70
    24
 71
     2
 72
     6
 73
     3
 74
     0
 42
0.0000000001
 43
0.0000000001
 40
0.0
 40
0.0
 40
0.0
 40
95.69267383177828
 40
95.69267383177828
 40
95.69267383177828
 10
259.4341445869292
 20
2.099489648097232
 30
0.0
 10
211.5878078314537
 20
2.103407608203461
 30
0.0
 10
163.7414710759782
 20
2.107325568309689
 30
0.0
  0
SPLINE
  5
67
330
1F
100
AcDbEntity
  8
LINEE VISIBILI 2D
100
AcDbSpline
210
0.0
220
0.0
230
1.0
 70
     8
 71
     2
 72
     6
 73
     3
 74
     0
 42
0.0000000001
 43
0.0000000001
 40
0.0
 40
0.0
 40
0.0
 40
98.09257556417968
 40
98.09257556417968
 40
98.09257556417968
 10
260.6340463193306
 20
0.8993913885448705
 30
0.0
 10
211.5877587016775
 20
0.9034076081993113
 30
0.0
 10
162.5414704761144
 20
0.9073959041643709
 30
0.0
  0
SPLINE
  5
68
330
1F
100
AcDbEntity
  8
LINEE VISIBILI 2D
100
AcDbSpline
210
0.0
220
0.0
230
1.0
 70
    24
 71
     2
 72
     6
 73
     3
 74
     0
 42
0.0000000001
 43
0.0000000001
 40
0.0
 40
0.0
 40
0.0
 40
99.39252261713733
 40
99.39252261713733
 40
99.39252261713733
 10
161.8914704761144
 20
0.25
 30
0.0
 10
211.5877317835814
 20
0.2496690823106284
 30
0.0
 10
261.2839930910483
 20
0.2493381646212569
 30
0.0
  0
SPLINE
  5
6D
330
1F
100
AcDbEntity
  8
LINEE VISIBILI 2D
100
AcDbSpline
210
0.0
220
0.0
230
1.0
 70
    24
 71
     2
 72
     6
 73
     3
 74
     0
 42
0.0000000001
 43
0.0000000001
 40
0.0
 40
0.0
 40
0.0
 40
83.22778505022132
 40
83.22778505022132
 40
83.22778505022132
 10
253.2053630012252
 20
91.5638925251104
 30
0.0
 10
253.2019553930098
 20
49.95000013951798
 30
0.0
 10
253.1985477847944
 20
8.336107753925553
 30
0.0
  0
SPLINE
  5
74
330
1F
100
AcDbEntity
  8
LINEE VISIBILI 2D
100
AcDbSpline
210
0.0
220
0.0
230
1.0
 70
     8
 71
     2
 72
     6
 73
     3
 74
     0
 42
0.0000000001
 43
0.0000000001
 40
0.0
 40
0.0
 40
0.0
 40
94.69274720621141
 40
94.69274720621141
 40
94.69274720621141
 10
258.9417634469695
 20
97.29982384392743
 30
0.0
 10
258.937974482347
 20
49.94590404107532
 30
0.0
 10
258.9341855317619
 20
2.59953058957727
 30
0.0
  0
SPLINE
  5
79
330
1F
100
AcDbEntity
  8
LINEE VISIBILI 2D
100
AcDbSpline
210
0.0
220
0.0
230
1.0
 70
    24
 71
     2
 72
     6
 73
     3
 74
     0
 42
0.0000000001
 43
0.0000000001
 40
0.0
 40
0.0
 40
0.0
 40
95.70025531581022
 40
95.70025531581022
 40
95.70025531581022
 10
259.4417257915845
 20
97.79974466362267
 30
0.0
 10
259.4379351892568
 20
49.94961715585994
 30
0.0
 10
259.4341445869292
 20
2.099489648097232
 30
0.0
  0
SPLINE
  5
7D
330
1F
100
AcDbEntity
  8
LINEE VISIBILI 2D
100
AcDbSpline
210
0.0
220
0.0
230
1.0
 70
    24
 71
     2
 72
     6
 73
     3
 74
     0
 42
0.0000000001
 43
0.0000000001
 40
0.0
 40
0.0
 40
0.0
 40
98.10038055519637
 40
98.10038055519637
 40
98.10038055519637
 10
260.6418510389276
 20
98.99977163327534
 30
0.0
 10
260.6379486791291
 20
49.9495815109101
 30
0.0
 10
260.6340463193306
 20
0.8993913885448705
 30
0.0
  0
SPLINE
  5
81
330
1F
100
AcDbEntity
  8
LINEE VISIBILI 2D
100
AcDbSpline
210
0.0
220
0.0
230
1.0
 70
    24
 71
     2
 72
     6
 73
     3
 74
     0
 42
0.0000000001
 43
0.0000000001
 40
0.0
 40
0.0
 40
0.0
 40
99.40033105775917
 40
99.40033105775917
 40
99.40033105775917
 10
261.2839930910483
 20
0.2493381646212569
 30
0.0
 10
261.2878973121857
 20
49.94950354015182
 30
0.0
 10
261.2918015333231
 20
99.6496689156824
 30
0.0
  0
SPLINE
  5
83
330
1F
100
AcDbEntity
  8
LINEE VISIBILI 2D
100
AcDbSpline
210
0.0
220
0.0
230
1.0
 70
    24
 71
     2
 72
     6
 73
     3
 74
     0
 42
0.0000000001
 43
0.0000000001
 40
0.0
 40
0.0
 40
0.0
 40
99.89966666666678
 40
99.89966666666678
 40
99.89966666666678
 10
161.6416371427811
 20
99.9
 30
0.0
 10
211.5914704761145
 20
99.9
 30
0.0
 10
261.5413038094479
 20
99.9
 30
0.0
  0
SPLINE
  5
84
330
1F
100
AcDbEntity
  8
LINEE VISIBILI 2D
100
AcDbSpline
210
0.0
220
0.0
230
1.0
 70
    24
 71
     2
 72
     6
 73
     3
 74
     0
 42
0.0000000001
 43
0.0000000001
 40
0.0
 40
0.0
 40
0.0
 40
99.89966666666672
 40
99.89966666666672
 40
99.89966666666672
 10
261.5413038094479
 20
0.0
 30
0.0
 10
211.5914704761145
 20
0.0
 30
0.0
 10
161.6416371427811
 20
0.0
 30
0.0
  0
SPLINE
  5
85
330
1F
100
AcDbEntity
  8
LINEE VISIBILI 2D
100
AcDbSpline
210
0.0
220
0.0
230
1.0
 70
    24
 71
     2
 72
     6
 73
     3
 74
     0
 42
0.0000000001
 43
0.0000000001
 40
0.0
 40
0.0
 40
0.0
 40
99.9
 40
99.9
 40
99.9
 10
261.5413454761145
 20
99.9
 30
0.0
 10
261.5413454761145
 20
49.95
 30
0.0
 10
261.5413454761145
 20
0.0
 30
0.0
  0
SPLINE
  5
86
330
1F
100
AcDbEntity
  8
LINEE VISIBILI 2D
100
AcDbSpline
210
0.0
220
0.0
230
1.0
 70
    24
 71
     2
 72
     6
 73
     3
 74
     0
 42
0.0000000001
 43
0.0000000001
 40
0.0
 40
0.0
 40
0.0
 40
99.9
 40
99.9
 40
99.9
 10
161.6415954761144
 20
0.0
 30
0.0
 10
161.6415954761144
 20
49.95
 30
0.0
 10
161.6415954761144
 20
99.9
 30
0.0
  0
SPLINE
  5
87
330
1F
100
AcDbEntity
  8
LINEE VISIBILI 2D
100
AcDbSpline
210
0.0
220
0.0
230
1.0
 70
    24
 71
     2
 72
     6
 73
     3
 74
     0
 42
0.0000000001
 43
0.0000000001
 40
0.0
 40
0.0
 40
0.0
 40
0.0429471379152396
 40
0.0429471379152396
 40
0.0429471379152396
 10
47.92900387866773
 20
73.4038623600714
 30
0.0
 10
47.94630145950605
 20
73.41658666205302
 30
0.0
 10
47.96359904034438
 20
73.42931096403463
 30
0.0
  0
SPLINE
  5
88
330
1F
100
AcDbEntity
  8
LINEE VISIBILI 2D
100
AcDbSpline
210
0.0
220
0.0
230
1.0
 70
    24
 71
     2
 72
     6
 73
     3
 74
     0
 42
0.0000000001
 43
0.0000000001
 40
0.0
 40
0.0
 40
0.0
 40
0.1215578412277019
 40
0.1215578412277019
 40
0.1215578412277019
 10
2.137291317331271
 20
39.71894512615831
 30
0.0
 10
2.186250495689511
 20
39.75496006813342
 30
0.0
 10
2.23520967404775
 20
39.79097501010853
 30
0.0
  0
SPLINE
  5
89
330
1F
100
AcDbEntity
  8
LINEE VISIBILI 2D
100
AcDbSpline
210
0.0
220
0.0
230
1.0
 70
    24
 71
     2
 72
     6
 73
     3
 74
     0
 42
0.0000000001
 43
0.0000000001
 40
0.0
 40
0.0
 40
0.0
 40
59.02572458162511
 40
59.02572458162511
 40
59.02572458162511
 10
0.2830038052831384
 20
39.59677826983591
 30
0.0
 10
24.08201846466463
 20
57.05002844964514
 30
0.0
 10
47.88103312404611
 20
74.50327862945437
 30
0.0
  0
SPLINE
  5
8A
330
1F
100
AcDbEntity
  8
LINEE VISIBILI 2D
100
AcDbSpline
210
0.0
220
0.0
230
1.0
 70
    24
 71
     2
 72
     6
 73
     3
 74
     0
 42
0.0000000001
 43
0.0000000001
 40
0.0
 40
0.0
 40
0.0
 40
56.88345985696136
 40
56.88345985696136
 40
56.88345985696136
 10
47.97399764034795
 20
73.42903027036479
 30
0.0
 10
72.88683021515605
 20
59.70741322191841
 30
0.0
 10
97.79966278996415
 20
45.98579617347204
 30
0.0
  0
SPLINE
  5
8B
330
1F
100
AcDbEntity
  8
LINEE VISIBILI 2D
100
AcDbSpline
210
0.0
220
0.0
230
1.0
 70
    24
 71
     2
 72
     6
 73
     3
 74
     0
 42
0.0000000001
 43
0.0000000001
 40
0.0
 40
0.0
 40
0.0
 40
59.02854921999521
 40
59.02854921999521
 40
59.02854921999521
 10
47.8847009303563
 20
74.50492711228339
 30
0.0
 10
73.75366447764773
 20
60.29615761090656
 30
0.0
 10
99.62262802493917
 20
46.08738810952973
 30
0.0
  0
SPLINE
  5
8C
330
1F
100
AcDbEntity
  8
LINEE VISIBILI 2D
100
AcDbSpline
210
0.0
220
0.0
230
1.0
 70
    24
 71
     2
 72
     6
 73
     3
 74
     0
 42
0.0000000001
 43
0.0000000001
 40
0.0
 40
0.0
 40
0.0
 40
52.74256649821253
 40
52.74256649821253
 40
52.74256649821253
 10
8.333134884167771
 20
39.84682241487205
 30
0.0
 10
30.56107229594508
 20
25.65656594704515
 30
0.0
 10
52.78900970772239
 20
11.46630947921825
 30
0.0
  0
SPLINE
  5
8D
330
1F
100
AcDbEntity
  8
LINEE VISIBILI 2D
100
AcDbSpline
210
0.0
220
0.0
230
1.0
 70
    24
 71
     2
 72
     6
 73
     3
 74
     0
 42
0.0000000001
 43
0.0000000001
 40
0.0
 40
0.0
 40
0.0
 40
60.0890128022124
 40
60.0890128022124
 40
60.0890128022124
 10
2.621101562044089
 20
39.73248197840579
 30
0.0
 10
27.87626380666606
 20
23.45829551997006
 30
0.0
 10
53.13142605128803
 20
7.184109061534339
 30
0.0
  0
SPLINE
  5
8E
330
1F
100
AcDbEntity
  8
LINEE VISIBILI 2D
100
AcDbSpline
210
0.0
220
0.0
230
1.0
 70
    24
 71
     2
 72
     6
 73
     3
 74
     0
 42
0.0000000001
 43
0.0000000001
 40
0.0
 40
0.0
 40
0.0
 40
58.05698312503032
 40
58.05698312503032
 40
58.05698312503032
 10
4.479703126884561
 20
37.31843322041535
 30
0.0
 10
28.85933561431527
 20
21.56131285618551
 30
0.0
 10
53.23896810174598
 20
5.804192491955658
 30
0.0
  0
SPLINE
  5
8F
330
1F
100
AcDbEntity
  8
LINEE VISIBILI 2D
100
AcDbSpline
210
0.0
220
0.0
230
1.0
 70
    24
 71
     2
 72
     6
 73
     3
 74
     0
 42
0.0000000001
 43
0.0000000001
 40
0.0
 40
0.0
 40
0.0
 40
0.0576299640863556
 40
0.0576299640863556
 40
0.0576299640863556
 10
0.8930631136406748
 20
39.63656161800231
 30
0.0
 10
0.917263429762224
 20
39.62092039395285
 30
0.0
 10
0.9414637458837731
 20
39.60527916990337
 30
0.0
  0
SPLINE
  5
90
330
1F
100
AcDbEntity
  8
LINEE VISIBILI 2D
100
AcDbSpline
210
0.0
220
0.0
230
1.0
 70
    24
 71
     2
 72
     6
 73
     3
 74
     0
 42
0.0000000001
 43
0.0000000001
 40
0.0
 40
0.0
 40
0.0
 40
51.6656798425305
 40
51.6656798425305
 40
51.6656798425305
 10
52.78901066841707
 20
11.46630501253768
 30
0.0
 10
72.3098985090907
 20
28.38583681189773
 30
0.0
 10
91.83078634976434
 20
45.30536861125777
 30
0.0
  0
SPLINE
  5
91
330
1F
100
AcDbEntity
  8
LINEE VISIBILI 2D
100
AcDbSpline
210
0.0
220
0.0
230
1.0
 70
    24
 71
     2
 72
     6
 73
     3
 74
     0
 42
0.0000000001
 43
0.0000000001
 40
0.0
 40
0.0
 40
0.0
 40
58.78902046457596
 40
58.78902046457596
 40
58.78902046457596
 10
53.13065266348464
 20
7.184420665487982
 30
0.0
 10
75.2422185161641
 20
26.55232936360773
 30
0.0
 10
97.35378436884357
 20
45.92023806172747
 30
0.0
  0
SPLINE
  5
92
330
1F
100
AcDbEntity
  8
LINEE VISIBILI 2D
100
AcDbSpline
210
0.0
220
0.0
230
1.0
 70
    24
 71
     2
 72
     6
 73
     3
 74
     0
 42
0.0000000001
 43
0.0000000001
 40
0.0
 40
0.0
 40
0.0
 40
60.95889774359898
 40
60.95889774359898
 40
60.95889774359898
 10
53.23838896709149
 20
5.804154542111433
 30
0.0
 10
76.1324983144703
 20
25.92520224641603
 30
0.0
 10
99.02660766184911
 20
46.04624995072064
 30
0.0
  0
SPLINE
  5
93
330
1F
100
AcDbEntity
  8
LINEE VISIBILI 2D
100
AcDbSpline
210
0.0
220
0.0
230
1.0
 70
    24
 71
     2
 72
     6
 73
     3
 74
     0
 42
0.0000000001
 43
0.0000000001
 40
0.0
 40
0.0
 40
0.0
 40
0.2052933966438745
 40
0.2052933966438745
 40
0.2052933966438745
 10
6.416004375150657
 20
35.55726085860849
 30
0.0
 10
6.333848063045837
 20
35.49572481179259
 30
0.0
 10
6.251691750941017
 20
35.43418876497667
 30
0.0
  0
SPLINE
  5
94
330
1F
100
AcDbEntity
  8
LINEE VISIBILI 2D
100
AcDbSpline
210
0.0
220
0.0
230
1.0
 70
    24
 71
     2
 72
     6
 73
     3
 74
     0
 42
0.0000000001
 43
0.0000000001
 40
0.0
 40
0.0
 40
0.0
 40
0.2009754595847705
 40
0.2009754595847705
 40
0.2009754595847705
 10
94.39014053633012
 20
41.16104384225979
 30
0.0
 10
94.30246819619998
 20
41.21014928610193
 30
0.0
 10
94.21479585606986
 20
41.25925472994408
 30
0.0
  0
SPLINE
  5
95
330
1F
100
AcDbEntity
  8
LINEE VISIBILI 2D
100
AcDbSpline
210
0.0
220
0.0
230
1.0
 70
    24
 71
     2
 72
     6
 73
     3
 74
     0
 42
0.0000000001
 43
0.0000000001
 40
0.0
 40
0.0
 40
0.0
 40
49.53885918335458
 40
49.53885918335458
 40
49.53885918335458
 10
8.537609342414347
 20
39.71628646140558
 30
0.0
 10
28.40803225504876
 20
54.50448904218301
 30
0.0
 10
48.27845516768316
 20
69.29269162296043
 30
0.0
  0
SPLINE
  5
96
330
1F
100
AcDbEntity
  8
LINEE VISIBILI 2D
100
AcDbSpline
210
0.0
220
0.0
230
1.0
 70
    24
 71
     2
 72
     6
 73
     3
 74
     0
 42
0.0000000001
 43
0.0000000001
 40
0.0
 40
0.0
 40
0.0
 40
5.296384539199744
 40
5.296384539199744
 40
5.296384539199744
 10
2.951388136646939
 20
39.519648449651
 30
0.0
 10
5.593857798448834
 20
39.69364955086906
 30
0.0
 10
8.236327460250731
 20
39.86765065208711
 30
0.0
  0
SPLINE
  5
97
330
1F
100
AcDbEntity
  8
LINEE VISIBILI 2D
100
AcDbSpline
210
0.0
220
0.0
230
1.0
 70
    24
 71
     2
 72
     6
 73
     3
 74
     0
 42
0.0000000001
 43
0.0000000001
 40
0.0
 40
0.0
 40
0.0
 40
56.13903534527518
 40
56.13903534527518
 40
56.13903534527518
 10
2.803551173621281
 20
39.61491318319018
 30
0.0
 10
25.40268130684462
 20
56.26355095317457
 30
0.0
 10
48.00181144006796
 20
72.91218872315898
 30
0.0
  0
SPLINE
  5
98
330
1F
100
AcDbEntity
  8
LINEE VISIBILI 2D
100
AcDbSpline
210
0.0
220
0.0
230
1.0
 70
    12
 71
     2
 72
     6
 73
     3
 74
     0
 42
0.0000000001
 43
0.0000000001
 40
0.0
 40
0.0
 40
0.0
 40
0.0554154576036032
 40
0.0554154576036032
 40
0.0554154576036032
 10
2.122763460854399
 20
39.70277801648315
 30
0.0
 41
1.0
 10
2.139936812553315
 20
39.72693364597198
 30
0.0
 41
0.9051049240845953
 10
2.169492898195608
 20
39.72913733516989
 30
0.0
 41
1.0
  0
SPLINE
  5
99
330
1F
100
AcDbEntity
  8
LINEE VISIBILI 2D
100
AcDbSpline
210
0.0
220
0.0
230
1.0
 70
    12
 71
     2
 72
     6
 73
     3
 74
     0
 42
0.0000000001
 43
0.0000000001
 40
0.0
 40
0.0
 40
0.0
 40
0.0123686928238184
 40
0.0123686928238184
 40
0.0123686928238184
 10
2.116718932097137
 20
39.67367616554783
 30
0.0
 41
1.0
 10
2.123409657309361
 20
39.67550798513745
 30
0.0
 41
0.8449303974556224
 10
2.124616328017197
 20
39.6823391865455
 30
0.0
 41
1.0
  0
SPLINE
  5
9A
330
1F
100
AcDbEntity
  8
LINEE VISIBILI 2D
100
AcDbSpline
210
0.0
220
0.0
230
1.0
 70
    12
 71
     2
 72
     6
 73
     3
 74
     0
 42
0.0000000001
 43
0.0000000001
 40
0.0
 40
0.0
 40
0.0
 40
0.0218330287681691
 40
0.0218330287681691
 40
0.0218330287681691
 10
47.91510717113744
 20
74.09331307225315
 30
0.0
 41
1.0
 10
47.91429053898151
 20
74.10419936674902
 30
0.0
 41
0.9999495945671512
 10
47.91369266453863
 20
74.11509986408081
 30
0.0
 41
1.0
  0
SPLINE
  5
9B
330
1F
100
AcDbEntity
  8
LINEE VISIBILI 2D
100
AcDbSpline
210
0.0
220
0.0
230
1.0
 70
    24
 71
     2
 72
     6
 73
     3
 74
     0
 42
0.0000000001
 43
0.0000000001
 40
0.0
 40
0.0
 40
0.0
 40
58.30935566108188
 40
58.30935566108188
 40
58.30935566108188
 10
0.9116764199181151
 20
39.60725399461265
 30
0.0
 10
24.41268454222838
 20
56.86117692934672
 30
0.0
 10
47.91369266453863
 20
74.11509986408081
 30
0.0
  0
SPLINE
  5
9C
330
1F
100
AcDbEntity
  8
LINEE VISIBILI 2D
100
AcDbSpline
210
0.0
220
0.0
230
1.0
 70
    24
 71
     2
 72
     6
 73
     3
 74
     0
 42
0.0000000001
 43
0.0000000001
 40
0.0
 40
0.0
 40
0.0
 40
58.31497509790928
 40
58.31497509790928
 40
58.31497509790928
 10
0.9057073052228547
 20
39.61991346454576
 30
0.0
 10
24.40932708715714
 20
56.87502683171063
 30
0.0
 10
47.91294686909142
 20
74.13014019887551
 30
0.0
  0
SPLINE
  5
9D
330
1F
100
AcDbEntity
  8
LINEE VISIBILI 2D
100
AcDbSpline
210
0.0
220
0.0
230
1.0
 70
    12
 71
     2
 72
     6
 73
     3
 74
     0
 42
0.0000000001
 43
0.0000000001
 40
0.0
 40
0.0
 40
0.0
 40
0.0350684646152466
 40
0.0350684646152466
 40
0.0350684646152466
 10
0.8485301876909348
 20
39.64285133415359
 30
0.0
 41
1.0
 10
0.8662260374860217
 20
39.6422359804478
 30
0.0
 41
0.9854662911811075
 10
0.8826945945355381
 20
39.63573149054771
 30
0.0
 41
1.0
  0
SPLINE
  5
9E
330
1F
100
AcDbEntity
  8
LINEE VISIBILI 2D
100
AcDbSpline
210
0.0
220
0.0
230
1.0
 70
    12
 71
     2
 72
     6
 73
     3
 74
     0
 42
0.0000000001
 43
0.0000000001
 40
0.0
 40
0.0
 40
0.0
 40
0.0335305612422293
 40
0.0335305612422293
 40
0.0335305612422293
 10
0.2462892387877543
 20
39.5491948689515
 30
0.0
 41
1.0
 10
0.2475888903639002
 20
39.56672994451993
 30
0.0
 41
0.9316650025995464
 10
0.2604163677881877
 20
39.57875590778026
 30
0.0
 41
1.0
  0
SPLINE
  5
9F
330
1F
100
AcDbEntity
  8
LINEE VISIBILI 2D
100
AcDbSpline
210
0.0
220
0.0
230
1.0
 70
    24
 71
     2
 72
     6
 73
     3
 74
     0
 42
0.0000000001
 43
0.0000000001
 40
0.0
 40
0.0
 40
0.0
 40
1.1805244757226
 40
1.1805244757226
 40
1.1805244757226
 10
0.9277991764618651
 20
39.59375447612873
 30
0.0
 10
1.516803753354922
 20
39.63226574518157
 30
0.0
 10
2.105808330247979
 20
39.67077701423442
 30
0.0
  0
SPLINE
  5
A0
330
1F
100
AcDbEntity
  8
LINEE VISIBILI 2D
100
AcDbSpline
210
0.0
220
0.0
230
1.0
 70
    24
 71
     2
 72
     6
 73
     3
 74
     0
 42
0.0000000001
 43
0.0000000001
 40
0.0
 40
0.0
 40
0.0
 40
49.63893285559805
 40
49.63893285559805
 40
49.63893285559805
 10
48.27845516768316
 20
69.29269162296043
 30
0.0
 10
69.96421823688883
 20
57.22067464703968
 30
0.0
 10
91.64998130609449
 20
45.14865767111894
 30
0.0
  0
SPLINE
  5
A1
330
1F
100
AcDbEntity
  8
LINEE VISIBILI 2D
100
AcDbSpline
210
0.0
220
0.0
230
1.0
 70
    24
 71
     2
 72
     6
 73
     3
 74
     0
 42
0.0000000001
 43
0.0000000001
 40
0.0
 40
0.0
 40
0.0
 40
0.2503479999285324
 40
0.2503479999285324
 40
0.2503479999285324
 10
48.26349720844663
 20
69.54259236430326
 30
0.0
 10
48.27097618806489
 20
69.41764199363184
 30
0.0
 10
48.27845516768316
 20
69.29269162296043
 30
0.0
  0
SPLINE
  5
A2
330
1F
100
AcDbEntity
  8
LINEE VISIBILI 2D
100
AcDbSpline
210
0.0
220
0.0
230
1.0
 70
    12
 71
     2
 72
     6
 73
     3
 74
     0
 42
0.0000000001
 43
0.0000000001
 40
0.0
 40
0.0
 40
0.0
 40
0.0827338408390769
 40
0.0827338408390769
 40
0.0827338408390769
 10
48.25787241966109
 20
69.62513391668512
 30
0.0
 41
1.0
 10
48.26101075254239
 20
69.58388535155155
 30
0.0
 41
0.9999688157208035
 10
48.26349720844663
 20
69.54259236430326
 30
0.0
 41
1.0
  0
SPLINE
  5
A3
330
1F
100
AcDbEntity
  8
LINEE VISIBILI 2D
100
AcDbSpline
210
0.0
220
0.0
230
1.0
 70
    12
 71
     2
 72
     6
 73
     3
 74
     0
 42
0.0000000001
 43
0.0000000001
 40
0.0
 40
0.0
 40
0.0
 40
0.0218988289325863
 40
0.0218988289325863
 40
0.0218988289325863
 10
48.00181144006796
 20
72.91218872315898
 30
0.0
 41
1.0
 10
48.00241107078303
 20
72.90125537078946
 30
0.0
 41
0.9999494951570573
 10
48.00323033469005
 20
72.89033627935833
 30
0.0
 41
1.0
  0
SPLINE
  5
A4
330
1F
100
AcDbEntity
  8
LINEE VISIBILI 2D
100
AcDbSpline
210
0.0
220
0.0
230
1.0
 70
    24
 71
     2
 72
     6
 73
     3
 74
     0
 42
0.0000000001
 43
0.0000000001
 40
0.0
 40
0.0
 40
0.0
 40
56.17864230143825
 40
56.17864230143825
 40
56.17864230143825
 10
48.00181144006796
 20
72.91218872315898
 30
0.0
 10
72.59818073387851
 20
59.34647531505801
 30
0.0
 10
97.19455002768906
 20
45.78076190695703
 30
0.0
  0
SPLINE
  5
A5
330
1F
100
AcDbEntity
  8
LINEE VISIBILI 2D
100
AcDbSpline
210
0.0
220
0.0
230
1.0
 70
    24
 71
     2
 72
     6
 73
     3
 74
     0
 42
0.0000000001
 43
0.0000000001
 40
0.0
 40
0.0
 40
0.0
 40
0.1908095529762704
 40
0.1908095529762704
 40
0.1908095529762704
 10
47.99237193202195
 20
73.10276464292549
 30
0.0
 10
47.99709168604495
 20
73.00747668304222
 30
0.0
 10
48.00181144006796
 20
72.91218872315898
 30
0.0
  0
SPLINE
  5
A6
330
1F
100
AcDbEntity
  8
LINEE VISIBILI 2D
100
AcDbSpline
210
0.0
220
0.0
230
1.0
 70
    12
 71
     2
 72
     6
 73
     3
 74
     0
 42
0.0000000001
 43
0.0000000001
 40
0.0
 40
0.0
 40
0.0
 40
0.109514209817405
 40
0.109514209817405
 40
0.109514209817405
 10
47.98527597838787
 20
73.21204683052058
 30
0.0
 41
1.0
 10
47.98937939688601
 20
73.15744180287892
 30
0.0
 41
0.9999483376077071
 10
47.99237193202194
 20
73.10276464292549
 30
0.0
 41
1.0
  0
SPLINE
  5
A7
330
1F
100
AcDbEntity
  8
LINEE VISIBILI 2D
100
AcDbSpline
210
0.0
220
0.0
230
1.0
 70
    24
 71
     2
 72
     6
 73
     3
 74
     0
 42
0.0000000001
 43
0.0000000001
 40
0.0
 40
0.0
 40
0.0
 40
0.0150588140829843
 40
0.0150588140829843
 40
0.0150588140829843
 10
47.91294686909142
 20
74.13014019887551
 30
0.0
 10
47.91331976681504
 20
74.12262003147816
 30
0.0
 10
47.91369266453863
 20
74.11509986408081
 30
0.0
  0
SPLINE
  5
A8
330
1F
100
AcDbEntity
  8
LINEE VISIBILI 2D
100
AcDbSpline
210
0.0
220
0.0
230
1.0
 70
    12
 71
     2
 72
     6
 73
     3
 74
     0
 42
0.0000000001
 43
0.0000000001
 40
0.0
 40
0.0
 40
0.0
 40
0.0545813802252974
 40
0.0545813802252974
 40
0.0545813802252974
 10
47.90941067838294
 20
74.18460590005441
 30
0.0
 41
1.0
 10
47.91146516814037
 20
74.15739164364818
 30
0.0
 41
0.9999447061501353
 10
47.91294686909142
 20
74.13014019887551
 30
0.0
 41
1.0
  0
SPLINE
  5
A9
330
1F
100
AcDbEntity
  8
LINEE VISIBILI 2D
100
AcDbSpline
210
0.0
220
0.0
230
1.0
 70
    12
 71
     2
 72
     6
 73
     3
 74
     0
 42
0.0000000001
 43
0.0000000001
 40
0.0
 40
0.0
 40
0.0
 40
0.1011526029453151
 40
0.1011526029453151
 40
0.1011526029453151
 10
8.332074772790679
 20
39.84516185997027
 30
0.0
 41
1.0
 10
8.289077915057456
 20
39.87716950339505
 30
0.0
 41
0.9174297602224397
 10
8.236327460250731
 20
39.86765065208711
 30
0.0
 41
1.0
  0
SPLINE
  5
AA
330
1F
100
AcDbEntity
  8
LINEE VISIBILI 2D
100
AcDbSpline
210
0.0
220
0.0
230
1.0
 70
    12
 71
     2
 72
     6
 73
     3
 74
     0
 42
0.0000000001
 43
0.0000000001
 40
0.0
 40
0.0
 40
0.0
 40
0.1283099346884496
 40
0.1283099346884496
 40
0.1283099346884496
 10
2.635007591494447
 20
39.70798722741589
 30
0.0
 41
1.0
 10
2.598031321791048
 20
39.77479340161286
 30
0.0
 41
0.7766721165322764
 10
2.525030840181462
 20
39.75240503148945
 30
0.0
 41
1.0
  0
SPLINE
  5
AB
330
1F
100
AcDbEntity
  8
LINEE VISIBILI 2D
100
AcDbSpline
210
0.0
220
0.0
230
1.0
 70
    24
 71
     2
 72
     6
 73
     3
 74
     0
 42
0.0000000001
 43
0.0000000001
 40
0.0
 40
0.0
 40
0.0
 40
60.73112988372083
 40
60.73112988372083
 40
60.73112988372083
 10
2.12235354734404
 20
39.69769070946497
 30
0.0
 10
27.64209445587794
 20
23.24137404383035
 30
0.0
 10
53.16183536441184
 20
6.785057378195721
 30
0.0
  0
SPLINE
  5
AC
330
1F
100
AcDbEntity
  8
LINEE VISIBILI 2D
100
AcDbSpline
210
0.0
220
0.0
230
1.0
 70
    24
 71
     2
 72
     6
 73
     3
 74
     0
 42
0.0000000001
 43
0.0000000001
 40
0.0
 40
0.0
 40
0.0
 40
60.7553907829308
 40
60.7553907829308
 40
60.7553907829308
 10
2.105808330247979
 20
39.67077701423442
 30
0.0
 10
27.63504678355394
 20
23.20680540071107
 30
0.0
 10
53.1642852368599
 20
6.742833787187715
 30
0.0
  0
SPLINE
  5
AD
330
1F
100
AcDbEntity
  8
LINEE VISIBILI 2D
100
AcDbSpline
210
0.0
220
0.0
230
1.0
 70
    12
 71
     2
 72
     6
 73
     3
 74
     0
 42
0.0000000001
 43
0.0000000001
 40
0.0
 40
0.0
 40
0.0
 40
0.0235687459210051
 40
0.0235687459210051
 40
0.0235687459210051
 10
2.124832059609547
 20
39.68748578370583
 30
0.0
 41
1.0
 10
2.119574886147487
 20
39.67495935597536
 30
0.0
 41
0.8125505525991901
 10
2.106024345622289
 20
39.67592481750853
 30
0.0
 41
1.0
  0
SPLINE
  5
AE
330
1F
100
AcDbEntity
  8
LINEE VISIBILI 2D
100
AcDbSpline
210
0.0
220
0.0
230
1.0
 70
    24
 71
     2
 72
     6
 73
     3
 74
     0
 42
0.0000000001
 43
0.0000000001
 40
0.0
 40
0.0
 40
0.0
 40
63.16872817388683
 40
63.16872817388683
 40
63.16872817388683
 10
0.2462892387877543
 20
39.5491948689515
 30
0.0
 10
26.76403865409973
 20
22.39165947708003
 30
0.0
 10
53.28178806941171
 20
5.234124085208545
 30
0.0
  0
SPLINE
  5
AF
330
1F
100
AcDbEntity
  8
LINEE VISIBILI 2D
100
AcDbSpline
210
0.0
220
0.0
230
1.0
 70
    12
 71
     2
 72
     6
 73
     3
 74
     0
 42
0.0000000001
 43
0.0000000001
 40
0.0
 40
0.0
 40
0.0
 40
0.0898905048323087
 40
0.0898905048323087
 40
0.0898905048323087
 10
0.3403236741179944
 20
39.60962374056164
 30
0.0
 41
1.0
 10
0.2928118291332758
 20
39.61364229878194
 30
0.0
 41
0.9161030209689023
 10
0.2576234681666957
 20
39.58146616668829
 30
0.0
 41
1.0
  0
SPLINE
  5
B0
330
1F
100
AcDbEntity
  8
LINEE VISIBILI 2D
100
AcDbSpline
210
0.0
220
0.0
230
1.0
 70
    12
 71
     2
 72
     6
 73
     3
 74
     0
 42
0.0000000001
 43
0.0000000001
 40
0.0
 40
0.0
 40
0.0
 40
0.0980463115029578
 40
0.0980463115029578
 40
0.0980463115029578
 10
91.92088588289584
 20
45.3396479865625
 30
0.0
 41
1.0
 10
91.87001933201667
 20
45.33780865335842
 30
0.0
 41
0.9456026087852766
 10
91.83105143375064
 20
45.3050627826308
 30
0.0
 41
1.0
  0
SPLINE
  5
B1
330
1F
100
AcDbEntity
  8
LINEE VISIBILI 2D
100
AcDbSpline
210
0.0
220
0.0
230
1.0
 70
    12
 71
     2
 72
     6
 73
     3
 74
     0
 42
0.0000000001
 43
0.0000000001
 40
0.0
 40
0.0
 40
0.0
 40
0.0434701528898558
 40
0.0434701528898558
 40
0.0434701528898558
 10
52.78889555522738
 20
11.46562044879809
 30
0.0
 41
1.0
 10
52.79231863172928
 20
11.44413121129209
 30
0.0
 41
0.9982714592421801
 10
52.79319651604637
 20
11.42238876201764
 30
0.0
 41
1.0
  0
SPLINE
  5
B2
330
1F
100
AcDbEntity
  8
LINEE VISIBILI 2D
100
AcDbSpline
210
0.0
220
0.0
230
1.0
 70
    12
 71
     2
 72
     6
 73
     3
 74
     0
 42
0.0000000001
 43
0.0000000001
 40
0.0
 40
0.0
 40
0.0
 40
0.0979629022535455
 40
0.0979629022535455
 40
0.0979629022535455
 10
97.44451124745523
 20
45.95507486774286
 30
0.0
 41
1.0
 10
97.39434617132182
 20
45.95032081461186
 30
0.0
 41
0.9585977365201364
 10
97.35491236981102
 20
45.91895026818602
 30
0.0
 41
1.0
  0
SPLINE
  5
B3
330
1F
100
AcDbEntity
  8
LINEE VISIBILI 2D
100
AcDbSpline
210
0.0
220
0.0
230
1.0
 70
    12
 71
     2
 72
     6
 73
     3
 74
     0
 42
0.0000000001
 43
0.0000000001
 40
0.0
 40
0.0
 40
0.0
 40
0.0431261234519305
 40
0.0431261234519305
 40
0.0431261234519305
 10
53.13076058158956
 20
7.182108973636758
 30
0.0
 41
1.0
 10
53.13399924500893
 20
7.160772288562986
 30
0.0
 41
0.9987480132022279
 10
53.13508967710102
 20
7.139218773106479
 30
0.0
 41
1.0
  0
SPLINE
  5
B4
330
1F
100
AcDbEntity
  8
LINEE VISIBILI 2D
100
AcDbSpline
210
0.0
220
0.0
230
1.0
 70
    12
 71
     2
 72
     6
 73
     3
 74
     0
 42
0.0000000001
 43
0.0000000001
 40
0.0
 40
0.0
 40
0.0
 40
0.0566599113015474
 40
0.0566599113015474
 40
0.0566599113015474
 10
97.83706044306459
 20
45.95529176427019
 30
0.0
 41
1.0
 10
97.82153517200427
 20
45.98447791131706
 30
0.0
 41
0.7986300634316807
 10
97.78920042665252
 20
45.97759827004936
 30
0.0
 41
1.0
  0
SPLINE
  5
B5
330
1F
100
AcDbEntity
  8
LINEE VISIBILI 2D
100
AcDbSpline
210
0.0
220
0.0
230
1.0
 70
    12
 71
     2
 72
     6
 73
     3
 74
     0
 42
0.0000000001
 43
0.0000000001
 40
0.0
 40
0.0
 40
0.0
 40
0.0670120388264236
 40
0.0670120388264236
 40
0.0670120388264236
 10
53.15746605265264
 20
6.851925338631174
 30
0.0
 41
1.0
 10
53.16003557732127
 20
6.818516506656561
 30
0.0
 41
0.9999337514968487
 10
53.16183536441184
 20
6.785057378195721
 30
0.0
 41
1.0
  0
SPLINE
  5
B6
330
1F
100
AcDbEntity
  8
LINEE VISIBILI 2D
100
AcDbSpline
210
0.0
220
0.0
230
1.0
 70
    24
 71
     2
 72
     6
 73
     3
 74
     0
 42
0.0000000001
 43
0.0000000001
 40
0.0
 40
0.0
 40
0.0
 40
0.0154916274248298
 40
0.0154916274248298
 40
0.0154916274248298
 10
53.16183536441184
 20
6.785057378195721
 30
0.0
 10
53.16218641776654
 20
6.777319523737954
 30
0.0
 10
53.16253747112124
 20
6.769581669280187
 30
0.0
  0
SPLINE
  5
B7
330
1F
100
AcDbEntity
  8
LINEE VISIBILI 2D
100
AcDbSpline
210
0.0
220
0.0
230
1.0
 70
    24
 71
     2
 72
     6
 73
     3
 74
     0
 42
0.0000000001
 43
0.0000000001
 40
0.0
 40
0.0
 40
0.0
 40
59.41534311681027
 40
59.41534311681027
 40
59.41534311681027
 10
97.83706044306459
 20
45.95529176427019
 30
0.0
 10
75.49944790373821
 20
26.37017457123296
 30
0.0
 10
53.16183536441184
 20
6.785057378195721
 30
0.0
  0
SPLINE
  5
B8
330
1F
100
AcDbEntity
  8
LINEE VISIBILI 2D
100
AcDbSpline
210
0.0
220
0.0
230
1.0
 70
    24
 71
     2
 72
     6
 73
     3
 74
     0
 42
0.0000000001
 43
0.0000000001
 40
0.0
 40
0.0
 40
0.0
 40
0.0153209086949687
 40
0.0153209086949687
 40
0.0153209086949687
 10
97.83637199747714
 20
45.93998633105473
 30
0.0
 10
97.83671622027085
 20
45.94763904766246
 30
0.0
 10
97.83706044306459
 20
45.95529176427019
 30
0.0
  0
SPLINE
  5
B9
330
1F
100
AcDbEntity
  8
LINEE VISIBILI 2D
100
AcDbSpline
210
0.0
220
0.0
230
1.0
 70
    12
 71
     2
 72
     6
 73
     3
 74
     0
 42
0.0000000001
 43
0.0000000001
 40
0.0
 40
0.0
 40
0.0
 40
0.0268054648685426
 40
0.0268054648685426
 40
0.0268054648685426
 10
53.16253747112124
 20
6.769581669280187
 30
0.0
 41
1.0
 10
53.1632640192237
 20
6.75619810105462
 30
0.0
 41
0.9999393232728642
 10
53.1642852368599
 20
6.742833787187715
 30
0.0
 41
1.0
  0
SPLINE
  5
BA
330
1F
100
AcDbEntity
  8
LINEE VISIBILI 2D
100
AcDbSpline
210
0.0
220
0.0
230
1.0
 70
    12
 71
     2
 72
     6
 73
     3
 74
     0
 42
0.0000000001
 43
0.0000000001
 40
0.0
 40
0.0
 40
0.0
 40
0.0135929491442373
 40
0.0135929491442373
 40
0.0135929491442373
 10
97.85550097598408
 20
45.93106471698731
 30
0.0
 41
1.0
 10
97.84858335482795
 20
45.93057849618769
 30
0.0
 41
0.9703703518141702
 10
97.84224545244056
 20
45.93339290313287
 30
0.0
 41
1.0
  0
SPLINE
  5
BB
330
1F
100
AcDbEntity
  8
LINEE VISIBILI 2D
100
AcDbSpline
210
0.0
220
0.0
230
1.0
 70
    12
 71
     2
 72
     6
 73
     3
 74
     0
 42
0.0000000001
 43
0.0000000001
 40
0.0
 40
0.0
 40
0.0
 40
0.035374503164939
 40
0.035374503164939
 40
0.035374503164939
 10
99.0691322838189
 20
46.06123840608459
 30
0.0
 41
1.0
 10
99.05127743733515
 20
46.05964685054012
 30
0.0
 41
0.9801706975076015
 10
99.0354429884189
 20
46.05124454017165
 30
0.0
 41
1.0
  0
SPLINE
  5
BC
330
1F
100
AcDbEntity
  8
LINEE VISIBILI 2D
100
AcDbSpline
210
0.0
220
0.0
230
1.0
 70
    12
 71
     3
 72
     8
 73
     4
 74
     0
 42
0.0000000001
 43
0.0000000001
 40
-3.792237795874089
 40
-3.792237795874089
 40
-3.792237795874089
 40
-3.792237795874089
 40
-2.84417834690556
 40
-2.84417834690556
 40
-2.84417834690556
 40
-2.84417834690556
 10
53.23879097080635
 20
5.796989185871354
 30
0.0
 41
568.6268815811143
 10
53.2381597182781
 20
5.810924987925962
 30
0.0
 41
568.609339170146
 10
53.23936752138854
 20
5.800380856416267
 30
0.0
 41
568.5653437027479
 10
53.24083654128104
 20
5.781519903299455
 30
0.0
 41
568.5408786596528
  0
SPLINE
  5
BD
330
1F
100
AcDbEntity
  8
LINEE VISIBILI 2D
100
AcDbSpline
210
0.0
220
0.0
230
1.0
 70
    12
 71
     2
 72
     6
 73
     3
 74
     0
 42
0.0000000001
 43
0.0000000001
 40
0.0
 40
0.0
 40
0.0
 40
0.1124553095570495
 40
0.1124553095570495
 40
0.1124553095570495
 10
99.65683350226887
 20
46.0487907982364
 30
0.0
 41
1.0
 10
99.62486578377111
 20
46.10497227595072
 30
0.0
 41
0.8157521196840061
 10
99.56127108786994
 20
46.09339608843725
 30
0.0
 41
1.0
  0
SPLINE
  5
BE
330
1F
100
AcDbEntity
  8
LINEE VISIBILI 2D
100
AcDbSpline
210
0.0
220
0.0
230
1.0
 70
    24
 71
     2
 72
     6
 73
     3
 74
     0
 42
0.0000000001
 43
0.0000000001
 40
0.0
 40
0.0
 40
0.0
 40
61.7776809033417
 40
61.7776809033417
 40
61.7776809033417
 10
53.28178806941171
 20
5.234124085208545
 30
0.0
 10
76.46931078584029
 20
25.64145744172247
 30
0.0
 10
99.65683350226887
 20
46.0487907982364
 30
0.0
  0
SPLINE
  5
BF
330
1F
100
AcDbEntity
  8
LINEE VISIBILI 2D
100
AcDbSpline
210
0.0
220
0.0
230
1.0
 70
    12
 71
     2
 72
     6
 73
     3
 74
     0
 42
0.0000000001
 43
0.0000000001
 40
0.0
 40
0.0
 40
0.0
 40
0.1345938892540861
 40
0.1345938892540861
 40
0.1345938892540861
 10
53.27301090393009
 20
5.368428733693621
 30
0.0
 41
1.0
 10
53.27814179229222
 20
5.301324921094944
 30
0.0
 41
0.9999389095102092
 10
53.28178806941171
 20
5.234124085208545
 30
0.0
 41
1.0
  0
SPLINE
  5
C0
330
1F
100
AcDbEntity
  8
LINEE VISIBILI 2D
100
AcDbSpline
210
0.0
220
0.0
230
1.0
 70
    24
 71
     2
 72
     6
 73
     3
 74
     0
 42
0.0000000001
 43
0.0000000001
 40
0.0
 40
0.0
 40
0.0
 40
59.35275350594818
 40
59.35275350594818
 40
59.35275350594818
 10
47.87551651224606
 20
74.5833794640337
 30
0.0
 10
73.88775825612301
 20
60.29875077993531
 30
0.0
 10
99.89999999999996
 20
46.01412209583692
 30
0.0
  0
SPLINE
  5
C1
330
1F
100
AcDbEntity
  8
LINEE VISIBILI 2D
100
AcDbSpline
210
0.0
220
0.0
230
1.0
 70
    24
 71
     2
 72
     6
 73
     3
 74
     0
 42
0.0000000001
 43
0.0000000001
 40
0.0
 40
0.0
 40
0.0
 40
63.49979476248745
 40
63.49979476248745
 40
63.49979476248745
 10
53.30485764142871
 20
4.973171125356297
 30
0.0
 10
26.65242882071436
 20
22.22727271530477
 30
0.0
 10
0.0000000000000118
 20
39.48137430525323
 30
0.0
  0
SPLINE
  5
C2
330
1F
100
AcDbEntity
  8
LINEE VISIBILI 2D
100
AcDbSpline
210
0.0
220
0.0
230
1.0
 70
    24
 71
     2
 72
     6
 73
     3
 74
     0
 42
0.0000000001
 43
0.0000000001
 40
0.0
 40
0.0
 40
0.0
 40
4.97825518690162
 40
4.97825518690162
 40
4.97825518690162
 10
53.30485764142871
 20
4.973171125356297
 30
0.0
 10
53.41732281807819
 20
2.486585562678145
 30
0.0
 10
53.52978799472768
 20
-0.0000000000000063
 30
0.0
  0
SPLINE
  5
C3
330
1F
100
AcDbEntity
  8
LINEE VISIBILI 2D
100
AcDbSpline
210
0.0
220
0.0
230
1.0
 70
    24
 71
     2
 72
     6
 73
     3
 74
     0
 42
0.0000000001
 43
0.0000000001
 40
0.0
 40
0.0
 40
0.0
 40
62.09240652428375
 40
62.09240652428375
 40
62.09240652428375
 10
99.89999999999996
 20
46.01412209583692
 30
0.0
 10
76.60242882071433
 20
25.49364661059661
 30
0.0
 10
53.30485764142871
 20
4.973171125356297
 30
0.0
  0
SPLINE
  5
C4
330
1F
100
AcDbEntity
  8
LINEE VISIBILI 2D
100
AcDbSpline
210
0.0
220
0.0
230
1.0
 70
    24
 71
     2
 72
     6
 73
     3
 74
     0
 42
0.0000000001
 43
0.0000000001
 40
0.0
 40
0.0
 40
0.0
 40
4.930812899053842
 40
4.930812899053842
 40
4.930812899053842
 10
99.63772992481439
 20
41.09028921350451
 30
0.0
 10
99.76886496240718
 20
43.55220565467071
 30
0.0
 10
99.89999999999996
 20
46.01412209583692
 30
0.0
  0
SPLINE
  5
C5
330
1F
100
AcDbEntity
  8
LINEE VISIBILI 2D
100
AcDbSpline
210
0.0
220
0.0
230
1.0
 70
    24
 71
     2
 72
     6
 73
     3
 74
     0
 42
0.0000000001
 43
0.0000000001
 40
0.0
 40
0.0
 40
0.0
 40
4.99397904303928
 40
4.99397904303928
 40
4.99397904303928
 10
0.7496911023023784
 20
34.54398735126186
 30
0.0
 10
0.374845551151195
 20
37.01268082825754
 30
0.0
 10
0.0000000000000118
 20
39.48137430525323
 30
0.0
  0
SPLINE
  5
C6
330
1F
100
AcDbEntity
  8
LINEE VISIBILI 2D
100
AcDbSpline
210
0.0
220
0.0
230
1.0
 70
    24
 71
     2
 72
     6
 73
     3
 74
     0
 42
0.0000000001
 43
0.0000000001
 40
0.0
 40
0.0
 40
0.0
 40
0.082505115719484
 40
0.082505115719484
 40
0.082505115719484
 10
47.87551651224606
 20
74.5833794640337
 30
0.0
 10
47.87756091205522
 20
74.54217759563684
 30
0.0
 10
47.87960531186437
 20
74.50097572723999
 30
0.0
  0
SPLINE
  5
C7
330
1F
100
AcDbEntity
  8
LINEE VISIBILI 2D
100
AcDbSpline
210
0.0
220
0.0
230
1.0
 70
    24
 71
     2
 72
     6
 73
     3
 74
     0
 42
0.0000000001
 43
0.0000000001
 40
0.0
 40
0.0
 40
0.0
 40
59.36510631239023
 40
59.36510631239023
 40
59.36510631239023
 10
0.0000000000000118
 20
39.48137430525323
 30
0.0
 10
23.93775825612304
 20
57.03237688464347
 30
0.0
 10
47.87551651224606
 20
74.5833794640337
 30
0.0
  0
SPLINE
  5
C8
330
1F
100
AcDbEntity
  8
LINEE VISIBILI 2D
100
AcDbSpline
210
0.0
220
0.0
230
1.0
 70
    24
 71
     2
 72
     6
 73
     3
 74
     0
 42
0.0000000001
 43
0.0000000001
 40
0.0
 40
0.0
 40
0.0
 40
63.07951878460981
 40
63.07951878460981
 40
63.07951878460981
 10
53.52978799472768
 20
-0.0000000000000063
 30
0.0
 10
27.13973954851503
 20
17.27199367563093
 30
0.0
 10
0.7496911023023784
 20
34.54398735126186
 30
0.0
  0
SPLINE
  5
C9
330
1F
100
AcDbEntity
  8
LINEE VISIBILI 2D
100
AcDbSpline
210
0.0
220
0.0
230
1.0
 70
    24
 71
     2
 72
     6
 73
     3
 74
     0
 42
0.0000000001
 43
0.0000000001
 40
0.0
 40
0.0
 40
0.0
 40
61.76045803487612
 40
61.76045803487612
 40
61.76045803487612
 10
99.63772992481439
 20
41.09028921350451
 30
0.0
 10
76.58375895977103
 20
20.54514460675225
 30
0.0
 10
53.52978799472768
 20
-0.0000000000000063
 30
0.0
  0
SPLINE
  5
CA
330
1F
100
AcDbEntity
  8
LINEE VISIBILI 2D
100
AcDbSpline
210
0.0
220
0.0
230
1.0
 70
    24
 71
     2
 72
     6
 73
     3
 74
     0
 42
0.0000000001
 43
0.0000000001
 40
0.0
 40
0.0
 40
0.0
 40
0.2000863103664935
 40
0.2000863103664935
 40
0.2000863103664935
 10
96.19702579448853
 20
43.00381483930457
 30
0.0
 10
96.28445741065513
 20
42.95519030441204
 30
0.0
 10
96.37188902682174
 20
42.90656576951952
 30
0.0
  0
SPLINE
  5
CB
330
1F
100
AcDbEntity
  8
LINEE VISIBILI 2D
100
AcDbSpline
210
0.0
220
0.0
230
1.0
 70
    24
 71
     2
 72
     6
 73
     3
 74
     0
 42
0.0000000001
 43
0.0000000001
 40
0.0
 40
0.0
 40
0.0
 40
0.2048515856248683
 40
0.2048515856248683
 40
0.2048515856248683
 10
3.951402422051431
 20
36.923337313051
 30
0.0
 10
4.033612592844987
 20
36.98443175511695
 30
0.0
 10
4.115822763638541
 20
37.0455261971829
 30
0.0
  0
LINE
  5
D9
330
1F
100
AcDbEntity
  8
LINEE VISIBILI 2D
100
AcDbLine
 10
169.9775779510038
 20
91.56389252511083
 30
0.0
 11
161.6415954761144
 21
99.89712488313985
 31
0.0
  0
LINE
  5
DA
330
1F
100
AcDbEntity
  8
LINEE VISIBILI 2D
100
AcDbLine
 10
253.2053630012252
 20
91.56389252511038
 30
0.0
 11
261.5314122746324
 21
99.9
 31
0.0
  0
LINE
  5
DB
330
1F
100
AcDbEntity
  8
LINEE VISIBILI 2D
100
AcDbLine
 10
253.1985477847944
 20
8.336107753925546
 30
0.0
 11
261.5413454761145
 21
0.0173352040373516
 31
0.0
  0
LINE
  5
DC
330
1F
100
AcDbEntity
  8
LINEE VISIBILI 2D
100
AcDbLine
 10
169.9755511085971
 20
8.340895735863888
 30
0.0
 11
161.6422643714895
 21
0.0
 31
0.0
  0
LINE
  5
DD
330
1F
100
AcDbEntity
  8
LINEE VISIBILI 2D
100
AcDbLine
 10
169.9755511085971
 20
8.340895735863888
 30
0.0
 11
253.1985476188237
 21
8.334080911526095
 31
0.0
  0
LINE
  5
112
330
1F
100
AcDbEntity
  8
LINEE VISIBILI 2D
 62
   253
100
AcDbLine
 10
171.6400110388017
 20
8.340759439377132
 30
0.0
 11
172.2826397330695
 21
91.56389252511081
 31
0.0
  0
LINE
  5
113
330
1F
100
AcDbEntity
  8
LINEE VISIBILI 2D
 62
   253
100
AcDbLine
 10
173.3044709690062
 20
8.340623142890377
 30
0.0
 11
173.3044709690066
 21
91.56389252511081
 31
0.0
  0
LINE
  5
114
330
1F
100
AcDbEntity
  8
LINEE VISIBILI 2D
 62
   253
100
AcDbLine
 10
174.9689308992107
 20
8.340486846403621
 30
0.0
 11
175.1053294010461
 21
91.56389252511081
 31
0.0
  0
LINE
  5
115
330
1F
100
AcDbEntity
  8
LINEE VISIBILI 2D
 62
   253
100
AcDbLine
 10
176.6333908294152
 20
8.340350549916864
 30
0.0
 11
176.6333908294157
 21
91.56389252511081
 31
0.0
  0
LINE
  5
116
330
1F
100
AcDbEntity
  8
LINEE VISIBILI 2D
 62
   253
100
AcDbLine
 10
178.2978507596198
 20
8.34021425343011
 30
0.0
 11
177.6896239501987
 21
91.56389252511079
 31
0.0
  0
LINE
  5
117
330
1F
100
AcDbEntity
  8
LINEE VISIBILI 2D
 62
   253
100
AcDbLine
 10
179.9623106898243
 20
8.340077956943353
 30
0.0
 11
179.9623106898247
 21
91.56389252511077
 31
0.0
  0
LINE
  5
118
330
1F
100
AcDbEntity
  8
LINEE VISIBILI 2D
 62
   253
100
AcDbLine
 10
181.6267706200288
 20
8.339941660456597
 30
0.0
 11
182.1161434025179
 21
91.56389252511077
 31
0.0
  0
LINE
  5
119
330
1F
100
AcDbEntity
  8
LINEE VISIBILI 2D
 62
   253
100
AcDbLine
 10
183.2912305502333
 20
8.339805363969841
 30
0.0
 11
183.9338592445012
 21
91.56293844970353
 31
0.0
  0
LINE
  5
11A
330
1F
100
AcDbEntity
  8
LINEE VISIBILI 2D
 62
   253
100
AcDbLine
 10
184.9556904804378
 20
8.339669067483086
 30
0.0
 11
184.9556904804383
 21
91.56293844970351
 31
0.0
  0
LINE
  5
11B
330
1F
100
AcDbEntity
  8
LINEE VISIBILI 2D
 62
   253
100
AcDbLine
 10
186.6201504106424
 20
8.33953277099633
 30
0.0
 11
186.7565489124778
 21
91.56293844970351
 31
0.0
  0
LINE
  5
11C
330
1F
100
AcDbEntity
  8
LINEE VISIBILI 2D
 62
   253
100
AcDbLine
 10
188.2846103408469
 20
8.339396474509573
 30
0.0
 11
188.2846103408474
 21
91.56293844970351
 31
0.0
  0
LINE
  5
11D
330
1F
100
AcDbEntity
  8
LINEE VISIBILI 2D
 62
   253
100
AcDbLine
 10
189.9490702710514
 20
8.339260178022819
 30
0.0
 11
189.3408434616304
 21
91.56293844970349
 31
0.0
  0
LINE
  5
11E
330
1F
100
AcDbEntity
  8
LINEE VISIBILI 2D
 62
   253
100
AcDbLine
 10
191.613530201256
 20
8.339123881536062
 30
0.0
 11
191.6135302012564
 21
91.56293844970347
 31
0.0
  0
LINE
  5
11F
330
1F
100
AcDbEntity
  8
LINEE VISIBILI 2D
 62
   253
100
AcDbLine
 10
193.2779901314605
 20
8.338987585049306
 30
0.0
 11
193.7673629139496
 21
91.56293844970347
 31
0.0
  0
LINE
  5
120
330
1F
100
AcDbEntity
  8
LINEE VISIBILI 2D
 62
   253
100
AcDbLine
 10
194.9424500616651
 20
8.338851288562549
 30
0.0
 11
195.5850787559329
 21
91.56198437429623
 31
0.0
  0
LINE
  5
121
330
1F
100
AcDbEntity
  8
LINEE VISIBILI 2D
 62
   253
100
AcDbLine
 10
196.6069099918696
 20
8.338714992075795
 30
0.0
 11
196.60690999187
 21
91.56198437429621
 31
0.0
  0
LINE
  5
122
330
1F
100
AcDbEntity
  8
LINEE VISIBILI 2D
 62
   253
100
AcDbLine
 10
198.2713699220741
 20
8.338578695589038
 30
0.0
 11
198.4077684239096
 21
91.56198437429621
 31
0.0
  0
LINE
  5
123
330
1F
100
AcDbEntity
  8
LINEE VISIBILI 2D
 62
   253
100
AcDbLine
 10
199.9358298522787
 20
8.338442399102282
 30
0.0
 11
199.9358298522791
 21
91.56198437429621
 31
0.0
  0
LINE
  5
124
330
1F
100
AcDbEntity
  8
LINEE VISIBILI 2D
 62
   253
100
AcDbLine
 10
201.6002897824832
 20
8.338306102615527
 30
0.0
 11
200.9920629730622
 21
91.56198437429621
 31
0.0
  0
LINE
  5
125
330
1F
100
AcDbEntity
  8
LINEE VISIBILI 2D
 62
   253
100
AcDbLine
 10
203.2647497126877
 20
8.338169806128771
 30
0.0
 11
203.2647497126882
 21
91.56198437429619
 31
0.0
  0
LINE
  5
126
330
1F
100
AcDbEntity
  8
LINEE VISIBILI 2D
 62
   253
100
AcDbLine
 10
204.9292096428923
 20
8.338033509642015
 30
0.0
 11
205.4185824253814
 21
91.56198437429619
 31
0.0
  0
LINE
  5
127
330
1F
100
AcDbEntity
  8
LINEE VISIBILI 2D
 62
   253
100
AcDbLine
 10
206.5936695730968
 20
8.33789721315526
 30
0.0
 11
207.2362982673646
 21
91.56103029888894
 31
0.0
  0
LINE
  5
128
330
1F
100
AcDbEntity
  8
LINEE VISIBILI 2D
 62
   253
100
AcDbLine
 10
208.2581295033013
 20
8.337760916668505
 30
0.0
 11
208.2581295033017
 21
91.56103029888894
 31
0.0
  0
LINE
  5
129
330
1F
100
AcDbEntity
  8
LINEE VISIBILI 2D
 62
   253
100
AcDbLine
 10
209.9225894335059
 20
8.337624620181749
 30
0.0
 11
210.0589879353413
 21
91.56103029888894
 31
0.0
  0
LINE
  5
12A
330
1F
100
AcDbEntity
  8
LINEE VISIBILI 2D
 62
   253
100
AcDbLine
 10
211.5870493637104
 20
8.337488323694993
 30
0.0
 11
211.5870493637108
 21
91.56103029888894
 31
0.0
  0
LINE
  5
12B
330
1F
100
AcDbEntity
  8
LINEE VISIBILI 2D
 62
   253
100
AcDbLine
 10
213.2515092939149
 20
8.337352027208238
 30
0.0
 11
212.6432824844938
 21
91.56103029888891
 31
0.0
  0
LINE
  5
12C
330
1F
100
AcDbEntity
  8
LINEE VISIBILI 2D
 62
   253
100
AcDbLine
 10
214.9159692241195
 20
8.337215730721482
 30
0.0
 11
214.9159692241199
 21
91.56103029888891
 31
0.0
  0
LINE
  5
12D
330
1F
100
AcDbEntity
  8
LINEE VISIBILI 2D
 62
   253
100
AcDbLine
 10
216.580429154324
 20
8.337079434234725
 30
0.0
 11
217.0698019368131
 21
91.56103029888891
 31
0.0
  0
LINE
  5
12E
330
1F
100
AcDbEntity
  8
LINEE VISIBILI 2D
 62
   253
100
AcDbLine
 10
218.2448890845285
 20
8.336943137747969
 30
0.0
 11
218.8875177787963
 21
91.56007622348164
 31
0.0
  0
LINE
  5
12F
330
1F
100
AcDbEntity
  8
LINEE VISIBILI 2D
 62
   253
100
AcDbLine
 10
219.909349014733
 20
8.336806841261214
 30
0.0
 11
219.9093490147334
 21
91.56007622348164
 31
0.0
  0
LINE
  5
130
330
1F
100
AcDbEntity
  8
LINEE VISIBILI 2D
 62
   253
100
AcDbLine
 10
221.5738089449375
 20
8.336670544774458
 30
0.0
 11
221.710207446773
 21
91.56007622348164
 31
0.0
  0
LINE
  5
131
330
1F
100
AcDbEntity
  8
LINEE VISIBILI 2D
 62
   253
100
AcDbLine
 10
223.2382688751421
 20
8.336534248287701
 30
0.0
 11
223.2382688751425
 21
91.56007622348164
 31
0.0
  0
LINE
  5
132
330
1F
100
AcDbEntity
  8
LINEE VISIBILI 2D
 62
   253
100
AcDbLine
 10
224.9027288053466
 20
8.336397951800947
 30
0.0
 11
224.2945019959255
 21
91.56007622348161
 31
0.0
  0
LINE
  5
133
330
1F
100
AcDbEntity
  8
LINEE VISIBILI 2D
 62
   253
100
AcDbLine
 10
226.5671887355511
 20
8.33626165531419
 30
0.0
 11
226.5671887355515
 21
91.56007622348161
 31
0.0
  0
LINE
  5
134
330
1F
100
AcDbEntity
  8
LINEE VISIBILI 2D
 62
   253
100
AcDbLine
 10
228.2316486657557
 20
8.336125358827434
 30
0.0
 11
228.7210214482448
 21
91.56007622348161
 31
0.0
  0
LINE
  5
135
330
1F
100
AcDbEntity
  8
LINEE VISIBILI 2D
 62
   253
100
AcDbLine
 10
229.8961085959602
 20
8.335989062340678
 30
0.0
 11
230.5387372902281
 21
91.55912214807434
 31
0.0
  0
LINE
  5
136
330
1F
100
AcDbEntity
  8
LINEE VISIBILI 2D
 62
   253
100
AcDbLine
 10
231.5605685261648
 20
8.335852765853923
 30
0.0
 11
231.5605685261652
 21
91.55912214807434
 31
0.0
  0
LINE
  5
137
330
1F
100
AcDbEntity
  8
LINEE VISIBILI 2D
 62
   253
100
AcDbLine
 10
233.2250284563693
 20
8.335716469367167
 30
0.0
 11
233.3614269582047
 21
91.55912214807434
 31
0.0
  0
LINE
  5
138
330
1F
100
AcDbEntity
  8
LINEE VISIBILI 2D
 62
   253
100
AcDbLine
 10
234.8894883865738
 20
8.33558017288041
 30
0.0
 11
234.8894883865743
 21
91.55912214807434
 31
0.0
  0
LINE
  5
139
330
1F
100
AcDbEntity
  8
LINEE VISIBILI 2D
 62
   253
100
AcDbLine
 10
236.5539483167784
 20
8.335443876393656
 30
0.0
 11
235.9457215073573
 21
91.55912214807433
 31
0.0
  0
LINE
  5
13A
330
1F
100
AcDbEntity
  8
LINEE VISIBILI 2D
 62
   253
100
AcDbLine
 10
238.2184082469829
 20
8.335307579906899
 30
0.0
 11
238.2184082469833
 21
91.55912214807433
 31
0.0
  0
LINE
  5
13B
330
1F
100
AcDbEntity
  8
LINEE VISIBILI 2D
 62
   253
100
AcDbLine
 10
239.8828681771874
 20
8.335171283420143
 30
0.0
 11
240.3722409596765
 21
91.55912214807433
 31
0.0
  0
LINE
  5
13C
330
1F
100
AcDbEntity
  8
LINEE VISIBILI 2D
 62
   253
100
AcDbLine
 10
241.5473281073919
 20
8.333535123550724
 30
0.0
 11
241.5473281073924
 21
91.55680450577113
 31
0.0
  0
LINE
  5
13D
330
1F
100
AcDbEntity
  8
LINEE VISIBILI 2D
 62
   253
100
AcDbLine
 10
243.2117880375965
 20
8.333398827063968
 30
0.0
 11
243.3481865394319
 21
91.55680450577113
 31
0.0
  0
LINE
  5
13E
330
1F
100
AcDbEntity
  8
LINEE VISIBILI 2D
 62
   253
100
AcDbLine
 10
244.876247967801
 20
8.333262530577211
 30
0.0
 11
244.8762479678014
 21
91.55680450577113
 31
0.0
  0
LINE
  5
13F
330
1F
100
AcDbEntity
  8
LINEE VISIBILI 2D
 62
   253
100
AcDbLine
 10
246.5407078980055
 20
8.333126234090457
 30
0.0
 11
245.9324810885845
 21
91.55680450577111
 31
0.0
  0
LINE
  5
140
330
1F
100
AcDbEntity
  8
LINEE VISIBILI 2D
 62
   253
100
AcDbLine
 10
248.20516782821
 20
8.3329899376037
 30
0.0
 11
248.2051678282105
 21
91.55680450577111
 31
0.0
  0
LINE
  5
141
330
1F
100
AcDbEntity
  8
LINEE VISIBILI 2D
 62
   253
100
AcDbLine
 10
249.8696277584146
 20
8.332853641116944
 30
0.0
 11
250.3590005409037
 21
91.55680450577111
 31
0.0
  0
LINE
  5
142
330
1F
100
AcDbEntity
  8
LINEE VISIBILI 2D
 62
   253
100
AcDbLine
 10
251.5340788691392
 20
8.332717345352383
 30
0.0
 11
252.0234516516283
 21
91.55666821000655
 31
0.0
  0
LINE
  5
143
330
1F
100
AcDbEntity
  8
LINEE VISIBILI 2D
 62
   253
100
AcDbLine
 10
169.9836281836585
 20
89.67129955942729
 30
0.0
 11
253.2067612693922
 21
89.02867086515945
 31
0.0
  0
LINE
  5
144
330
1F
100
AcDbEntity
  8
LINEE VISIBILI 2D
 62
   253
100
AcDbLine
 10
169.9834918871718
 20
88.00683962922279
 30
0.0
 11
253.2067612693922
 21
88.00683962922233
 31
0.0
  0
LINE
  5
145
330
1F
100
AcDbEntity
  8
LINEE VISIBILI 2D
 62
   253
100
AcDbLine
 10
169.983355590685
 20
86.34237969901825
 30
0.0
 11
253.2067612693922
 21
86.20598119718279
 31
0.0
  0
LINE
  5
146
330
1F
100
AcDbEntity
  8
LINEE VISIBILI 2D
 62
   253
100
AcDbLine
 10
169.9832192941983
 20
84.6779197688137
 30
0.0
 11
253.2067612693922
 21
84.67791976881326
 31
0.0
  0
LINE
  5
147
330
1F
100
AcDbEntity
  8
LINEE VISIBILI 2D
 62
   253
100
AcDbLine
 10
169.9830829977115
 20
83.01345983860917
 30
0.0
 11
253.2067612693922
 21
83.62168664803023
 31
0.0
  0
LINE
  5
148
330
1F
100
AcDbEntity
  8
LINEE VISIBILI 2D
 62
   253
100
AcDbLine
 10
169.9829467012247
 20
81.34899990840462
 30
0.0
 11
253.2067612693922
 21
81.34899990840422
 31
0.0
  0
LINE
  5
149
330
1F
100
AcDbEntity
  8
LINEE VISIBILI 2D
 62
   253
100
AcDbLine
 10
169.982810404738
 20
79.68453997820008
 30
0.0
 11
253.2067612693922
 21
79.19516719571102
 31
0.0
  0
LINE
  5
14A
330
1F
100
AcDbEntity
  8
LINEE VISIBILI 2D
 62
   253
100
AcDbLine
 10
169.9826741082512
 20
78.02008004799559
 30
0.0
 11
253.2058071939849
 21
77.37745135372775
 31
0.0
  0
LINE
  5
14B
330
1F
100
AcDbEntity
  8
LINEE VISIBILI 2D
 62
   253
100
AcDbLine
 10
169.9825378117644
 20
76.35562011779111
 30
0.0
 11
253.2058071939849
 21
76.35562011779065
 31
0.0
  0
LINE
  5
14C
330
1F
100
AcDbEntity
  8
LINEE VISIBILI 2D
 62
   253
100
AcDbLine
 10
169.9824015152777
 20
74.69116018758656
 30
0.0
 11
253.2058071939849
 21
74.5547616857511
 31
0.0
  0
LINE
  5
14D
330
1F
100
AcDbEntity
  8
LINEE VISIBILI 2D
 62
   253
100
AcDbLine
 10
169.982265218791
 20
73.02670025738201
 30
0.0
 11
253.2058071939849
 21
73.02670025738156
 31
0.0
  0
LINE
  5
14E
330
1F
100
AcDbEntity
  8
LINEE VISIBILI 2D
 62
   253
100
AcDbLine
 10
169.9821289223042
 20
71.36224032717747
 30
0.0
 11
253.2058071939849
 21
71.97046713659855
 31
0.0
  0
LINE
  5
14F
330
1F
100
AcDbEntity
  8
LINEE VISIBILI 2D
 62
   253
100
AcDbLine
 10
169.9819926258175
 20
69.69778039697293
 30
0.0
 11
253.2058071939849
 21
69.69778039697253
 31
0.0
  0
LINE
  5
150
330
1F
100
AcDbEntity
  8
LINEE VISIBILI 2D
 62
   253
100
AcDbLine
 10
169.9818563293307
 20
68.03332046676839
 30
0.0
 11
253.2058071939849
 21
67.54394768427933
 31
0.0
  0
LINE
  5
151
330
1F
100
AcDbEntity
  8
LINEE VISIBILI 2D
 62
   253
100
AcDbLine
 10
169.9817200328439
 20
66.36886053656384
 30
0.0
 11
253.2048531185776
 21
65.726231842296
 31
0.0
  0
LINE
  5
152
330
1F
100
AcDbEntity
  8
LINEE VISIBILI 2D
 62
   253
100
AcDbLine
 10
169.9815837363572
 20
64.7044006063593
 30
0.0
 11
253.2048531185776
 21
64.7044006063589
 31
0.0
  0
LINE
  5
153
330
1F
100
AcDbEntity
  8
LINEE VISIBILI 2D
 62
   253
100
AcDbLine
 10
169.9814474398704
 20
63.03994067615476
 30
0.0
 11
253.2048531185776
 21
62.90354217431936
 31
0.0
  0
LINE
  5
154
330
1F
100
AcDbEntity
  8
LINEE VISIBILI 2D
 62
   253
100
AcDbLine
 10
169.9813111433836
 20
61.37548074595027
 30
0.0
 11
253.2048531185776
 21
61.37548074594981
 31
0.0
  0
LINE
  5
155
330
1F
100
AcDbEntity
  8
LINEE VISIBILI 2D
 62
   253
100
AcDbLine
 10
169.9811748468969
 20
59.71102081574573
 30
0.0
 11
253.2048531185776
 21
60.3192476251668
 31
0.0
  0
LINE
  5
156
330
1F
100
AcDbEntity
  8
LINEE VISIBILI 2D
 62
   253
100
AcDbLine
 10
169.9810385504101
 20
58.04656088554124
 30
0.0
 11
253.2048531185776
 21
58.04656088554079
 31
0.0
  0
LINE
  5
157
330
1F
100
AcDbEntity
  8
LINEE VISIBILI 2D
 62
   253
100
AcDbLine
 10
169.9809022539234
 20
56.38210095533669
 30
0.0
 11
253.2048531185776
 21
55.89272817284758
 31
0.0
  0
LINE
  5
158
330
1F
100
AcDbEntity
  8
LINEE VISIBILI 2D
 62
   253
100
AcDbLine
 10
169.9807659574367
 20
54.71764102513215
 30
0.0
 11
253.2038990431703
 21
54.07501233086431
 31
0.0
  0
LINE
  5
159
330
1F
100
AcDbEntity
  8
LINEE VISIBILI 2D
 62
   253
100
AcDbLine
 10
169.9806296609499
 20
53.05318109492761
 30
0.0
 11
253.2038990431703
 21
53.05318109492721
 31
0.0
  0
LINE
  5
15A
330
1F
100
AcDbEntity
  8
LINEE VISIBILI 2D
 62
   253
100
AcDbLine
 10
169.9804933644631
 20
51.38872116472306
 30
0.0
 11
253.2038990431703
 21
51.25232266288766
 31
0.0
  0
LINE
  5
15B
330
1F
100
AcDbEntity
  8
LINEE VISIBILI 2D
 62
   253
100
AcDbLine
 10
169.9803570679764
 20
49.72426123451858
 30
0.0
 11
253.2038990431703
 21
49.72426123451812
 31
0.0
  0
LINE
  5
15C
330
1F
100
AcDbEntity
  8
LINEE VISIBILI 2D
 62
   253
100
AcDbLine
 10
169.9802207714896
 20
48.05980130431404
 30
0.0
 11
253.2038990431703
 21
48.6680281137351
 31
0.0
  0
LINE
  5
15D
330
1F
100
AcDbEntity
  8
LINEE VISIBILI 2D
 62
   253
100
AcDbLine
 10
169.9800844750029
 20
46.39534137410954
 30
0.0
 11
253.2038990431703
 21
46.39534137410909
 31
0.0
  0
LINE
  5
15E
330
1F
100
AcDbEntity
  8
LINEE VISIBILI 2D
 62
   253
100
AcDbLine
 10
169.9799481785161
 20
44.73088144390501
 30
0.0
 11
253.2038990431703
 21
44.24150866141589
 31
0.0
  0
LINE
  5
15F
330
1F
100
AcDbEntity
  8
LINEE VISIBILI 2D
 62
   253
100
AcDbLine
 10
169.9798118820293
 20
43.06642151370046
 30
0.0
 11
253.2029449677631
 21
42.42379281943262
 31
0.0
  0
LINE
  5
160
330
1F
100
AcDbEntity
  8
LINEE VISIBILI 2D
 62
   253
100
AcDbLine
 10
169.9796755855426
 20
41.40196158349591
 30
0.0
 11
253.2029449677631
 21
41.40196158349552
 31
0.0
  0
LINE
  5
161
330
1F
100
AcDbEntity
  8
LINEE VISIBILI 2D
 62
   253
100
AcDbLine
 10
169.9795392890559
 20
39.73750165329138
 30
0.0
 11
253.2029449677631
 21
39.60110315145597
 31
0.0
  0
LINE
  5
162
330
1F
100
AcDbEntity
  8
LINEE VISIBILI 2D
 62
   253
100
AcDbLine
 10
169.9794029925691
 20
38.07304172308689
 30
0.0
 11
253.2029449677631
 21
38.07304172308644
 31
0.0
  0
LINE
  5
163
330
1F
100
AcDbEntity
  8
LINEE VISIBILI 2D
 62
   253
100
AcDbLine
 10
169.9792666960823
 20
36.40858179288235
 30
0.0
 11
253.202944967763
 21
37.01680860230342
 31
0.0
  0
LINE
  5
164
330
1F
100
AcDbEntity
  8
LINEE VISIBILI 2D
 62
   253
100
AcDbLine
 10
169.9791303995956
 20
34.74412186267786
 30
0.0
 11
253.202944967763
 21
34.7441218626774
 31
0.0
  0
LINE
  5
165
330
1F
100
AcDbEntity
  8
LINEE VISIBILI 2D
 62
   253
100
AcDbLine
 10
169.9789941031088
 20
33.07966193247331
 30
0.0
 11
253.202944967763
 21
32.5902891499842
 31
0.0
  0
LINE
  5
166
330
1F
100
AcDbEntity
  8
LINEE VISIBILI 2D
 62
   253
100
AcDbLine
 10
169.9788578066221
 20
31.41520200226871
 30
0.0
 11
253.2019908923558
 21
30.77257330800087
 31
0.0
  0
LINE
  5
167
330
1F
100
AcDbEntity
  8
LINEE VISIBILI 2D
 62
   253
100
AcDbLine
 10
169.9787215101353
 20
29.75074207206423
 30
0.0
 11
253.2019908923558
 21
29.75074207206377
 31
0.0
  0
LINE
  5
168
330
1F
100
AcDbEntity
  8
LINEE VISIBILI 2D
 62
   253
100
AcDbLine
 10
169.9785852136485
 20
28.08628214185969
 30
0.0
 11
253.2019908923558
 21
27.94988364002423
 31
0.0
  0
LINE
  5
169
330
1F
100
AcDbEntity
  8
LINEE VISIBILI 2D
 62
   253
100
AcDbLine
 10
169.9784489171618
 20
26.42182221165514
 30
0.0
 11
253.2019908923558
 21
26.42182221165469
 31
0.0
  0
LINE
  5
16A
330
1F
100
AcDbEntity
  8
LINEE VISIBILI 2D
 62
   253
100
AcDbLine
 10
169.978312620675
 20
24.7573622814506
 30
0.0
 11
253.2019908923558
 21
25.36558909087167
 31
0.0
  0
LINE
  5
16B
330
1F
100
AcDbEntity
  8
LINEE VISIBILI 2D
 62
   253
100
AcDbLine
 10
169.9781763241883
 20
23.09290235124605
 30
0.0
 11
253.2019908923558
 21
23.09290235124565
 31
0.0
  0
LINE
  5
16C
330
1F
100
AcDbEntity
  8
LINEE VISIBILI 2D
 62
   253
100
AcDbLine
 10
169.9780400277015
 20
21.42844242104151
 30
0.0
 11
253.2019908923558
 21
20.93906963855245
 31
0.0
  0
LINE
  5
16D
330
1F
100
AcDbEntity
  8
LINEE VISIBILI 2D
 62
   253
100
AcDbLine
 10
169.9764038678321
 20
19.76398249083702
 30
0.0
 11
253.1996732500526
 21
19.76398249083662
 31
0.0
  0
LINE
  5
16E
330
1F
100
AcDbEntity
  8
LINEE VISIBILI 2D
 62
   253
100
AcDbLine
 10
169.9762675713454
 20
18.09952256063248
 30
0.0
 11
253.1996732500526
 21
17.96312405879702
 31
0.0
  0
LINE
  5
16F
330
1F
100
AcDbEntity
  8
LINEE VISIBILI 2D
 62
   253
100
AcDbLine
 10
169.9761312748586
 20
16.43506263042799
 30
0.0
 11
253.1996732500526
 21
16.43506263042754
 31
0.0
  0
LINE
  5
170
330
1F
100
AcDbEntity
  8
LINEE VISIBILI 2D
 62
   253
100
AcDbLine
 10
169.9759949783719
 20
14.77060270022345
 30
0.0
 11
253.1996732500525
 21
15.37882950964446
 31
0.0
  0
LINE
  5
171
330
1F
100
AcDbEntity
  8
LINEE VISIBILI 2D
 62
   253
100
AcDbLine
 10
169.9758586818851
 20
13.10614277001891
 30
0.0
 11
253.1996732500525
 21
13.10614277001845
 31
0.0
  0
LINE
  5
172
330
1F
100
AcDbEntity
  8
LINEE VISIBILI 2D
 62
   253
100
AcDbLine
 10
169.9757223853983
 20
11.44168283981436
 30
0.0
 11
253.1996732500525
 21
10.95231005732525
 31
0.0
  0
LINE
  5
173
330
1F
100
AcDbEntity
  8
LINEE VISIBILI 2D
 62
   253
100
AcDbLine
 10
169.9755860896338
 20
9.777231729089765
 30
0.0
 11
253.199536954288
 21
9.287858946600652
 31
0.0
  0
ENDSEC
  0
SECTION
  2
OBJECTS
  0
DICTIONARY
  5
C
330
0
100
AcDbDictionary
281
     1
  3
ACAD_COLOR
350
CE
  3
ACAD_GROUP
350
D
  3
ACAD_LAYOUT
350
1A
  3
ACAD_MATERIAL
350
CD
  3
ACAD_MLINESTYLE
350
17
  3
ACAD_PLOTSETTINGS
350
19
  3
ACAD_PLOTSTYLENAME
350
E
  3
ACAD_TABLESTYLE
350
CF
  3
AcDbVariableDictionary
350
110
  0
DICTIONARY
  5
CE
102
{ACAD_REACTORS
330
C
102
}
330
C
100
AcDbDictionary
281
     1
  0
DICTIONARY
  5
D
102
{ACAD_REACTORS
330
C
102
}
330
C
100
AcDbDictionary
281
     1
  0
DICTIONARY
  5
1A
102
{ACAD_REACTORS
330
C
102
}
330
C
100
AcDbDictionary
281
     1
  3
Layout1
350
1E
  3
Layout2
350
26
  3
Model
350
22
  0
DICTIONARY
  5
CD
102
{ACAD_REACTORS
330
C
102
}
330
C
100
AcDbDictionary
281
     1
  0
DICTIONARY
  5
17
102
{ACAD_REACTORS
330
C
102
}
330
C
100
AcDbDictionary
281
     1
  3
Standard
350
18
  0
DICTIONARY
  5
19
102
{ACAD_REACTORS
330
C
102
}
330
C
100
AcDbDictionary
281
     1
  0
ACDBDICTIONARYWDFLT
  5
E
102
{ACAD_REACTORS
330
C
102
}
330
C
100
AcDbDictionary
281
     1
  3
Normal
350
F
100
AcDbDictionaryWithDefault
340
F
  0
DICTIONARY
  5
CF
102
{ACAD_REACTORS
330
C
102
}
330
C
100
AcDbDictionary
281
     1
  3
Standard
350
D0
  0
DICTIONARY
  5
110
102
{ACAD_REACTORS
330
C
102
}
330
C
100
AcDbDictionary
281
     1
  3
CTABLESTYLE
350
111
  0
LAYOUT
  5
1E
102
{ACAD_REACTORS
330
1A
102
}
330
1A
100
AcDbPlotSettings
  1

  2
none_device
  4

  6

 40
0.0
 41
0.0
 42
0.0
 43
0.0
 44
0.0
 45
0.0
 46
0.0
 47
0.0
 48
0.0
 49
0.0
140
0.0
141
0.0
142
1.0
143
1.0
 70
   688
 72
     0
 73
     0
 74
     5
  7

 75
    16
147
1.0
 76
     0
 77
     2
 78
   300
148
0.0
149
0.0
100
AcDbLayout
  1
Layout1
 70
     1
 71
     1
 10
0.0
 20
0.0
 11
12.0
 21
9.0
 12
0.0
 22
0.0
 32
0.0
 14
1.000000000000000E+20
 24
1.000000000000000E+20
 34
1.000000000000000E+20
 15
-1.000000000000000E+20
 25
-1.000000000000000E+20
 35
-1.000000000000000E+20
146
0.0
 13
0.0
 23
0.0
 33
0.0
 16
1.0
 26
0.0
 36
0.0
 17
0.0
 27
1.0
 37
0.0
 76
     0
330
1B
  0
LAYOUT
  5
26
102
{ACAD_REACTORS
330
1A
102
}
330
1A
100
AcDbPlotSettings
  1

  2
none_device
  4

  6

 40
0.0
 41
0.0
 42
0.0
 43
0.0
 44
0.0
 45
0.0
 46
0.0
 47
0.0
 48
0.0
 49
0.0
140
0.0
141
0.0
142
1.0
143
1.0
 70
   688
 72
     0
 73
     0
 74
     5
  7

 75
    16
147
1.0
 76
     0
 77
     2
 78
   300
148
0.0
149
0.0
100
AcDbLayout
  1
Layout2
 70
     1
 71
     2
 10
0.0
 20
0.0
 11
0.0
 21
0.0
 12
0.0
 22
0.0
 32
0.0
 14
0.0
 24
0.0
 34
0.0
 15
0.0
 25
0.0
 35
0.0
146
0.0
 13
0.0
 23
0.0
 33
0.0
 16
1.0
 26
0.0
 36
0.0
 17
0.0
 27
1.0
 37
0.0
 76
     0
330
23
  0
LAYOUT
  5
22
102
{ACAD_REACTORS
330
1A
102
}
330
1A
100
AcDbPlotSettings
  1

  2
none_device
  4

  6

 40
0.0
 41
0.0
 42
0.0
 43
0.0
 44
0.0
 45
0.0
 46
0.0
 47
0.0
 48
0.0
 49
0.0
140
0.0
141
0.0
142
1.0
143
1.0
 70
  1712
 72
     0
 73
     0
 74
     0
  7

 75
     0
147
1.0
 76
     0
 77
     2
 78
   300
148
0.0
149
0.0
100
AcDbLayout
  1
Model
 70
     1
 71
     0
 10
0.0
 20
0.0
 11
12.0
 21
9.0
 12
0.0
 22
0.0
 32
0.0
 14
0.0
 24
-0.0000000000000071
 34
0.0
 15
261.5413454761145
 25
171.5915954761148
 35
0.0
146
0.0
 13
0.0
 23
0.0
 33
0.0
 16
1.0
 26
0.0
 36
0.0
 17
0.0
 27
1.0
 37
0.0
 76
     0
330
1F
  0
MLINESTYLE
  5
18
102
{ACAD_REACTORS
330
17
102
}
330
17
100
AcDbMlineStyle
  2
STANDARD
 70
     0
  3

 62
   256
 51
90.0
 52
90.0
 71
     2
 49
0.5
 62
   256
  6
BYLAYER
 49
-0.5
 62
   256
  6
BYLAYER
  0
ACDBPLACEHOLDER
  5
F
102
{ACAD_REACTORS
330
E
102
}
330
E
  0
TABLESTYLE
  5
D0
102
{ACAD_REACTORS
330
CF
102
}
330
CF
100
AcDbTableStyle
  3
Standard
 70
     0
 71
     0
 40
0.06
 41
0.06
280
     0
281
     0
  7
Standard
140
0.18
170
     2
 62
     0
 63
     7
283
     0
274
    -2
284
     1
 64
     0
275
    -2
285
     1
 65
     0
276
    -2
286
     1
 66
     0
277
    -2
287
     1
 67
     0
278
    -2
288
     1
 68
     0
279
    -2
289
     1
 69
     0
  7
Standard
140
0.25
170
     5
 62
     0
 63
     7
283
     0
274
    -2
284
     1
 64
     0
275
    -2
285
     1
 65
     0
276
    -2
286
     1
 66
     0
277
    -2
287
     1
 67
     0
278
    -2
288
     1
 68
     0
279
    -2
289
     1
 69
     0
  7
Standard
140
0.18
170
     5
 62
     0
 63
     7
283
     0
274
    -2
284
     1
 64
     0
275
    -2
285
     1
 65
     0
276
    -2
286
     1
 66
     0
277
    -2
287
     1
 67
     0
278
    -2
288
     1
 68
     0
279
    -2
289
     1
 69
     0
  0
DICTIONARYVAR
  5
111
102
{ACAD_REACTORS
330
110
102
}
330
110
100
DictionaryVariables
280
     0
  1
STANDARD
  0
ENDSEC
  0
EOF
