  0
SECTION
  2
HEADER
  9
$ACADVER
  1
AC1015
  9
$ACADMAINTVER
 70
    20
  9
$DWGCODEPAGE
  3
ANSI_1252
  9
$INSBASE
 10
0.0
 20
0.0
 30
0.0
  9
$EXTMIN
 10
-177.0841185638816
 20
-569.8527202982392
 30
0.0
  9
$EXTMAX
 10
942.9256856772468
 20
272.4855679491802
 30
0.0
  9
$LIMMIN
 10
0.0
 20
0.0
  9
$LIMMAX
 10
0.0
 20
0.0
  9
$ORTHOMODE
 70
     0
  9
$REGENMODE
 70
     1
  9
$FILLMODE
 70
     1
  9
$QTEXTMODE
 70
     0
  9
$MIRRTEXT
 70
     1
  9
$LTSCALE
 40
1.0
  9
$ATTMODE
 70
     1
  9
$TEXTSIZE
 40
0.0
  9
$TRACEWID
 40
0.05
  9
$TEXTSTYLE
  7
STANDARD
  9
$CLAYER
  8
0
  9
$CELTYPE
  6
CONTINUOUS
  9
$CECOLOR
 62
   256
  9
$CELTSCALE
 40
1.0
  9
$DISPSILH
 70
     0
  9
$DIMSCALE
 40
1.0
  9
$DIMASZ
 40
6.0
  9
$DIMEXO
 40
1.0
  9
$DIMDLI
 40
0.38
  9
$DIMRND
 40
0.0
  9
$DIMDLE
 40
1.0
  9
$DIMEXE
 40
0.18
  9
$DIMTP
 40
0.0
  9
$DIMTM
 40
0.0
  9
$DIMTXT
 40
3.5
  9
$DIMCEN
 40
0.09
  9
$DIMTSZ
 40
0.0
  9
$DIMTOL
 70
     0
  9
$DIMLIM
 70
     0
  9
$DIMTIH
 70
     1
  9
$DIMTOH
 70
     1
  9
$DIMSE1
 70
     0
  9
$DIMSE2
 70
     0
  9
$DIMTAD
 70
     1
  9
$DIMZIN
 70
     0
  9
$DIMBLK
  1

  9
$DIMASO
 70
     1
  9
$DIMSHO
 70
     1
  9
$DIMPOST
  1

  9
$DIMAPOST
  1

  9
$DIMALT
 70
     0
  9
$DIMALTD
 70
     2
  9
$DIMALTF
 40
0.0394
  9
$DIMLFAC
 40
1.0
  9
$DIMTOFL
 70
     0
  9
$DIMTVP
 40
0.0
  9
$DIMTIX
 70
     0
  9
$DIMSOXD
 70
     0
  9
$DIMSAH
 70
     0
  9
$DIMBLK1
  1

  9
$DIMBLK2
  1

  9
$DIMSTYLE
  2
STANDARD
  9
$DIMCLRD
 70
     0
  9
$DIMCLRE
 70
     0
  9
$DIMCLRT
 70
     0
  9
$DIMTFAC
 40
1.0
  9
$DIMGAP
 40
1.0
  9
$DIMJUST
 70
     0
  9
$DIMSD1
 70
     0
  9
$DIMSD2
 70
     0
  9
$DIMTOLJ
 70
     1
  9
$DIMTZIN
 70
     0
  9
$DIMALTZ
 70
     0
  9
$DIMALTTZ
 70
     0
  9
$DIMUPT
 70
     0
  9
$DIMDEC
 70
     4
  9
$DIMTDEC
 70
     4
  9
$DIMALTU
 70
     2
  9
$DIMALTTD
 70
     2
  9
$DIMTXSTY
  7
STANDARD
  9
$DIMAUNIT
 70
     0
  9
$DIMADEC
 70
     0
  9
$DIMALTRND
 40
0.0
  9
$DIMAZIN
 70
     0
  9
$DIMDSEP
 70
    46
  9
$DIMATFIT
 70
     3
  9
$DIMFRAC
 70
     0
  9
$DIMLDRBLK
  1

  9
$DIMLUNIT
 70
     2
  9
$DIMLWD
 70
    -2
  9
$DIMLWE
 70
    -2
  9
$DIMTMOVE
 70
     0
  9
$LUNITS
 70
     2
  9
$LUPREC
 70
     2
  9
$SKETCHINC
 40
0.1
  9
$FILLETRAD
 40
0.0
  9
$AUNITS
 70
     0
  9
$AUPREC
 70
     2
  9
$MENU
  1
acad
  9
$ELEVATION
 40
0.0
  9
$PELEVATION
 40
0.0
  9
$THICKNESS
 40
0.0
  9
$LIMCHECK
 70
     0
  9
$CHAMFERA
 40
0.0
  9
$CHAMFERB
 40
0.0
  9
$CHAMFERC
 40
0.0
  9
$CHAMFERD
 40
0.0
  9
$SKPOLY
 70
     0
  9
$TDCREATE
 40
2444972.041666667
  9
$TDUCREATE
 40
2444972.000000000
  9
$TDUPDATE
 40
2453768.879853692
  9
$TDUUPDATE
 40
2453768.838187025
  9
$TDINDWG
 40
0.0002486574
  9
$TDUSRTIMER
 40
0.0002486574
  9
$USRTIMER
 70
     1
  9
$ANGBASE
 50
0.0
  9
$ANGDIR
 70
     0
  9
$PDMODE
 70
     0
  9
$PDSIZE
 40
-1.0
  9
$PLINEWID
 40
0.0
  9
$SPLFRAME
 70
     0
  9
$SPLINETYPE
 70
     6
  9
$SPLINESEGS
 70
     8
  9
$HANDSEED
  5
B2D
  9
$SURFTAB1
 70
     6
  9
$SURFTAB2
 70
     6
  9
$SURFTYPE
 70
     6
  9
$SURFU
 70
     6
  9
$SURFV
 70
     6
  9
$UCSBASE
  2

  9
$UCSNAME
  2

  9
$UCSORG
 10
0.0
 20
0.0
 30
0.0
  9
$UCSXDIR
 10
1.0
 20
0.0
 30
0.0
  9
$UCSYDIR
 10
0.0
 20
1.0
 30
0.0
  9
$UCSORTHOREF
  2

  9
$UCSORTHOVIEW
 70
     1
  9
$UCSORGTOP
 10
0.0
 20
0.0
 30
0.0
  9
$UCSORGBOTTOM
 10
0.0
 20
0.0
 30
0.0
  9
$UCSORGLEFT
 10
0.0
 20
0.0
 30
0.0
  9
$UCSORGRIGHT
 10
0.0
 20
0.0
 30
0.0
  9
$UCSORGFRONT
 10
0.0
 20
0.0
 30
0.0
  9
$UCSORGBACK
 10
0.0
 20
0.0
 30
0.0
  9
$PUCSBASE
  2

  9
$PUCSNAME
  2

  9
$PUCSORG
 10
0.0
 20
0.0
 30
0.0
  9
$PUCSXDIR
 10
1.0
 20
0.0
 30
0.0
  9
$PUCSYDIR
 10
0.0
 20
1.0
 30
0.0
  9
$PUCSORTHOREF
  2

  9
$PUCSORTHOVIEW
 70
     0
  9
$PUCSORGTOP
 10
0.0
 20
0.0
 30
0.0
  9
$PUCSORGBOTTOM
 10
0.0
 20
0.0
 30
0.0
  9
$PUCSORGLEFT
 10
0.0
 20
0.0
 30
0.0
  9
$PUCSORGRIGHT
 10
0.0
 20
0.0
 30
0.0
  9
$PUCSORGFRONT
 10
0.0
 20
0.0
 30
0.0
  9
$PUCSORGBACK
 10
0.0
 20
0.0
 30
0.0
  9
$USERI1
 70
     0
  9
$USERI2
 70
     0
  9
$USERI3
 70
     0
  9
$USERI4
 70
     0
  9
$USERI5
 70
     0
  9
$USERR1
 40
0.0
  9
$USERR2
 40
0.0
  9
$USERR3
 40
0.0
  9
$USERR4
 40
0.0
  9
$USERR5
 40
0.0
  9
$WORLDVIEW
 70
     1
  9
$SHADEDGE
 70
     3
  9
$SHADEDIF
 70
    70
  9
$TILEMODE
 70
     1
  9
$MAXACTVP
 70
    16
  9
$PINSBASE
 10
0.0
 20
0.0
 30
0.0
  9
$PLIMCHECK
 70
     0
  9
$PEXTMIN
 10
1.000000000000000E+20
 20
1.000000000000000E+20
 30
1.000000000000000E+20
  9
$PEXTMAX
 10
-1.000000000000000E+20
 20
-1.000000000000000E+20
 30
-1.000000000000000E+20
  9
$PLIMMIN
 10
0.0
 20
0.0
  9
$PLIMMAX
 10
12.0
 20
9.0
  9
$UNITMODE
 70
     0
  9
$VISRETAIN
 70
     0
  9
$PLINEGEN
 70
     1
  9
$PSLTSCALE
 70
     1
  9
$TREEDEPTH
 70
  3020
  9
$CMLSTYLE
  2
STANDARD
  9
$CMLJUST
 70
     0
  9
$CMLSCALE
 40
1.0
  9
$PROXYGRAPHICS
 70
     0
  9
$MEASUREMENT
 70
     0
  9
$CELWEIGHT
370
    -1
  9
$ENDCAPS
280
     0
  9
$JOINSTYLE
280
     0
  9
$LWDISPLAY
290
     0
  9
$INSUNITS
 70
     0
  9
$HYPERLINKBASE
  1

  9
$STYLESHEET
  1

  9
$XEDIT
290
     1
  9
$CEPSNTYPE
380
     0
  9
$PSTYLEMODE
290
     1
  9
$FINGERPRINTGUID
  2
{D72385D1-724A-45AC-9017-B074D7D98321}
  9
$VERSIONGUID
  2
{7CC7D98A-F98B-4740-9DB8-0707AE908F9C}
  9
$EXTNAMES
290
     1
  9
$PSVPSCALE
 40
0.0
  9
$OLESTARTUP
290
     0
  0
ENDSEC
  0
SECTION
  2
CLASSES
  0
CLASS
  1
IMAGE
  2
AcDbRasterImage
  3
ISM
 90
    32895
280
     0
281
     1
  0
CLASS
  1
DICTIONARYVAR
  2
AcDbDictionaryVar
  3
ObjectDBX Classes
 90
        0
280
     0
281
     0
  0
CLASS
  1
RASTERVARIABLES
  2
AcDbRasterVariables
  3
ISM
 90
    32768
280
     0
281
     0
  0
CLASS
  1
IMAGEDEF
  2
AcDbRasterImageDef
  3
ISM
 90
    32768
280
     0
281
     0
  0
CLASS
  1
IMAGEDEF_REACTOR
  2
AcDbRasterImageDefReactor
  3
ISM
 90
    32769
280
     0
281
     0
  0
CLASS
  1
IDBUFFER
  2
AcDbIdBuffer
  3
ObjectDBX Classes
 90
    32768
280
     0
281
     0
  0
CLASS
  1
SPATIAL_FILTER
  2
AcDbSpatialFilter
  3
ObjectDBX Classes
 90
    32768
280
     0
281
     0
  0
CLASS
  1
SORTENTSTABLE
  2
AcDbSortentsTable
  3
ObjectDBX Classes
 90
    32768
280
     0
281
     0
  0
CLASS
  1
LAYER_INDEX
  2
AcDbLayerIndex
  3
ObjectDBX Classes
 90
    32768
280
     0
281
     0
  0
CLASS
  1
SPATIAL_INDEX
  2
AcDbSpatialIndex
  3
ObjectDBX Classes
 90
    32768
280
     0
281
     0
  0
CLASS
  1
OBJECT_PTR
  2
CAseDLPNTableRecord
  3
ASE-LPNTableRecord
 90
    32769
280
     0
281
     0
  0
CLASS
  1
LAYOUT
  2
AcDbLayout
  3
ObjectDBX Classes
 90
        0
280
     0
281
     0
  0
CLASS
  1
PLOTSETTINGS
  2
AcDbPlotSettings
  3
ObjectDBX Classes
 90
    32768
280
     0
281
     0
  0
CLASS
  1
ACDBDICTIONARYWDFLT
  2
AcDbDictionaryWithDefault
  3
ObjectDBX Classes
 90
        0
280
     0
281
     0
  0
CLASS
  1
ACDBPLACEHOLDER
  2
AcDbPlaceHolder
  3
ObjectDBX Classes
 90
        0
280
     0
281
     0
  0
CLASS
  1
VBA_PROJECT
  2
AcDbVbaProject
  3
acad
 90
    32768
280
     0
281
     0
  0
CLASS
  1
WIPEOUT
  2
AcDbWipeout
  3
"WipeOut|Product Desc: Object Enabler for WipeOut entity^I^I^I^I^I^I|Company: Autodesk, Inc.^I^I^I^I^I^I|WEB Address: www.autodesk.com"
 90
    32895
280
     0
281
     1
  0
CLASS
  1
WIPEOUTVARIABLES
  2
AcDbWipeoutVariables
  3
"WipeOut|Product Desc:     WipeOut Dbx Application|Company:          Autodesk, Inc.|WEB Address:      www.autodesk.com"
 90
    32768
280
     0
281
     0
  0
CLASS
  1
RTEXT
  2
RText
  3
RText|AutoCAD Express Tool|expresstools@autodesk.com
 90
    32768
280
     0
281
     1
  0
CLASS
  1
ARCALIGNEDTEXT
  2
AcDbArcAlignedText
  3
ATEXT|AutoCAD Express Tool|expresstools@autodesk.com
 90
    32768
280
     0
281
     1
  0
ENDSEC
  0
SECTION
  2
TABLES
  0
TABLE
  2
VPORT
  5
7
330
0
100
AcDbSymbolTable
 70
     2
  0
VPORT
  5
B25
330
7
100
AcDbSymbolTableRecord
100
AcDbViewportTableRecord
  2
*Active
 70
     0
 10
0.0
 20
0.0
 11
1.0
 21
1.0
 12
428.4361882502587
 22
-148.6835761745294
 13
0.0
 23
0.0
 14
1.0
 24
1.0
 15
0.0
 25
0.0
 16
0.0
 26
0.0
 36
1.0
 17
0.0
 27
0.0
 37
0.0
 40
849.2427004461687
 41
1.569570871261378
 42
50.0
 43
0.0
 44
0.0
 50
0.0
 51
0.0
 71
     0
 72
  2000
 73
     1
 74
     1
 75
     0
 76
     0
 77
     0
 78
     0
281
     0
 65
     1
110
0.0
120
0.0
130
0.0
111
1.0
121
0.0
131
0.0
112
0.0
122
1.0
132
0.0
 79
     1
146
0.0
  0
ENDTAB
  0
TABLE
  2
LTYPE
  5
4
330
0
100
AcDbSymbolTable
 70
     6
  0
LTYPE
  5
11
330
4
100
AcDbSymbolTableRecord
100
AcDbLinetypeTableRecord
  2
BYBLOCK
 70
     0
  3

 72
    65
 73
     0
 40
0.0
  0
LTYPE
  5
12
330
4
100
AcDbSymbolTableRecord
100
AcDbLinetypeTableRecord
  2
BYLAYER
 70
     0
  3

 72
    65
 73
     0
 40
0.0
  0
LTYPE
  5
13
330
4
100
AcDbSymbolTableRecord
100
AcDbLinetypeTableRecord
  2
CONTINUOUS
 70
     0
  3
Solid line
 72
    65
 73
     0
 40
0.0
  0
LTYPE
  5
1E
330
4
100
AcDbSymbolTableRecord
100
AcDbLinetypeTableRecord
  2
HIDDEN
 70
     0
  3
Hidden __ __ __ __ __ __ __ __ __ __ __ __ __ __
 72
    65
 73
     2
 40
1.905
 49
1.27
 74
     0
 49
-0.635
 74
     0
  0
LTYPE
  5
1F
330
4
100
AcDbSymbolTableRecord
100
AcDbLinetypeTableRecord
  2
PHANTOM
 70
     0
  3
Phantom ______  __  __  ______  __  __  ______
 72
    65
 73
     6
 40
12.7
 49
6.349999999999999
 74
     0
 49
-1.27
 74
     0
 49
1.27
 74
     0
 49
-1.27
 74
     0
 49
1.27
 74
     0
 49
-1.27
 74
     0
  0
LTYPE
  5
20
330
4
100
AcDbSymbolTableRecord
100
AcDbLinetypeTableRecord
  2
CENTER
 70
     0
  3
Center ____ _ ____ _ ____ _ ____ _ ____ _ ____
 72
    65
 73
     4
 40
10.16
 49
6.349999999999999
 74
     0
 49
-1.27
 74
     0
 49
1.27
 74
     0
 49
-1.27
 74
     0
  0
LTYPE
  5
21
330
4
100
AcDbSymbolTableRecord
100
AcDbLinetypeTableRecord
  2
CENTERX2
 70
     0
  3
Center (2x) ________  __  ________  __  _____
 72
    65
 73
     4
 40
20.32
 49
12.7
 74
     0
 49
-2.54
 74
     0
 49
2.54
 74
     0
 49
-2.54
 74
     0
  0
LTYPE
  5
22
330
4
100
AcDbSymbolTableRecord
100
AcDbLinetypeTableRecord
  2
DOT2
 70
     0
  3
Dot (.5x) ........................................
 72
    65
 73
     2
 40
0.635
 49
0.0
 74
     0
 49
-0.635
 74
     0
  0
ENDTAB
  0
TABLE
  2
LAYER
  5
2
330
0
100
AcDbSymbolTable
 70
     2
  0
LAYER
  5
14
330
2
100
AcDbSymbolTableRecord
100
AcDbLayerTableRecord
  2
0
 70
     0
 62
     7
  6
CONTINUOUS
370
    -3
390
B0A
  0
LAYER
  5
26
330
2
100
AcDbSymbolTableRecord
100
AcDbLayerTableRecord
  2
DEFPOINTS
 70
     0
 62
     7
  6
CONTINUOUS
290
     0
370
    -3
390
B0A
  0
ENDTAB
  0
TABLE
  2
STYLE
  5
3
330
0
100
AcDbSymbolTable
 70
     1
  0
STYLE
  5
17
330
3
100
AcDbSymbolTableRecord
100
AcDbTextStyleTableRecord
  2
STANDARD
 70
     0
 40
0.0
 41
1.0
 50
0.0
 71
     0
 42
0.0
  3
Century Gothic
  4

  0
ENDTAB
  0
TABLE
  2
VIEW
  5
5
330
0
100
AcDbSymbolTable
 70
     0
  0
ENDTAB
  0
TABLE
  2
UCS
  5
6
330
0
100
AcDbSymbolTable
 70
     0
  0
ENDTAB
  0
TABLE
  2
APPID
  5
8
330
0
100
AcDbSymbolTable
 70
     2
  0
APPID
  5
16
330
8
100
AcDbSymbolTableRecord
100
AcDbRegAppTableRecord
  2
ACAD
 70
     0
  0
APPID
  5
B15
330
8
100
AcDbSymbolTableRecord
100
AcDbRegAppTableRecord
  2
DCO15
 70
     0
  0
ENDTAB
  0
TABLE
  2
DIMSTYLE
  5
9
330
0
100
AcDbSymbolTable
 70
     1
100
AcDbDimStyleTable
 71
     0
  0
DIMSTYLE
105
18
330
9
100
AcDbSymbolTableRecord
100
AcDbDimStyleTableRecord
  2
STANDARD
 70
     0
289
     0
340
17
  0
ENDTAB
  0
TABLE
  2
BLOCK_RECORD
  5
1
330
0
100
AcDbSymbolTable
 70
     0
  0
BLOCK_RECORD
  5
A
330
1
100
AcDbSymbolTableRecord
100
AcDbBlockTableRecord
  2
*MODEL_SPACE
340
B0F
  0
BLOCK_RECORD
  5
B
330
1
100
AcDbSymbolTableRecord
100
AcDbBlockTableRecord
  2
*PAPER_SPACE
340
B10
  0
ENDTAB
  0
ENDSEC
  0
SECTION
  2
BLOCKS
  0
BLOCK
  5
D
330
A
100
AcDbEntity
  8
0
100
AcDbBlockBegin
  2
*MODEL_SPACE
 70
     0
 10
0.0
 20
0.0
 30
0.0
  3
*MODEL_SPACE
  1

  0
ENDBLK
  5
E
330
A
100
AcDbEntity
  8
0
100
AcDbBlockEnd
  0
BLOCK
  5
F
330
B
100
AcDbEntity
 67
     1
  8
0
100
AcDbBlockBegin
  2
*PAPER_SPACE
 70
     0
 10
0.0
 20
0.0
 30
0.0
  3
*PAPER_SPACE
  1

  0
ENDBLK
  5
10
330
B
100
AcDbEntity
 67
     1
  8
0
100
AcDbBlockEnd
  0
ENDSEC
  0
SECTION
  2
ENTITIES
  0
LWPOLYLINE
  5
27
330
A
100
AcDbEntity
  8
0
  6
Continuous
 62
     7
100
AcDbPolyline
 90
      118
 70
   128
 43
0.0
 10
231.495891744771
 20
55.4116860507966
 10
233.4557138044424
 20
55.54870156155653
 10
240.8371358055228
 20
56.09799334628762
 10
247.2072409299551
 20
56.60266817086803
 10
252.6595572954598
 20
57.06278710666315
 10
257.2851340852143
 20
57.47825390389288
 10
260.9579441834601
 20
57.82798575332042
 10
264.0394485315949
 20
58.13758600122374
 10
266.5896532542057
 20
58.40698903664362
 10
268.662189590405
 20
58.63618882577526
 10
270.351559672827
 20
58.83073484721333
 10
276.5510793535741
 20
59.6192641396705
 10
278.6467020653042
 20
59.91994239941139
 10
280.6206383652972
 20
60.22425493971002
 10
282.4703423902357
 20
60.53188831848903
 10
284.2407569836095
 20
60.85093635409635
 10
286.2889062869736
 20
61.25708700085877
 10
288.5155491854133
 20
61.75504976824694
 10
291.0890140465621
 20
62.42578944912821
 10
294.2747616556296
 20
63.44661682692537
 10
297.9882501560236
 20
64.98799699419096
 10
300.887328998394
 20
66.53412529083357
 10
304.00396070882
 20
68.62460454048586
 10
307.1226353396223
 20
71.29729968013299
 10
309.2885047978516
 20
73.6209401283549
 10
311.2145049134762
 20
76.14818854934509
 10
312.8610273675891
 20
78.82154798369661
 10
314.1962901705115
 20
81.55333254793736
 10
315.3792133940645
 20
84.7697437867459
 10
316.0671102314851
 20
87.40916413005797
 10
316.4512261778569
 20
89.55474253413042
 10
316.7070836343429
 20
92.02676531782204
 10
316.7698048654687
 20
93.76287683330987
 10
316.7555049360313
 20
95.01904975677618
 10
316.6899163056827
 20
96.29077918612154
 10
316.5654786500848
 20
97.6249385620706
 10
316.3733858309084
 20
99.0220563949807
 10
316.1039025313262
 20
100.4818627278861
 10
315.701600648599
 20
102.1722784654397
 10
314.9873185570697
 20
104.4849267096137
 10
313.7425449171654
 20
107.5157153934298
 10
312.4497021945098
 20
109.9682719452987
 10
310.6143476891361
 20
112.760656615034
 10
308.0368436081136
 20
115.8411685532249
 10
305.4733683457414
 20
118.2656768572547
 10
302.6749334116733
 20
120.3960960970308
 10
300.0341791359304
 20
122.0255537655192
 10
297.7088988571087
 20
123.2120016699787
 10
294.4393955751399
 20
124.5610709141198
 10
291.6708549416103
 20
125.4739577689837
 10
289.5621124749039
 20
126.0565352085382
 10
288.1015520578997
 20
126.4138339647916
 10
286.7193583067571
 20
126.7235781902753
 10
284.015548788372
 20
127.2648795037643
 10
281.302185840636
 20
127.7410965456003
 10
279.188486114251
 20
128.0766930504438
 10
276.8822536535441
 20
128.4149271775828
 10
274.2031908553908
 20
128.778197296639
 10
270.9719120599861
 20
129.1823075793611
 10
267.1033970743728
 20
129.6276074387752
 10
262.2654429962942
 20
130.1388744331898
 10
257.6063788736217
 20
130.5934841203111
 10
253.2301781415244
 20
130.9927939397349
 10
248.8702722969836
 20
131.3690909372629
 10
244.4737252272316
 20
131.7309948355951
 10
240.0561222473617
 20
132.0799456771754
 10
235.6316004420979
 20
132.4169110358592
 10
231.2038973123884
 20
132.7431621793387
 10
223.9992284712666
 20
133.2521115695473
 10
215.9629096966284
 20
133.7922328213063
 10
207.0539280729334
 20
134.3632464394045
 10
197.2333319440557
 20
134.9656641130255
 10
188.7034393034652
 20
135.4697710617868
 10
179.5633201971037
 20
135.9934488947281
 10
169.804549145221
 20
136.5370463346704
 10
159.4757586365302
 20
137.0974952478976
 10
149.1295033587767
 20
137.6461030571166
 10
136.4553988828414
 20
138.304203218031
 10
124.1524885206354
 20
138.9309493183482
 10
112.2870934821919
 20
139.5270758423794
 10
100.9199610234721
 20
140.0923606307734
 10
90.09931164567216
 20
140.6266443408117
 10
79.80331421071063
 20
141.1332057323875
 10
69.95877071125089
 20
141.6167972009661
 10
60.58517184632913
 20
142.0773715156454
 10
53.43280081734157
 20
142.429645795319
 10
46.44129846957301
 20
142.7750751427747
 10
38.74727713318075
 20
143.1567976295453
 10
30.23813788964318
 20
143.5814226014973
 10
20.94452886424484
 20
144.0493231438697
 10
12.63332054536699
 20
144.4721696675425
 10
3.844308958250747
 20
144.9246111995017
 10
-5.382845189915857
 20
145.4067204398378
 10
-15.00231196569389
 20
145.9187670665905
 10
-24.73533155203642
 20
146.4482215696407
 10
-33.86870238499912
 20
146.9574702306606
 10
-43.9899832075022
 20
147.5388416053739
 10
-53.21762818053885
 20
148.0871858295905
 10
-61.58699128335099
 20
148.6028336528377
 10
-69.13911738825563
 20
149.0860278389735
 10
-75.91427239826917
 20
149.5363977606176
 10
-83.3805390361363
 20
150.0548886243357
 10
-90.38631439190238
 20
150.5671422067818
 10
-97.16843917536852
 20
151.0920289924883
 10
-103.6703701080333
 20
151.6290085110841
 10
-108.6463029533103
 20
152.0683508668471
 10
-113.4009421872899
 20
152.5172031472245
 10
-117.8887927343854
 20
152.9744033062509
 10
-121.9340057547057
 20
153.4237797419448
 10
-125.3111671176104
 20
153.8356038520288
 10
-127.1152699934656
 20
154.0739107354981
 10
-128.8352399291222
 20
154.3167901310044
 10
-130.481752644078
 20
154.5680642897173
 10
-131.9805832636669
 20
154.8189192606973
 10
-133.0963374324364
 20
155.0257517021202
 10
-133.8067163888302
 20
155.1715846932317
 10
-134.1177806869183
 20
155.2398810444005
 10
-134.09995285534
 20
155.2338742932157
  0
LWPOLYLINE
  5
9F
330
A
100
AcDbEntity
  8
0
  6
Continuous
 62
     7
100
AcDbPolyline
 90
       89
 70
   128
 43
0.0
 10
268.451162687288
 20
129.4724678464028
 10
269.0895774557039
 20
129.6737269442259
 10
271.3244820517597
 20
130.502807994158
 10
273.5047565110843
 20
131.4550411174661
 10
275.4093840231986
 20
132.4246763644052
 10
277.7198514420058
 20
133.8036780745158
 10
280.2927059123588
 20
135.6520596508774
 10
282.7491785816566
 20
137.8012385300922
 10
284.6381301630858
 20
139.785174849012
 10
286.0668597579116
 20
141.5393131857888
 10
287.137033062695
 20
143.040597037849
 10
287.9279363938209
 20
144.282017385351
 10
288.6920151143719
 20
145.616489286955
 10
290.029581174845
 20
148.4054786632532
 10
291.2849997052706
 20
151.9669717030631
 10
291.9456712917709
 20
154.735285066768
 10
292.3978536601652
 20
158.023246771983
 10
292.4985556527569
 20
161.505715641987
 10
292.1562691707324
 20
165.3841364488817
 10
291.2806192051419
 20
169.3984071933293
 10
290.1671187797526
 20
172.6122084988291
 10
288.015751474484
 20
176.9205683619925
 10
285.3142375410596
 20
180.7660337734849
 10
282.2664340489924
 20
184.008610827196
 10
279.1128886135662
 20
186.5922620333696
 10
276.1156741450217
 20
188.5276728437976
 10
273.3959419281962
 20
189.9446406387696
 10
270.9466155442092
 20
190.9981976151464
 10
268.8659429467691
 20
191.7551431397836
 10
266.3996297938352
 20
192.517966725584
 10
263.7657702285772
 20
193.2062638132551
 10
261.0127839032421
 20
193.8206542675377
 10
256.8586030546406
 20
194.6033156203058
 10
252.4948174573807
 20
195.2987549275775
 10
247.8906982518494
 20
195.9385417058604
 10
243.1107382185373
 20
196.5305293605797
 10
238.0194899512141
 20
197.1023938961285
 10
232.10845825018
 20
197.7099585119371
 10
225.2634555006125
 20
198.3561758145187
 10
217.3929430614236
 20
199.0422900936101
 10
208.4158791421294
 20
199.7681033419631
 10
198.342534297403
 20
200.5282551465355
 10
187.4056499189999
 20
201.3036828873559
 10
175.634929870835
 20
202.0939163161629
 10
165.6382879990405
 20
202.7366058850173
 10
155.1449836974487
 20
203.388842744278
 10
144.1774704262873
 20
204.0509672551856
 10
132.7669925303788
 20
204.7224928399534
 10
121.0993276929203
 20
205.3952808508316
 10
110.7689280674225
 20
205.9815850341093
 10
101.1424016694257
 20
206.522191677637
 10
92.26511939608805
 20
207.0172022947768
 10
84.17214072287194
 20
207.4662844856619
 10
76.88304604918844
 20
207.8698016028451
 10
70.40818849214331
 20
208.2280946497633
 10
64.99999979537143
 20
208.52748661794
 10
60.24067855759008
 20
208.7912026111851
 10
56.13004093516119
 20
209.0192578636857
 10
51.77294458793062
 20
209.2614727937576
 10
46.34542956756411
 20
209.5641724125258
 10
40.23556312237242
 20
209.9064488098523
 10
33.20654102475861
 20
210.3025686856523
 10
25.29317430318314
 20
210.7521565981083
 10
16.53742005198597
 20
211.2555747650888
 10
7.001066450680104
 20
211.8124566023093
 10
-3.233408844656588
 20
212.4220935146635
 10
-12.4905358679175
 20
212.9870944401032
 10
-22.11171722667871
 20
213.5906554502949
 10
-31.50468661565177
 20
214.1994674793347
 10
-40.16531208890754
 20
214.7819411702183
 10
-48.10777505394296
 20
215.3373652450859
 10
-55.35939627347139
 20
215.8663609504709
 10
-61.94885063817562
 20
216.3688702985608
 10
-70.11851351819496
 20
217.027219398936
 10
-77.14816505975258
 20
217.6338923560771
 10
-83.13563515033177
 20
218.1883592227515
 10
-88.1815734237365
 20
218.6906663049112
 10
-92.38846372731432
 20
219.1413811158503
 10
-95.89518071065
 20
219.5454694506101
 10
-99.0364207086862
 20
219.9357722248636
 10
-101.8526454637673
 20
220.3163830761301
 10
-104.3291359205384
 20
220.6840228974102
 10
-106.3120625163289
 20
221.0101271169379
 10
-107.0801335489579
 20
221.1470629400456
 10
-107.7169355485423
 20
221.2666533856291
 10
-108.3191508332798
 20
221.3857514437124
 10
-108.8754717821095
 20
221.5024891850337
 10
-109.2149571517152
 20
221.5753217908919
 10
-109.2048948296228
 20
221.5715463799
  0
LWPOLYLINE
  5
FA
330
A
100
AcDbEntity
  8
0
  6
Continuous
 62
     7
100
AcDbPolyline
 90
       45
 70
   128
 43
0.0
 10
245.030774088645
 20
196.2927370937405
 10
246.124685382807
 20
196.6716318669902
 10
249.2794887402937
 20
198.0279093414178
 10
252.4931145761524
 20
199.7692644876446
 10
255.9411116043094
 20
202.1632548205091
 10
257.808113551668
 20
203.7515354382501
 10
259.6812228617722
 20
205.6114190281626
 10
261.5031238991164
 20
207.7509274623634
 10
263.1977410799834
 20
210.1421423649119
 10
265.235980143633
 20
213.8283738435037
 10
266.8501417062707
 20
218.0061949405186
 10
267.8217603341431
 20
222.1319932339066
 10
268.2129261498593
 20
225.814232953817
 10
268.2103215781891
 20
228.8606798278891
 10
267.9655625801593
 20
231.5323295932937
 10
267.2863497720275
 20
235.056959578724
 10
266.4283089958928
 20
237.8935804557297
 10
265.632614744734
 20
239.9169914940839
 10
264.6521050064735
 20
241.9743579367096
 10
263.3430480639016
 20
244.2513078847085
 10
261.6097972627724
 20
246.7312066262608
 10
259.3544592902281
 20
249.3538683473673
 10
256.5874978693735
 20
251.9291223731989
 10
253.2764843423245
 20
254.3543737325929
 10
249.6047956602954
 20
256.4345365198204
 10
246.4312217350078
 20
257.8374705732564
 10
244.0535688610751
 20
258.6977572698046
 10
241.9850679986225
 20
259.3405810892873
 10
239.8130904955622
 20
259.9314725654622
 10
237.4921607419583
 20
260.4873629694995
 10
234.8923616782879
 20
261.0381638640143
 10
231.9385120625507
 20
261.5935880333554
 10
228.6809914887032
 20
262.1407635324633
 10
226.9710328185357
 20
262.4066003203214
 10
225.4035665976746
 20
262.6394408053737
 10
223.9993928939342
 20
262.8401697475829
 10
222.7762787576345
 20
263.0095330721947
 10
221.7469948271276
 20
263.1484143229134
 10
220.5410618758312
 20
263.3071961844592
 10
218.8563879814895
 20
263.5224618837495
 10
216.65039012289
 20
263.7940540939539
 10
213.7228208202897
 20
264.138792496778
 10
210.0950466862852
 20
264.5446870849488
 10
205.6882076511175
 20
265.0110510113286
 10
204.5300830806028
 20
265.1266493047356
  0
LWPOLYLINE
  5
129
330
A
100
AcDbEntity
  8
0
  6
Continuous
 62
     7
100
AcDbPolyline
 90
       18
 70
   128
 43
0.0
 10
199.3777415543303
 20
203.3340134070782
 10
203.312738032063
 20
202.9180086730048
 10
206.6216143717727
 20
202.5478760221028
 10
209.2704238144761
 20
202.2356429946731
 10
211.3316666196678
 20
201.9809863660273
 10
212.8678403003793
 20
201.7833434022938
 10
213.9298645299819
 20
201.6421974286333
 10
214.8714962305076
 20
201.5136277914616
 10
215.9422162913051
 20
201.3630953275461
 10
217.1211253410909
 20
201.1913503680116
 10
218.3836026278859
 20
200.9993573728087
 10
219.6902451135242
 20
200.7901090088955
 10
221.2201607041464
 20
200.5278590419026
 10
222.3383581790421
 20
200.3204307791272
 10
223.1155802808846
 20
200.1655537913252
 10
223.7436027039432
 20
200.0318904153057
 10
224.2372576666354
 20
199.9199846330238
 10
224.3487710753111
 20
199.8978855288326
  0
LWPOLYLINE
  5
13D
330
A
100
AcDbEntity
  8
0
  6
Continuous
 62
     7
100
AcDbPolyline
 90
      146
 70
   128
 43
0.0
 10
120.9259198160482
 20
245.406569346624
 10
120.717504554418
 20
245.3931656053256
 10
111.8481992785528
 20
244.8350683306037
 10
104.4135168802944
 20
244.3747818486265
 10
97.16129140476112
 20
243.9312110852611
 10
90.11685479438339
 20
243.5047739106567
 10
83.3001910446619
 20
243.0955485975835
 10
76.78315140779526
 20
242.7065648846099
 10
71.17019591674027
 20
242.3729661529433
 10
66.63236084676846
 20
242.1040449892726
 10
63.83397089287123
 20
241.9384925229607
 10
61.70624126170824
 20
241.8127394838382
 10
59.64422048341155
 20
241.6909265897159
 10
56.93726197955127
 20
241.5310413345202
 10
53.58377263600329
 20
241.3329746854119
 10
48.21578692298516
 20
241.0158197360191
 10
41.74662569499417
 20
240.6331692730304
 10
34.19156963692543
 20
240.1852067619727
 10
25.809982680434
 20
239.6855939421471
 10
16.5465179796425
 20
239.1287998521754
 10
7.378968056023962
 20
238.5717362368346
 10
-1.43090462607498
 20
238.0287068464678
 10
-9.870359743364144
 20
237.499783236238
 10
-17.92745669123015
 20
236.9854467752273
 10
-25.5997375529591
 20
236.4851266259442
 10
-38.09231526828611
 20
235.6437312275461
 10
-49.4011950985762
 20
234.8461018595267
 10
-59.55661950667426
 20
234.0918262579879
 10
-68.58951603310572
 20
233.382201740249
 10
-75.04579715360797
 20
232.8465567961856
 10
-80.85561003871116
 20
232.3398040231336
 10
-86.05990371649061
 20
231.8614652698919
 10
-90.90945704839182
 20
231.3904613956224
 10
-95.92745887663994
 20
230.8718564705892
 10
-100.1928710784262
 20
230.4000317639768
 10
-104.2957210612717
 20
229.9121323533878
 10
-107.93332829442
 20
229.4445602839354
 10
-111.217993125786
 20
228.9865450624712
 10
-114.7846401134231
 20
228.4388331983803
 10
-118.5585194651848
 20
227.7824174216147
 10
-120.8045766249477
 20
227.3413349864553
 10
-122.7808698439734
 20
226.9124191957917
 10
-124.6725957223636
 20
226.4569150986992
 10
-126.9282713766037
 20
225.8416888841857
 10
-129.4421217487535
 20
225.0402887030248
 10
-131.7777191152075
 20
224.1582994939256
 10
-133.966573217143
 20
223.1839860730474
 10
-136.0424942460125
 20
222.1024228899118
 10
-138.0288265244677
 20
220.9000183589171
 10
-140.8464759629977
 20
218.8542085104932
 10
-143.396273466111
 20
216.5667501299714
 10
-145.4616692472752
 20
214.3074970499934
 10
-147.0210930794914
 20
212.2714508882466
 10
-148.1906830217449
 20
210.4877166168952
 10
-149.1555725713888
 20
208.7884635650952
 10
-149.6874916793099
 20
207.7342166419512
 10
-150.1807477079127
 20
206.6591363304394
 10
-150.6332143233903
 20
205.5676183314391
 10
-151.0945757844883
 20
204.3167706581522
 10
-151.6888311739845
 20
202.4002720634219
 10
-152.1831554430382
 20
200.3407209403333
 10
-152.5766882050668
 20
197.9631164361748
 10
-152.805794941708
 20
195.1526133568986
 10
-152.739264577236
 20
191.6382243309443
 10
-152.1832355874325
 20
187.645472569139
 10
-151.1962772105227
 20
183.9692498304741
 10
-150.0061882904292
 20
180.9349316889352
 10
-148.5306978073818
 20
178.071381130462
 10
-146.6572133602221
 20
175.2115547995614
 10
-143.5434109539889
 20
171.5694457140626
 10
-140.7023995886726
 20
169.0172283804176
 10
-139.2314368961496
 20
167.9061872018561
 10
-137.9725364756955
 20
167.0501810808837
 10
-136.5254826866824
 20
166.1621236622393
 10
-134.4726988320617
 20
165.0565921898895
 10
-132.0269579014152
 20
163.9396066953571
 10
-129.3329847115062
 20
162.9161301617605
 10
-126.8234104058006
 20
162.1217351605311
 10
-124.5554527621252
 20
161.508975720975
 10
-122.5337260572315
 20
161.0288656200779
 10
-120.7495130449383
 20
160.6461360420386
 10
-119.1193273253992
 20
160.3242811477944
 10
-117.6011906789477
 20
160.0446698534934
 10
-115.9699516873886
 20
159.7625463217842
 10
-114.2133513757419
 20
159.4768143272761
 10
-112.3608564192127
 20
159.1928163286251
 10
-108.9073415125797
 20
158.7024956400126
 10
-105.280718352373
 20
158.2316793566784
 10
-101.4945537551017
 20
157.7777986733857
 10
-97.36613077551371
 20
157.3174879399005
 10
-92.60346287551534
 20
156.8224113192076
 10
-87.07933538328559
 20
156.2868851148051
 10
-80.76655669217494
 20
155.7149096537893
 10
-73.59805907561093
 20
155.1066742563564
 10
-65.51083419572917
 20
154.4623581957486
 10
-56.73341207392568
 20
153.8024264973133
 10
-45.05697454176877
 20
152.9748303686052
 10
-32.64135389422944
 20
152.1431008095311
 10
-19.54894379182484
 20
151.307822731658
 10
-5.839977725847877
 20
150.4679588963216
 10
3.603855998382768
 20
149.9059467613209
 10
12.98807815184959
 20
149.3578131179082
 10
21.71741880339938
 20
148.8557096213694
 10
29.7270800722763
 20
148.4005173911118
 10
36.98286144201325
 20
147.9915989707141
 10
43.45561608419685
 20
147.6290779961461
 10
50.16089189466729
 20
147.2554080798987
 10
56.31631300117204
 20
146.9136883584496
 10
62.70224045831664
 20
146.55986387448
 10
69.32492625157625
 20
146.1933061366698
 10
76.64770010315553
 20
145.7880667330196
 10
84.90984885338784
 20
145.3303137370479
 10
94.09067159294757
 20
144.819588618665
 10
104.1506992423678
 20
144.2562320497245
 10
115.0325060857787
 20
143.6407765124917
 10
126.640125813504
 20
142.9741348064629
 10
141.0164364517541
 20
142.1296981036144
 10
154.7420962149928
 20
141.2969362989555
 10
167.7413576047704
 20
140.4769464375419
 10
179.9594976908453
 20
139.6690916244085
 10
187.6417354740176
 20
139.1380124015372
 10
194.9415680874398
 20
138.6124335347311
 10
201.8472536126361
 20
138.0926742729195
 10
208.0419232644014
 20
137.6040229555137
 10
213.2446601468369
 20
137.1735515220997
 10
217.5415157115246
 20
136.8016396617139
 10
221.0125003780574
 20
136.4887127464871
 10
223.7304180366466
 20
136.23503409691
 10
225.7597524793044
 20
136.0405819299061
 10
226.6691101957116
 20
135.9524288488765
 10
227.560408059696
 20
135.8649564896785
 10
228.8095104980065
 20
135.7385813959189
 10
230.4031269470003
 20
135.5720959845486
 10
232.3124162886559
 20
135.3653162261707
 10
234.5018281246891
 20
135.118156139275
 10
236.9205776799223
 20
134.8316723583745
 10
239.3455233063761
 20
134.5285630253408
 10
241.6597188169236
 20
134.2195258163397
 10
243.7769873054894
 20
133.9141542929556
 10
245.4249946089142
 20
133.6562443610987
 10
246.6256392723272
 20
133.4532321184123
 10
247.4511145707968
 20
133.3036692242156
 10
248.1229140456753
 20
133.1741032708446
 10
248.7183032864407
 20
133.0517985357375
 10
249.1038764720596
 20
132.9674418463295
 10
249.0937736358182
 20
132.9760861392805
  0
LWPOLYLINE
  5
1D1
330
A
100
AcDbEntity
  8
0
  6
Continuous
 62
     7
100
AcDbPolyline
 90
      104
 70
   128
 43
0.0
 10
-129.2165875835903
 20
162.8792851492962
 10
-130.5966559063229
 20
162.7158053563392
 10
-133.1529050576496
 20
162.3956243181382
 10
-135.9344664675651
 20
162.0226980100067
 10
-138.7716019736454
 20
161.6097448176232
 10
-141.2581571369101
 20
161.2134970786451
 10
-143.4065279174299
 20
160.8385852204391
 10
-145.3101340152926
 20
160.4748696253607
 10
-147.4434895054726
 20
160.0232235127236
 10
-149.7434538679221
 20
159.4703914687958
 10
-152.1264627681668
 20
158.8039352914919
 10
-154.6270042256403
 20
157.9733221588362
 10
-157.744544590002
 20
156.6959241450097
 10
-161.4253694928346
 20
154.7479470851546
 10
-163.9726123311274
 20
153.045502614861
 10
-166.4634345743042
 20
151.0202309641425
 10
-168.8446697421028
 20
148.650498979719
 10
-171.1791335100384
 20
145.7527157762066
 10
-173.3222040783268
 20
142.3078703719106
 10
-175.1352450693778
 20
138.2823849303436
 10
-176.3718995432958
 20
134.0376413974892
 10
-176.9613486873989
 20
130.1772862702959
 10
-177.082817676523
 20
126.793256365026
 10
-176.8370562650153
 20
123.3854378806674
 10
-176.1942396222145
 20
119.8986071008127
 10
-175.3688661722192
 20
117.0813297525554
 10
-174.2244751008988
 20
114.2184748746223
 10
-172.9502463036636
 20
111.7285924981308
 10
-171.5911792231651
 20
109.5477786184469
 10
-170.2551337211292
 20
107.7262513856259
 10
-168.6998920682682
 20
105.8999698907195
 10
-167.2607453237539
 20
104.4299766096747
 10
-165.2475473880468
 20
102.6547432237206
 10
-163.9658953256382
 20
101.6652477729387
 10
-162.4671309382809
 20
100.6250156754049
 10
-160.7233851628613
 20
99.55277123996621
 10
-158.7057638278573
 20
98.47329277065313
 10
-156.568800385152
 20
97.49598669120757
 10
-154.6132477889799
 20
96.73157965715008
 10
-151.1649165223704
 20
95.62605330081863
 10
-148.2717942062883
 20
94.88093897896161
 10
-145.3723391518878
 20
94.25409164302569
 10
-142.1480111688648
 20
93.65728982711248
 10
-138.7978375316539
 20
93.1171544629022
 10
-135.7021530114319
 20
92.67124693301813
 10
-132.7190493486366
 20
92.27837743415816
 10
-129.4094741200283
 20
91.87554154361654
 10
-125.7159267964322
 20
91.45877510131922
 10
-118.848895192886
 20
90.7544891702693
 10
-111.636730116505
 20
90.08777933717366
 10
-104.1458718002706
 20
89.45341709663068
 10
-96.35504824139859
 20
88.84145837259548
 10
-90.06172766082732
 20
88.37510133970241
 10
-83.59380463582644
 20
87.91739665209213
 10
-76.39588663043333
 20
87.42973941476593
 10
-68.27242812785295
 20
86.90208768639537
 10
-60.03763659297814
 20
86.3880472293229
 10
-50.9527984734828
 20
85.84152323491611
 10
-40.97985240227191
 20
85.26198956379213
 10
-30.09404682755886
 20
84.6499860689707
 10
-18.3248202048653
 20
84.0081467683944
 10
-6.684781071247022
 20
83.38968407480543
 10
4.35057627311533
 20
82.8158674837253
 10
14.70837722717012
 20
82.28596031504521
 10
24.32543362415059
 20
81.80011798980656
 10
33.1527232703829
 20
81.3585471075398
 10
40.65077422771095
 20
80.98590642170359
 10
47.41383399954682
 20
80.65126215672435
 10
53.99905432060263
 20
80.32648879599204
 10
60.85559782015348
 20
79.98919759051289
 10
67.97814715254294
 20
79.63935013020152
 10
75.36149317399888
 20
79.27667703883312
 10
87.46948342290021
 20
78.68102241605803
 10
100.2955037587422
 20
78.04723726063468
 10
113.8545181519777
 20
77.37102305325691
 10
125.9206075707181
 20
76.76183543466129
 10
138.3876647022469
 20
76.12220782983936
 10
151.175783645159
 20
75.4521698596416
 10
164.1242002931916
 20
74.75564283523548
 10
176.3605158377386
 20
74.07580447672346
 10
187.6325447963837
 20
73.42669960750583
 10
197.9652301731205
 20
72.80740759672008
 10
207.3856169713828
 20
72.21823048203134
 10
215.9299944371599
 20
71.65910290323061
 10
223.6448631666831
 20
71.1294948913759
 10
230.6049934658724
 20
70.62747967584802
 10
237.2155472974285
 20
70.12200275127442
 10
240.4156266647516
 20
69.86475651548201
 10
243.5321054775135
 20
69.60522499765872
 10
246.554533939897
 20
69.34417453931209
 10
249.4722025583872
 20
69.08254773222059
 10
252.4046027717651
 20
68.8090190682453
 10
255.5289360795902
 20
68.50373569125013
 10
258.787781961646
 20
68.16649402146369
 10
261.9065264352983
 20
67.82120369995523
 10
264.8360621248278
 20
67.47102323994758
 10
267.1626665785776
 20
67.16919981336776
 10
268.987607263667
 20
66.91290765209432
 10
270.5419019376188
 20
66.67649687031022
 10
271.865565627391
 20
66.45702528363497
 10
272.9185267830156
 20
66.26524324033836
 10
273.6037233085022
 20
66.12910328246245
 10
273.8100800186117
 20
66.08758790735601
 10
273.7866080798767
 20
66.09584212188981
  0
LWPOLYLINE
  5
23B
330
A
100
AcDbEntity
  8
0
  6
Continuous
 62
     7
100
AcDbPolyline
 90
        3
 70
   128
 43
0.0
 10
244.4128525310604
 20
54.65479195012619
 10
245.2769705076423
 20
55.21584528839067
 10
246.9342332103212
 20
56.58103899515996
  0
LINE
  5
240
330
A
100
AcDbEntity
  8
0
  6
Continuous
 62
     7
100
AcDbLine
 10
222.3590788000145
 20
50.43482694998752
 30
0.0
 11
234.8527779053217
 21
51.28258653129408
 31
0.0
  0
LWPOLYLINE
  5
241
330
A
100
AcDbEntity
  8
0
  6
Continuous
 62
     7
100
AcDbPolyline
 90
       11
 70
   128
 43
0.0
 10
196.6315123101515
 20
72.88734430117433
 10
197.353086156434
 20
70.67888481572696
 10
198.5655417735388
 20
67.72757198851452
 10
199.9728047988769
 20
64.934458873772
 10
201.5628025512937
 20
62.32492803363343
 10
203.3217592661054
 20
59.92298238553127
 10
205.2342082954177
 20
57.75101872518671
 10
207.2830664994974
 20
55.82951672081859
 10
209.4496124999958
 20
54.17682211661539
 10
211.7135466581905
 20
52.80880322303619
 10
212.2612369306181
 20
52.55824130985452
  0
LWPOLYLINE
  5
24E
330
A
100
AcDbEntity
  8
0
  6
Continuous
 62
     7
100
AcDbPolyline
 90
       14
 70
   128
 43
0.0
 10
135.3779459916046
 20
266.7563400315005
 10
134.2841523612012
 20
266.2569051459545
 10
132.2942934233723
 20
265.0227707429191
 10
130.3930569478919
 20
263.5058822710197
 10
128.601882221179
 20
261.7223303288234
 10
126.9411223775906
 20
259.691868517131
 10
125.4294211112028
 20
257.4373657766532
 10
124.0833938387901
 20
254.9842015210744
 10
122.9175750703169
 20
252.3598957380898
 10
121.9442551328448
 20
249.5934353034102
 10
121.1735596219666
 20
246.7150040189861
 10
120.6134900581416
 20
243.7558091774073
 10
120.2698915719574
 20
240.747797238932
 10
120.1820684022133
 20
239.2736296487303
  0
LWPOLYLINE
  5
25E
330
A
100
AcDbEntity
  8
0
  6
Continuous
 62
     7
100
AcDbPolyline
 90
       13
 70
   128
 43
0.0
 10
120.1820684022133
 20
239.2736296487303
 10
120.1462490101216
 20
237.6756736070305
 10
120.2477835665111
 20
234.6688872051387
 10
120.5700865903996
 20
231.7101585133996
 10
121.1101616794056
 20
228.8323074914547
 10
121.8628605353188
 20
226.0663834911905
 10
122.8209268608442
 20
223.4423960224539
 10
123.9750216427495
 20
220.9890931682108
 10
125.3136207738898
 20
218.7338935802775
 10
126.8228775830892
 20
216.7026156146833
 10
128.4865702030739
 20
214.9189732694742
 10
130.2858919792414
 20
213.4041946655626
 10
131.0945733636684
 20
212.8852847431228
  0
LINE
  5
26D
330
A
100
AcDbEntity
  8
0
  6
Continuous
 62
     7
100
AcDbLine
 10
162.7106532157952
 20
266.5528695559784
 30
0.0
 11
142.8720614864572
 21
268.1558225458988
 31
0.0
  0
LINE
  5
26E
330
A
100
AcDbEntity
  8
0
  6
Continuous
 62
     7
100
AcDbLine
 10
138.2009000131756
 20
210.3442298460731
 30
0.0
 11
158.0394917425136
 21
208.7412768561527
 31
0.0
  0
LWPOLYLINE
  5
26F
330
A
100
AcDbEntity
  8
0
  6
Continuous
 62
     7
100
AcDbPolyline
 90
        5
 70
   128
 43
0.0
 10
155.4493655797739
 20
271.0701262932121
 10
155.4115587063469
 20
271.0569149076803
 10
153.1701802588556
 20
269.9537878436542
 10
150.9993306123425
 20
268.5573710126248
 10
149.8066627924023
 20
267.5955085856678
  0
LWPOLYLINE
  5
276
330
A
100
AcDbEntity
  8
0
  6
Continuous
 62
     7
100
AcDbPolyline
 90
        4
 70
   128
 43
0.0
 10
145.1110947793236
 20
209.7858879278336
 10
146.6895660712806
 20
208.1257645453381
 10
148.6574422164806
 20
206.4656104944344
 10
149.7895485942362
 20
205.7180752445078
  0
LINE
  5
27C
330
A
100
AcDbEntity
  8
0
  6
Continuous
 62
     7
100
AcDbLine
 10
193.4928169121958
 20
270.0852327610097
 30
0.0
 11
163.9152801520919
 21
272.475089945982
 31
0.0
  0
LWPOLYLINE
  5
27D
330
A
100
AcDbEntity
  8
0
  6
Continuous
 62
     7
100
AcDbPolyline
 90
       15
 70
   128
 43
0.0
 10
196.8279802366073
 20
201.9616459849739
 10
198.6003081307818
 20
202.8339229842377
 10
200.7711577772949
 20
204.230339815267
 10
202.8516199560779
 20
205.9081904011719
 10
204.8222732755425
 20
207.8525021335586
 10
206.6646888090741
 20
210.0453999605725
 10
208.3618258388596
 20
212.4664937004579
 10
209.898247232359
 20
215.093287037843
 10
211.2601825389679
 20
217.9014669339679
 10
212.435611037031
 20
220.8652563736646
 10
213.4143125645393
 20
223.957792689895
 10
214.1878073326911
 20
227.1512039489137
 10
214.7493895818938
 20
230.4168252344489
 10
215.0941611420377
 20
233.725423312982
 10
215.1759854643378
 20
235.1792030371215
  0
LWPOLYLINE
  5
28E
330
A
100
AcDbEntity
  8
0
  6
Continuous
 62
     7
100
AcDbPolyline
 90
       14
 70
   128
 43
0.0
 10
215.1759854643378
 20
235.1792030371215
 10
215.2184319887812
 20
236.9331837096982
 10
215.1299111498957
 20
240.2390398817271
 10
214.8209182750018
 20
243.5009594567338
 10
214.2938846965531
 20
246.6889067861621
 10
213.5530644988865
 20
249.774354545309
 10
212.6044962267101
 20
252.7295960965695
 10
211.4559722725898
 20
255.5279356082023
 10
210.1170223851789
 20
258.1438595595812
 10
208.5990600087265
 20
260.5530068552377
 10
206.9153098119406
 20
262.7326685147711
 10
205.0809223183567
 20
264.6619462825537
 10
203.1130461731567
 20
266.3221003334574
 10
202.1028923033379
 20
266.9891097597592
  0
LWPOLYLINE
  5
29E
330
A
100
AcDbEntity
  8
0
  6
Continuous
 62
     7
100
AcDbPolyline
 90
        9
 70
   128
 43
0.0
 10
244.2062694640924
 20
54.5483047856633
 10
242.3084529620864
 20
53.42229989618075
 10
239.9108034603134
 20
52.36073656994045
 10
237.4369377483452
 20
51.64643336159064
 10
234.9122410360618
 20
51.28671998865569
 10
232.3626201281919
 20
51.28528759711191
 10
229.8142375854385
 20
51.6421508852348
 10
227.2932432612027
 20
52.35364795277508
 10
225.0590423550016
 20
53.29620455067448
  0
LWPOLYLINE
  5
2A9
330
A
100
AcDbEntity
  8
0
  6
Continuous
 62
     7
100
AcDbPolyline
 90
        5
 70
   128
 43
0.0
 10
212.4818341971893
 20
52.48962598625703
 10
214.7995441558961
 20
51.50588837146836
 10
217.3205384801318
 20
50.79439130392813
 10
219.8689210228853
 20
50.4375280158053
 10
222.3590788000145
 20
50.43482694998752
  0
LWPOLYLINE
  5
2B0
330
A
100
AcDbEntity
  8
0
  6
Continuous
 62
     7
100
AcDbPolyline
 90
       14
 70
   128
 43
0.0
 10
213.7452470076691
 20
71.76354553850868
 10
215.0209592987927
 20
68.98303513561906
 10
216.5356857804066
 20
66.31667119188769
 10
218.2389694993787
 20
63.87615287469198
 10
220.1115115705754
 20
61.6891322317474
 10
222.1320953441003
 20
59.78038908082761
 10
224.2778267984149
 20
58.17155024452758
 10
226.524393938751
 20
56.880844509722
 10
228.846342261726
 20
55.92289608812603
 10
231.2173631650371
 20
55.30855891813314
 10
233.6105920344379
 20
55.04479368535605
 10
235.9989126305523
 20
55.1345889552773
 10
238.355264326702
 20
55.57692731160837
 10
239.2085036529341
 20
55.82740520248187
  0
LWPOLYLINE
  5
2C0
330
A
100
AcDbEntity
  8
0
  6
Continuous
 62
     7
100
AcDbPolyline
 90
        8
 70
   128
 43
0.0
 10
135.6100155569126
 20
266.8322265481941
 10
136.7869077991918
 20
267.3102259774437
 10
138.9801057642042
 20
267.9237447867967
 10
141.1921960132204
 20
268.1892034949058
 10
143.3963267671944
 20
268.1033797926545
 10
145.5657428645674
 20
267.6673154635281
 10
147.6741105326864
 20
266.8863037377741
 10
149.5652492882579
 20
265.8538068845031
  0
LWPOLYLINE
  5
2CA
330
A
100
AcDbEntity
  8
0
  6
Continuous
 62
     7
100
AcDbPolyline
 90
        8
 70
   128
 43
0.0
 10
145.3591917684464
 20
211.6213751284598
 10
143.1934893418182
 20
210.8399267407009
 10
140.9874954693604
 20
210.3997696106011
 10
138.776026889168
 20
210.3098155138546
 10
136.5859278340699
 20
210.5711563713408
 10
134.4437831398082
 20
211.1806198590716
 10
132.3755955411451
 20
212.1308079159071
 10
131.3107236494946
 20
212.7735937541471
  0
LWPOLYLINE
  5
2D4
330
A
100
AcDbEntity
  8
0
  6
Continuous
 62
     7
100
AcDbPolyline
 90
       31
 70
   128
 43
0.0
 10
162.7106532157952
 20
266.5528695559784
 10
163.2349184965323
 20
266.500426802734
 10
165.4043345939054
 20
266.0643624736078
 10
167.5127022620244
 20
265.2833507478537
 10
169.5344287734689
 20
264.1668720498359
 10
171.4449731070933
 20
262.7284789185265
 10
173.2211438427792
 20
260.9856314980402
 10
174.8413806738602
 20
258.9594855951383
 10
176.2860161200379
 20
256.674635876392
 10
177.5375142639506
 20
254.1588173222473
 10
178.5806836134558
 20
251.4425685619336
 10
179.4028615057649
 20
248.5588611758728
 10
179.994067815017
 20
245.5426994653583
 10
180.3471260974871
 20
242.4306955477547
 10
180.4577507038916
 20
239.2606249349896
 10
180.3245988013645
 20
236.0709679900105
 10
179.9492866736303
 20
232.9004428273055
 10
179.3363701015085
 20
229.7875353274428
 10
178.4932890619057
 20
226.7700319706145
 10
177.430277416575
 20
223.884561159954
 10
176.1602386868968
 20
221.1661486023403
 10
174.6985894226094
 20
218.6477921437638
 10
173.0630720657787
 20
216.3600612201754
 10
171.2735395815862
 20
214.3307257859452
 10
169.3517144702249
 20
212.5844192242339
 10
167.3209250851735
 20
211.1423393310913
 10
165.2058224585863
 20
210.0219910029269
 10
163.0320810711562
 20
209.2369737507805
 10
160.8260871986984
 20
208.7968166206806
 10
158.614618618506
 20
208.7068625239342
 10
158.0394917425136
 20
208.7412768561527
  0
LWPOLYLINE
  5
2F5
330
A
100
AcDbEntity
  8
0
  6
Continuous
 62
     7
100
AcDbPolyline
 90
        9
 70
   128
 43
0.0
 10
155.6795240546649
 20
271.10747748735
 10
156.4441872026026
 20
271.4081940273727
 10
158.8745835005476
 20
272.12291820122
 10
161.3277794203372
 20
272.4832754260786
 10
163.7786018521298
 20
272.4855679491802
 10
166.2019020412826
 20
272.1297722461355
 10
168.5728136486059
 20
271.4195392623263
 10
170.8670079126525
 20
270.3621569492652
 10
172.2104852078366
 20
269.5565556365441
  0
LWPOLYLINE
  5
300
330
A
100
AcDbEntity
  8
0
  6
Continuous
 62
     7
100
AcDbPolyline
 90
        4
 70
   128
 43
0.0
 10
166.9119381148119
 20
204.241620351937
 10
165.7487644269307
 20
203.7693739854913
 10
163.3183681289857
 20
203.054649811644
 10
162.5325955377172
 20
202.9001786426245
  0
LWPOLYLINE
  5
306
330
A
100
AcDbEntity
  8
0
  6
Continuous
 62
     7
100
AcDbPolyline
 90
        4
 70
   128
 43
0.0
 10
155.3453936845241
 20
203.204688432831
 10
153.6201379809274
 20
203.7580287505378
 10
151.3259437168808
 20
204.8154110635989
 10
150.0066581958419
 20
205.6051975267508
  0
LWPOLYLINE
  5
30C
330
A
100
AcDbEntity
  8
0
  6
Continuous
 62
     7
100
AcDbPolyline
 90
        5
 70
   128
 43
0.0
 10
201.886041623413
 20
267.1021126849031
 10
200.4445446727562
 20
267.972299764293
 10
198.1503504087097
 20
269.0296820773541
 10
195.7794388013864
 20
269.7399150611634
 10
193.4928169121958
 20
270.0852327610097
  0
LWPOLYLINE
  5
313
330
A
100
AcDbEntity
  8
0
  6
Continuous
 62
     7
100
AcDbPolyline
 90
        3
 70
   128
 43
0.0
 10
193.1949456026491
 20
200.7333152521549
 10
195.3263011870351
 20
201.3795168005192
 10
196.5956067017275
 20
201.8991776121336
  0
LWPOLYLINE
  5
318
330
A
100
AcDbEntity
  8
0
  6
PHANTOM
 62
     7
100
AcDbPolyline
 90
       18
 70
   128
 43
0.0
 10
211.4841826329649
 20
71.90597036417482
 10
212.4515944091215
 20
69.50938280405089
 10
213.9001653182126
 20
66.55973678947463
 10
215.5530796783224
 20
63.81880595759456
 10
217.3928161860366
 20
61.31564485709224
 10
219.3998731767008
 20
59.07678761834644
 10
221.5529753469166
 20
57.12596668505018
 10
223.8292992780509
 20
55.48386124440376
 10
226.2047153701506
 20
54.16787802258597
 10
228.6540436217053
 20
53.19196676912628
 10
231.151320543927
 20
52.56647238608961
 10
233.6700743801906
 20
52.29802526954088
 10
236.1836057132392
 20
52.38947102569738
 10
238.6652704856492
 20
52.83984030679476
 10
241.0887624334674
 20
53.64435908641464
 10
243.4283919391528
 20
54.79449926535231
 10
245.6593583479135
 20
56.27806907158966
 10
245.8171469564632
 20
56.39889441576205
  0
LWPOLYLINE
  5
32C
330
A
100
AcDbEntity
  8
0
  6
PHANTOM
 62
     7
100
AcDbPolyline
 90
       10
 70
   128
 43
0.0
 10
225.0590423550016
 20
53.29620455067448
 10
224.8255059687016
 20
53.41247787701044
 10
222.4363480319385
 20
54.80777563009236
 10
220.1502854443918
 20
56.52522356893472
 10
217.9907763017464
 20
58.54719835360658
 10
215.9799800900891
 20
60.85295178664819
 10
214.1385302995931
 20
63.41882371765358
 10
212.4853226969888
 20
66.21848482843117
 10
211.0373214294262
 20
69.22320680743758
 10
209.9539790551774
 20
71.9861915705492
  0
LWPOLYLINE
  5
338
330
A
100
AcDbEntity
  8
0
  6
PHANTOM
 62
     7
100
AcDbPolyline
 90
       11
 70
   128
 43
0.0
 10
196.9092346994526
 20
72.80209881760095
 10
197.3156858440624
 20
71.55439755982252
 10
198.5436223241193
 20
68.37544722613042
 10
199.991623591682
 20
65.37072524712403
 10
201.6448311942863
 20
62.5710641363465
 10
203.4862809847823
 20
60.00519220534115
 10
205.4970771964398
 20
57.69943877229961
 10
207.656586339085
 20
55.67746398762779
 10
209.9426489266319
 20
53.9600160487855
 10
212.331806863395
 20
52.56471829570364
 10
212.4818341971893
 20
52.48962598625703
  0
LWPOLYLINE
  5
345
330
A
100
AcDbEntity
  8
0
  6
PHANTOM
 62
     7
100
AcDbPolyline
 90
       25
 70
   128
 43
0.0
 10
149.5652492882579
 20
265.8538068845031
 10
149.6958370441309
 20
265.7698250397564
 10
151.6063813777553
 20
264.3314319084469
 10
153.3825521134412
 20
262.5885844879606
 10
155.0027889445222
 20
260.5624385850587
 10
156.4474243906999
 20
258.2775888663124
 10
157.6989225346127
 20
255.7617703121677
 10
158.7420918841178
 20
253.045521551854
 10
159.5642697764269
 20
250.1618141657932
 10
160.155476085679
 20
247.1456524552787
 10
160.5085343681492
 20
244.0336485376751
 10
160.6191589745536
 20
240.8635779249101
 10
160.4860070720265
 20
237.673920979931
 10
160.1106949442924
 20
234.503395817226
 10
159.4977783721705
 20
231.3904883173633
 10
158.6546973325677
 20
228.3729849605349
 10
157.591685687237
 20
225.4875141498744
 10
156.3216469575588
 20
222.7691015922608
 10
154.8599976932715
 20
220.2507451336843
 10
153.2244803364408
 20
217.9630142100959
 10
151.4349478522482
 20
215.9336787758657
 10
149.5131227408869
 20
214.1873722141544
 10
147.4823333558355
 20
212.7452923210118
 10
145.3672307292483
 20
211.6249439928473
 10
145.3591917684464
 20
211.6213751284598
  0
LWPOLYLINE
  5
360
330
A
100
AcDbEntity
  8
0
  6
PHANTOM
 62
     7
100
AcDbPolyline
 90
       57
 70
   128
 43
0.0
 10
120.4597948855054
 20
239.2902102763909
 10
120.450848904361
 20
236.1606497699854
 10
120.685419332115
 20
233.0706729851405
 10
121.1605563095374
 20
230.0591381727718
 10
121.8702847134563
 20
227.163917130478
 10
122.8056792973983
 20
224.4214189427124
 10
123.9549769317418
 20
221.8661321154205
 10
125.3037245318969
 20
219.5301908630677
 10
126.8349608142301
 20
217.4429710022469
 10
128.529429594047
 20
215.630720533741
 10
130.3658219432879
 20
214.1162295586838
 10
132.3210441626612
 20
212.9185436798147
 10
134.370508198312
 20
212.0527244919741
 10
136.4884408508653
 20
211.529660173809
 10
138.6482078883621
 20
211.3559285626094
 10
140.8226489871799
 20
211.5337144341875
 10
142.9844192888608
 20
212.0607820280544
 10
145.1063332775729
 20
212.9305031634055
 10
147.161706653745
 20
214.13194059234
 10
149.1246919046163
 20
215.6499855420986
 10
150.9706033517065
 20
217.4655477166478
 10
152.6762275875457
 20
219.5557953682293
 10
154.220115397742
 20
221.8944424198341
 10
155.5828514972976
 20
224.452079027874
 10
156.7472986890827
 20
227.1965414280273
 10
157.6988133740325
 20
230.0933164132382
 10
158.4254297029022
 20
233.1059753573193
 10
158.9180100537636
 20
236.1966323260637
 10
159.1703599429029
 20
239.3264205148482
 10
159.1793059240472
 20
242.4559810212536
 10
158.9447354962933
 20
245.5459578060985
 10
158.4695985188708
 20
248.5574926184672
 10
157.7598701149519
 20
251.4527136607611
 10
156.8244755310099
 20
254.1952118485267
 10
155.6751778966664
 20
256.7504986758184
 10
154.3264302965113
 20
259.0864399281713
 10
152.7951940141781
 20
261.1736597889921
 10
151.1007252343611
 20
262.9859102574979
 10
149.2643328851203
 20
264.5004012325551
 10
147.309110665747
 20
265.6980871114242
 10
145.2596466300962
 20
266.5639062992648
 10
143.1417139775428
 20
267.0869706174299
 10
140.981946940046
 20
267.2607022286295
 10
138.8075058412282
 20
267.0829163570514
 10
136.6457355395473
 20
266.5558487631844
 10
134.5238215508352
 20
265.6861276278333
 10
132.4684481746631
 20
264.4846901988988
 10
130.5054629237918
 20
262.9666452491402
 10
128.6595514767016
 20
261.1510830745909
 10
126.9539272408624
 20
259.0608354230095
 10
125.4100394306661
 20
256.7221883714046
 10
124.0473033311106
 20
254.1645517633647
 10
122.8828561393255
 20
251.4200893632114
 10
121.9313414543756
 20
248.5233143780006
 10
121.204725125506
 20
245.5106554339193
 10
120.7121447746446
 20
242.419998465175
 10
120.4597948855054
 20
239.2902102763909
  0
LWPOLYLINE
  5
39B
330
A
100
AcDbEntity
  8
0
  6
PHANTOM
 62
     7
100
AcDbPolyline
 90
       26
 70
   128
 43
0.0
 10
172.2104852078366
 20
269.5565556365441
 10
173.0609432957323
 20
268.9684754803512
 10
175.132107051946
 20
267.2527959134075
 10
177.0592462384226
 20
265.2327234424765
 10
178.8225857992728
 20
262.9289867447048
 10
180.4040314844226
 20
260.3652252760653
 10
181.7873555211045
 20
257.5677466985498
 10
182.9583631327655
 20
254.565256927957
 10
183.9050381966835
 20
251.388565572351
 10
184.6176665456467
 20
248.0702697837906
 10
185.0889356484546
 20
244.644419767438
 10
185.3140096463832
 20
241.1461693803769
 10
185.2905789756401
 20
237.6114154054675
 10
185.0188840666139
 20
234.0764292017788
 10
184.5017128767331
 20
230.5774845113614
 10
183.7443722822504
 20
227.1504852415674
 10
182.7546336225106
 20
223.8305970423761
 10
181.5426529554931
 20
220.6518864592376
 10
180.1208668429135
 20
217.6469713642176
 10
178.5038647342708
 20
214.8466862524909
 10
176.7082392593531
 20
212.279765838695
 10
174.7524159654026
 20
209.9725501998736
 10
172.656464246067
 20
207.9487144906428
 10
170.4418914022626
 20
206.2290260040664
 10
168.1314219481625
 20
204.8311310711273
 10
166.9119381148119
 20
204.241620351937
  0
LWPOLYLINE
  5
3B7
330
A
100
AcDbEntity
  8
0
  6
PHANTOM
 62
     7
100
AcDbPolyline
 90
       43
 70
   128
 43
0.0
 10
145.8319671183939
 20
209.727641632581
 10
147.0612378135182
 20
208.5366247337204
 10
149.1285777721852
 20
206.8962406650901
 10
151.3151333725457
 20
205.5818230713039
 10
153.5977265812848
 20
204.6073051058449
 10
155.9521613425473
 20
203.9830169015785
 10
158.353480062149
 20
203.7155760687745
 10
160.7762281642842
 20
203.8078175467924
 10
163.1947239163612
 20
204.258763553018
 10
165.5833306617568
 20
205.0636339476031
 10
167.9167285747541
 20
206.2138969041368
 10
170.1701830569941
 20
207.6973593491281
 10
172.3198069303712
 20
209.4982962116179
 10
174.3428136470641
 20
211.5976171128432
 10
176.2177588326107
 20
213.9730687290013
 10
177.9247676016125
 20
216.5994706820178
 10
179.4457452364642
 20
219.4489824578186
 10
180.7645689958615
 20
222.4913985227048
 10
181.8672590198699
 20
225.6944685095243
 10
182.7421265199177
 20
229.0242390795864
 10
183.3798976828631
 20
232.4454138364987
 10
183.7738119757199
 20
235.9217274767495
 10
183.9196938089895
 20
239.4163302109467
 10
183.8159967989479
 20
242.8921783807527
 10
183.4638201596986
 20
246.3124271308779
 10
182.8668970512287
 20
249.6408209737128
 10
182.0315550069852
 20
252.8420781065161
 10
180.9666488604457
 20
255.8822644073009
 10
179.6834668816812
 20
258.7291531449691
 10
178.1956111188847
 20
261.3525665906785
 10
176.518853213277
 20
263.724695909276
 10
174.670967215786
 20
265.8203959398678
 10
172.6715411776853
 20
267.6174517407805
 10
170.5417695123775
 20
269.0968140734697
 10
168.3042283293399
 20
270.2428013291864
 10
165.9826361217478
 20
271.043265757932
 10
163.601602344546
 20
271.4897222376296
 10
161.1863665481045
 20
271.577438218529
 10
158.7625308327058
 20
271.3054838894115
 10
156.3557884599129
 20
270.6767420338199
 10
153.9916514976044
 20
269.6978774718364
 10
151.6951803857093
 20
268.3792664113307
 10
150.5031285916755
 20
267.5392343324066
  0
LWPOLYLINE
  5
3E4
330
A
100
AcDbEntity
  8
0
  6
PHANTOM
 62
     7
100
AcDbPolyline
 90
       13
 70
   128
 43
0.0
 10
214.8681157357441
 20
235.2215582204955
 10
214.8915464064871
 20
238.7563121954049
 10
214.6664724085585
 20
242.254562582466
 10
214.1952033057506
 20
245.6804125988186
 10
213.4825749567874
 20
248.9987083873789
 10
212.5358998928693
 20
252.1753997429849
 10
211.3648922812083
 20
255.1778895135777
 10
209.9815682445265
 20
257.9753680910932
 10
208.4001225593766
 20
260.5391295597327
 10
206.6367829985264
 20
262.8428662575044
 10
204.7096438120498
 20
264.8629387284354
 10
202.638480055836
 20
266.578618295379
 10
201.886041623413
 20
267.1021126849031
  0
LWPOLYLINE
  5
3F3
330
A
100
AcDbEntity
  8
0
  6
PHANTOM
 62
     7
100
AcDbPolyline
 90
       14
 70
   128
 43
0.0
 10
196.5956067017275
 20
201.8991776121336
 10
197.7089587082669
 20
202.4412738861553
 10
200.0194281623669
 20
203.8391688190945
 10
202.2340010061713
 20
205.5588573056709
 10
204.3299527255069
 20
207.5826930149017
 10
206.2857760194574
 20
209.8899086537231
 10
208.0814014943751
 20
212.4568290675192
 10
209.6984036030178
 20
215.2571141792459
 10
211.1201897155973
 20
218.2620292742659
 10
212.3321703826147
 20
221.4407398574045
 10
213.3219090423545
 20
224.7606280565958
 10
214.0792496368372
 20
228.1876273263898
 10
214.596420826718
 20
231.6865720168073
 10
214.8681157357441
 20
235.2215582204955
  0
LWPOLYLINE
  5
403
330
A
100
AcDbEntity
  8
0
  6
Continuous
 62
     7
100
AcDbPolyline
 90
       82
 70
   128
 43
0.0
 10
125.7369982190257
 20
-472.7649375085504
 10
120.1866775581935
 20
-474.8929166412946
 10
109.559682624907
 20
-478.1511419873744
 10
98.74025164511884
 20
-480.6702973576271
 10
87.76761074797425
 20
-482.4398321519043
 10
76.70527294546104
 20
-483.4488835378989
 10
65.59507108402581
 20
-483.6915834304869
 10
54.49897517938283
 20
-483.1665245698055
 10
43.46197724137429
 20
-481.8730793230238
 10
32.54337528390959
 20
-479.8184449262152
 10
21.79250877005761
 20
-477.0087613253871
 10
11.26311354940398
 20
-473.458563932674
 10
1.008136612263177
 20
-469.1823917271754
 10
-8.925311550731631
 20
-464.2004256492647
 10
-18.48270411953741
 20
-458.5366654066169
 10
-27.62305314400625
 20
-452.2157622152055
 10
-36.29296849777914
 20
-445.2713766098656
 10
-44.45689413571408
 20
-437.7319787326143
 10
-52.0651223437113
 20
-429.6403825622142
 10
-59.08717219941998
 20
-421.0284018128969
 10
-65.47965092368752
 20
-411.9461661857115
 10
-71.21659798752656
 20
-402.4287353187973
 10
-76.26145021339586
 20
-392.5336293991236
 10
-80.59296769814059
 20
-382.2993049121217
 10
-84.18335335904854
 20
-371.7883918603527
 10
-87.01649024290409
 20
-361.0424782889161
 10
-89.0741515883438
 20
-350.1275576122647
 10
-90.34581921940789
 20
-339.0880283917397
 10
-90.82323614674596
 20
-327.9915029852558
 10
-90.50203357266012
 20
-316.8846620704926
 10
-89.38398012977833
 20
-305.8350706041966
 10
-87.47138652664249
 20
-294.8909197113266
 10
-84.7755899154381
 20
-284.1173821346193
 10
-81.30568147960637
 20
-273.5628519799307
 10
-77.08235430203456
 20
-263.2904672364797
 10
-72.12215554889137
 20
-253.3485594889818
 10
-66.45462172228009
 20
-243.7961491965033
 10
-60.10371276902068
 20
-234.6797576371446
 10
-53.10714912771907
 20
-226.0532001586918
 10
-45.4960429765346
 20
-217.9598520905747
 10
-37.31556499039117
 20
-210.4473518481632
 10
-28.60342884203467
 20
-203.5546254703946
 10
-19.41145809349973
 20
-197.3222541021899
 10
-9.783331674198759
 20
-191.7836205348273
 10
0.1582364383314744
 20
-186.9997967855864
 10
10.30593774564631
 20
-183.0015920680855
 10
20.59143861687604
 20
-179.7856317289836
 10
30.95912891507082
 20
-177.3438154545684
 10
41.34721601218533
 20
-175.6624390047298
 10
51.70265040523248
 20
-174.7262108019181
 10
61.97327809616641
 20
-174.5129376025936
 10
72.10737764541329
 20
-175.0007342118813
 10
82.0646268337362
 20
-176.1617064095105
 10
91.79489741401551
 20
-177.9672257866148
 10
101.2692398919754
 20
-180.3868261434745
 10
110.4749408468559
 20
-183.3974427583808
 10
117.7374638828933
 20
-186.260537030157
 10
125.4966646787243
 20
-189.8290198793385
 10
133.6705811450864
 20
-194.2084551352346
 10
142.1606696589424
 20
-199.502754013687
 10
150.8372302136788
 20
-205.8096523148849
 10
159.5629964447445
 20
-213.2262366692752
 10
168.1627502042101
 20
-221.8299875454381
 10
176.4486757016033
 20
-231.6861915126227
 10
181.6927759980582
 20
-238.9760428692961
 10
186.6332588868172
 20
-246.8460664408522
 10
191.1946301970344
 20
-255.2934918114954
 10
195.3049151540882
 20
-264.3143432524451
 10
198.8802108486313
 20
-273.8834418104699
 10
201.8440378157919
 20
-283.9832395350187
 10
204.1104123326506
 20
-294.566847672101
 10
205.6006607175449
 20
-305.5965089164977
 10
206.2317606759129
 20
-317.0036631366227
 10
205.9282141652579
 20
-328.7243141474144
 10
204.6151319675343
 20
-340.6709915418943
 10
202.2280270622689
 20
-352.7465809517912
 10
198.7055160639672
 20
-364.8488352981318
 10
194.002995144076
 20
-376.8471601052734
 10
188.0823165667489
 20
-388.6179815827473
 10
182.8292377817758
 20
-397.2080321058715
 10
176.877129775969
 20
-405.5250601198507
 10
170.3564442580343
 20
-413.3471295750259
  0
LWPOLYLINE
  5
457
330
A
100
AcDbEntity
  8
0
  6
Continuous
 62
     7
100
AcDbPolyline
 90
      217
 70
   128
 43
0.0
 10
213.3193008810394
 20
-458.1731699424314
 10
214.4088406624196
 20
-457.0649951855478
 10
222.3942306566225
 20
-447.8890154735207
 10
229.7014718092127
 20
-438.4015938114361
 10
236.3317990493755
 20
-428.6577290367424
 10
244.1289951322995
 20
-415.3581594917458
 10
250.7542804130206
 20
-401.8146885839189
 10
256.2404129678598
 20
-388.1380383645772
 10
260.6277241274222
 20
-374.429672362848
 10
263.9651049960424
 20
-360.7826663069109
 10
266.3060678526309
 20
-347.2804815382805
 10
267.7105615983105
 20
-333.9979167063161
 10
268.2403830671577
 20
-321.0004073817191
 10
267.9617418741019
 20
-308.3448504223118
 10
266.653735994942
 20
-293.677037416986
 10
264.3947156027214
 20
-279.6390433385716
 10
261.3011448581185
 20
-266.2835729130673
 10
257.4880140997754
 20
-253.6488636417696
 10
253.0672113305896
 20
-241.7600974302745
 10
248.1455457245455
 20
-230.6309809469511
 10
242.8259818092083
 20
-220.264474153211
 10
237.204265602172
 20
-210.6551819202516
 10
231.370897614047
 20
-201.7896494200619
 10
225.4098525911892
 20
-193.6480718125662
 10
217.8951195702529
 20
-184.4514478619011
 10
210.4319943265099
 20
-176.2850734362144
 10
202.756095620234
 20
-168.7258559602681
 10
194.6688887333314
 20
-161.5505917358805
 10
183.2786405703707
 20
-152.6204500266
 10
171.2371386047784
 20
-144.4675351886286
 10
158.5959838008225
 20
-137.1418048818779
 10
145.4102978183422
 20
-130.6908271120364
 10
131.7394335492815
 20
-125.15794991166
 10
117.6462355425228
 20
-120.5830737930162
 10
103.1970174879124
 20
-117.001664795333
 10
88.4613015133606
 20
-114.4446854329889
 10
73.51135978025507
 20
-112.938510267947
 10
58.42213476251853
 20
-112.5040428477205
 10
43.27674333504075
 20
-113.1569828060802
 10
28.20529911294372
 20
-114.8980907277422
 10
13.29741261683775
 20
-117.7174296181181
 10
-1.370248145956112
 20
-121.5985775171126
 10
-15.72239509363091
 20
-126.5208449153981
 10
-29.68592146237078
 20
-132.4569969275806
 10
-43.1895925163285
 20
-139.3760633684286
 10
-56.16535585500828
 20
-147.2407085075904
 10
-68.54740582563143
 20
-156.0104252841431
 10
-80.27409740884827
 20
-165.6386979406825
 10
-91.28630726238847
 20
-176.0763958769864
 10
-101.5299778979018
 20
-187.2689273728213
 10
-110.9537850930968
 20
-199.1596023901666
 10
-119.5125047022332
 20
-211.6874320606521
 10
-127.1636860477115
 20
-224.7897856804423
 10
-133.8709836319541
 20
-238.3998834886512
 10
-139.601214735934
 20
-252.4496718575152
 10
-144.3278717366189
 20
-266.8683059902363
 10
-148.0279332809537
 20
-281.5840366500759
 10
-150.6850562184285
 20
-296.5234136736317
 10
-152.2867945082622
 20
-311.6124814563451
 10
-152.8270876790616
 20
-326.7766388529794
 10
-152.3042545730322
 20
-341.9412631945769
 10
-150.7224430521698
 20
-357.0320243010558
 10
-148.0906893729509
 20
-371.9751852673677
 10
-144.4230751268567
 20
-386.6981508900457
 10
-139.7388180381293
 20
-401.1302077203537
 10
-134.0613901777482
 20
-415.201665821353
 10
-127.4199852127818
 20
-428.8449688018878
 10
-119.8471486958655
 20
-441.9944443800595
 10
-111.3812314195218
 20
-454.5876768497539
 10
-102.0631811067653
 20
-466.5643077947449
 10
-91.93954640194744
 20
-477.8682188493452
 10
-81.05891457638282
 20
-488.4454851173069
 10
-69.47490592461619
 20
-498.2472273048493
 10
-57.24285959935262
 20
-507.2270079963744
 10
-44.42223866370184
 20
-515.3439056750993
 10
-31.07408559248572
 20
-522.5599099146704
 10
-17.26226178515377
 20
-528.8426633398791
 10
-3.051718045414986
 20
-534.1635041459889
 10
11.49022847422511
 20
-538.4986983076713
 10
26.29493775060006
 20
-541.8290163501209
 10
41.29288567410128
 20
-544.1397894938113
 10
56.41368884382419
 20
-545.4218339015624
 10
71.5868520495217
 20
-545.6697186825572
 10
86.74171110456159
 20
-544.8843236482616
 10
101.8080091377791
 20
-543.0695421652492
 10
116.7162109053066
 20
-540.2360337896278
 10
131.3975461589816
 20
-536.3970433721225
 10
145.7848904447864
 20
-531.572451821327
 10
159.8122567028537
 20
-525.7847635935495
 10
173.4162399096772
 20
-519.0622580003009
 10
186.5353985965102
 20
-511.4360365483475
 10
199.1105688720553
 20
-502.9420770325248
 10
211.0850962652586
 20
-493.6200141289685
 10
222.4051173604486
 20
-483.5128529450933
 10
233.0203948027316
 20
-472.6676937254467
 10
242.8832201683773
 20
-461.1338207457381
 10
251.9506373656689
 20
-448.9646866000686
 10
260.1819431764818
 20
-436.2151073214563
 10
267.5420089451914
 20
-422.9436157001996
 10
273.9980316720834
 20
-409.2097458306602
 10
279.5229565461576
 20
-395.0758023574527
 10
284.0926849086366
 20
-380.605041691331
 10
287.6883657652641
 20
-365.8622171805167
 10
290.2952255761604
 20
-350.9125272800608
 10
291.9025115982545
 20
-335.822249245702
 10
292.5047420361458
 20
-320.6583191953726
 10
292.099522922373
 20
-305.4875939966553
 10
290.6907142027611
 20
-290.3768526217027
 10
288.2845200706293
 20
-275.3924069286751
 10
284.8936058641241
 20
-260.5996352447938
 10
280.5330049852194
 20
-246.0631365579427
 10
275.2234461766851
 20
-231.8458438179684
 10
268.9887642419117
 20
-218.009378696866
 10
261.8570805650796
 20
-204.6133533334226
 10
253.8606079061772
 20
-191.7151681138428
 10
245.0343233446081
 20
-179.3702820483022
 10
235.4176759225324
 20
-167.6304523509684
 10
225.0518802221046
 20
-156.5460048004368
 10
213.9830323618122
 20
-146.1631661002418
 10
202.2586009313009
 20
-136.5263629352973
 10
189.9298833373075
 20
-127.6754655909466
 10
177.049863186764
 20
-119.6477410806679
 10
163.6739730328036
 20
-112.4764329177155
 10
149.8597360254443
 20
-106.190825892556
 10
135.6658663394511
 20
-100.8171867350519
 10
121.1531803843452
 20
-96.37641704214871
 10
106.3829125450258
 20
-92.88723969956107
 10
91.41783972131458
 20
-90.36228347694637
 10
76.32087815643501
 20
-88.8119584254356
 10
61.15541375287242
 20
-88.2410699000493
 10
45.9844554643926
 20
-88.65120221177312
 10
30.87128764013637
 20
-90.03982168902551
 10
15.87881222093994
 20
-92.39962195189441
 10
1.069330680608951
 20
-95.72066311705315
 10
-13.4960696401034
 20
-99.98716138566486
 10
-27.7570792060919
 20
-105.1815156610351
 10
-41.6553637766395
 20
-111.2804251829911
 10
-55.13376435015661
 20
-118.2583738338131
 10
-68.13737284455767
 20
-126.085521302866
 10
-80.61337652794687
 20
-134.7286562901003
 10
-92.51091199128611
 20
-144.1520064907987
 10
-103.7824716963089
 20
-154.315469973857
 10
-114.3820642688141
 20
-165.177608483073
 10
-124.2681378200575
 20
-176.6928739013561
 10
-133.4009038145284
 20
-188.8146870648362
 10
-143.315510985198
 20
-204.0909039347548
 10
-152.0370334665948
 20
-220.0786743805086
 10
-159.5166095973528
 20
-236.6840585769412
 10
-165.7118494947813
 20
-253.810286787194
 10
-170.5890998203423
 20
-271.3574795991544
 10
-174.1211016417311
 20
-289.224115643942
 10
-176.2899969526574
 20
-307.3068221386451
 10
-177.0841185638816
 20
-325.5016631722103
 10
-176.501601826164
 20
-343.7042469297066
 10
-174.5464757341693
 20
-361.8105895289093
 10
-171.232599146981
 20
-379.7181154957162
 10
-166.5792038846686
 20
-397.3256132974
 10
-160.6153082985605
 20
-414.5338194363292
 10
-153.375042446789
 20
-431.2455013587125
 10
-144.9018409987367
 20
-447.367325934878
 10
-135.2437787243517
 20
-462.8086989995278
 10
-124.4575344658147
 20
-477.4842578135427
 10
-112.6039026107328
 20
-491.3120100228325
 10
-99.75136255350955
 20
-504.2163815514864
 10
-85.97192795136214
 20
-516.1257237723357
 10
-71.34420249084669
 20
-526.9758178575115
 10
-55.95137273469089
 20
-536.7058587977193
 10
-39.9998735595099
 20
-545.2066323667636
 10
-23.66609250707263
 20
-552.4285004160576
 10
-7.05758254218293
 20
-558.3784431917776
 10
9.723370283913977
 20
-563.0697977344495
 10
26.57848834666654
 20
-566.5258520912023
 10
43.41544763582812
 20
-568.7746276536615
 10
60.14707429356944
 20
-569.8527202982392
 10
76.69244143856805
 20
-569.8000778231772
 10
86.90515447838036
 20
-569.2135707061921
 10
96.99867416453164
 20
-568.2156355604836
 10
106.9568942633876
 20
-566.8183148656261
 10
116.7647162006436
 20
-565.0349735238672
 10
126.408055542331
 20
-562.8795097206786
 10
135.8736996815861
 20
-560.3655701502739
 10
145.4630989177828
 20
-557.4032930953692
 10
155.6451380438371
 20
-553.7832395465518
 10
166.3745310329913
 20
-549.4147937466169
 10
177.5881707707534
 20
-544.2056922916123
 10
189.2110628009225
 20
-538.0633381191199
 10
201.1547776763687
 20
-530.8953255010375
 10
210.8715752297204
 20
-524.3607204224518
 10
220.6679748770466
 20
-517.0668111276476
 10
230.477454347148
 20
-508.9715373144563
 10
240.2260553137067
 20
-500.0353935887467
 10
249.8338287570212
 20
-490.224390719622
 10
259.2132095907041
 20
-479.5091015854047
 10
268.2693667180825
 20
-467.8661625346197
 10
276.9018798056829
 20
-455.2807417069224
 10
285.0023428791535
 20
-441.7454453420139
 10
292.4579208845301
 20
-427.2638626793565
 10
298.0925271753406
 20
-414.4828881852584
 10
303.1253792694293
 20
-401.0691484767792
 10
307.4844213624118
 20
-387.0443341048375
 10
311.0947053704117
 20
-372.4364836250384
 10
313.8824252058981
 20
-357.2816975742901
 10
315.7726673479059
 20
-341.6236891950021
 10
316.6914102493633
 20
-325.5145109385698
 10
316.5670612104896
 20
-309.0150004093786
 10
315.3288458397565
 20
-292.1948197038861
 10
312.9115814861844
 20
-275.1327953183781
 10
309.2522117275371
 20
-257.9171686155356
 10
304.2956490428219
 20
-240.6451497974464
 10
299.6961522102259
 20
-227.7180937310055
 10
294.3208471113333
 20
-214.8673906837279
 10
288.154740228737
 20
-202.1440217048215
 10
281.1850972182091
 20
-189.601984487598
 10
273.4042880954175
 20
-177.2969983174264
 10
264.8070017131877
 20
-165.2878711151116
 10
255.3925823002123
 20
-153.6351933410726
 10
255.1104773763154
 20
-153.32531845577
  0
LWPOLYLINE
  5
532
330
A
100
AcDbEntity
  8
0
  6
Continuous
 62
     7
100
AcDbPolyline
 90
        6
 70
   128
 43
0.0
 10
257.3866055648299
 20
-151.9098742176916
 10
257.5129645611156
 20
-151.7322096705771
 10
257.87077349726
 20
-151.0510063607248
 10
257.9520827669366
 20
-150.7081855063844
 10
257.9276546759207
 20
-150.3046683461919
 10
257.6903321434094
 20
-149.8494928604536
  0
LINE
  5
53A
330
A
100
AcDbEntity
  8
0
  6
Continuous
 62
     7
100
AcDbLine
 10
257.6531928545904
 20
-149.8031490974321
 30
0.0
 11
245.1590284115832
 21
-136.87252133997
 31
0.0
  0
LWPOLYLINE
  5
53B
330
A
100
AcDbEntity
  8
0
  6
Continuous
 62
     7
100
AcDbPolyline
 90
        6
 70
   128
 43
0.0
 10
245.1530481618421
 20
-136.8663851232838
 10
244.6535643717497
 20
-136.5776618107723
 10
244.2739598766752
 20
-136.5426095894969
 10
243.9677559887308
 20
-136.598123600523
 10
243.6283430895357
 20
-136.7295647062469
 10
243.4595819704131
 20
-136.8254964488433
  0
ARC
  5
543
330
A
100
AcDbEntity
  8
0
  6
Continuous
 62
     7
100
AcDbCircle
 10
218.6014146707403
 20
-159.7566078574384
 30
0.0
 40
14.99999999999999
100
AcDbArc
 50
45.6909915758232
 51
110.131453448815
  0
LWPOLYLINE
  5
544
330
A
100
AcDbEntity
  8
0
  6
Continuous
 62
     7
100
AcDbPolyline
 90
        6
 70
   128
 43
0.0
 10
182.9457449520503
 20
-490.3875191650103
 10
183.6716425273347
 20
-490.8131072351235
 10
184.0803019656642
 20
-490.9707449515539
 10
184.5634444037307
 20
-491.0259975935606
 10
185.0377896946723
 20
-490.8943269475567
 10
185.2544589698765
 20
-490.6958838631211
  0
LWPOLYLINE
  5
54C
330
A
100
AcDbEntity
  8
0
  6
Continuous
 62
     7
100
AcDbPolyline
 90
        6
 70
   128
 43
0.0
 10
136.8944130325081
 20
-440.13741043734
 10
136.6013789363651
 20
-440.6256452574961
 10
136.5520524645045
 20
-441.0347783901598
 10
136.6077984139958
 20
-441.3885153276744
 10
136.766297284289
 20
-441.8198446990847
 10
136.8482942564348
 20
-441.9683288623011
  0
LINE
  5
554
330
A
100
AcDbEntity
  8
0
  6
Continuous
 62
     7
100
AcDbLine
 10
166.4808592343316
 20
-411.8364280946519
 30
0.0
 11
136.9033224742277
 21
-440.1287928215555
 31
0.0
  0
LINE
  5
555
330
A
100
AcDbEntity
  8
0
  6
Continuous
 62
     7
100
AcDbLine
 10
185.2896291553058
 20
-490.7130327166517
 30
0.0
 11
214.8671659154097
 21
-462.4206679897481
 31
0.0
  0
LWPOLYLINE
  5
556
330
A
100
AcDbEntity
  8
0
  6
Continuous
 62
     7
100
AcDbPolyline
 90
        7
 70
   128
 43
0.0
 10
168.875347976657
 20
-412.1958520152507
 10
168.8434084098461
 20
-412.1728847735234
 10
168.0988458623028
 20
-411.7363535761801
 10
167.6901864239732
 20
-411.5787158597497
 10
167.2070439859066
 20
-411.5234632177429
 10
166.7326986949651
 20
-411.6551338637469
 10
166.5007030121707
 20
-411.8676141003935
  0
LWPOLYLINE
  5
55F
330
A
100
AcDbEntity
  8
0
  6
Continuous
 62
     7
100
AcDbPolyline
 90
        6
 70
   128
 43
0.0
 10
214.8760753571294
 20
-462.4120503739636
 10
215.1691094532723
 20
-461.9238155538075
 10
215.2184359251329
 20
-461.5146824211438
 10
215.1626899756416
 20
-461.1609454836291
 10
215.0041911053483
 20
-460.7296161122189
 10
214.9472323392008
 20
-460.6264723679081
  0
LWPOLYLINE
  5
567
330
A
100
AcDbEntity
  8
0
  6
Continuous
 62
     7
100
AcDbPolyline
 90
        6
 70
   128
 43
0.0
 10
158.7469917425821
 20
-505.9874641036259
 10
158.8363156379858
 20
-506.0454903407792
 10
159.3124895215901
 20
-506.2661358452311
 10
159.7239125105195
 20
-506.3506620729726
 10
160.1615893120768
 20
-506.2952530880213
 10
160.5553617518917
 20
-506.0446784464147
  0
LWPOLYLINE
  5
56F
330
A
100
AcDbEntity
  8
0
  6
Continuous
 62
     7
100
AcDbPolyline
 90
        6
 70
   128
 43
0.0
 10
120.4819785094217
 20
-464.1396887088614
 10
120.1903268979864
 20
-464.6334150788369
 10
120.147850377191
 20
-465.0282917521306
 10
120.2038698710879
 20
-465.3602479596798
 10
120.3504631941848
 20
-465.7489918901704
 10
120.4492076698791
 20
-465.9250305389504
  0
LINE
  5
577
330
A
100
AcDbEntity
  8
0
  6
Continuous
 62
     7
100
AcDbLine
 10
140.3293168541363
 20
-445.1546424888296
 30
0.0
 11
120.4907251247983
 21
-464.131228586143
 31
0.0
  0
LINE
  5
578
330
A
100
AcDbEntity
  8
0
  6
Continuous
 62
     7
100
AcDbLine
 10
160.5822363748345
 20
-506.0438844992227
 30
0.0
 11
180.4208281041725
 21
-487.0672984019094
 31
0.0
  0
LWPOLYLINE
  5
579
330
A
100
AcDbEntity
  8
0
  6
Continuous
 62
     7
100
AcDbPolyline
 90
        4
 70
   128
 43
0.0
 10
255.8033899079263
 20
-153.921473242604
 10
256.4519498151362
 20
-153.1374897430119
 10
257.1074057259297
 20
-152.2857312935498
 10
257.2716687632581
 20
-152.0518059743881
  0
LWPOLYLINE
  5
57F
330
A
100
AcDbEntity
  8
0
  6
Continuous
 62
     7
100
AcDbPolyline
 90
       14
 70
   128
 43
0.0
 10
257.3157350328925
 20
-151.2498124272964
 10
257.1636843849279
 20
-151.3215804166051
 10
256.5356212992184
 20
-151.7040523408223
 10
255.6599552246714
 20
-152.331789968016
 10
254.5459684395172
 20
-153.1981391231753
 10
253.2054694808057
 20
-154.2939162897329
 10
251.6526679709765
 20
-155.6075059571261
 10
249.9040239923254
 20
-157.1249837480975
 10
247.9780736060376
 20
-158.8302640205588
 10
245.8952323653283
 20
-160.705270379398
 10
243.6775789054989
 20
-162.7301272907643
 10
241.3486209049111
 20
-164.883370767672
 10
238.9330458977479
 20
-167.1421758936018
 10
236.7410383418889
 20
-169.2124539269548
  0
LWPOLYLINE
  5
58F
330
A
100
AcDbEntity
  8
0
  6
Continuous
 62
     7
100
AcDbPolyline
 90
       14
 70
   128
 43
0.0
 10
223.0677560560871
 20
-154.6477923617814
 10
223.8188624040398
 20
-153.9368847982482
 10
226.2681906555945
 20
-151.634217666295
 10
228.6436067476942
 20
-149.4252644915179
 10
230.9199306788284
 20
-147.3334407270925
 10
233.0730328490443
 20
-145.3809202253064
 10
235.0800898397085
 20
-143.5884001892087
 10
236.9198263474227
 20
-141.9748817771087
 10
238.5727407075323
 20
-140.557468685571
 10
240.0213116166235
 20
-139.3511858459769
 10
241.2501838626976
 20
-138.3688201565141
 10
242.2463310942388
 20
-137.6207849378747
 10
242.9991939027802
 20
-137.1150095494658
 10
243.2401070939693
 20
-136.9765955673982
  0
LWPOLYLINE
  5
59F
330
A
100
AcDbEntity
  8
0
  6
Continuous
 62
     7
100
AcDbPolyline
 90
       14
 70
   128
 43
0.0
 10
255.6500978096977
 20
-153.1268100791743
 10
255.4131123032669
 20
-153.1382587188565
 10
254.9241872570589
 20
-153.3956169630669
 10
254.1888623872118
 20
-153.8959688400634
 10
253.2154692183217
 20
-154.6336451631492
 10
252.0150366839404
 20
-155.6002877648232
 10
250.601166164351
 20
-156.7849441981577
 10
248.9898773774944
 20
-158.1741918323983
 10
247.199426869164
 20
-159.7522899367338
 10
245.2501011590469
 20
-161.5013580290662
 10
243.1639868863497
 20
-163.4015784690171
 10
240.9647205593512
 20
-165.4314209997125
 10
238.6772207443184
 20
-167.5678866941954
 10
236.8336489302546
 20
-169.3067484330546
  0
LWPOLYLINE
  5
5AF
330
A
100
AcDbEntity
  8
0
  6
Continuous
 62
     7
100
AcDbPolyline
 90
        3
 70
   128
 43
0.0
 10
255.4941104620439
 20
-153.6285305948841
 10
255.6324586358687
 20
-153.3614007616825
 10
255.6500978096977
 20
-153.1268100791743
  0
LWPOLYLINE
  5
5B4
330
A
100
AcDbEntity
  8
0
  6
Continuous
 62
     7
100
AcDbPolyline
 90
        6
 70
   128
 43
0.0
 10
137.0086774228091
 20
-442.2085508228327
 10
137.0793484428456
 20
-442.3453337914884
 10
137.5545283625673
 20
-443.1275060941671
 10
138.2716117270103
 20
-444.1533088365838
 10
139.2229972741221
 20
-445.4118682544793
 10
139.5817318910391
 20
-445.8697441760271
  0
LWPOLYLINE
  5
5BC
330
A
100
AcDbEntity
  8
0
  6
Continuous
 62
     7
100
AcDbPolyline
 90
        5
 70
   128
 43
0.0
 10
179.6732431410753
 20
-487.7824000891068
 10
180.7645689958615
 20
-488.7068540679971
 10
181.8672590198699
 20
-489.5890699993647
 10
182.7421265199177
 20
-490.2224122347939
 10
182.7750377280127
 20
-490.2443182014218
  0
LWPOLYLINE
  5
5C3
330
A
100
AcDbEntity
  8
0
  6
Continuous
 62
     7
100
AcDbPolyline
 90
       30
 70
   128
 43
0.0
 10
183.8538456427228
 20
-490.267042642147
 10
183.8159967989479
 20
-490.1736373536776
 10
183.4638201596986
 20
-489.516554648758
 10
182.8668970512287
 20
-488.611366928656
 10
182.0315550069852
 20
-487.4676694083891
 10
180.9666488604458
 20
-486.0975855661906
 10
179.6834668816812
 20
-484.5156386316248
 10
178.1956111188847
 20
-482.7385976357402
 10
176.518853213277
 20
-480.7852996551692
 10
174.670967215786
 20
-478.6764501344293
 10
172.6715411776853
 20
-476.4344034030608
 10
170.5417695123775
 20
-474.0829257141719
 10
168.3042283293399
 20
-471.6469433162436
 10
165.9826361217478
 20
-469.1522782286956
 10
163.601602344546
 20
-466.6253745220559
 10
161.1863665481045
 20
-464.0930180042344
 10
158.7625308327058
 20
-461.5820522842967
 10
156.3557884599129
 20
-459.119094223529
 10
153.9916514976044
 20
-456.7302517900876
 10
151.6951803857093
 20
-454.4408473080413
 10
149.4907182893086
 20
-452.2751490344369
 10
147.40163305503
 20
-450.256113909737
 10
145.4500695060604
 20
-448.4051442085404
 10
143.6567147015107
 20
-446.7418606701473
 10
142.0405786484437
 20
-445.2838945138408
 10
140.6187927910693
 20
-444.0467005435772
 10
139.4064284131746
 20
-443.0433933232193
 10
138.4163368787661
 20
-442.2846081588964
 10
137.6590134044143
 20
-441.7783883621137
 10
137.1626450167383
 20
-441.5363841456105
  0
LWPOLYLINE
  5
5E3
330
A
100
AcDbEntity
  8
0
  6
Continuous
 62
     7
100
AcDbPolyline
 90
       30
 70
   128
 43
0.0
 10
140.328529860145
 20
-445.155403705316
 10
140.5831485095105
 20
-445.1525573910028
 10
141.0780143050166
 20
-445.4041178201508
 10
141.8071202462691
 20
-445.9070313899232
 10
142.7616159748141
 20
-446.6551934108474
 10
143.9299152055013
 20
-447.6395222094769
 10
145.2978363682903
 20
-448.8480693676031
 10
146.8487747532999
 20
-450.266164759868
 10
148.5639040694929
 20
-451.8765946292122
 10
150.4224049703464
 20
-453.6598105385681
 10
152.4017177725161
 20
-455.5941666624043
 10
154.4778162998319
 20
-457.6561825377257
 10
156.6254995285298
 20
-459.8208280850868
 10
158.8186974935422
 20
-462.0618274398491
 10
161.0307877425584
 20
-464.3519779055839
 10
163.2349184965323
 20
-466.6634801579573
 10
165.4043345939054
 20
-468.9682756908694
 10
167.5127022620244
 20
-471.2383874087093
 10
169.5344287734689
 20
-473.4462592303974
 10
171.4449731070933
 20
-475.5650905828807
 10
173.2211438427792
 20
-477.5691617237852
 10
174.8413806738602
 20
-479.434145944247
 10
176.2860161200379
 20
-481.1374048622041
 10
177.5375142639506
 20
-482.6582632216885
 10
178.5806836134558
 20
-483.9782598624252
 10
179.4028615057649
 20
-485.0813718133104
 10
179.994067815017
 20
-485.9542087895755
 10
180.3471260974871
 20
-486.5861757327051
 10
180.4577507038916
 20
-486.9696014200944
 10
180.4208281041725
 20
-487.0672984019094
  0
LWPOLYLINE
  5
603
330
A
100
AcDbEntity
  8
0
  6
Continuous
 62
     7
100
AcDbPolyline
 90
       28
 70
   128
 43
0.0
 10
169.0399273495422
 20
-412.3347905912433
 10
169.9032293697676
 20
-412.960390811939
 10
171.005919393776
 20
-413.8426067433067
 10
172.3247431531733
 20
-414.9643446622707
 10
173.845720788025
 20
-416.3137138678346
 10
175.5527295570269
 20
-417.8764107107353
 10
177.4276747425735
 20
-419.635870215685
 10
179.4506814592664
 20
-421.5734416742291
 10
181.6003053326436
 20
-423.6685863468956
 10
183.8537598148836
 20
-425.8990951789432
 10
186.1871577278809
 20
-428.2413242218672
 10
188.5757644732765
 20
-430.670445265134
 10
190.9942602253535
 20
-433.1607090213905
 10
193.4170083274887
 20
-435.6857180753157
 10
195.8183270470904
 20
-438.218706702789
 10
198.1727618083528
 20
-440.732824594226
 10
200.4553550170919
 20
-443.2014214745378
 10
202.6419106174525
 20
-445.5983296026786
 10
204.7092505761195
 20
-447.8981411562092
 10
206.6354605752371
 20
-450.0764775605361
 10
208.4001223096298
 20
-452.110247907867
 10
209.9845299259169
 20
-453.9778937265773
 10
211.3718883092111
 20
-455.659617506373
 10
212.5474911155154
 20
-457.1375925568246
 10
213.4988766626272
 20
-458.3961519747199
 10
214.2159600270702
 20
-459.4219547171366
 10
214.6911399467918
 20
-460.2041270198154
 10
214.7783026253094
 20
-460.3745805538118
  0
LWPOLYLINE
  5
621
330
A
100
AcDbEntity
  8
0
  6
Continuous
 62
     7
100
AcDbPolyline
 90
       27
 70
   128
 43
0.0
 10
120.6008521037054
 20
-466.1498916977603
 10
120.685419332115
 20
-466.3058911616188
 10
121.1605563095374
 20
-467.0569955578066
 10
121.8702847134563
 20
-468.0435225956144
 10
122.8056792973983
 20
-469.2530661251452
 10
123.9549769317418
 20
-470.6704154347217
 10
125.3037245318969
 20
-472.2777465344107
 10
126.8349608142301
 20
-474.0548463030387
 10
128.529429594047
 20
-475.9793666799175
 10
130.3658219432879
 20
-478.0271057046751
 10
132.3210441626612
 20
-480.1723118709496
 10
134.370508198312
 20
-482.3880079665224
 10
136.4884408508653
 20
-484.6463303274148
 10
138.6482078883621
 20
-486.9188792396295
 10
140.8226489871799
 20
-489.1770760820318
 10
142.9844192888608
 20
-491.392522719092
 10
145.1063332775729
 20
-493.537358623917
 10
147.161706653745
 20
-495.5846112405411
 10
149.1246919046163
 20
-497.5085351794665
 10
150.9706033517065
 20
-499.2849359808744
 10
152.6762275875457
 20
-500.8914743739954
 10
154.220115397742
 20
-502.3079472064009
 10
155.5828514972976
 20
-503.5165415103666
 10
156.7472986890827
 20
-504.5020585112772
 10
157.6988133740325
 20
-505.2521047610363
 10
158.4254297029022
 20
-505.757247992866
 10
158.5343509728421
 20
-505.8232531824131
  0
LWPOLYLINE
  5
63E
330
A
100
AcDbEntity
  8
0
  6
Continuous
 62
     7
100
AcDbPolyline
 90
       29
 70
   128
 43
0.0
 10
159.1843968455466
 20
-505.77339288194
 10
159.1793059240472
 20
-505.755573457264
 10
158.9447354962932
 20
-505.2493372762789
 10
158.4695985188708
 20
-504.498232880091
 10
157.7598701149519
 20
-503.5117058422832
 10
156.8244755310099
 20
-502.3021623127523
 10
155.6751778966664
 20
-500.8848130031759
 10
154.3264302965113
 20
-499.2774819034868
 10
152.795194014178
 20
-497.5003821348589
 10
151.1007252343611
 20
-495.5758617579801
 10
149.2643328851203
 20
-493.5281227332224
 10
147.3091106657469
 20
-491.3829165669478
 10
145.2596466300962
 20
-489.1672204713751
 10
143.1417139775428
 20
-486.9088981104827
 10
140.981946940046
 20
-484.636349198268
 10
138.8075058412282
 20
-482.3781523558658
 10
136.6457355395473
 20
-480.1627057188056
 10
134.5238215508352
 20
-478.0178698139805
 10
132.4684481746631
 20
-475.9706171973564
 10
130.5054629237918
 20
-474.0466932584311
 10
128.6595514767016
 20
-472.2702924570232
 10
126.9539272408624
 20
-470.6637540639021
 10
125.4100394306661
 20
-469.2472812314967
 10
124.0473033311106
 20
-468.038686927531
 10
122.8828561393255
 20
-467.0531699266204
 10
121.9313414543756
 20
-466.3031236768613
 10
121.204725125506
 20
-465.7979804450316
 10
120.7121447746446
 20
-465.5440927003625
 10
120.6953220542354
 20
-465.5385527711567
  0
LWPOLYLINE
  5
65D
330
A
100
AcDbEntity
  8
0
  6
PHANTOM
 62
     7
100
AcDbPolyline
 90
        5
 70
   128
 43
0.0
 10
257.2716687632581
 20
-152.0518059743881
 10
257.5091975907191
 20
-151.6730726054604
 10
257.6530663157837
 20
-151.3060080132494
 10
257.5374868568475
 20
-151.1884284929089
 10
257.3157350328925
 20
-151.2498124272964
  0
LWPOLYLINE
  5
664
330
A
100
AcDbEntity
  8
0
  6
PHANTOM
 62
     7
100
AcDbPolyline
 90
       16
 70
   128
 43
0.0
 10
236.0724674671189
 20
-168.403780131363
 10
237.6733618698491
 20
-166.8892990880168
 10
240.1410991623501
 20
-164.5742808296438
 10
242.5302570991132
 20
-162.3572498818888
 10
244.81631968666
 20
-160.2609559823981
 10
246.9758288293053
 20
-158.3069099433192
 10
248.9866250409627
 20
-156.51516292126
 10
250.8280748314587
 20
-154.9041006652878
 10
252.481282434063
 20
-153.4902548542646
 10
253.9292837016256
 20
-152.2881334594504
 10
255.1572201816825
 20
-151.3100718730862
 10
256.1524915842848
 20
-150.5661063305769
 10
256.9048850780244
 20
-150.0638709251349
 10
257.4066800875044
 20
-149.8085192716531
 10
257.6527275168904
 20
-149.8026716236422
 10
257.6562468513908
 20
-149.806500143076
  0
LWPOLYLINE
  5
676
330
A
100
AcDbEntity
  8
0
  6
PHANTOM
 62
     7
100
AcDbPolyline
 90
       15
 70
   128
 43
0.0
 10
245.1590284115832
 20
-136.87252133997
 10
244.9129809821971
 20
-136.8783689879808
 10
244.4111859727171
 20
-137.1337206414626
 10
243.6587924789776
 20
-137.6359560469046
 10
242.6635210763752
 20
-138.379921589414
 10
241.4355845963183
 20
-139.3579831757781
 10
239.9875833287557
 20
-140.5601045705923
 10
238.3343757261514
 20
-141.9739503816156
 10
236.4929259356554
 20
-143.5850126375878
 10
234.482129723998
 20
-145.376759659647
 10
232.3226205813527
 20
-147.3308056987259
 10
230.0365579938059
 20
-149.4270995982166
 10
227.6474000570428
 20
-151.6441305459716
 10
225.1796627645417
 20
-153.9591488043446
 10
223.7567234637662
 20
-155.3048040432548
  0
LWPOLYLINE
  5
687
330
A
100
AcDbEntity
  8
0
  6
PHANTOM
 62
     7
100
AcDbPolyline
 90
        4
 70
   128
 43
0.0
 10
225.2878321711838
 20
-152.5529532087436
 10
224.7468270739586
 20
-153.0371127502542
 10
223.3194351674367
 20
-154.3346219722196
 10
223.0626736736092
 20
-154.5706964054922
  0
LWPOLYLINE
  5
68D
330
A
100
AcDbEntity
  8
0
  6
PHANTOM
 62
     7
100
AcDbPolyline
 90
       33
 70
   128
 43
0.0
 10
136.9023726538933
 20
-440.1297115311079
 10
137.1740675629195
 20
-440.115147671834
 10
137.6912387528003
 20
-440.3602552066297
 10
138.448579347283
 20
-440.8625190005044
 10
139.4383180070228
 20
-441.6167851472614
 10
140.6502986740402
 20
-442.6153138555499
 10
142.0720847866198
 20
-443.8478588695976
 10
143.6890868952625
 20
-445.3017726096605
 10
145.4847123701802
 20
-446.9621359533058
 10
147.4405356641307
 20
-448.8119113257972
 10
149.5364873834663
 20
-450.832117528667
 10
151.7510602272708
 20
-453.0020245124977
 10
154.0615296813708
 20
-455.2993660952822
 10
156.4441872026026
 20
-457.700568443581
 10
158.8745835005476
 20
-460.1809919719549
 10
161.3277794203372
 20
-462.7151841784532
 10
163.7786018521298
 20
-465.2771408217274
 10
166.2019020412826
 20
-467.8405727597363
 10
168.5728136486059
 20
-470.3791757119181
 10
170.8670079126525
 20
-472.8669001767048
 10
173.0609432957323
 20
-475.2782187346588
 10
175.132107051946
 20
-477.5883879943398
 10
177.0592462384226
 20
-479.7737024929853
 10
178.8225857992728
 20
-481.811737946636
 10
180.4040314844226
 20
-483.6815813536349
 10
181.7873555211045
 20
-485.3640455903239
 10
182.9583631327655
 20
-486.8418662968964
 10
183.9050381966835
 20
-488.0998790330923
 10
184.6176665456467
 20
-489.1251748858747
 10
185.0889356484546
 20
-489.9072329323476
 10
185.3140096463832
 20
-490.43802819866
 10
185.2905789756401
 20
-490.7121140070992
 10
185.2884149979678
 20
-490.714177910304
  0
LWPOLYLINE
  5
6B0
330
A
100
AcDbEntity
  8
0
  6
PHANTOM
 62
     7
100
AcDbPolyline
 90
        3
 70
   128
 43
0.0
 10
136.8722294085917
 20
-441.5423749570309
 10
136.8511089932053
 20
-441.8150831495378
 10
137.0086774228091
 20
-442.2085508228327
  0
LWPOLYLINE
  5
6B5
330
A
100
AcDbEntity
  8
0
  6
PHANTOM
 62
     7
100
AcDbPolyline
 90
        5
 70
   128
 43
0.0
 10
182.7750377280127
 20
-490.2443182014218
 10
183.3798976828632
 20
-490.6001671890319
 10
183.7738119757199
 20
-490.7183305655895
 10
183.9196938089895
 20
-490.5756498032797
 10
183.8538456427228
 20
-490.267042642147
  0
LWPOLYLINE
  5
6BC
330
A
100
AcDbEntity
  8
0
  6
PHANTOM
 62
     7
100
AcDbPolyline
 90
        3
 70
   128
 43
0.0
 10
137.1626450167383
 20
-441.5363841456105
 10
137.1424858073475
 20
-441.53009998865
 10
136.8722294085917
 20
-441.5423749570309
  0
LWPOLYLINE
  5
6C1
330
A
100
AcDbEntity
  8
0
  6
PHANTOM
 62
     7
100
AcDbPolyline
 90
       32
 70
   128
 43
0.0
 10
214.8681157357441
 20
-462.4197492801957
 10
214.8915464064871
 20
-462.1456634717564
 10
214.6664724085585
 20
-461.6148682054439
 10
214.1952033057506
 20
-460.8328101589711
 10
213.4825749567874
 20
-459.8075143061885
 10
212.5358998928693
 20
-458.5495015699927
 10
211.3648922812083
 20
-457.0716808634202
 10
209.9815682445265
 20
-455.3892166267312
 10
208.4001225593766
 20
-453.5193732197323
 10
206.6367829985264
 20
-451.4813377660816
 10
204.7096438120498
 20
-449.2960232674361
 10
202.638480055836
 20
-446.9858540077551
 10
200.4445446727562
 20
-444.5745354498011
 10
198.1503504087097
 20
-442.0868109850144
 10
195.7794388013864
 20
-439.5482080328326
 10
193.3561386122335
 20
-436.9847760948237
 10
190.9053161804409
 20
-434.4228194515495
 10
188.4521202606513
 20
-431.8886272450511
 10
186.0217239627063
 20
-429.4082037166774
 10
183.6390664414745
 20
-427.0070013683785
 10
181.3285969873745
 20
-424.709659785594
 10
179.11402414357
 20
-422.5397528017632
 10
177.0180724242345
 20
-420.5195465988935
 10
175.062249130284
 20
-418.6697712264021
 10
173.2666236553663
 20
-417.0094078827569
 10
171.6496215467236
 20
-415.555494142694
 10
170.227835434144
 20
-414.3229491286463
 10
169.0158547671266
 20
-413.3244204203578
 10
168.0261161073869
 20
-412.5701542736008
 10
167.2687755129042
 20
-412.0678904797261
 10
166.7516043230234
 20
-411.8227829449304
 10
166.4808592343316
 20
-411.8364280946519
  0
LWPOLYLINE
  5
6E3
330
A
100
AcDbEntity
  8
0
  6
PHANTOM
 62
     7
100
AcDbPolyline
 90
       30
 70
   128
 43
0.0
 10
120.489938130807
 20
-464.1319898026294
 10
120.7445567801725
 20
-464.1291434883161
 10
121.2394225756786
 20
-464.3807039174642
 10
121.9685285169311
 20
-464.8836174872366
 10
122.9230242454761
 20
-465.6317795081609
 10
124.0913234761633
 20
-466.6161083067903
 10
125.4592446389523
 20
-467.8246554649166
 10
127.0101830239619
 20
-469.2427508571813
 10
128.7253123401549
 20
-470.8531807265256
 10
130.5838132410084
 20
-472.6363966358814
 10
132.5631260431781
 20
-474.5707527597176
 10
134.6392245704939
 20
-476.6327686350392
 10
136.7869077991918
 20
-478.7974141824003
 10
138.9801057642042
 20
-481.0384135371625
 10
141.1921960132204
 20
-483.3285640028973
 10
143.3963267671944
 20
-485.6400662552707
 10
145.5657428645674
 20
-487.9448617881827
 10
147.6741105326864
 20
-490.2149735060226
 10
149.6958370441309
 20
-492.4228453277107
 10
151.6063813777553
 20
-494.541676680194
 10
153.3825521134412
 20
-496.5457478210986
 10
155.0027889445222
 20
-498.4107320415604
 10
156.4474243906999
 20
-500.1139909595176
 10
157.6989225346127
 20
-501.6348493190019
 10
158.7420918841178
 20
-502.9548459597386
 10
159.5642697764269
 20
-504.0579579106238
 10
160.155476085679
 20
-504.9307948868889
 10
160.5085343681492
 20
-505.5627618300184
 10
160.6191589745536
 20
-505.9461875174078
 10
160.5805361719195
 20
-506.0454728172251
  0
LWPOLYLINE
  5
703
330
A
100
AcDbEntity
  8
0
  6
PHANTOM
 62
     7
100
AcDbPolyline
 90
        3
 70
   128
 43
0.0
 10
120.4597948855054
 20
-465.5446532285522
 10
120.450848904361
 20
-465.7996549806337
 10
120.6008521037054
 20
-466.1498916977603
  0
LWPOLYLINE
  5
708
330
A
100
AcDbEntity
  8
0
  6
PHANTOM
 62
     7
100
AcDbPolyline
 90
        4
 70
   128
 43
0.0
 10
158.5343509728421
 20
-505.8232531824131
 10
158.9180100537636
 20
-506.0111357375352
 10
159.1703599429029
 20
-506.0105752093455
 10
159.1843968455466
 20
-505.77339288194
  0
LINE
  5
70E
330
A
100
AcDbEntity
  8
0
  6
PHANTOM
 62
     7
100
AcDbLine
 10
120.6953220542354
 20
-465.5385527711567
 30
0.0
 11
120.4597948855054
 21
-465.5446532285522
 31
0.0
  0
LWPOLYLINE
  5
70F
330
A
100
AcDbEntity
  8
0
  6
Continuous
 62
     7
100
AcDbPolyline
 90
      155
 70
   128
 43
0.0
 10
560.8161033090452
 20
56.3044973048699
 10
568.6484258726101
 20
56.76048490642052
 10
578.3965216201534
 20
57.30845144055987
 10
587.933557500698
 20
57.82878468398346
 10
599.4562856881369
 20
58.44000598884549
 10
610.4388343369894
 20
59.00826492132837
 10
620.7863925037133
 20
59.53296214048354
 10
630.4261793684494
 20
60.0140543039696
 10
640.3145154831576
 20
60.50146648500677
 10
649.1805378200949
 20
60.93408526452086
 10
656.9777076515937
 20
61.31168733533872
 10
663.6768656405656
 20
61.63456999538961
 10
669.4933354809672
 20
61.91401308998479
 10
674.1474657974078
 20
62.13712496878813
 10
678.698371051081
 20
62.35494973329275
 10
688.1920506322343
 20
62.80860500958526
 10
698.5069707202354
 20
63.30145986336375
 10
709.6202782800182
 20
63.83361360194498
 10
721.4739267017618
 20
64.40371282339241
 10
733.9998015143276
 20
65.01114449145603
 10
747.1355257018675
 20
65.65589126566445
 10
760.7998858549628
 20
66.3377161455028
 10
773.1186114372685
 20
66.96536651869864
 10
785.690516680349
 20
67.62145099890993
 10
798.0234151580849
 20
68.28443101084971
 10
809.47565420278
 20
68.92097127428012
 10
820.0479246332747
 20
69.53055279954594
 10
829.7598116519225
 20
70.11343925598414
 10
838.6319005558098
 20
70.66894527726924
 10
846.6965245720674
 20
71.19743697593735
 10
854.8145107369833
 20
71.75717190765505
 10
862.2097039677093
 20
72.29612456656572
 10
869.4934223805551
 20
72.85823664356616
 10
876.6626002838739
 20
73.45008518363998
 10
880.3535589368079
 20
73.77396517929679
 10
884.1882604963814
 20
74.12804968762637
 10
888.2852303866677
 20
74.52958323711882
 10
892.5181870048366
 20
74.9744923467902
 10
896.2767890411871
 20
75.40131605346477
 10
899.4364710803024
 20
75.78941563679136
 10
902.3970062121408
 20
76.18376072521079
 10
905.1071091072175
 20
76.57753624933412
 10
907.872785385649
 20
77.02073025648257
 10
910.6560369131539
 20
77.52198718763899
 10
913.4592687415107
 20
78.10278702653793
 10
916.2854678848603
 20
78.79368285658635
 10
917.5332547674511
 20
79.14216150525477
 10
918.8061897131843
 20
79.5306522120564
 10
920.141018427248
 20
79.97868907402372
 10
921.9363172314828
 20
80.65759878158516
 10
924.2291844430818
 20
81.67148279333
 10
926.8992764129412
 20
83.09534895974985
 10
929.5359268599247
 20
84.81127701736149
 10
931.4547348343285
 20
86.29861566739299
 10
933.0616941642409
 20
87.73439206675268
 10
934.6452446036101
 20
89.35704665223056
 10
935.9434705201662
 20
90.87647443809487
 10
937.014972710248
 20
92.29031875809875
 10
937.8967126505058
 20
93.58918314200025
 10
938.620249060054
 20
94.7688938052793
 10
939.7887424702437
 20
96.96347734160305
 10
940.5189087511864
 20
98.59061769548105
 10
941.0046342521681
 20
99.83389401783156
 10
941.8645029756351
 20
102.5540941452219
 10
942.6188862765039
 20
106.2537305724841
 10
942.7479059658233
 20
107.281464645023
 10
942.8504519139019
 20
108.4117771725229
 10
942.9256856772468
 20
110.005293345634
 10
942.9020158178191
 20
112.0970846519022
 10
942.566174240569
 20
115.4911778250214
 10
941.8199029186078
 20
118.9988882014676
 10
940.6046857613482
 20
122.5865583855651
 10
938.8190746687291
 20
126.2705537825145
 10
936.3996118591563
 20
129.9258330623772
 10
933.5405194664474
 20
133.1812937681598
 10
930.6310415299794
 20
135.7517147155446
 10
927.9729470606559
 20
137.6324227281652
 10
925.5705765691622
 20
139.0346270176122
 10
922.7220166582709
 20
140.4021900373301
 10
920.5053199322097
 20
141.2800042434104
 10
918.9902865053772
 20
141.7999795323311
 10
917.5488437402989
 20
142.243687843665
 10
916.0047204905186
 20
142.6718556556943
 10
914.3681744059422
 20
143.0804887063668
 10
912.561103268972
 20
143.4867014626749
 10
910.4540299194786
 20
143.9117430446742
 10
907.9718436308999
 20
144.3594367686108
 10
903.9361513948376
 20
144.9975586744604
 10
899.8649715926161
 20
145.5609053182997
 10
895.8747884391883
 20
146.0563796634474
 10
892.0660906884483
 20
146.4895597697076
 10
888.475703855804
 20
146.8701342812921
 10
885.1300691646484
 20
147.2050059430034
 10
882.8133101377328
 20
147.4272989762955
 10
880.6962502157649
 20
147.624326115094
 10
878.7996688851555
 20
147.7963078668604
 10
876.8363380137456
 20
147.9701847111389
 10
874.3544208296917
 20
148.1844479273794
 10
871.3735046939012
 20
148.4344313403986
 10
867.8148172957092
 20
148.7233937169469
 10
863.8976606644773
 20
149.0308172073691
 10
859.9064364099756
 20
149.3338503117116
 10
850.1437623599198
 20
150.0384575528607
 10
840.0788551106847
 20
150.7213758431623
 10
829.7883848789833
 20
151.38341166039
 10
820.496328287176
 20
151.9560089140074
 10
810.44331199408
 20
152.5533747340396
 10
799.6210981547456
 20
153.1751310857559
 10
788.0242676264131
 20
153.8218449160523
 10
779.8685321103407
 20
154.2664502361249
 10
771.3780417175111
 20
154.7218197743818
 10
762.5574800155756
 20
155.188285968223
 10
753.4485524063642
 20
155.6639430278257
 10
744.7141855712668
 20
156.1151769607957
 10
736.6426178020459
 20
156.5290304467031
 10
728.4228790689019
 20
156.9480433408209
 10
721.0966890981727
 20
157.3198650956393
 10
714.6814030529818
 20
157.6445348714942
 10
709.185232632264
 20
157.9224013616083
 10
704.3332850755592
 20
158.1676248165743
 10
698.8313291928411
 20
158.4457491473565
 10
691.312697891253
 20
158.8261553401463
 10
682.6926918717163
 20
159.263303631963
 10
672.9962764486774
 20
159.7576023998218
 10
662.2830259708848
 20
160.3079999028098
 10
649.6533465855218
 20
160.9645326982639
 10
636.9502474260049
 20
161.6365898373246
 10
624.2493320812362
 20
162.3232735837094
 10
611.6224062354294
 20
163.0250927400184
 10
601.6309379859875
 20
163.5970482398185
 10
591.7869198257148
 20
164.1781365694592
 10
582.1334780206991
 20
164.7687785502975
 10
572.7364985247556
 20
165.3673903573761
 10
564.1711936731046
 20
165.938265074899
 10
556.6766297794627
 20
166.4618256419995
 10
550.1769207339483
 20
166.9377561797182
 10
544.5899057835248
 20
167.3667123154243
 10
539.8382871196542
 20
167.7487065879004
 10
535.8499840857531
 20
168.0836115045192
 10
533.3462977798967
 20
168.3014874687438
 10
530.8953530044836
 20
168.5212883410909
 10
528.4925810646554
 20
168.7438427579496
 10
526.0275049154666
 20
168.9803300615885
 10
523.2194248013597
 20
169.2612062710099
 10
520.1269299239595
 20
169.5871573241549
 10
516.9128807797651
 20
169.9485974314668
 10
513.2660843457053
 20
170.3955820676449
 10
510.3001847884234
 20
170.7989813222289
 10
507.9863994063331
 20
171.1500371708057
 10
506.9353232281325
 20
171.3247169317021
 10
506.0916134023627
 20
171.4745852739045
 10
505.3804622146494
 20
171.6096422796527
 10
504.7688562424231
 20
171.7343361557672
 10
504.4080348312771
 20
171.8134477920523
 10
504.3747361298748
 20
171.8172470382288
  0
LWPOLYLINE
  5
7AC
330
A
100
AcDbEntity
  8
0
  6
Continuous
 62
     7
100
AcDbPolyline
 90
      102
 70
   128
 43
0.0
 10
894.8380503969179
 20
146.1742924842344
 10
895.446209673511
 20
146.3735830613219
 10
897.7291957530047
 20
147.2404208514545
 10
900.6657769059412
 20
148.5942138395878
 10
902.8824438063647
 20
149.8286216353167
 10
904.9660388979342
 20
151.1883419673885
 10
906.7371476002456
 20
152.5255075511369
 10
908.2372305172208
 20
153.8142161465644
 10
909.5043325133497
 20
155.0354280985249
 10
910.6350649349096
 20
156.246578835387
 10
912.6196751874338
 20
158.7195041698983
 10
914.7127911645995
 20
162.0134672008783
 10
916.5653373287835
 20
165.9891158389006
 10
917.9916980114713
 20
170.8144575503609
 10
918.6397244148681
 20
175.9107688166917
 10
918.4862957907007
 20
180.7514967034493
 10
917.5225628972114
 20
185.7774864481876
 10
915.8284712704356
 20
190.4371557988028
 10
913.7477749932937
 20
194.2853865801304
 10
911.4774584578595
 20
197.432500314019
 10
908.7385938734213
 20
200.3864905653027
 10
905.5754260343887
 20
203.0447413288622
 10
902.363295656189
 20
205.1545043339256
 10
899.4154218126936
 20
206.6916780292818
 10
896.9179138406516
 20
207.7553618688819
 10
894.4698310087295
 20
208.6266631026652
 10
892.0736814226184
 20
209.3469634525127
 10
889.8615706435018
 20
209.9202225635374
 10
888.002329326947
 20
210.3480371500876
 10
886.4857330992535
 20
210.6671344386772
 10
884.4057006342593
 20
211.0691523889085
 10
881.7761907004761
 20
211.5297946213372
 10
878.7419134608221
 20
212.0098594793408
 10
875.856673032187
 20
212.4268196449396
 10
873.684317439357
 20
212.7202812148008
 10
871.6382068027606
 20
212.9831396638462
 10
869.2767808143283
 20
213.2723858249032
 10
866.484384148786
 20
213.5975376710911
 10
863.2143249212671
 20
213.9586739373088
 10
859.5976056800845
 20
214.3373744975076
 10
856.0785566425076
 20
214.6880724954967
 10
852.7683337969438
 20
215.0039640720974
 10
849.6861477191984
 20
215.2870672504779
 10
842.6913227941847
 20
215.897564191078
 10
835.5619079855905
 20
216.4841850989589
 10
828.3225333328079
 20
217.0509164995169
 10
820.4619460159864
 20
217.637650542933
 10
811.5756755317466
 20
218.270611131461
 10
801.6147774733161
 20
218.9496164306653
 10
790.5406576767521
 20
219.6749307182447
 10
778.3356141392437
 20
220.4455815427442
 10
769.5661184814956
 20
220.9848567347048
 10
760.3159025987698
 20
221.5428379845168
 10
751.2163283922656
 20
222.0830151216578
 10
742.619657728446
 20
222.587075922566
 10
734.5670384668754
 20
223.0546515107904
 10
727.0862992758909
 20
223.4860404149618
 10
718.8922496437759
 20
223.9564020039821
 10
711.5787116980527
 20
224.374877404521
 10
705.1099714876457
 20
224.7443887372021
 10
699.1510969815005
 20
225.0848637100022
 10
693.6455667383428
 20
225.3998420771647
 10
689.1707965324837
 20
225.6562837735106
 10
683.8508979785829
 20
225.9618310496049
 10
677.6054029830906
 20
226.3217475273511
 10
670.4539546737398
 20
226.7363045258869
 10
662.428679000677
 20
227.2053761187224
 10
653.5772821746782
 20
227.728400516869
 10
645.3777089688538
 20
228.2196257465474
 10
636.661065403657
 20
228.7507178928699
 10
627.8849149815684
 20
229.2962217463184
 10
619.616177426314
 20
229.8222568325394
 10
611.8532172178314
 20
230.3289848257932
 10
604.5928171762561
 20
230.8159210430884
 10
597.8245608414736
 20
231.2832665865738
 10
589.1473617008362
 20
231.9052855978487
 10
581.3680010616951
 20
232.4889010740595
 10
574.4353609365451
 20
233.0347656869542
 10
568.3007165581222
 20
233.5425602432839
 10
563.1308548382518
 20
233.9921808953558
 10
561.0635084585894
 20
234.178536698175
 10
559.2014586516787
 20
234.3500342868704
 10
557.535391024357
 20
234.506634279739
 10
556.0565574620555
 20
234.6483085075082
 10
554.5388421160439
 20
234.796504068465
 10
552.5621860759246
 20
234.9940911775251
 10
550.309159304786
 20
235.2262421377478
 10
547.7303303987247
 20
235.5022244552595
 10
544.9937311659641
 20
235.8092577460734
 10
542.5586407333467
 20
236.0970359049411
 10
540.4447518845649
 20
236.3601346226366
 10
537.6768695063689
 20
236.7276538934227
 10
535.5511082696251
 20
237.032535467886
 10
533.8539705486771
 20
237.2947499917788
 10
532.4173282762388
 20
237.5339433835164
 10
531.6408543578092
 20
237.6717427174883
 10
530.9537725516606
 20
237.8000392169202
 10
530.3031632706479
 20
237.928279660695
 10
529.7051823627998
 20
238.0536337083594
 10
529.2143562345845
 20
238.1646397693464
 10
529.0317777476587
 20
238.2067954072038
 10
529.0407376100104
 20
238.2035866153067
  0
LWPOLYLINE
  5
814
330
A
100
AcDbEntity
  8
0
  6
Continuous
 62
     7
100
AcDbPolyline
 90
      150
 70
   128
 43
0.0
 10
795.9219577541348
 20
265.263243822083
 10
787.1968645401157
 20
264.5919764509738
 10
778.33741258303
 20
263.9404110814016
 10
769.6424747023265
 20
263.3247872216498
 10
759.124340861309
 20
262.6048532763744
 10
749.1289320024918
 20
261.9413466750868
 10
739.762375763928
 20
261.3337710474074
 10
731.1147059851508
 20
260.7826658721216
 10
723.2556670792071
 20
260.2885948663576
 10
716.2317322408149
 20
259.8510635648645
 10
710.0816239022358
 20
259.4705164967496
 10
704.8306405171075
 20
259.147183211594
 10
698.9136868414122
 20
258.7841927474964
 10
694.0408061440717
 20
258.4858377523563
 10
690.22345142889
 20
258.2523368738754
 10
687.5831525105864
 20
258.0909033334631
 10
684.2643869908305
 20
257.8880191744519
 10
680.0657305294532
 20
257.631317597875
 10
674.9911338434417
 20
257.3208461708303
 10
669.0460025574654
 20
256.9562139686835
 10
662.2436987319952
 20
256.5373161608091
 10
654.8280314861336
 20
256.0780177055205
 10
641.8269514946379
 20
255.2633356424459
 10
628.9274150630708
 20
254.4379446462631
 10
616.2193276076045
 20
253.6021585458927
 10
603.7897807362432
 20
252.7552880479351
 10
594.1110879992054
 20
252.0698394396489
 10
584.7188652289528
 20
251.3768408232491
 10
575.8861303964506
 20
250.6941310223087
 10
568.0530794792448
 20
250.0567402620774
 10
561.1749825142103
 20
249.4665876031955
 10
555.1823106714547
 20
248.9232625812331
 10
550.0035499045726
 20
248.4268347313865
 10
545.5690745262016
 20
247.9777778049086
 10
541.566319779155
 20
247.5492191401324
 10
537.6159847086008
 20
247.0998752113657
 10
534.8945517568248
 20
246.7721349996528
 10
532.1306607369506
 20
246.4211903224221
 10
529.1402466812033
 20
246.0168323868625
 10
525.974620289241
 20
245.554229663383
 10
523.4111158165573
 20
245.1473765278442
 10
521.006023707338
 20
244.7328785921536
 10
518.9882348589229
 20
244.3547285261324
 10
517.3050857938102
 20
244.0131395659827
 10
516.0104354511479
 20
243.7311186235388
 10
514.5810020862476
 20
243.3969782694971
 10
512.9042498674712
 20
242.9694617286748
 10
510.7698115362039
 20
242.3576834582219
 10
507.9131155026981
 20
241.3889872360743
 10
505.3178161302544
 20
240.3242572301671
 10
503.0726047172221
 20
239.2287006517
 10
501.1418862022932
 20
238.1306384078705
 10
499.477093859503
 20
237.047792149129
 10
498.0131855189914
 20
235.9754129445255
 10
496.6043288726702
 20
234.8219153737833
 10
494.5871034044341
 20
232.9232723575326
 10
492.7230751260439
 20
230.8435443768883
 10
491.0479130222356
 20
228.6148841199636
 10
489.4834842397065
 20
226.0906629894326
 10
487.9477361021349
 20
222.9379598581256
 10
486.6749374303059
 20
219.3126789009081
 10
485.7884626534989
 20
215.1504991823574
 10
485.4678395196036
 20
210.4017796413141
 10
485.6651193954091
 20
207.1116457624392
 10
486.3024075696146
 20
203.4264251201463
 10
487.4816484546506
 20
199.5390179843837
 10
489.2627220930536
 20
195.6179823606795
 10
491.4375108714747
 20
192.1353428602585
 10
493.7011422109728
 20
189.3257350045782
 10
497.0931263887081
 20
186.0695832342219
 10
500.2348662983213
 20
183.7501192358699
 10
502.0733517008094
 20
182.6262295184181
 10
503.6015027601696
 20
181.8017456554905
 10
504.8057743050544
 20
181.2146476099838
 10
506.3184109231295
 20
180.5470837903588
 10
507.92956477364
 20
179.9120500147309
 10
509.6550815467126
 20
179.3076543444077
 10
511.515585462326
 20
178.7311223637912
 10
513.5488421210175
 20
178.175434678795
 10
515.700687268186
 20
177.6557190075353
 10
517.1716430983359
 20
177.3333399332695
 10
518.3741137844333
 20
177.0865174100189
 10
519.2872140504015
 20
176.9079651729426
 10
520.1889122754213
 20
176.7384118130918
 10
521.2140847711257
 20
176.5530599813886
 10
522.3741759389239
 20
176.3519355019648
 10
524.8216187349203
 20
175.9536684901011
 10
527.8207172160425
 20
175.5055136231356
 10
531.4568994978478
 20
175.0081926399641
 10
535.3903441027724
 20
174.5141072164868
 10
539.3425139532983
 20
174.0539676033229
 10
543.2617741944528
 20
173.6267976752212
 10
548.4714115446093
 20
173.0949738262336
 10
553.4295944548065
 20
172.6199846208745
 10
558.1636620104976
 20
172.1899829146227
 10
563.4437201670404
 20
171.7327951855689
 10
569.4717526025181
 20
171.234829079236
 10
576.3040333526246
 20
170.6965038767941
 10
583.9973818938148
 20
170.1178696106344
 10
592.606310180152
 20
169.4984239690978
 10
602.1734897577458
 20
168.8389141146228
 10
612.4556629149602
 20
168.157216640346
 10
625.2823554544102
 20
167.3384422753677
 10
637.9125822260296
 20
166.558882447296
 10
650.2259890003857
 20
165.8185584109205
 10
662.1261569948235
 20
165.1169774827734
 10
668.7094683928184
 20
164.7332939181477
 10
675.0964716098828
 20
164.3635534421444
 10
680.8242270718681
 20
164.0336486894505
 10
685.6977458019986
 20
163.7537810608272
 10
689.7064158767685
 20
163.5240360372228
 10
692.8440845775869
 20
163.3444412796204
 10
695.4930164766071
 20
163.1929480713882
 10
699.4165905536002
 20
162.9687204280357
 10
704.3303843290945
 20
162.6880731251534
 10
710.2311698694595
 20
162.3508629224121
 10
717.109800521979
 20
161.9570147173574
 10
724.8405262623553
 20
161.5129162137795
 10
732.687239688186
 20
161.0599460765394
 10
744.3999199632274
 20
160.3771562243333
 10
755.9959205050208
 20
159.6907472477775
 10
767.4224986777673
 20
159.000793107804
 10
778.6306121227125
 20
158.3067738701412
 10
789.5625203819312
 20
157.6093192527461
 10
800.1703866349984
 20
156.9075376612929
 10
810.3338972091448
 20
156.2064967242167
 10
819.7671244043879
 20
155.5230042106897
 10
824.8101064318783
 20
155.1417638999177
 10
829.5974263128416
 20
154.7677506650211
 10
834.1310547892291
 20
154.4007833007767
 10
838.4111413254883
 20
154.0412639544952
 10
842.4378875361959
 20
153.6897339772548
 10
846.2309904274366
 20
153.3449940166094
 10
850.1996395447655
 20
152.9674282907695
 10
853.5054280264294
 20
152.6372267859907
 10
856.8488432854527
 20
152.2858694111517
 10
859.7461933624703
 20
151.9643814602741
 10
862.167051985256
 20
151.6809645941824
 10
864.1605816116566
 20
151.4352972958303
 10
865.8329110903506
 20
151.2190590991009
 10
867.5459647175948
 20
150.9861230119424
 10
869.2889478548835
 20
150.7346353127247
 10
871.0156373191406
 20
150.4670216877359
 10
872.3818153015105
 20
150.237735738664
 10
873.4124660873064
 20
150.050805492253
 10
874.1535770714399
 20
149.9062271589099
 10
874.6600038717225
 20
149.8007810177847
 10
875.0127568429899
 20
149.723906134148
 10
875.1957919739695
 20
149.6890938460257
 10
875.1845804720993
 20
149.6932146110574
  0
LWPOLYLINE
  5
8AC
330
A
100
AcDbEntity
  8
0
  6
Continuous
 62
     7
100
AcDbPolyline
 90
      111
 70
   128
 43
0.0
 10
508.8706716539395
 20
179.5824091021412
 10
506.9923691799894
 20
179.3567542120204
 10
503.6551843587663
 20
178.9220793809567
 10
501.0420286064506
 20
178.552833148266
 10
498.4777099598344
 20
178.159882327584
 10
496.259208670921
 20
177.7896837476275
 10
494.4255390362944
 20
177.4575117322753
 10
492.7075724164222
 20
177.120006798512
 10
491.130876299768
 20
176.7831696342271
 10
489.5455263305273
 20
176.4131823224031
 10
487.8134233632224
 20
175.9657182362168
 10
485.6694758762382
 20
175.3349078121483
 10
483.2193808416187
 20
174.486801254379
 10
480.6925457594125
 20
173.4387335706897
 10
478.4886405504888
 20
172.3489219582335
 10
476.5663552605986
 20
171.2383712683265
 10
475.2102921773175
 20
170.3513774113835
 10
473.4737838686569
 20
169.0720177019527
 10
471.3889225224415
 20
167.2854938468443
 10
469.14310463547
 20
164.9751514015674
 10
466.9422042288945
 20
162.1749716948412
 10
464.927398748266
 20
158.8903939303889
 10
463.2109049415937
 20
155.0879248300009
 10
462.0028098262668
 20
151.0656827247039
 10
461.3840482760913
 20
147.369492672834
 10
461.2055007835034
 20
144.0954956496877
 10
461.354129439445
 20
140.9554512045835
 10
461.8703602894083
 20
137.5689778088908
 10
463.2242755534567
 20
132.9049280728058
 10
464.9228015635479
 20
129.147658489736
 10
466.8495692878549
 20
125.9877491698965
 10
468.730150506324
 20
123.5329198572423
 10
470.3008385133285
 20
121.8059083277501
 10
471.9060977439102
 20
120.2726011648114
 10
473.7121364578062
 20
118.7733218245542
 10
475.7333525596382
 20
117.3283616466714
 10
477.5144542439832
 20
116.2260942357099
 10
479.4427922825163
 20
115.1871050894189
 10
481.4710093462295
 20
114.2456434729925
 10
483.5981981405295
 20
113.40073545082
 10
485.8484915405011
 20
112.6398937371577
 10
488.0543674737217
 20
112.0024755222096
 10
489.8134307038015
 20
111.5566793363752
 10
491.2137690329033
 20
111.2345158978824
 10
492.7355100383802
 20
110.9117999079172
 10
494.4346295875837
 20
110.5798313552827
 10
496.8567340601778
 20
110.1489251008133
 10
499.399349802582
 20
109.7392368274865
 10
501.8230050897502
 20
109.3807769582805
 10
504.0774149556752
 20
109.0702008213874
 10
506.1786133397045
 20
108.7973217211063
 10
508.544692493625
 20
108.5063122032453
 10
511.3531366475254
 20
108.1799646299198
 10
514.6568118007524
 20
107.8182227447359
 10
518.4102200278353
 20
107.4312878429228
 10
522.1415932957045
 20
107.0678506610292
 10
525.6269626723084
 20
106.7448057046896
 10
528.8506339818074
 20
106.4585708499285
 10
532.0723402222371
 20
106.182833122019
 10
535.3443805631203
 20
105.9118535467011
 10
538.6638968311812
 20
105.6451075320727
 10
542.028252878102
 20
105.3821844034149
 10
548.8426674591947
 20
104.8696199186998
 10
556.0273560648185
 20
104.3546191840543
 10
564.0230363270522
 20
103.8081567725706
 10
572.8796764660893
 20
103.2300271474144
 10
582.6366197514216
 20
102.61976569764
 10
593.3205594613095
 20
101.9776968135165
 10
604.9497613453003
 20
101.3042557472466
 10
617.5355680333032
 20
100.5990302493987
 10
628.0602613812227
 20
100.0249001941062
 10
638.2010155879688
 20
99.48234768842846
 10
647.8416197487537
 20
98.97458526376246
 10
656.9318875461239
 20
98.50186995816487
 10
665.4371438589038
 20
98.06363401378726
 10
675.1998380563861
 20
97.56440554869731
 10
683.9554617620153
 20
97.11941164042437
 10
692.2762934496298
 20
96.69805166696248
 10
701.0284361744833
 20
96.25554077807544
 10
710.2032399951491
 20
95.79178629107046
 10
719.7800862667843
 20
95.30703394489668
 10
729.8682636219621
 20
94.79416330750362
 10
740.7090842938366
 20
94.23926283363343
 10
752.25614352549
 20
93.64230709728602
 10
764.4447400359709
 20
93.00273395888014
 10
777.1810478032534
 20
92.32136600833257
 10
790.3581801876764
 20
91.59786729029612
 10
801.1032387647574
 20
90.9904063627582
 10
811.191615996949
 20
90.40240170148758
 10
820.2803558477366
 20
89.85456991458461
 10
828.4098783801111
 20
89.34739508096091
 10
835.6304770575215
 20
88.88062768993734
 10
843.4616907025162
 20
88.35350035235787
 10
850.0611567537307
 20
87.88935919033987
 10
855.8225960071631
 20
87.46629587512213
 10
861.6057904303445
 20
87.02132179571357
 10
867.3959693929456
 20
86.55129942090921
 10
873.1796460249771
 20
86.05151585756253
 10
878.9194100337496
 20
85.51663478649301
 10
884.455059386275
 20
84.95170961395107
 10
887.3745025923465
 20
84.62789329357802
 10
890.0739838759262
 20
84.30720098273885
 10
892.540848720896
 20
83.99111874057952
 10
894.7620694454206
 20
83.68144684419156
 10
896.6006098900237
 20
83.40027018169182
 10
897.9411321088937
 20
83.17490351736083
 10
898.8619209874535
 20
83.00559343690352
 10
899.3074011461656
 20
82.91776275744945
 10
899.6424932887324
 20
82.84908924786078
 10
899.8386744976903
 20
82.81068058578785
 10
899.8374038965053
 20
82.81894614900721
  0
LWPOLYLINE
  5
91D
330
A
100
AcDbEntity
  8
0
  6
Continuous
 62
     7
100
AcDbPolyline
 90
        9
 70
   128
 43
0.0
 10
514.5484754608951
 20
107.8300852281813
 10
513.3273654249257
 20
105.446816611045
 10
512.1691028767862
 20
102.6352752504564
 10
511.2102741489672
 20
99.66788823941264
 10
510.4592375508255
 20
96.57187360893344
 10
509.92238143698
 20
93.37524616723738
 10
509.6042114942949
 20
90.10678194601275
 10
509.5073489973639
 20
86.79579838223805
 10
509.5350457303732
 20
85.33465810760096
  0
LWPOLYLINE
  5
928
330
A
100
AcDbEntity
  8
0
  6
Continuous
 62
     7
100
AcDbPolyline
 90
       15
 70
   128
 43
0.0
 10
509.5350457303732
 20
85.33465810760096
 10
509.624997546942
 20
83.57956056571291
 10
509.9638385810331
 20
80.27237242469935
 10
510.5207560815097
 20
77.0097673274292
 10
511.2908976678136
 20
73.82182232885561
 10
512.2676904635087
 20
70.73706616562612
 10
513.4428349617983
 20
67.78317274926097
 10
514.8063666176507
 20
64.98675689558716
 10
516.3467140088632
 20
62.37318760113453
 10
518.0507415670789
 20
59.96641763811745
 10
519.9036067523771
 20
57.78898687366504
 10
521.8889138331012
 20
55.86153479538356
 10
523.9886252004559
 20
54.20263849558633
 10
526.1830503560012
 20
52.8284627917788
 10
527.2971934337464
 20
52.29978601673642
  0
LINE
  5
939
330
A
100
AcDbEntity
  8
0
  6
Continuous
 62
     7
100
AcDbLine
 10
536.4502146957116
 20
50.42951470914952
 30
0.0
 11
549.3803649793838
 21
51.27727429045608
 31
0.0
  0
ARC
  5
93A
330
A
100
AcDbEntity
  8
0
  6
Continuous
 62
     7
100
AcDbCircle
 10
532.7236882287793
 20
85.26033342441976
 30
0.0
 40
15.00000000000002
100
AcDbArc
 50
93.75120346273398
 51
273.7512034627357
  0
LWPOLYLINE
  5
93B
330
A
100
AcDbEntity
  8
0
  6
Continuous
 62
     7
100
AcDbPolyline
 90
       20
 70
   128
 43
0.0
 10
557.8750545021075
 20
54.09549760743076
 10
559.5664470957384
 20
55.2356094386948
 10
561.5304486218816
 20
56.91550938084667
 10
563.3646237610361
 20
58.86165932440432
 10
565.0517869043929
 20
61.05662621998521
 10
566.5761217313297
 20
63.48023686036249
 10
567.9235280460102
 20
66.11000083716925
 10
569.0817905941496
 20
68.92154219775794
 10
570.0406193219688
 20
71.88892920880165
 10
570.7916559201104
 20
74.98494383928083
 10
571.3285120339559
 20
78.18157128097697
 10
571.646681976641
 20
81.45003550220156
 10
571.743544473572
 20
84.76101906597628
 10
571.7158477405627
 20
86.22215934061324
 10
571.6258959239938
 20
87.9772568825013
 10
571.2870548899027
 20
91.28444502351484
 10
570.730137389426
 20
94.54705012078512
 10
569.9599958031223
 20
97.73499511935858
 10
568.9832030074271
 20
100.819751282588
 10
567.8948758142931
 20
103.555417011636
  0
LINE
  5
951
330
A
100
AcDbEntity
  8
0
  6
Continuous
 62
     7
100
AcDbLine
 10
532.4606685817427
 20
100.2752944179243
 30
0.0
 11
531.7423268993167
 21
100.2281966634073
 31
0.0
  0
LINE
  5
952
330
A
100
AcDbEntity
  8
0
  6
Continuous
 62
     7
100
AcDbLine
 10
533.7050495582421
 20
70.2924701854322
 30
0.0
 11
534.4233912406683
 21
70.33956793994923
 31
0.0
  0
LWPOLYLINE
  5
953
330
A
100
AcDbEntity
  8
0
  6
Continuous
 62
     7
100
AcDbPolyline
 90
       25
 70
   128
 43
0.0
 10
868.3994791802378
 20
213.2599996124852
 10
868.815774206179
 20
213.5223971787707
 10
870.6698147636087
 20
215.0451363907485
 10
872.3872569218453
 20
216.8330751911343
 10
873.9488638857723
 20
218.8672091032054
 10
875.3369769234573
 20
221.125227169523
 10
876.5360235039468
 20
223.5819883474337
 10
877.5327980092251
 20
226.2100795476017
 10
878.3165647321443
 20
228.9803213156165
 10
878.8790485543355
 20
231.8620635259078
 10
879.2144830679307
 20
234.823834429743
 10
879.3195126333843
 20
237.8334925959205
 10
879.1931666948384
 20
240.8584914254277
 10
878.8368402170215
 20
243.8661818153984
 10
878.2542713100731
 20
246.8240820545684
 10
877.4514984442268
 20
249.7002207831275
 10
876.4367756158996
 20
252.4634971096911
 10
875.2204999757186
 20
255.0839119696117
 10
873.8151356015608
 20
257.5328262410072
 10
872.2351588558746
 20
259.7831900403069
 10
870.497180028202
 20
261.8096218158968
 10
868.6197774780488
 20
263.5889707483564
 10
866.6235818031593
 20
265.1005550936869
 10
864.5312404573303
 20
266.3266356109058
 10
863.9873907582309
 20
266.5594411494099
  0
LINE
  5
96E
330
A
100
AcDbEntity
  8
0
  6
Continuous
 62
     7
100
AcDbLine
 10
855.6136985471715
 20
268.1471163589977
 30
0.0
 11
836.6371124498583
 21
266.5441633690773
 31
0.0
  0
LWPOLYLINE
  5
96F
330
A
100
AcDbEntity
  8
0
  6
Continuous
 62
     7
100
AcDbPolyline
 90
        4
 70
   128
 43
0.0
 10
850.1589948127259
 20
267.6863573154362
 10
848.7437678511739
 20
268.7537125866723
 10
846.4594743917201
 20
270.1198638266748
 10
845.443416262937
 20
270.5803321475158
  0
LINE
  5
975
330
A
100
AcDbEntity
  8
0
  6
Continuous
 62
     7
100
AcDbLine
 10
835.4420330425195
 20
272.4645824790325
 30
0.0
 11
807.1496683156158
 21
270.0747252940601
 31
0.0
  0
LWPOLYLINE
  5
976
330
A
100
AcDbEntity
  8
0
  6
Continuous
 62
     7
100
AcDbPolyline
 90
       19
 70
   128
 43
0.0
 10
797.3624296818544
 20
266.3898550726149
 10
797.0092701741036
 20
266.1604212755622
 10
794.9778603320795
 20
264.484237801918
 10
793.0823385992744
 20
262.542298077389
 10
791.3402673868935
 20
260.3518428633487
 10
789.7678796498564
 20
257.9327845727468
 10
788.3797326275749
 20
255.3073750904434
 10
787.1884994020073
 20
252.4998218693504
 10
786.2048719702288
 20
249.5359275671862
 10
785.4375393728473
 20
246.442825055895
 10
784.8931593662351
 20
243.248653100289
 10
784.5763622300892
 20
239.9822241732163
 10
784.4897898319926
 20
236.6728981343218
 10
784.6340988095106
 20
233.3503504896189
 10
785.0079707672474
 20
230.0443365276022
 10
785.6081271202112
 20
226.7844787097821
 10
786.4293580943251
 20
223.600008191722
 10
787.4645840029103
 20
220.5194785469933
 10
787.7455747143382
 20
219.8514178387461
  0
LWPOLYLINE
  5
98B
330
A
100
AcDbEntity
  8
0
  6
Continuous
 62
     7
100
AcDbPolyline
 90
        9
 70
   128
 43
0.0
 10
544.7426982071489
 20
53.16540351154544
 10
543.709532269951
 20
52.56471829570362
 10
541.3945140115782
 20
51.50588837146834
 10
539.005263662638
 20
50.79439130392811
 10
536.5662981648836
 20
50.43752801580528
 10
534.1026446047695
 20
50.43896040734916
 10
531.6395834016778
 20
50.79867378028417
 10
529.2023888966071
 20
51.51297698863404
 10
527.5259281524141
 20
52.21982073062918
  0
LWPOLYLINE
  5
996
330
A
100
AcDbEntity
  8
0
  6
Continuous
 62
     7
100
AcDbPolyline
 90
        6
 70
   128
 43
0.0
 10
549.3803649793838
 20
51.27727429045608
 10
549.4964484485564
 20
51.28528759711187
 10
551.9354139463108
 20
51.64215088523478
 10
554.3246642952508
 20
52.35364795277507
 10
556.6396825536239
 20
53.41247787701043
 10
557.6569378784927
 20
54.00327445133693
  0
LWPOLYLINE
  5
99E
330
A
100
AcDbEntity
  8
0
  6
Continuous
 62
     7
100
AcDbPolyline
 90
       23
 70
   128
 43
0.0
 10
532.4606685817427
 20
100.2752944179243
 10
532.5393307835557
 20
100.2800212803226
 10
534.1368886608292
 20
100.1912304126758
 10
535.7181596379466
 20
99.75357590591345
 10
537.2460800634273
 20
98.97731601073523
 10
538.6848367775034
 20
97.88064560115676
 10
540.0007065422303
 20
96.48926970208382
 10
541.1628464856026
 20
94.83580098531517
 10
542.1440170323316
 20
92.95899535615678
 10
542.9212203764039
 20
90.90284354784939
 10
543.4762395301611
 20
88.71554001606632
 10
543.7960653150518
 20
86.44835330172005
 10
543.8732012857497
 20
84.15442433981645
 10
543.7058394404791
 20
81.88752088097858
 10
543.297902599044
 20
79.70077722094329
 10
542.6589524552563
 20
77.64544877770382
 10
541.8039654589372
 20
75.76971070795412
 10
540.7529817806273
 20
74.11752872224723
 10
539.5306355869736
 20
72.72762856600363
 10
538.1655776367429
 20
71.6325883208609
 10
536.6898037313188
 20
70.85807480205215
 10
535.1379047602367
 20
70.422241950011
 10
534.4233912406683
 20
70.33956793994923
  0
LWPOLYLINE
  5
9B7
330
A
100
AcDbEntity
  8
0
  6
Continuous
 62
     7
100
AcDbPolyline
 90
        9
 70
   128
 43
0.0
 10
847.7304969922089
 20
265.2098975608152
 10
849.5998490063797
 20
266.3560943540978
 10
851.7644945537409
 20
267.3102259774437
 10
854.0054939085031
 20
267.9237447867967
 10
856.2956443742379
 20
268.1892034949058
 10
858.6071466266112
 20
268.1033797926545
 10
860.9119421595233
 20
267.6673154635281
 10
863.1820538773631
 20
266.8863037377741
 10
863.7673462456396
 20
266.6258749892161
  0
LWPOLYLINE
  5
9C2
330
A
100
AcDbEntity
  8
0
  6
Continuous
 62
     7
100
AcDbPolyline
 90
       15
 70
   128
 43
0.0
 10
818.1224840766565
 20
237.6283214754359
 10
818.1196377623434
 20
240.8132487890648
 10
818.3711981914916
 20
243.9597430201312
 10
818.8741117612638
 20
247.0296099910239
 10
819.622273782188
 20
249.9855856752684
 10
820.6066025808175
 20
252.7917885323287
 10
821.8151497389438
 20
255.4141550609033
 10
823.2332451312085
 20
257.820853283687
 10
824.8436750005527
 20
259.9826691444551
 10
826.6268909099085
 20
261.8733611271312
 10
828.5612470337449
 20
263.4699787922449
 10
830.6232629090663
 20
264.7531413641774
 10
832.7879084564273
 20
265.7072729875233
 10
835.0289078111897
 20
266.3207917968763
 10
836.6371124498583
 20
266.5441633690773
  0
LWPOLYLINE
  5
9D3
330
A
100
AcDbEntity
  8
0
  6
Continuous
 62
     7
100
AcDbPolyline
 90
        9
 70
   128
 43
0.0
 10
825.0053408600988
 20
217.2817836740313
 10
824.881688916602
 20
217.4464113032304
 10
823.2671786706045
 20
219.8503958507059
 10
821.8445909944856
 20
222.4704079532573
 10
820.6311941755451
 20
225.2746442131223
 10
819.6417172074543
 20
228.2290650008251
 10
818.8881710002245
 20
231.2978076501675
 10
818.3797025840311
 20
234.4436217824156
 10
818.1224840766565
 20
237.6283214754359
  0
LWPOLYLINE
  5
9DE
330
A
100
AcDbEntity
  8
0
  6
Continuous
 62
     7
100
AcDbPolyline
 90
        9
 70
   128
 43
0.0
 10
826.1020225241852
 20
269.0405790571532
 10
828.2664464666227
 20
270.3464369417367
 10
830.6676488149216
 20
271.4081940273727
 10
833.1480723432953
 20
272.12291820122
 10
835.6822645497938
 20
272.4832754260786
 10
838.2442211930678
 20
272.4855679491802
 10
840.8076531310767
 20
272.1297722461355
 10
843.3462560832584
 20
271.4195392623263
 10
845.227026924142
 20
270.6544427077673
  0
LWPOLYLINE
  5
9E9
330
A
100
AcDbEntity
  8
0
  6
Continuous
 62
     7
100
AcDbPolyline
 90
        6
 70
   128
 43
0.0
 10
807.1496683156158
 20
270.0747252940601
 10
804.8557076163914
 20
269.7330610162477
 10
802.3752840880176
 20
269.0183368424004
 10
799.9740817397188
 20
267.9565797567644
 10
797.6767401569344
 20
266.5586848238252
 10
797.5711330690074
 20
266.4845250803615
  0
LWPOLYLINE
  5
9F1
330
A
100
AcDbEntity
  8
0
  6
PHANTOM
 62
     7
100
AcDbPolyline
 90
       19
 70
   128
 43
0.0
 10
553.818750257285
 20
104.5853516561035
 10
554.8546292443959
 20
102.3088835479524
 10
556.0465248967087
 20
99.12867158054305
 10
557.0138389994346
 20
95.8071182701814
 10
557.7466456008941
 20
92.3783072486116
 10
558.2374251137111
 20
88.87742275683761
 10
558.481141475953
 20
85.34038860719867
 10
558.475293827942
 20
81.80349955644201
 10
558.2199421744602
 20
78.30304887240403
 10
557.7177067690183
 20
74.87495591596952
 10
556.973741226509
 20
71.5543975598225
 10
555.9956796401447
 20
68.3754472261304
 10
554.7935582453304
 20
65.37072524712403
 10
553.3797124343071
 20
62.57106413634648
 10
551.7686501783349
 20
60.00519220534115
 10
549.9769031562757
 20
57.69943877229959
 10
548.0228571171968
 20
55.67746398762778
 10
545.9265632177062
 20
53.96001604878548
 10
544.7426982071489
 20
53.16540351154544
  0
LWPOLYLINE
  5
A06
330
A
100
AcDbEntity
  8
0
  6
PHANTOM
 62
     7
100
AcDbPolyline
 90
       38
 70
   128
 43
0.0
 10
509.8161391683794
 20
85.32116749587016
 10
510.0587829484977
 20
81.82906054264162
 10
510.5492949634902
 20
78.37382518347491
 10
511.2824756639729
 20
74.99208777273898
 10
512.2505531521268
 20
71.71969556826519
 10
513.4432655657481
 20
68.59133674149671
 10
514.8479698565402
 20
65.64017267424159
 10
516.4497758095716
 20
62.89748643977636
 10
518.2317038832571
 20
60.39235119448658
 10
520.1748651967243
 20
58.15132199517689
 10
522.2586617566484
 20
56.19815430886266
 10
524.4610048011065
 20
54.55355219890995
 10
526.7585489459486
 20
53.23494885681329
 10
529.1269396516776
 20
52.25632180602892
 10
531.541071387626
 20
51.628044736749
 10
533.9753537568275
 20
51.35677754220494
 10
536.40398276059
 20
51.44539572214224
 10
538.8012143273014
 20
51.89295990180798
 10
541.1416372059936
 20
52.69472578955674
 10
543.4004423319233
 20
53.84219446752246
 10
545.5536858088312
 20
55.32320248226197
 10
547.5785427201976
 20
57.12205078038746
 10
549.4535490790366
 20
59.21967112243782
 10
551.158829351498
 20
61.59382821096059
 10
552.6763071424694
 20
64.21935539019639
 10
553.9898968098624
 20
67.0684214188908
 10
555.08567397642
 20
70.11082548837514
 10
555.9520231315791
 20
73.31431735865153
 10
556.579760758773
 20
76.64493921895972
 10
556.9622326829901
 20
80.06738564901892
 10
557.0953846066863
 20
83.54537786526568
 10
556.9778050863456
 20
87.04204828498481
 10
556.6107404941345
 20
90.52033133185769
 10
555.9980818060453
 20
93.94335634029216
 10
555.1463233565831
 20
97.27483839365007
 10
554.0644939972049
 20
100.4794629533902
 10
552.7640613882478
 20
103.5232602019625
 10
552.1595012776749
 20
104.7389917971683
  0
LWPOLYLINE
  5
A2E
330
A
100
AcDbEntity
  8
0
  6
PHANTOM
 62
     7
100
AcDbPolyline
 90
        9
 70
   128
 43
0.0
 10
515.0231182658138
 20
107.8776074942966
 10
514.9419621484494
 20
107.7380114906193
 10
513.5245490569118
 20
104.9970806587392
 10
512.3182662173177
 20
102.0474346441629
 10
511.3359005278548
 20
98.92034042843086
 10
510.5878653092155
 20
95.64894598815946
 10
510.0820899208065
 20
92.2679289182432
 10
509.8239357075673
 20
88.81312884072155
 10
509.8161391683794
 20
85.32116749587016
  0
LWPOLYLINE
  5
A39
330
A
100
AcDbEntity
  8
0
  6
PHANTOM
 62
     7
100
AcDbPolyline
 90
        7
 70
   128
 43
0.0
 10
571.4112917596252
 20
86.18814818850545
 10
571.1675753973834
 20
89.7251823381444
 10
570.6767958845664
 20
93.22606682991837
 10
569.9439892831066
 20
96.65487785148819
 10
568.9766751803809
 20
99.97643116184983
 10
567.7847795280682
 20
103.1566431292592
 10
567.5682054780617
 20
103.6635337801379
  0
LWPOLYLINE
  5
A42
330
A
100
AcDbEntity
  8
0
  6
PHANTOM
 62
     7
100
AcDbPolyline
 90
       13
 70
   128
 43
0.0
 10
557.6569378784927
 20
54.00327445133693
 10
558.8567135013788
 20
54.80777563009236
 10
560.9530074008695
 20
56.5252235689347
 10
562.9070534399484
 20
58.54719835360658
 10
564.6988004620077
 20
60.85295178664818
 10
566.3098627179797
 20
63.41882371765358
 10
567.723708529003
 20
66.21848482843116
 10
568.9258299238172
 20
69.22320680743758
 10
569.9038915101814
 20
72.40215714112972
 10
570.6478570526906
 20
75.72271549727677
 10
571.1500924581327
 20
79.15080845371128
 10
571.4054441116144
 20
82.65125913774928
 10
571.4112917596252
 20
86.18814818850545
  0
LWPOLYLINE
  5
A51
330
A
100
AcDbEntity
  8
0
  6
PHANTOM
 62
     7
100
AcDbPolyline
 90
       23
 70
   128
 43
0.0
 10
531.7423268993167
 20
100.2281966634073
 10
531.8209891011295
 20
100.2329235258056
 10
533.418546978403
 20
100.1441326581588
 10
534.9998179555204
 20
99.70647815139642
 10
536.5277383810011
 20
98.93021825621817
 10
537.9664950950771
 20
97.8335478466397
 10
539.282364859804
 20
96.44217194756677
 10
540.4445048031764
 20
94.78870323079814
 10
541.4256753499055
 20
92.91189760163973
 10
542.2028786939777
 20
90.85574579333238
 10
542.7578978477348
 20
88.66844226154929
 10
543.0777236326255
 20
86.40125554720302
 10
543.1548596033234
 20
84.10732658529942
 10
542.9874977580529
 20
81.84042312646155
 10
542.5795609166177
 20
79.65367946642627
 10
541.94061077283
 20
77.59835102318681
 10
541.085623776511
 20
75.72261295343711
 10
540.0346400982011
 20
74.07043096773022
 10
538.8122939045474
 20
72.68053081148662
 10
537.4472359543166
 20
71.58549056634391
 10
535.9714620488927
 20
70.81097704753514
 10
534.4195630778106
 20
70.37514419549399
 10
533.7050495582421
 20
70.2924701854322
  0
LWPOLYLINE
  5
A6A
330
A
100
AcDbEntity
  8
0
  6
PHANTOM
 62
     7
100
AcDbPolyline
 90
       12
 70
   128
 43
0.0
 10
837.09907017397
 20
239.2312744653564
 10
837.0962238596568
 20
242.4162017789853
 10
837.347784288805
 20
245.5626960100516
 10
837.8506978585772
 20
248.6325629809444
 10
838.5988598795016
 20
251.5885386651889
 10
839.583188678131
 20
254.3947415222492
 10
840.7917358362571
 20
257.0171080508237
 10
842.2098312285219
 20
259.4238062736074
 10
843.8202610978661
 20
261.5856221343755
 10
845.603477007222
 20
263.4763141170516
 10
847.5378331310583
 20
265.0729317821653
 10
847.7304969922089
 20
265.2098975608152
  0
LWPOLYLINE
  5
A78
330
A
100
AcDbEntity
  8
0
  6
PHANTOM
 62
     7
100
AcDbPolyline
 90
       10
 70
   128
 43
0.0
 10
847.1127667895547
 20
215.4230958897882
 10
845.6451098624789
 20
216.8905884166341
 10
843.8582750139154
 20
219.0493642931509
 10
842.2437647679178
 20
221.4533488406263
 10
840.821177091799
 20
224.0733609431778
 10
839.6077802728587
 20
226.8775972030427
 10
838.6183033047677
 20
229.8320179907456
 10
837.8647570975379
 20
232.900760640088
 10
837.3562886813445
 20
236.046574772336
 10
837.09907017397
 20
239.2312744653564
  0
LWPOLYLINE
  5
A84
330
A
100
AcDbEntity
  8
0
  6
PHANTOM
 62
     7
100
AcDbPolyline
 90
       11
 70
   128
 43
0.0
 10
838.5117335998931
 20
239.2902102763909
 10
838.7667353519745
 20
236.1606497699855
 10
839.2729715329595
 20
233.0706729851405
 10
840.0240759291476
 20
230.0591381727718
 10
841.0106029669552
 20
227.163917130478
 10
842.220146496486
 20
224.4214189427124
 10
843.6374958060625
 20
221.8661321154206
 10
845.2448269057516
 20
219.5301908630677
 10
847.0219266743795
 20
217.4429710022469
 10
848.9464470512583
 20
215.630720533741
 10
849.5254854682157
 20
215.1624706072246
  0
LWPOLYLINE
  5
A91
330
A
100
AcDbEntity
  8
0
  6
PHANTOM
 62
     7
100
AcDbPolyline
 90
       41
 70
   128
 43
0.0
 10
867.3370660375899
 20
213.3723351417116
 10
868.5516916118819
 20
214.13194059234
 10
870.4756155508071
 20
215.6499855420985
 10
872.2520163522149
 20
217.4655477166478
 10
873.8585547453361
 20
219.5557953682292
 10
875.2750275777415
 20
221.8944424198341
 10
876.4836218817071
 20
224.452079027874
 10
877.4691388826179
 20
227.1965414280273
 10
878.2191851323769
 20
230.0933164132382
 10
878.7243283642068
 20
233.1059753573193
 10
878.9782161088757
 20
236.1966323260636
 10
878.9776555806861
 20
239.3264205148482
 10
878.7226538286047
 20
242.4559810212536
 10
878.2164176476195
 20
245.5459578060985
 10
877.4653132514314
 20
248.5574926184672
 10
876.4787862136238
 20
251.452713660761
 10
875.2692426840928
 20
254.1952118485267
 10
873.8518933745163
 20
256.7504986758184
 10
872.2445622748272
 20
259.0864399281713
 10
870.4674625061995
 20
261.1736597889921
 10
868.5429421293207
 20
262.9859102574979
 10
866.4952031045629
 20
264.5004012325551
 10
864.3499969382885
 20
265.6980871114242
 10
862.1343008427157
 20
266.5639062992648
 10
859.8759784818232
 20
267.0869706174299
 10
857.6034295696087
 20
267.2607022286295
 10
855.3452327272063
 20
267.0829163570514
 10
853.1297860901462
 20
266.5558487631844
 10
850.9849501853212
 20
265.6861276278333
 10
848.9376975686971
 20
264.4846901988988
 10
847.0137736297717
 20
262.9666452491402
 10
845.2373728283639
 20
261.1510830745909
 10
843.6308344352427
 20
259.0608354230095
 10
842.2143616028373
 20
256.7221883714046
 10
841.0057672988717
 20
254.1645517633647
 10
840.020250297961
 20
251.4200893632114
 10
839.2702040482021
 20
248.5233143780006
 10
838.7650608163724
 20
245.5106554339194
 10
838.5111730717031
 20
242.4199984651751
 10
838.5117335998931
 20
239.2902102763909
 10
838.5117335998931
 20
239.2902102763909
  0
LWPOLYLINE
  5
ABC
330
A
100
AcDbEntity
  8
0
  6
PHANTOM
 62
     7
100
AcDbPolyline
 90
       13
 70
   128
 43
0.0
 10
813.0967919024485
 20
237.5661526073963
 10
813.0822280431747
 20
241.101138811085
 10
813.3273355779703
 20
244.6000835015025
 10
813.829599371845
 20
248.0270827712964
 10
814.5838655186022
 20
251.3469709704878
 10
815.5823942268906
 20
254.5256815536262
 10
816.8149392409382
 20
257.5305966486462
 10
818.2688529810009
 20
260.330881760373
 10
819.9292163246463
 20
262.8978021741689
 10
821.7789916971376
 20
265.2050178129903
 10
823.7991979000074
 20
267.2288535222211
 10
825.9691048838382
 20
268.9485420087974
 10
826.1020225241852
 20
269.0405790571532
  0
LWPOLYLINE
  5
ACB
330
A
100
AcDbEntity
  8
0
  6
PHANTOM
 62
     7
100
AcDbPolyline
 90
        7
 70
   128
 43
0.0
 10
818.4033360952145
 20
217.6862300114153
 10
816.9670396126514
 20
220.6123110849073
 10
815.7090268764555
 20
223.7890024405133
 10
814.683731023673
 20
227.1072982290737
 10
813.9016729772002
 20
230.5331482454263
 10
813.3708777108877
 20
234.0313986324874
 10
813.0967919024485
 20
237.5661526073963
  0
LWPOLYLINE
  5
AD4
330
A
100
AcDbEntity
  8
0
  6
PHANTOM
 62
     7
100
AcDbPolyline
 90
        8
 70
   128
 43
0.0
 10
814.5094553283716
 20
237.6250884184308
 10
814.7821635208785
 20
234.1352357354564
 10
815.3124141628291
 20
230.6826094033131
 10
816.0945864655078
 20
227.3038081200345
 10
817.1203892079244
 20
224.0346480197702
 10
818.3789486258199
 20
220.909783012855
 10
819.8569236762715
 20
217.9623374457372
 10
820.0476991038438
 20
217.6231359312668
  0
LWPOLYLINE
  5
ADE
330
A
100
AcDbEntity
  8
0
  6
PHANTOM
 62
     7
100
AcDbPolyline
 90
       21
 70
   128
 43
0.0
 10
849.3953163311591
 20
267.6218493634217
 10
847.0500060855123
 20
269.0968140734697
 10
844.6140236875841
 20
270.2428013291865
 10
842.1193586000361
 20
271.0432657579321
 10
839.5924548933962
 20
271.4897222376296
 10
837.060098375575
 20
271.577438218529
 10
834.549132655637
 20
271.3054838894115
 10
832.0861745948695
 20
270.6767420338199
 10
829.6973321614281
 20
269.6978774718364
 10
827.4079276793818
 20
268.3792664113307
 10
825.2422294057774
 20
266.7348864575763
 10
823.2231942810773
 20
264.7821684471566
 10
821.3722245798811
 20
262.5418116767615
 10
819.7089410414879
 20
260.0375644854923
 10
818.2509748851813
 20
257.2959725165604
 10
817.0137809149178
 20
254.3460973268643
 10
816.0104736945598
 20
251.219208327258
 10
815.251688530237
 20
247.9484513190156
 10
814.7454687334542
 20
244.5684971400938
 10
814.4971803599906
 20
241.1151741456229
 10
814.5094553283716
 20
237.6250884184308
  0
LWPOLYLINE
  5
AF5
330
A
100
AcDbEntity
  8
0
  6
PHANTOM
 62
     7
100
AcDbPolyline
 90
       17
 70
   128
 43
0.0
 10
797.5711330690074
 20
266.4845250803615
 10
795.5068331731037
 20
264.8389963372488
 10
793.4866269702339
 20
262.815160628018
 10
791.6368515977425
 20
260.5079449891966
 10
789.9764882540972
 20
257.9410245754006
 10
788.5225745140346
 20
255.1407394636739
 10
787.2900294999868
 20
252.1358243686538
 10
786.2915007916983
 20
248.9571137855153
 10
785.5372346449414
 20
245.637225586324
 10
785.0349708510666
 20
242.21022631653
 10
784.789863316271
 20
238.7112816261125
 10
784.8044271755449
 20
235.1762954224239
 10
785.0785129839841
 20
231.6415414475145
 10
785.6093082502966
 20
228.1432910604533
 10
786.3913662967694
 20
224.7174410441008
 10
787.416662149552
 20
221.3991452555404
 10
788.002745185121
 20
219.8279048940141
  0
ENDSEC
  0
SECTION
  2
OBJECTS
  0
DICTIONARY
  5
19
330
0
100
AcDbDictionary
281
     1
  3
ACAD_COLOR
350
B0C
  3
ACAD_GROUP
350
1A
  3
ACAD_LAYOUT
350
B0D
  3
ACAD_MATERIAL
350
B0B
  3
ACAD_MLINESTYLE
350
1B
  3
ACAD_PLOTSETTINGS
350
B0E
  3
ACAD_PLOTSTYLENAME
350
B09
  3
ACDBHEADERROUNDTRIPXREC
350
B26
  3
AcDbVariableDictionary
350
B1F
  3
ASE_INDEX_DICTIONARY
350
B14
  0
DICTIONARY
  5
B0C
102
{ACAD_REACTORS
330
19
102
}
330
19
100
AcDbDictionary
281
     1
  0
DICTIONARY
  5
1A
102
{ACAD_REACTORS
330
19
102
}
330
19
100
AcDbDictionary
281
     1
  0
DICTIONARY
  5
B0D
102
{ACAD_REACTORS
330
19
102
}
330
19
100
AcDbDictionary
281
     1
  3
Layout1
350
B10
  3
Model
350
B0F
  0
DICTIONARY
  5
B0B
102
{ACAD_REACTORS
330
19
102
}
330
19
100
AcDbDictionary
281
     1
  0
DICTIONARY
  5
1B
102
{ACAD_REACTORS
330
19
102
}
330
19
100
AcDbDictionary
281
     1
  3
STANDARD
350
1C
  0
DICTIONARY
  5
B0E
102
{ACAD_REACTORS
330
19
102
}
330
19
100
AcDbDictionary
281
     1
  0
ACDBDICTIONARYWDFLT
  5
B09
102
{ACAD_REACTORS
330
19
102
}
330
19
100
AcDbDictionary
281
     1
  3
Normal
350
B0A
100
AcDbDictionaryWithDefault
340
B0A
  0
DICTIONARY
  5
B26
102
{ACAD_REACTORS
330
19
102
}
330
19
100
AcDbDictionary
281
     1
  3
COLORDICT
350
B28
  3
MATERIALDICT
350
B27
  0
DICTIONARY
  5
B1F
102
{ACAD_REACTORS
330
19
102
}
330
19
100
AcDbDictionary
281
     1
  3
DIMASSOC
350
B20
  3
PROJECTNAME
350
B21
  0
DICTIONARY
  5
B14
102
{ACAD_REACTORS
330
19
102
}
330
19
100
AcDbDictionary
281
     1
  3
ASEBlockHierarchyIndexRecord
350
B16
1001
DCO15
1040
1522041732.14
  0
LAYOUT
  5
B10
102
{ACAD_XDICTIONARY
360
B2B
102
}
102
{ACAD_REACTORS
330
B0D
102
}
330
B0D
100
AcDbPlotSettings
  1

  2
ProgeSOFT PDF Wizard
  4

  6

 40
0.0
 41
0.0
 42
0.0
 43
0.0
 44
0.0
 45
0.0
 46
0.0
 47
0.0
 48
0.0
 49
0.0
140
0.0
141
0.0
142
1.0
143
1.0
 70
   688
 72
     0
 73
     0
 74
     5
  7

 75
    16
147
1.0
148
0.0
149
0.0
100
AcDbLayout
  1
Layout1
 70
     1
 71
     1
 10
0.0
 20
0.0
 11
12.0
 21
9.0
 12
0.0
 22
0.0
 32
0.0
 14
1.000000000000000E+20
 24
1.000000000000000E+20
 34
1.000000000000000E+20
 15
-1.000000000000000E+20
 25
-1.000000000000000E+20
 35
-1.000000000000000E+20
146
0.0
 13
0.0
 23
0.0
 33
0.0
 16
1.0
 26
0.0
 36
0.0
 17
0.0
 27
1.0
 37
0.0
 76
     0
330
B
  0
LAYOUT
  5
B0F
102
{ACAD_XDICTIONARY
360
B29
102
}
102
{ACAD_REACTORS
330
B0D
102
}
330
B0D
100
AcDbPlotSettings
  1

  2
ProgeSOFT PDF Wizard
  4

  6

 40
0.0
 41
0.0
 42
0.0
 43
0.0
 44
0.0
 45
0.0
 46
0.0
 47
0.0
 48
0.0
 49
0.0
140
0.0
141
0.0
142
1.0
143
1.0
 70
  1712
 72
     0
 73
     0
 74
     0
  7

 75
     0
147
1.0
148
0.0
149
0.0
100
AcDbLayout
  1
Model
 70
     1
 71
     0
 10
0.0
 20
0.0
 11
12.0
 21
9.0
 12
0.0
 22
0.0
 32
0.0
 14
0.0
 24
0.0
 34
0.0
 15
0.0
 25
0.0
 35
0.0
146
0.0
 13
0.0
 23
0.0
 33
0.0
 16
1.0
 26
0.0
 36
0.0
 17
0.0
 27
1.0
 37
0.0
 76
     0
330
A
  0
MLINESTYLE
  5
1C
102
{ACAD_REACTORS
330
1B
102
}
330
1B
100
AcDbMlineStyle
  2
STANDARD
 70
     0
  3

 62
     0
 51
90.0
 52
90.0
 71
     2
 49
0.5
 62
   256
  6
BYLAYER
 49
-0.5
 62
   256
  6
BYLAYER
  0
ACDBPLACEHOLDER
  5
B0A
102
{ACAD_REACTORS
330
B09
102
}
330
B09
  0
XRECORD
  5
B28
102
{ACAD_REACTORS
330
B26
102
}
330
B26
100
AcDbXrecord
280
     1
340
B0C
  0
XRECORD
  5
B27
102
{ACAD_REACTORS
330
B26
102
}
330
B26
100
AcDbXrecord
280
     1
340
B0B
  0
DICTIONARYVAR
  5
B20
102
{ACAD_REACTORS
330
B1F
102
}
330
B1F
100
DictionaryVariables
280
     0
  1
1
  0
DICTIONARYVAR
  5
B21
102
{ACAD_REACTORS
330
B1F
102
}
330
B1F
100
DictionaryVariables
280
     0
  1

  0
XRECORD
  5
B16
102
{ACAD_REACTORS
330
B14
102
}
330
B14
100
AcDbXrecord
280
     1
  0
DICTIONARY
  5
B2B
330
B10
100
AcDbDictionary
280
     1
281
     1
  3
ACAD_XREC_ROUNDTRIP
360
B2C
  0
DICTIONARY
  5
B29
330
B0F
100
AcDbDictionary
280
     1
281
     1
  3
ACAD_XREC_ROUNDTRIP
360
B2A
  0
XRECORD
  5
B2C
102
{ACAD_REACTORS
330
B2B
102
}
330
B2B
100
AcDbXrecord
280
     1
102
SHADEPLOT
 70
     0
102
SHADEPLOTRESLEVEL
 70
     2
102
SHADEPLOTCUSTOMDPI
 70
   300
  0
XRECORD
  5
B2A
102
{ACAD_REACTORS
330
B29
102
}
330
B29
100
AcDbXrecord
280
     1
102
SHADEPLOT
 70
     0
102
SHADEPLOTRESLEVEL
 70
     2
102
SHADEPLOTCUSTOMDPI
 70
   300
  0
ENDSEC
  0
EOF
