  0
SECTION
  2
HEADER
  9
$ACADVER
  1
AC1018
  9
$ACADMAINTVER
 70
     0
  9
$DWGCODEPAGE
  3
ANSI_1252
  9
$INSBASE
 10
0.0
 20
0.0
 30
0.0
  9
$EXTMIN
 10
0.0000001372243463
 20
9.142623369811957
 30
0.0
  9
$EXTMAX
 10
529.1057654180842
 20
365.4449381332542
 30
0.0
  9
$LIMMIN
 10
0.0
 20
0.0
  9
$LIMMAX
 10
12.0
 20
9.0
  9
$ORTHOMODE
 70
     0
  9
$REGENMODE
 70
     1
  9
$FILLMODE
 70
     1
  9
$QTEXTMODE
 70
     0
  9
$MIRRTEXT
 70
     1
  9
$LTSCALE
 40
1.0
  9
$ATTMODE
 70
     1
  9
$TEXTSIZE
 40
0.2
  9
$TRACEWID
 40
0.05
  9
$TEXTSTYLE
  7
Standard
  9
$CLAYER
  8
Predefinito
  9
$CELTYPE
  6
ByLayer
  9
$CECOLOR
 62
   256
  9
$CELTSCALE
 40
1.0
  9
$DISPSILH
 70
     0
  9
$DIMSCALE
 40
1.0
  9
$DIMASZ
 40
0.18
  9
$DIMEXO
 40
0.0625
  9
$DIMDLI
 40
0.38
  9
$DIMRND
 40
0.0
  9
$DIMDLE
 40
0.0
  9
$DIMEXE
 40
0.18
  9
$DIMTP
 40
0.0
  9
$DIMTM
 40
0.0
  9
$DIMTXT
 40
0.18
  9
$DIMCEN
 40
0.09
  9
$DIMTSZ
 40
0.0
  9
$DIMTOL
 70
     0
  9
$DIMLIM
 70
     0
  9
$DIMTIH
 70
     1
  9
$DIMTOH
 70
     1
  9
$DIMSE1
 70
     0
  9
$DIMSE2
 70
     0
  9
$DIMTAD
 70
     0
  9
$DIMZIN
 70
     0
  9
$DIMBLK
  1

  9
$DIMASO
 70
     1
  9
$DIMSHO
 70
     1
  9
$DIMPOST
  1

  9
$DIMAPOST
  1

  9
$DIMALT
 70
     0
  9
$DIMALTD
 70
     2
  9
$DIMALTF
 40
25.4
  9
$DIMLFAC
 40
1.0
  9
$DIMTOFL
 70
     0
  9
$DIMTVP
 40
0.0
  9
$DIMTIX
 70
     0
  9
$DIMSOXD
 70
     0
  9
$DIMSAH
 70
     0
  9
$DIMBLK1
  1

  9
$DIMBLK2
  1

  9
$DIMSTYLE
  2
Standard
  9
$DIMCLRD
 70
     0
  9
$DIMCLRE
 70
     0
  9
$DIMCLRT
 70
     0
  9
$DIMTFAC
 40
1.0
  9
$DIMGAP
 40
0.09
  9
$DIMJUST
 70
     0
  9
$DIMSD1
 70
     0
  9
$DIMSD2
 70
     0
  9
$DIMTOLJ
 70
     1
  9
$DIMTZIN
 70
     0
  9
$DIMALTZ
 70
     0
  9
$DIMALTTZ
 70
     0
  9
$DIMUPT
 70
     0
  9
$DIMDEC
 70
     4
  9
$DIMTDEC
 70
     4
  9
$DIMALTU
 70
     2
  9
$DIMALTTD
 70
     2
  9
$DIMTXSTY
  7
Standard
  9
$DIMAUNIT
 70
     0
  9
$DIMADEC
 70
     0
  9
$DIMALTRND
 40
0.0
  9
$DIMAZIN
 70
     0
  9
$DIMDSEP
 70
    46
  9
$DIMATFIT
 70
     3
  9
$DIMFRAC
 70
     0
  9
$DIMLDRBLK
  1

  9
$DIMLUNIT
 70
     2
  9
$DIMLWD
 70
    -2
  9
$DIMLWE
 70
    -2
  9
$DIMTMOVE
 70
     2
  9
$LUNITS
 70
     2
  9
$LUPREC
 70
     3
  9
$SKETCHINC
 40
0.1
  9
$FILLETRAD
 40
0.5
  9
$AUNITS
 70
     0
  9
$AUPREC
 70
     0
  9
$MENU
  1
.
  9
$ELEVATION
 40
0.0
  9
$PELEVATION
 40
0.0
  9
$THICKNESS
 40
0.0
  9
$LIMCHECK
 70
     0
  9
$CHAMFERA
 40
0.5
  9
$CHAMFERB
 40
0.5
  9
$CHAMFERC
 40
1.0
  9
$CHAMFERD
 40
0.0
  9
$SKPOLY
 70
     0
  9
$TDCREATE
 40
2455958.490630868
  9
$TDUCREATE
 40
2455958.448964201
  9
$TDUPDATE
 40
2455958.49063088
  9
$TDUUPDATE
 40
2455958.448964213
  9
$TDINDWG
 40
0.0000000116
  9
$TDUSRTIMER
 40
0.0000000116
  9
$USRTIMER
 70
     1
  9
$ANGBASE
 50
0.0
  9
$ANGDIR
 70
     0
  9
$PDMODE
 70
     0
  9
$PDSIZE
 40
0.0
  9
$PLINEWID
 40
0.0
  9
$SPLFRAME
 70
     0
  9
$SPLINETYPE
 70
     6
  9
$SPLINESEGS
 70
     8
  9
$HANDSEED
  5
325
  9
$SURFTAB1
 70
     6
  9
$SURFTAB2
 70
     6
  9
$SURFTYPE
 70
     6
  9
$SURFU
 70
     6
  9
$SURFV
 70
     6
  9
$UCSBASE
  2

  9
$UCSNAME
  2

  9
$UCSORG
 10
0.0
 20
0.0
 30
0.0
  9
$UCSXDIR
 10
1.0
 20
0.0
 30
0.0
  9
$UCSYDIR
 10
0.0
 20
1.0
 30
0.0
  9
$UCSORTHOREF
  2

  9
$UCSORTHOVIEW
 70
     0
  9
$UCSORGTOP
 10
0.0
 20
0.0
 30
0.0
  9
$UCSORGBOTTOM
 10
0.0
 20
0.0
 30
0.0
  9
$UCSORGLEFT
 10
0.0
 20
0.0
 30
0.0
  9
$UCSORGRIGHT
 10
0.0
 20
0.0
 30
0.0
  9
$UCSORGFRONT
 10
0.0
 20
0.0
 30
0.0
  9
$UCSORGBACK
 10
0.0
 20
0.0
 30
0.0
  9
$PUCSBASE
  2

  9
$PUCSNAME
  2

  9
$PUCSORG
 10
0.0
 20
0.0
 30
0.0
  9
$PUCSXDIR
 10
1.0
 20
0.0
 30
0.0
  9
$PUCSYDIR
 10
0.0
 20
1.0
 30
0.0
  9
$PUCSORTHOREF
  2

  9
$PUCSORTHOVIEW
 70
     0
  9
$PUCSORGTOP
 10
0.0
 20
0.0
 30
0.0
  9
$PUCSORGBOTTOM
 10
0.0
 20
0.0
 30
0.0
  9
$PUCSORGLEFT
 10
0.0
 20
0.0
 30
0.0
  9
$PUCSORGRIGHT
 10
0.0
 20
0.0
 30
0.0
  9
$PUCSORGFRONT
 10
0.0
 20
0.0
 30
0.0
  9
$PUCSORGBACK
 10
0.0
 20
0.0
 30
0.0
  9
$USERI1
 70
     0
  9
$USERI2
 70
     0
  9
$USERI3
 70
     0
  9
$USERI4
 70
     0
  9
$USERI5
 70
     0
  9
$USERR1
 40
0.0
  9
$USERR2
 40
0.0
  9
$USERR3
 40
0.0
  9
$USERR4
 40
0.0
  9
$USERR5
 40
0.0
  9
$WORLDVIEW
 70
     1
  9
$SHADEDGE
 70
     3
  9
$SHADEDIF
 70
    70
  9
$TILEMODE
 70
     1
  9
$MAXACTVP
 70
    64
  9
$PINSBASE
 10
0.0
 20
0.0
 30
0.0
  9
$PLIMCHECK
 70
     0
  9
$PEXTMIN
 10
1.000000000000000E+20
 20
1.000000000000000E+20
 30
1.000000000000000E+20
  9
$PEXTMAX
 10
-1.000000000000000E+20
 20
-1.000000000000000E+20
 30
-1.000000000000000E+20
  9
$PLIMMIN
 10
0.0
 20
0.0
  9
$PLIMMAX
 10
12.0
 20
9.0
  9
$UNITMODE
 70
     0
  9
$VISRETAIN
 70
     1
  9
$PLINEGEN
 70
     0
  9
$PSLTSCALE
 70
     1
  9
$TREEDEPTH
 70
  3020
  9
$CMLSTYLE
  2
Standard
  9
$CMLJUST
 70
     0
  9
$CMLSCALE
 40
1.0
  9
$PROXYGRAPHICS
 70
     1
  9
$MEASUREMENT
 70
     0
  9
$CELWEIGHT
370
    -1
  9
$ENDCAPS
280
     0
  9
$JOINSTYLE
280
     0
  9
$LWDISPLAY
290
     0
  9
$INSUNITS
 70
     4
  9
$HYPERLINKBASE
  1

  9
$STYLESHEET
  1

  9
$XEDIT
290
     1
  9
$CEPSNTYPE
380
     0
  9
$PSTYLEMODE
290
     1
  9
$FINGERPRINTGUID
  2
{68BE0B59-7A5C-4351-A23C-71B9D3C092F1}
  9
$VERSIONGUID
  2
{FAEB1C32-E019-11D5-929B-00C0DF256EC4}
  9
$EXTNAMES
290
     1
  9
$PSVPSCALE
 40
0.0
  9
$OLESTARTUP
290
     0
  9
$SORTENTS
280
   127
  9
$INDEXCTL
280
     0
  9
$HIDETEXT
280
     1
  9
$XCLIPFRAME
290
     0
  9
$HALOGAP
280
     0
  9
$OBSCOLOR
 70
   257
  9
$OBSLTYPE
280
     0
  9
$INTERSECTIONDISPLAY
280
     0
  9
$INTERSECTIONCOLOR
 70
   257
  9
$DIMASSOC
280
     2
  9
$PROJECTNAME
  1

  0
ENDSEC
  0
SECTION
  2
CLASSES
  0
CLASS
  1
ACDBDICTIONARYWDFLT
  2
AcDbDictionaryWithDefault
  3
ObjectDBX Classes
 90
        0
 91
        4
280
     0
281
     0
  0
CLASS
  1
VISUALSTYLE
  2
AcDbVisualStyle
  3
ObjectDBX Classes
 90
     4095
 91
        4
280
     0
281
     0
  0
ENDSEC
  0
SECTION
  2
TABLES
  0
TABLE
  2
VPORT
  5
8
330
0
100
AcDbSymbolTable
 70
     1
  0
VPORT
  5
29
330
8
100
AcDbSymbolTableRecord
100
AcDbViewportTableRecord
  2
*Active
 70
     0
 10
0.0
 20
0.0
 11
1.0
 21
1.0
 12
264.5528827776542
 22
187.2937807515331
 13
0.0
 23
0.0
 14
0.5
 24
0.5
 15
0.5
 25
0.5
 16
0.0
 26
0.0
 36
1.0
 17
0.0
 27
0.0
 37
0.0
 40
363.4283610587111
 41
1.484991097046748
 42
50.0
 43
0.0
 44
0.0
 50
0.0
 51
0.0
 71
     0
 72
   100
 73
     1
 74
     3
 75
     0
 76
     0
 77
     0
 78
     0
281
     0
 65
     1
110
0.0
120
0.0
130
0.0
111
1.0
121
0.0
131
0.0
112
0.0
122
1.0
132
0.0
 79
     0
146
0.0
  0
ENDTAB
  0
TABLE
  2
LTYPE
  5
5
330
0
100
AcDbSymbolTable
 70
     1
  0
LTYPE
  5
14
330
5
100
AcDbSymbolTableRecord
100
AcDbLinetypeTableRecord
  2
ByBlock
 70
     0
  3

 72
    65
 73
     0
 40
0.0
  0
LTYPE
  5
15
330
5
100
AcDbSymbolTableRecord
100
AcDbLinetypeTableRecord
  2
ByLayer
 70
     0
  3

 72
    65
 73
     0
 40
0.0
  0
LTYPE
  5
16
330
5
100
AcDbSymbolTableRecord
100
AcDbLinetypeTableRecord
  2
Continuous
 70
     0
  3
Solid line
 72
    65
 73
     0
 40
0.0
  0
ENDTAB
  0
TABLE
  2
LAYER
  5
2
330
0
100
AcDbSymbolTable
 70
     3
  0
LAYER
  5
10
330
2
100
AcDbSymbolTableRecord
100
AcDbLayerTableRecord
  2
0
 70
     0
 62
     7
  6
Continuous
370
    -3
390
F
  0
LAYER
  5
3B
330
2
100
AcDbSymbolTableRecord
100
AcDbLayerTableRecord
  2
Linee visibili 2D
 70
     0
 62
     7
  6
Continuous
370
    -3
390
F
  0
LAYER
  5
42
330
2
100
AcDbSymbolTableRecord
100
AcDbLayerTableRecord
  2
Predefinito
 70
     0
 62
     7
  6
Continuous
370
    -3
390
F
  0
ENDTAB
  0
TABLE
  2
STYLE
  5
3
330
0
100
AcDbSymbolTable
 70
     1
  0
STYLE
  5
11
330
3
100
AcDbSymbolTableRecord
100
AcDbTextStyleTableRecord
  2
Standard
 70
     0
 40
0.0
 41
1.0
 50
0.0
 71
     0
 42
0.2
  3
txt
  4

  0
ENDTAB
  0
TABLE
  2
VIEW
  5
6
330
0
100
AcDbSymbolTable
 70
     0
  0
ENDTAB
  0
TABLE
  2
UCS
  5
7
330
0
100
AcDbSymbolTable
 70
     0
  0
ENDTAB
  0
TABLE
  2
APPID
  5
9
330
0
100
AcDbSymbolTable
 70
     1
  0
APPID
  5
12
330
9
100
AcDbSymbolTableRecord
100
AcDbRegAppTableRecord
  2
ACAD
 70
     0
  0
ENDTAB
  0
TABLE
  2
DIMSTYLE
  5
A
330
0
100
AcDbSymbolTable
 70
     1
100
AcDbDimStyleTable
  0
DIMSTYLE
105
27
330
A
100
AcDbSymbolTableRecord
100
AcDbDimStyleTableRecord
  2
Standard
 70
     0
340
11
  0
ENDTAB
  0
TABLE
  2
BLOCK_RECORD
  5
1
330
0
100
AcDbSymbolTable
 70
     1
  0
BLOCK_RECORD
  5
1F
330
1
100
AcDbSymbolTableRecord
100
AcDbBlockTableRecord
  2
*Model_Space
340
22
  0
BLOCK_RECORD
  5
1B
330
1
100
AcDbSymbolTableRecord
100
AcDbBlockTableRecord
  2
*Paper_Space
340
1E
  0
BLOCK_RECORD
  5
23
330
1
100
AcDbSymbolTableRecord
100
AcDbBlockTableRecord
  2
*Paper_Space0
340
26
  0
ENDTAB
  0
ENDSEC
  0
SECTION
  2
BLOCKS
  0
BLOCK
  5
20
330
1F
100
AcDbEntity
  8
0
100
AcDbBlockBegin
  2
*Model_Space
 70
     0
 10
0.0
 20
0.0
 30
0.0
  3
*Model_Space
  1

  0
ENDBLK
  5
21
330
1F
100
AcDbEntity
  8
0
100
AcDbBlockEnd
  0
BLOCK
  5
1C
330
1B
100
AcDbEntity
 67
     1
  8
0
100
AcDbBlockBegin
  2
*Paper_Space
 70
     0
 10
0.0
 20
0.0
 30
0.0
  3
*Paper_Space
  1

  0
ENDBLK
  5
1D
330
1B
100
AcDbEntity
 67
     1
  8
0
100
AcDbBlockEnd
  0
BLOCK
  5
24
330
23
100
AcDbEntity
  8
0
100
AcDbBlockBegin
  2
*Paper_Space0
 70
     0
 10
0.0
 20
0.0
 30
0.0
  3
*Paper_Space0
  1

  0
ENDBLK
  5
25
330
23
100
AcDbEntity
  8
0
100
AcDbBlockEnd
  0
ENDSEC
  0
SECTION
  2
ENTITIES
  0
POLYLINE
  5
3C
330
1F
100
AcDbEntity
  8
Linee visibili 2D
 62
   255
100
AcDb2dPolyline
 66
     1
 10
0.0
 20
0.0
 30
0.0
  0
VERTEX
  5
3D
330
3C
100
AcDbEntity
  8
Linee visibili 2D
 62
   255
100
AcDbVertex
100
AcDb2dVertex
 10
0.7419708861946316
 20
298.7797248745994
 30
0.0
  0
VERTEX
  5
3E
330
3C
100
AcDbEntity
  8
Linee visibili 2D
 62
   255
100
AcDbVertex
100
AcDb2dVertex
 10
0.5538891495101286
 20
298.724655114353
 30
0.0
  0
VERTEX
  5
3F
330
3C
100
AcDbEntity
  8
Linee visibili 2D
 62
   255
100
AcDbVertex
100
AcDb2dVertex
 10
0.5230917797613073
 20
298.7004753844101
 30
0.0
  0
VERTEX
  5
40
330
3C
100
AcDbEntity
  8
Linee visibili 2D
 62
   255
100
AcDbVertex
100
AcDb2dVertex
 10
0.3933079542074301
 20
298.4370947655856
 30
0.0
  0
SEQEND
  5
41
330
3C
100
AcDbEntity
  8
Linee visibili 2D
 62
   255
  0
POLYLINE
  5
43
330
1F
100
AcDbEntity
  8
Predefinito
 62
   255
100
AcDb2dPolyline
 66
     1
 10
0.0
 20
0.0
 30
0.0
  0
VERTEX
  5
44
330
43
100
AcDbEntity
  8
Predefinito
 62
   255
100
AcDbVertex
100
AcDb2dVertex
 10
135.6382609538283
 20
275.7810643400611
 30
0.0
  0
VERTEX
  5
45
330
43
100
AcDbEntity
  8
Predefinito
 62
   255
100
AcDbVertex
100
AcDb2dVertex
 10
135.9869238858155
 20
276.1358663173066
 30
0.0
  0
VERTEX
  5
46
330
43
100
AcDbEntity
  8
Predefinito
 62
   255
100
AcDbVertex
100
AcDb2dVertex
 10
135.9851386152088
 20
276.2965475276374
 30
0.0
  0
VERTEX
  5
47
330
43
100
AcDbEntity
  8
Predefinito
 62
   255
100
AcDbVertex
100
AcDb2dVertex
 10
135.959954537463
 20
277.4526206891765
 30
0.0
  0
VERTEX
  5
48
330
43
100
AcDbEntity
  8
Predefinito
 62
   255
100
AcDbVertex
100
AcDb2dVertex
 10
135.6673603868387
 20
294.215328351827
 30
0.0
  0
VERTEX
  5
49
330
43
100
AcDbEntity
  8
Predefinito
 62
   255
100
AcDbVertex
100
AcDb2dVertex
 10
135.6241429774379
 20
296.6912520781876
 30
0.0
  0
VERTEX
  5
4A
330
43
100
AcDbEntity
  8
Predefinito
 62
   255
100
AcDbVertex
100
AcDb2dVertex
 10
135.2858561190806
 20
316.071693213658
 30
0.0
  0
VERTEX
  5
4B
330
43
100
AcDbEntity
  8
Predefinito
 62
   255
100
AcDbVertex
100
AcDb2dVertex
 10
135.2446594925744
 20
318.4318463655196
 30
0.0
  0
VERTEX
  5
4C
330
43
100
AcDbEntity
  8
Predefinito
 62
   255
100
AcDbVertex
100
AcDb2dVertex
 10
134.8956638905591
 20
318.793535127678
 30
0.0
  0
VERTEX
  5
4D
330
43
100
AcDbEntity
  8
Predefinito
 62
   255
100
AcDbVertex
100
AcDb2dVertex
 10
1.091313243623224
 20
318.793535127678
 30
0.0
  0
VERTEX
  5
4E
330
43
100
AcDbEntity
  8
Predefinito
 62
   255
100
AcDbVertex
100
AcDb2dVertex
 10
0.7423176416079471
 20
318.4318463655196
 30
0.0
  0
VERTEX
  5
4F
330
43
100
AcDbEntity
  8
Predefinito
 62
   255
100
AcDbVertex
100
AcDb2dVertex
 10
0.7011210151016656
 20
316.071693213658
 30
0.0
  0
VERTEX
  5
50
330
43
100
AcDbEntity
  8
Predefinito
 62
   255
100
AcDbVertex
100
AcDb2dVertex
 10
0.3196167473435636
 20
294.215328351827
 30
0.0
  0
VERTEX
  5
51
330
43
100
AcDbEntity
  8
Predefinito
 62
   255
100
AcDbVertex
100
AcDb2dVertex
 10
0.0270225967192773
 20
277.4526206891765
 30
0.0
  0
VERTEX
  5
52
330
43
100
AcDbEntity
  8
Predefinito
 62
   255
100
AcDbVertex
100
AcDb2dVertex
 10
0.0018385189735284
 20
276.2965475276374
 30
0.0
  0
VERTEX
  5
53
330
43
100
AcDbEntity
  8
Predefinito
 62
   255
100
AcDbVertex
100
AcDb2dVertex
 10
0.0000532483667474
 20
276.1358663173066
 30
0.0
  0
VERTEX
  5
54
330
43
100
AcDbEntity
  8
Predefinito
 62
   255
100
AcDbVertex
100
AcDb2dVertex
 10
0.3487161803539489
 20
275.7810643400611
 30
0.0
  0
VERTEX
  5
55
330
43
100
AcDbEntity
  8
Predefinito
 62
   255
100
AcDbVertex
100
AcDb2dVertex
 10
135.6382609538283
 20
275.7810643400611
 30
0.0
  0
SEQEND
  5
56
330
43
100
AcDbEntity
  8
Predefinito
 62
   255
  0
POLYLINE
  5
57
330
1F
100
AcDbEntity
  8
Predefinito
 62
   255
100
AcDb2dPolyline
 66
     1
 10
0.0
 20
0.0
 30
0.0
  0
VERTEX
  5
58
330
57
100
AcDbEntity
  8
Predefinito
 62
   255
100
AcDbVertex
100
AcDb2dVertex
 10
5.904681247467124
 20
298.7810643400588
 30
0.0
  0
VERTEX
  5
59
330
57
100
AcDbEntity
  8
Predefinito
 62
   255
100
AcDbVertex
100
AcDb2dVertex
 10
5.939234089739529
 20
300.7605953480798
 30
0.0
  0
VERTEX
  5
5A
330
57
100
AcDbEntity
  8
Predefinito
 62
   255
100
AcDbVertex
100
AcDb2dVertex
 10
6.073251265950148
 20
308.4384342310472
 30
0.0
  0
VERTEX
  5
5B
330
57
100
AcDbEntity
  8
Predefinito
 62
   255
100
AcDbVertex
100
AcDb2dVertex
 10
6.421914197937298
 20
308.781064340061
 30
0.0
  0
VERTEX
  5
5C
330
57
100
AcDbEntity
  8
Predefinito
 62
   255
100
AcDbVertex
100
AcDb2dVertex
 10
6.460124664582111
 20
308.781064340061
 30
0.0
  0
VERTEX
  5
5D
330
57
100
AcDbEntity
  8
Predefinito
 62
   255
100
AcDbVertex
100
AcDb2dVertex
 10
127.2752158991248
 20
308.781064340061
 30
0.0
  0
VERTEX
  5
5E
330
57
100
AcDbEntity
  8
Predefinito
 62
   255
100
AcDbVertex
100
AcDb2dVertex
 10
129.5640035524409
 20
308.781064340061
 30
0.0
  0
VERTEX
  5
5F
330
57
100
AcDbEntity
  8
Predefinito
 62
   255
100
AcDbVertex
100
AcDb2dVertex
 10
129.9126664844281
 20
308.4384342310472
 30
0.0
  0
VERTEX
  5
60
330
57
100
AcDbEntity
  8
Predefinito
 62
   255
100
AcDbVertex
100
AcDb2dVertex
 10
130.0812365029111
 20
298.7810643400588
 30
0.0
  0
SEQEND
  5
61
330
57
100
AcDbEntity
  8
Predefinito
 62
   255
  0
LINE
  5
62
330
1F
100
AcDbEntity
  8
Linee visibili 2D
 62
   255
100
AcDbLine
 10
135.3217441727628
 20
298.7810643400588
 30
0.0
 11
0.6652329614195255
 21
298.7810643400588
 31
0.0
  0
LINE
  5
63
330
1F
100
AcDbEntity
  8
Linee visibili 2D
 62
   255
100
AcDbLine
 10
135.2858561190806
 20
316.071693213658
 30
0.0
 11
135.6236866461489
 21
296.7173952802236
 31
0.0
  0
LINE
  5
64
330
1F
100
AcDbEntity
  8
Linee visibili 2D
 62
   255
100
AcDbLine
 10
135.2443268225463
 20
318.4509050186642
 30
0.0
 11
134.8956638905591
 21
318.793535127678
 31
0.0
  0
LINE
  5
65
330
1F
100
AcDbEntity
  8
Linee visibili 2D
 62
   255
100
AcDbLine
 10
135.6245993087269
 20
296.6651088761516
 30
0.0
 11
135.6673591540734
 21
294.2153989769094
 31
0.0
  0
LINE
  5
66
330
1F
100
AcDbEntity
  8
Linee visibili 2D
 62
   255
100
AcDbLine
 10
135.2443268225463
 20
318.4509050186642
 30
0.0
 11
135.2858561190806
 21
316.071693213658
 31
0.0
  0
POLYLINE
  5
67
330
1F
100
AcDbEntity
  8
Predefinito
 62
   255
100
AcDb2dPolyline
 66
     1
 10
0.0
 20
0.0
 30
0.0
  0
VERTEX
  5
68
330
67
100
AcDbEntity
  8
Predefinito
 62
   255
100
AcDbVertex
100
AcDb2dVertex
 10
135.6382628298994
 20
365.2750294087635
 30
0.0
  0
VERTEX
  5
69
330
67
100
AcDbEntity
  8
Predefinito
 62
   255
100
AcDbVertex
100
AcDb2dVertex
 10
135.9869769969579
 20
364.926313365639
 30
0.0
  0
VERTEX
  5
6A
330
67
100
AcDbEntity
  8
Predefinito
 62
   255
100
AcDbVertex
100
AcDb2dVertex
 10
135.986976996958
 20
294.6152716055427
 30
0.0
  0
VERTEX
  5
6B
330
67
100
AcDbEntity
  8
Predefinito
 62
   255
100
AcDbVertex
100
AcDb2dVertex
 10
135.986976996958
 20
229.6367685921645
 30
0.0
  0
VERTEX
  5
6C
330
67
100
AcDbEntity
  8
Predefinito
 62
   255
100
AcDbVertex
100
AcDb2dVertex
 10
135.6382618918638
 20
229.2880525490374
 30
0.0
  0
VERTEX
  5
6D
330
67
100
AcDbEntity
  8
Predefinito
 62
   255
100
AcDbVertex
100
AcDb2dVertex
 10
0.3487152423184735
 20
229.2880525490374
 30
0.0
  0
VERTEX
  5
6E
330
67
100
AcDbEntity
  8
Predefinito
 62
   255
100
AcDbVertex
100
AcDb2dVertex
 10
0.0000001372243463
 20
229.6367685921645
 30
0.0
  0
VERTEX
  5
6F
330
67
100
AcDbEntity
  8
Predefinito
 62
   255
100
AcDbVertex
100
AcDb2dVertex
 10
0.0000001372243463
 20
364.926313365639
 30
0.0
  0
VERTEX
  5
70
330
67
100
AcDbEntity
  8
Predefinito
 62
   255
100
AcDbVertex
100
AcDb2dVertex
 10
0.3487160774694996
 20
365.27502940837
 30
0.0
  0
VERTEX
  5
71
330
67
100
AcDbEntity
  8
Predefinito
 62
   255
100
AcDbVertex
100
AcDb2dVertex
 10
135.6382610567127
 20
365.27502940837
 30
0.0
  0
VERTEX
  5
72
330
67
100
AcDbEntity
  8
Predefinito
 62
   255
100
AcDbVertex
100
AcDb2dVertex
 10
135.9869769969579
 20
364.9263133656389
 30
0.0
  0
SEQEND
  5
73
330
67
100
AcDbEntity
  8
Predefinito
 62
   255
  0
LINE
  5
74
330
1F
100
AcDbEntity
  8
Linee visibili 2D
 62
   255
100
AcDbLine
 10
135.6382609538284
 20
275.7810643400611
 30
0.0
 11
135.9869238858156
 21
276.1358663173066
 31
0.0
  0
ARC
  5
75
330
1F
100
AcDbEntity
  8
Linee visibili 2D
 62
   255
100
AcDbCircle
 10
518.9820626325188
 20
136.6329004776501
 30
0.0
 40
2.64190717702283
100
AcDbArc
 50
359.9999999999914
 51
90.00000000000493
  0
LINE
  5
76
330
1F
100
AcDbEntity
  8
Linee visibili 2D
 62
   255
100
AcDbLine
 10
283.0263455054504
 20
55.59407535036652
 30
0.0
 11
288.4755664944573
 21
55.59407535036652
 31
0.0
  0
LINE
  5
77
330
1F
100
AcDbEntity
  8
Linee visibili 2D
 62
   255
100
AcDbLine
 10
288.7898826373477
 20
98.9079301597765
 30
0.0
 11
283.0263455054504
 21
98.9079301597765
 31
0.0
  0
LINE
  5
78
330
1F
100
AcDbEntity
  8
Linee visibili 2D
 62
   255
100
AcDbLine
 10
296.2125279216984
 20
55.59407535036652
 30
0.0
 11
296.9110320813682
 21
56.29257951003635
 31
0.0
  0
LINE
  5
79
330
1F
100
AcDbEntity
  8
Linee visibili 2D
 62
   255
100
AcDbLine
 10
294.9376555780381
 20
79.17186422253397
 30
0.0
 11
297.0773793342143
 21
79.17186422253397
 31
0.0
  0
LINE
  5
7A
330
1F
100
AcDbEntity
  8
Linee visibili 2D
 62
   255
100
AcDbLine
 10
283.0263455054504
 20
98.90793015977656
 30
0.0
 11
275.6909346103084
 21
98.90793015977656
 31
0.0
  0
ARC
  5
7B
330
1F
100
AcDbEntity
  8
Linee visibili 2D
 62
   255
100
AcDbCircle
 10
518.9820626325184
 20
17.86910503249331
 30
0.0
 40
5.25251091001231
100
AcDbArc
 50
213.1299438156097
 51
54.32830416636383
  0
ARC
  5
7C
330
1F
100
AcDbEntity
  8
Linee visibili 2D
 62
   255
100
AcDbCircle
 10
400.2182671873623
 20
17.8691050324933
 30
0.0
 40
2.641907177023249
100
AcDbArc
 50
180.0000000000011
 51
269.9999999999939
  0
LINE
  5
7D
330
1F
100
AcDbEntity
  8
Linee visibili 2D
 62
   255
100
AcDbLine
 10
288.7898826373477
 20
98.9079301597765
 30
0.0
 11
290.5364090409529
 21
98.9384158915503
 31
0.0
  0
LINE
  5
7E
330
1F
100
AcDbEntity
  8
Linee visibili 2D
 62
   255
100
AcDbLine
 10
290.5364090409529
 20
98.9384158915503
 30
0.0
 11
292.2635038392381
 21
98.91236381861464
 31
0.0
  0
LINE
  5
7F
330
1F
100
AcDbEntity
  8
Linee visibili 2D
 62
   255
100
AcDbLine
 10
400.5675724680832
 20
18.91702087465646
 30
0.0
 11
400.5675724680832
 21
135.5849846354866
 31
0.0
  0
POLYLINE
  5
80
330
1F
100
AcDbEntity
  8
Linee visibili 2D
 62
   255
100
AcDb2dPolyline
 66
     1
 10
0.0
 20
0.0
 30
0.0
  0
VERTEX
  5
81
330
80
100
AcDbEntity
  8
Linee visibili 2D
 62
   255
100
AcDbVertex
100
AcDb2dVertex
 10
228.2298686882976
 20
10.35649759266428
 30
0.0
  0
VERTEX
  5
82
330
80
100
AcDbEntity
  8
Linee visibili 2D
 62
   255
100
AcDbVertex
100
AcDb2dVertex
 10
228.1272804770416
 20
10.51378432675086
 30
0.0
  0
VERTEX
  5
83
330
80
100
AcDbEntity
  8
Linee visibili 2D
 62
   255
100
AcDbVertex
100
AcDb2dVertex
 10
227.7379815749413
 20
10.65268615333898
 30
0.0
  0
VERTEX
  5
84
330
80
100
AcDbEntity
  8
Linee visibili 2D
 62
   255
100
AcDbVertex
100
AcDb2dVertex
 10
218.6034193943299
 20
10.76246134556462
 30
0.0
  0
VERTEX
  5
85
330
80
100
AcDbEntity
  8
Linee visibili 2D
 62
   255
100
AcDbVertex
100
AcDb2dVertex
 10
218.1057654182246
 20
11.11112183300096
 30
0.0
  0
VERTEX
  5
86
330
80
100
AcDbEntity
  8
Linee visibili 2D
 62
   255
100
AcDbVertex
100
AcDb2dVertex
 10
218.1057654182246
 20
143.3908838108537
 30
0.0
  0
VERTEX
  5
87
330
80
100
AcDbEntity
  8
Linee visibili 2D
 62
   255
100
AcDbVertex
100
AcDb2dVertex
 10
218.6034193943299
 20
143.7395442982902
 30
0.0
  0
VERTEX
  5
88
330
80
100
AcDbEntity
  8
Linee visibili 2D
 62
   255
100
AcDbVertex
100
AcDb2dVertex
 10
227.7379815749413
 20
143.8493194905159
 30
0.0
  0
VERTEX
  5
89
330
80
100
AcDbEntity
  8
Linee visibili 2D
 62
   255
100
AcDbVertex
100
AcDb2dVertex
 10
228.1271962546582
 20
143.9882808776844
 30
0.0
  0
VERTEX
  5
8A
330
80
100
AcDbEntity
  8
Linee visibili 2D
 62
   255
100
AcDbVertex
100
AcDb2dVertex
 10
228.2356355510467
 20
144.1979799779524
 30
0.0
  0
SEQEND
  5
8B
330
80
100
AcDbEntity
  8
Linee visibili 2D
 62
   255
  0
POLYLINE
  5
8C
330
1F
100
AcDbEntity
  8
Linee visibili 2D
 62
   255
100
AcDb2dPolyline
 66
     1
 10
0.0
 20
0.0
 30
0.0
  0
VERTEX
  5
8D
330
8C
100
AcDbEntity
  8
Linee visibili 2D
 62
   255
100
AcDbVertex
100
AcDb2dVertex
 10
218.1057654182246
 20
127.9739439879561
 30
0.0
  0
VERTEX
  5
8E
330
8C
100
AcDbEntity
  8
Linee visibili 2D
 62
   255
100
AcDbVertex
100
AcDb2dVertex
 10
216.5962849692929
 20
127.9555788669494
 30
0.0
  0
VERTEX
  5
8F
330
8C
100
AcDbEntity
  8
Linee visibili 2D
 62
   255
100
AcDbVertex
100
AcDb2dVertex
 10
216.1057654180729
 20
127.5833822008238
 30
0.0
  0
VERTEX
  5
90
330
8C
100
AcDbEntity
  8
Linee visibili 2D
 62
   255
100
AcDbVertex
100
AcDb2dVertex
 10
216.1057653427124
 20
109.5404441781028
 30
0.0
  0
VERTEX
  5
91
330
8C
100
AcDbEntity
  8
Linee visibili 2D
 62
   255
100
AcDbVertex
100
AcDb2dVertex
 10
216.1057654181666
 20
108.5081976766059
 30
0.0
  0
VERTEX
  5
92
330
8C
100
AcDbEntity
  8
Linee visibili 2D
 62
   255
100
AcDbVertex
100
AcDb2dVertex
 10
216.1057654181461
 20
26.91862651525807
 30
0.0
  0
VERTEX
  5
93
330
8C
100
AcDbEntity
  8
Linee visibili 2D
 62
   255
100
AcDbVertex
100
AcDb2dVertex
 10
216.5970392961538
 20
26.54641708152289
 30
0.0
  0
SEQEND
  5
94
330
8C
100
AcDbEntity
  8
Linee visibili 2D
 62
   255
  0
POLYLINE
  5
95
330
1F
100
AcDbEntity
  8
Linee visibili 2D
 62
   255
100
AcDb2dPolyline
 66
     1
 10
0.0
 20
0.0
 30
0.0
  0
VERTEX
  5
96
330
95
100
AcDbEntity
  8
Linee visibili 2D
 62
   255
100
AcDbVertex
100
AcDb2dVertex
 10
266.2227403147385
 20
304.7188759876976
 30
0.0
  0
VERTEX
  5
97
330
95
100
AcDbEntity
  8
Linee visibili 2D
 62
   255
100
AcDbVertex
100
AcDb2dVertex
 10
270.2789561987042
 20
302.3770186551989
 30
0.0
  0
VERTEX
  5
98
330
95
100
AcDbEntity
  8
Linee visibili 2D
 62
   255
100
AcDbVertex
100
AcDb2dVertex
 10
270.1574720608444
 20
302.1666019561123
 30
0.0
  0
VERTEX
  5
99
330
95
100
AcDbEntity
  8
Linee visibili 2D
 62
   255
100
AcDbVertex
100
AcDb2dVertex
 10
266.1012561768789
 20
304.5084592886111
 30
0.0
  0
VERTEX
  5
9A
330
95
100
AcDbEntity
  8
Linee visibili 2D
 62
   255
100
AcDbVertex
100
AcDb2dVertex
 10
266.2227403147385
 20
304.7188759876976
 30
0.0
  0
SEQEND
  5
9B
330
95
100
AcDbEntity
  8
Linee visibili 2D
 62
   255
  0
POLYLINE
  5
9C
330
1F
100
AcDbEntity
  8
Linee visibili 2D
 62
   255
100
AcDb2dPolyline
 66
     1
 10
0.0
 20
0.0
 30
0.0
  0
VERTEX
  5
9D
330
9C
100
AcDbEntity
  8
Linee visibili 2D
 62
   255
100
AcDbVertex
100
AcDb2dVertex
 10
277.2482079521273
 20
287.4314100392095
 30
0.0
  0
VERTEX
  5
9E
330
9C
100
AcDbEntity
  8
Linee visibili 2D
 62
   255
100
AcDbVertex
100
AcDb2dVertex
 10
276.4348894358386
 20
282.8188515242229
 30
0.0
  0
VERTEX
  5
9F
330
9C
100
AcDbEntity
  8
Linee visibili 2D
 62
   255
100
AcDbVertex
100
AcDb2dVertex
 10
276.1956123941744
 20
282.8610425225324
 30
0.0
  0
VERTEX
  5
A0
330
9C
100
AcDbEntity
  8
Linee visibili 2D
 62
   255
100
AcDbVertex
100
AcDb2dVertex
 10
277.0089309104631
 20
287.473601037519
 30
0.0
  0
VERTEX
  5
A1
330
9C
100
AcDbEntity
  8
Linee visibili 2D
 62
   255
100
AcDbVertex
100
AcDb2dVertex
 10
277.2482079521273
 20
287.4314100392095
 30
0.0
  0
SEQEND
  5
A2
330
9C
100
AcDbEntity
  8
Linee visibili 2D
 62
   255
  0
POLYLINE
  5
A3
330
1F
100
AcDbEntity
  8
Linee visibili 2D
 62
   255
100
AcDb2dPolyline
 66
     1
 10
0.0
 20
0.0
 30
0.0
  0
VERTEX
  5
A4
330
A3
100
AcDbEntity
  8
Linee visibili 2D
 62
   255
100
AcDbVertex
100
AcDb2dVertex
 10
276.4348894358386
 20
282.8188515242229
 30
0.0
  0
VERTEX
  5
A5
330
A3
100
AcDbEntity
  8
Linee visibili 2D
 62
   255
100
AcDbVertex
100
AcDb2dVertex
 10
276.1956123941744
 20
282.8610425225324
 30
0.0
  0
VERTEX
  5
A6
330
A3
100
AcDbEntity
  8
Linee visibili 2D
 62
   255
100
AcDbVertex
100
AcDb2dVertex
 10
277.0089309104631
 20
287.473601037519
 30
0.0
  0
VERTEX
  5
A7
330
A3
100
AcDbEntity
  8
Linee visibili 2D
 62
   255
100
AcDbVertex
100
AcDb2dVertex
 10
277.2482079521273
 20
287.4314100392095
 30
0.0
  0
VERTEX
  5
A8
330
A3
100
AcDbEntity
  8
Linee visibili 2D
 62
   255
100
AcDbVertex
100
AcDb2dVertex
 10
276.4348894358386
 20
282.8188515242229
 30
0.0
  0
SEQEND
  5
A9
330
A3
100
AcDbEntity
  8
Linee visibili 2D
 62
   255
  0
POLYLINE
  5
AA
330
1F
100
AcDbEntity
  8
Linee visibili 2D
 62
   255
100
AcDb2dPolyline
 66
     1
 10
0.0
 20
0.0
 30
0.0
  0
VERTEX
  5
AB
330
AA
100
AcDbEntity
  8
Linee visibili 2D
 62
   255
100
AcDbVertex
100
AcDb2dVertex
 10
269.0115969153604
 20
298.8949776418758
 30
0.0
  0
VERTEX
  5
AC
330
AA
100
AcDbEntity
  8
Linee visibili 2D
 62
   255
100
AcDbVertex
100
AcDb2dVertex
 10
264.3990384003737
 20
299.7082961581644
 30
0.0
  0
VERTEX
  5
AD
330
AA
100
AcDbEntity
  8
Linee visibili 2D
 62
   255
100
AcDbVertex
100
AcDb2dVertex
 10
264.4412293986833
 20
299.9475731998287
 30
0.0
  0
VERTEX
  5
AE
330
AA
100
AcDbEntity
  8
Linee visibili 2D
 62
   255
100
AcDbVertex
100
AcDb2dVertex
 10
269.05378791367
 20
299.1342546835401
 30
0.0
  0
VERTEX
  5
AF
330
AA
100
AcDbEntity
  8
Linee visibili 2D
 62
   255
100
AcDbVertex
100
AcDb2dVertex
 10
269.0115969153604
 20
298.8949776418758
 30
0.0
  0
SEQEND
  5
B0
330
AA
100
AcDbEntity
  8
Linee visibili 2D
 62
   255
  0
POLYLINE
  5
B1
330
1F
100
AcDbEntity
  8
Linee visibili 2D
 62
   255
100
AcDb2dPolyline
 66
     1
 10
0.0
 20
0.0
 30
0.0
  0
VERTEX
  5
B2
330
B1
100
AcDbEntity
  8
Linee visibili 2D
 62
   255
100
AcDbVertex
100
AcDb2dVertex
 10
273.7320299956885
 20
283.5430805284659
 30
0.0
  0
VERTEX
  5
B3
330
B1
100
AcDbEntity
  8
Linee visibili 2D
 62
   255
100
AcDbVertex
100
AcDb2dVertex
 10
275.3339547567076
 20
287.9443326370309
 30
0.0
  0
VERTEX
  5
B4
330
B1
100
AcDbEntity
  8
Linee visibili 2D
 62
   255
100
AcDbVertex
100
AcDb2dVertex
 10
275.562270252486
 20
287.8612325925458
 30
0.0
  0
VERTEX
  5
B5
330
B1
100
AcDbEntity
  8
Linee visibili 2D
 62
   255
100
AcDbVertex
100
AcDb2dVertex
 10
273.960345491467
 20
283.4599804839808
 30
0.0
  0
VERTEX
  5
B6
330
B1
100
AcDbEntity
  8
Linee visibili 2D
 62
   255
100
AcDbVertex
100
AcDb2dVertex
 10
273.7320299956885
 20
283.5430805284659
 30
0.0
  0
SEQEND
  5
B7
330
B1
100
AcDbEntity
  8
Linee visibili 2D
 62
   255
  0
LINE
  5
B8
330
1F
100
AcDbEntity
  8
Linee visibili 2D
 62
   255
100
AcDbLine
 10
297.0742326196149
 20
79.92065898270616
 30
0.0
 11
294.9376555780381
 21
79.92065898270616
 31
0.0
  0
LINE
  5
B9
330
1F
100
AcDbEntity
  8
Predefinito
 62
   255
100
AcDbLine
 10
393.588234189134
 20
145.2421229061542
 30
0.0
 11
393.588234189134
 21
9.25988260398853
 31
0.0
  0
LINE
  5
BA
330
1F
100
AcDbEntity
  8
Linee visibili 2D
 62
   255
100
AcDbLine
 10
279.6268736379922
 20
98.2046375637776
 30
0.0
 11
294.3252104038609
 21
97.94807714119256
 31
0.0
  0
LINE
  5
BB
330
1F
100
AcDbEntity
  8
Linee visibili 2D
 62
   255
100
AcDbLine
 10
279.6268736379922
 20
82.14595871972298
 30
0.0
 11
278.424968935013
 21
82.12497939509493
 31
0.0
  0
LINE
  5
BC
330
1F
100
AcDbEntity
  8
Linee visibili 2D
 62
   255
100
AcDbLine
 10
294.3252104038609
 20
82.40251914230815
 30
0.0
 11
279.6268736379922
 21
82.14595871972298
 31
0.0
  0
LINE
  5
BD
330
1F
100
AcDbEntity
  8
Linee visibili 2D
 62
   255
100
AcDbLine
 10
279.6268736379922
 20
72.35604679042004
 30
0.0
 11
294.3252104038609
 21
72.09948636783494
 31
0.0
  0
LINE
  5
BE
330
1F
100
AcDbEntity
  8
Linee visibili 2D
 62
   255
100
AcDbLine
 10
276.1433296744513
 20
73.00087848955977
 30
0.0
 11
278.4249689350131
 21
72.3770261150481
 31
0.0
  0
LINE
  5
BF
330
1F
100
AcDbEntity
  8
Linee visibili 2D
 62
   255
100
AcDbLine
 10
294.7280724096056
 20
56.90422169477418
 30
0.0
 11
294.3848633574544
 21
56.55496961512867
 31
0.0
  0
LINE
  5
C0
330
1F
100
AcDbEntity
  8
Linee visibili 2D
 62
   255
100
AcDbLine
 10
294.3854444270732
 20
72.0984344954908
 30
0.0
 11
294.7280724096056
 21
71.74919304201123
 31
0.0
  0
LINE
  5
C1
330
1F
100
AcDbEntity
  8
Linee visibili 2D
 62
   255
100
AcDbLine
 10
274.7605691467628
 20
74.16741962358017
 30
0.0
 11
275.069288450706
 21
73.81970926208825
 31
0.0
  0
LINE
  5
C2
330
1F
100
AcDbEntity
  8
Linee visibili 2D
 62
   255
100
AcDbLine
 10
275.4836906771928
 20
73.44523682640332
 30
0.0
 11
275.7881049470376
 21
73.22046871560761
 31
0.0
  0
ARC
  5
C3
330
1F
100
AcDbEntity
  8
Linee visibili 2D
 62
   255
100
AcDbCircle
 10
278.5689906544733
 20
77.2805498988362
 30
0.0
 40
4.880585478980889
100
AcDbArc
 50
135.8916115160136
 51
179.1840374216943
  0
LINE
  5
C4
330
1F
100
AcDbEntity
  8
Linee visibili 2D
 62
   255
100
AcDbLine
 10
278.4249689350131
 20
82.12497939509493
 30
0.0
 11
275.4836755275738
 21
81.05675654221702
 31
0.0
  0
LINE
  5
C5
330
1F
100
AcDbEntity
  8
Linee visibili 2D
 62
   255
100
AcDbLine
 10
294.7280724096056
 20
82.75281246813185
 30
0.0
 11
294.3848633574544
 21
82.40356038848617
 31
0.0
  0
LINE
  5
C6
330
1F
100
AcDbEntity
  8
Linee visibili 2D
 62
   255
100
AcDbLine
 10
294.3848633574544
 20
97.94703589501441
 30
0.0
 11
294.7280724096056
 21
97.59778381536884
 31
0.0
  0
LINE
  5
C7
330
1F
100
AcDbEntity
  8
Linee visibili 2D
 62
   255
100
AcDbLine
 10
294.9376555780381
 20
75.33014128760911
 30
0.0
 11
294.9376555780381
 21
74.58134652743692
 31
0.0
  0
LINE
  5
C8
330
1F
100
AcDbEntity
  8
Linee visibili 2D
 62
   255
100
AcDbLine
 10
297.0561662633777
 20
72.66048505997449
 30
0.0
 11
294.9376555780381
 21
72.66048505997449
 31
0.0
  0
LINE
  5
C9
330
1F
100
AcDbEntity
  8
Linee visibili 2D
 62
   255
100
AcDbLine
 10
275.0773357809665
 20
80.69047380527846
 30
0.0
 11
275.483673808643
 21
81.0567596642014
 31
0.0
  0
LINE
  5
CA
330
1F
100
AcDbEntity
  8
Linee visibili 2D
 62
   255
100
AcDbLine
 10
274.760487809514
 20
74.16734199216867
 30
0.0
 11
273.6886838657342
 21
77.19670481676971
 31
0.0
  0
LINE
  5
CB
330
1F
100
AcDbEntity
  8
Linee visibili 2D
 62
   255
100
AcDbLine
 10
275.4836906751275
 20
73.44523682803649
 30
0.0
 11
275.0709350922309
 21
73.81803277566743
 31
0.0
  0
LINE
  5
CC
330
1F
100
AcDbEntity
  8
Linee visibili 2D
 62
   255
100
AcDbLine
 10
276.1432564026215
 20
73.00075350757632
 30
0.0
 11
275.7880803170423
 21
73.22043245371648
 31
0.0
  0
LINE
  5
CD
330
1F
100
AcDbEntity
  8
Linee visibili 2D
 62
   255
100
AcDbLine
 10
273.6886838657342
 20
77.30530069337343
 30
0.0
 11
273.6886838657342
 21
77.19670481676971
 31
0.0
  0
LINE
  5
CE
330
1F
100
AcDbEntity
  8
Linee visibili 2D
 62
   255
100
AcDbLine
 10
517.9341467903557
 20
136.2835951969287
 30
0.0
 11
518.6327573517976
 21
135.5849846354866
 31
0.0
  0
LINE
  5
CF
330
1F
100
AcDbEntity
  8
Linee visibili 2D
 62
   255
100
AcDbLine
 10
296.9110320813684
 20
82.47953444074355
 30
0.0
 11
296.9110320813681
 21
98.20942600010673
 31
0.0
  0
LINE
  5
D0
330
1F
100
AcDbEntity
  8
Linee visibili 2D
 62
   255
100
AcDbLine
 10
296.9110320813681
 20
56.29257951003635
 30
0.0
 11
296.9110320813684
 21
72.02247106939953
 31
0.0
  0
LINE
  5
D1
330
1F
100
AcDbEntity
  8
Linee visibili 2D
 62
   255
100
AcDbLine
 10
294.7280724096056
 20
71.74919304201123
 30
0.0
 11
294.7280724096056
 21
56.90422169477418
 31
0.0
  0
LINE
  5
D2
330
1F
100
AcDbEntity
  8
Linee visibili 2D
 62
   255
100
AcDbLine
 10
294.7280724096056
 20
97.59778381536884
 30
0.0
 11
294.7280724096056
 21
82.75281246813185
 31
0.0
  0
LINE
  5
D3
330
1F
100
AcDbEntity
  8
Linee visibili 2D
 62
   255
100
AcDbLine
 10
294.9376555780381
 20
81.84152045016847
 30
0.0
 11
294.9376555780381
 21
79.92065898270616
 31
0.0
  0
LINE
  5
D4
330
1F
100
AcDbEntity
  8
Linee visibili 2D
 62
   255
100
AcDbLine
 10
518.6327573517976
 20
135.5849846354866
 30
0.0
 11
518.6327573517976
 21
18.91702087465646
 31
0.0
  0
LINE
  5
D5
330
1F
100
AcDbEntity
  8
Linee visibili 2D
 62
   255
100
AcDbLine
 10
401.2661830295252
 20
136.2835951969287
 30
0.0
 11
517.9341467903557
 21
136.2835951969287
 31
0.0
  0
LINE
  5
D6
330
1F
100
AcDbEntity
  8
Linee visibili 2D
 62
   255
100
AcDbLine
 10
293.3308512867214
 20
98.44679762139461
 30
0.0
 11
269.4787947497945
 21
98.44679762139461
 31
0.0
  0
POLYLINE
  5
D7
330
1F
100
AcDbEntity
  8
Linee visibili 2D
 62
   255
100
AcDb2dPolyline
 66
     1
 10
0.0
 20
0.0
 30
0.0
  0
VERTEX
  5
D8
330
D7
100
AcDbEntity
  8
Linee visibili 2D
 62
   255
100
AcDbVertex
100
AcDb2dVertex
 10
135.2450062479877
 20
298.7797248745994
 30
0.0
  0
VERTEX
  5
D9
330
D7
100
AcDbEntity
  8
Linee visibili 2D
 62
   255
100
AcDbVertex
100
AcDb2dVertex
 10
135.4330879846722
 20
298.724655114353
 30
0.0
  0
VERTEX
  5
DA
330
D7
100
AcDbEntity
  8
Linee visibili 2D
 62
   255
100
AcDbVertex
100
AcDb2dVertex
 10
135.463885354421
 20
298.7004753844101
 30
0.0
  0
VERTEX
  5
DB
330
D7
100
AcDbEntity
  8
Linee visibili 2D
 62
   255
100
AcDbVertex
100
AcDb2dVertex
 10
135.5936691799749
 20
298.4370947655856
 30
0.0
  0
SEQEND
  5
DC
330
D7
100
AcDbEntity
  8
Linee visibili 2D
 62
   255
  0
POLYLINE
  5
DD
330
1F
100
AcDbEntity
  8
Linee visibili 2D
 62
   255
100
AcDb2dPolyline
 66
     1
 10
0.0
 20
0.0
 30
0.0
  0
VERTEX
  5
DE
330
DD
100
AcDbEntity
  8
Linee visibili 2D
 62
   255
100
AcDbVertex
100
AcDb2dVertex
 10
270.6280219870648
 20
297.1600152210665
 30
0.0
  0
VERTEX
  5
DF
330
DD
100
AcDbEntity
  8
Linee visibili 2D
 62
   255
100
AcDbVertex
100
AcDb2dVertex
 10
264.1973496766204
 20
297.1600152210665
 30
0.0
  0
VERTEX
  5
E0
330
DD
100
AcDbEntity
  8
Linee visibili 2D
 62
   255
100
AcDbVertex
100
AcDb2dVertex
 10
264.1973496766204
 20
297.4029834967856
 30
0.0
  0
VERTEX
  5
E1
330
DD
100
AcDbEntity
  8
Linee visibili 2D
 62
   255
100
AcDbVertex
100
AcDb2dVertex
 10
270.6280219870648
 20
297.4029834967856
 30
0.0
  0
VERTEX
  5
E2
330
DD
100
AcDbEntity
  8
Linee visibili 2D
 62
   255
100
AcDbVertex
100
AcDb2dVertex
 10
270.6280219870648
 20
297.1600152210665
 30
0.0
  0
SEQEND
  5
E3
330
DD
100
AcDbEntity
  8
Linee visibili 2D
 62
   255
  0
POLYLINE
  5
E4
330
1F
100
AcDbEntity
  8
Linee visibili 2D
 62
   255
100
AcDb2dPolyline
 66
     1
 10
0.0
 20
0.0
 30
0.0
  0
VERTEX
  5
E5
330
E4
100
AcDbEntity
  8
Linee visibili 2D
 62
   255
100
AcDbVertex
100
AcDb2dVertex
 10
271.1379977961315
 20
303.6038572002733
 30
0.0
  0
VERTEX
  5
E6
330
E4
100
AcDbEntity
  8
Linee visibili 2D
 62
   255
100
AcDbVertex
100
AcDb2dVertex
 10
267.5500642038552
 20
306.6144909542409
 30
0.0
  0
VERTEX
  5
E7
330
E4
100
AcDbEntity
  8
Linee visibili 2D
 62
   255
100
AcDbVertex
100
AcDb2dVertex
 10
267.7062412010344
 20
306.8006154517098
 30
0.0
  0
VERTEX
  5
E8
330
E4
100
AcDbEntity
  8
Linee visibili 2D
 62
   255
100
AcDbVertex
100
AcDb2dVertex
 10
271.2941747933107
 20
303.7899816977422
 30
0.0
  0
VERTEX
  5
E9
330
E4
100
AcDbEntity
  8
Linee visibili 2D
 62
   255
100
AcDbVertex
100
AcDb2dVertex
 10
271.1379977961315
 20
303.6038572002733
 30
0.0
  0
SEQEND
  5
EA
330
E4
100
AcDbEntity
  8
Linee visibili 2D
 62
   255
  0
POLYLINE
  5
EB
330
1F
100
AcDbEntity
  8
Linee visibili 2D
 62
   255
100
AcDb2dPolyline
 66
     1
 10
0.0
 20
0.0
 30
0.0
  0
VERTEX
  5
EC
330
EB
100
AcDbEntity
  8
Linee visibili 2D
 62
   255
100
AcDbVertex
100
AcDb2dVertex
 10
272.3532038962609
 20
304.8490108006924
 30
0.0
  0
VERTEX
  5
ED
330
EB
100
AcDbEntity
  8
Linee visibili 2D
 62
   255
100
AcDbVertex
100
AcDb2dVertex
 10
269.3425701422933
 20
308.4369443929687
 30
0.0
  0
VERTEX
  5
EE
330
EB
100
AcDbEntity
  8
Linee visibili 2D
 62
   255
100
AcDbVertex
100
AcDb2dVertex
 10
269.5286946397621
 20
308.5931213901479
 30
0.0
  0
VERTEX
  5
EF
330
EB
100
AcDbEntity
  8
Linee visibili 2D
 62
   255
100
AcDbVertex
100
AcDb2dVertex
 10
272.5393283937298
 20
305.0051877978716
 30
0.0
  0
VERTEX
  5
F0
330
EB
100
AcDbEntity
  8
Linee visibili 2D
 62
   255
100
AcDbVertex
100
AcDb2dVertex
 10
272.3532038962609
 20
304.8490108006924
 30
0.0
  0
SEQEND
  5
F1
330
EB
100
AcDbEntity
  8
Linee visibili 2D
 62
   255
  0
POLYLINE
  5
F2
330
1F
100
AcDbEntity
  8
Linee visibili 2D
 62
   255
100
AcDb2dPolyline
 66
     1
 10
0.0
 20
0.0
 30
0.0
  0
VERTEX
  5
F3
330
F2
100
AcDbEntity
  8
Linee visibili 2D
 62
   255
100
AcDbVertex
100
AcDb2dVertex
 10
271.6347263053919
 20
310.0419294171242
 30
0.0
  0
VERTEX
  5
F4
330
F2
100
AcDbEntity
  8
Linee visibili 2D
 62
   255
100
AcDbVertex
100
AcDb2dVertex
 10
273.9765836378907
 20
305.9857135331586
 30
0.0
  0
VERTEX
  5
F5
330
F2
100
AcDbEntity
  8
Linee visibili 2D
 62
   255
100
AcDbVertex
100
AcDb2dVertex
 10
273.7661669388042
 20
305.864229395299
 30
0.0
  0
VERTEX
  5
F6
330
F2
100
AcDbEntity
  8
Linee visibili 2D
 62
   255
100
AcDbVertex
100
AcDb2dVertex
 10
271.4243096063054
 20
309.9204452792646
 30
0.0
  0
VERTEX
  5
F7
330
F2
100
AcDbEntity
  8
Linee visibili 2D
 62
   255
100
AcDbVertex
100
AcDb2dVertex
 10
271.6347263053919
 20
310.0419294171242
 30
0.0
  0
SEQEND
  5
F8
330
F2
100
AcDbEntity
  8
Linee visibili 2D
 62
   255
  0
POLYLINE
  5
F9
330
1F
100
AcDbEntity
  8
Linee visibili 2D
 62
   255
100
AcDb2dPolyline
 66
     1
 10
0.0
 20
0.0
 30
0.0
  0
VERTEX
  5
FA
330
F9
100
AcDbEntity
  8
Linee visibili 2D
 62
   255
100
AcDbVertex
100
AcDb2dVertex
 10
269.4414194686967
 20
300.580915341517
 30
0.0
  0
VERTEX
  5
FB
330
F9
100
AcDbEntity
  8
Linee visibili 2D
 62
   255
100
AcDbVertex
100
AcDb2dVertex
 10
265.0401673601317
 20
302.1828401025361
 30
0.0
  0
VERTEX
  5
FC
330
F9
100
AcDbEntity
  8
Linee visibili 2D
 62
   255
100
AcDbVertex
100
AcDb2dVertex
 10
265.1232674046168
 20
302.4111555983144
 30
0.0
  0
VERTEX
  5
FD
330
F9
100
AcDbEntity
  8
Linee visibili 2D
 62
   255
100
AcDbVertex
100
AcDb2dVertex
 10
269.5245195131818
 20
300.8092308372954
 30
0.0
  0
VERTEX
  5
FE
330
F9
100
AcDbEntity
  8
Linee visibili 2D
 62
   255
100
AcDbVertex
100
AcDb2dVertex
 10
269.4414194686967
 20
300.580915341517
 30
0.0
  0
SEQEND
  5
FF
330
F9
100
AcDbEntity
  8
Linee visibili 2D
 62
   255
  0
LINE
  5
100
330
1F
100
AcDbEntity
  8
Linee visibili 2D
 62
   255
100
AcDbLine
 10
293.2743324154469
 20
98.09749234067354
 30
0.0
 11
290.2060107828599
 21
98.09749234067354
 31
0.0
  0
LINE
  5
101
330
1F
100
AcDbEntity
  8
Linee visibili 2D
 62
   255
100
AcDbLine
 10
294.9376555780381
 20
72.66048505997449
 30
0.0
 11
294.9376555780381
 21
74.58134652743692
 31
0.0
  0
LINE
  5
102
330
1F
100
AcDbEntity
  8
Linee visibili 2D
 62
   255
100
AcDbLine
 10
275.865587250669
 20
98.79610290211568
 30
0.0
 11
275.865587250669
 21
98.92728384643883
 31
0.0
  0
LINE
  5
103
330
1F
100
AcDbEntity
  8
Linee visibili 2D
 62
   255
100
AcDbLine
 10
293.3308512867214
 20
56.05684786882026
 30
0.0
 11
293.3308512867214
 21
55.70590260802729
 31
0.0
  0
ARC
  5
104
330
1F
100
AcDbEntity
  8
Linee visibili 2D
 62
   255
100
AcDbCircle
 10
400.2182671873622
 20
17.86910503249327
 30
0.0
 40
5.252510910012317
100
AcDbArc
 50
143.2256301913746
 51
328.1658071857418
  0
LINE
  5
105
330
1F
100
AcDbEntity
  8
Linee visibili 2D
 62
   255
100
AcDbLine
 10
283.7619693384974
 20
44.76561164801402
 30
0.0
 11
284.7823254494044
 21
44.76561164801402
 31
0.0
  0
ARC
  5
106
330
1F
100
AcDbEntity
  8
Linee visibili 2D
 62
   255
100
AcDbCircle
 10
518.9820626325184
 20
17.86910503249341
 30
0.0
 40
2.641907177023389
100
AcDbArc
 50
270.0000000000049
 51
359.7564436411405
  0
ARC
  5
107
330
1F
100
AcDbEntity
  8
Linee visibili 2D
 62
   255
100
AcDbCircle
 10
400.2182671873622
 20
136.6329004776499
 30
0.0
 40
5.25251091001222
100
AcDbArc
 50
31.83419281425704
 51
216.7743698086281
  0
LINE
  5
108
330
1F
100
AcDbEntity
  8
Linee visibili 2D
 62
   255
100
AcDbLine
 10
294.3252104038608
 20
56.55392836895049
 30
0.0
 11
279.6268736379922
 21
56.29736794636543
 31
0.0
  0
POLYLINE
  5
109
330
1F
100
AcDbEntity
  8
Linee visibili 2D
 62
   255
100
AcDb2dPolyline
 66
     1
 10
0.0
 20
0.0
 30
0.0
  0
VERTEX
  5
10A
330
109
100
AcDbEntity
  8
Linee visibili 2D
 62
   255
100
AcDbVertex
100
AcDb2dVertex
 10
257.045292802618
 20
110.3090216853326
 30
0.0
  0
VERTEX
  5
10B
330
109
100
AcDbEntity
  8
Linee visibili 2D
 62
   255
100
AcDbVertex
100
AcDb2dVertex
 10
257.3463111547235
 20
110.1253025269117
 30
0.0
  0
VERTEX
  5
10C
330
109
100
AcDbEntity
  8
Linee visibili 2D
 62
   255
100
AcDbVertex
100
AcDb2dVertex
 10
258.7557247130673
 20
110.1007011217401
 30
0.0
  0
VERTEX
  5
10D
330
109
100
AcDbEntity
  8
Linee visibili 2D
 62
   255
100
AcDbVertex
100
AcDb2dVertex
 10
259.0989337760585
 20
109.7514490419052
 30
0.0
  0
VERTEX
  5
10E
330
109
100
AcDbEntity
  8
Linee visibili 2D
 62
   255
100
AcDbVertex
100
AcDb2dVertex
 10
259.0989337760585
 20
98.90621543026666
 30
0.0
  0
VERTEX
  5
10F
330
109
100
AcDbEntity
  8
Linee visibili 2D
 62
   255
100
AcDbVertex
100
AcDb2dVertex
 10
259.3092253723636
 20
98.58576360130533
 30
0.0
  0
SEQEND
  5
110
330
109
100
AcDbEntity
  8
Linee visibili 2D
 62
   255
  0
POLYLINE
  5
111
330
1F
100
AcDbEntity
  8
Linee visibili 2D
 62
   255
100
AcDb2dPolyline
 66
     1
 10
0.0
 20
0.0
 30
0.0
  0
VERTEX
  5
112
330
111
100
AcDbEntity
  8
Linee visibili 2D
 62
   255
100
AcDbVertex
100
AcDb2dVertex
 10
265.3864288290375
 20
98.44679762139461
 30
0.0
  0
VERTEX
  5
113
330
111
100
AcDbEntity
  8
Linee visibili 2D
 62
   255
100
AcDbVertex
100
AcDb2dVertex
 10
265.4146882646879
 20
98.79610290211568
 30
0.0
  0
VERTEX
  5
114
330
111
100
AcDbEntity
  8
Linee visibili 2D
 62
   255
100
AcDbVertex
100
AcDb2dVertex
 10
293.3308512867214
 20
98.79610290211568
 30
0.0
  0
SEQEND
  5
115
330
111
100
AcDbEntity
  8
Linee visibili 2D
 62
   255
  0
LINE
  5
116
330
1F
100
AcDbEntity
  8
Linee visibili 2D
 62
   255
100
AcDbLine
 10
284.7823254201506
 20
44.76561164801402
 30
0.0
 11
294.4939488869934
 21
44.76561164801402
 31
0.0
  0
LINE
  5
117
330
1F
100
AcDbEntity
  8
Linee visibili 2D
 62
   255
100
AcDbLine
 10
0.3693854310106539
 20
297.0665743295309
 30
0.0
 11
0.3933065807006242
 21
298.4370160774323
 31
0.0
  0
LINE
  5
118
330
1F
100
AcDbEntity
  8
Linee visibili 2D
 62
   255
100
AcDbLine
 10
296.9223256493827
 20
82.3959063587092
 30
0.0
 11
296.9110320813684
 21
82.47953444074355
 31
0.0
  0
ARC
  5
119
330
1F
100
AcDbEntity
  8
Linee visibili 2D
 62
   255
100
AcDbCircle
 10
294.24353830352
 20
297.2913917587641
 30
0.0
 40
0.0000000000000568
100
AcDbArc
 50
180.0
 51
0.0
  0
POLYLINE
  5
11A
330
1F
100
AcDbEntity
  8
Linee visibili 2D
 62
   255
100
AcDb2dPolyline
 66
     1
 10
0.0
 20
0.0
 30
0.0
  0
VERTEX
  5
11B
330
11A
100
AcDbEntity
  8
Linee visibili 2D
 62
   255
100
AcDbVertex
100
AcDb2dVertex
 10
281.2837015504088
 20
297.2814993589261
 30
0.0
  0
VERTEX
  5
11C
330
11A
100
AcDbEntity
  8
Linee visibili 2D
 62
   255
100
AcDbVertex
100
AcDb2dVertex
 10
280.0726938927429
 20
295.1839725674938
 30
0.0
  0
VERTEX
  5
11D
330
11A
100
AcDbEntity
  8
Linee visibili 2D
 62
   255
100
AcDbVertex
100
AcDb2dVertex
 10
277.6506785774111
 20
295.1839725674938
 30
0.0
  0
VERTEX
  5
11E
330
11A
100
AcDbEntity
  8
Linee visibili 2D
 62
   255
100
AcDbVertex
100
AcDb2dVertex
 10
276.4458432714395
 20
297.2921901856627
 30
0.0
  0
VERTEX
  5
11F
330
11A
100
AcDbEntity
  8
Linee visibili 2D
 62
   255
100
AcDbVertex
100
AcDb2dVertex
 10
277.6506785774111
 20
299.3790261503584
 30
0.0
  0
VERTEX
  5
120
330
11A
100
AcDbEntity
  8
Linee visibili 2D
 62
   255
100
AcDbVertex
100
AcDb2dVertex
 10
280.0726938927429
 20
299.3790261503584
 30
0.0
  0
VERTEX
  5
121
330
11A
100
AcDbEntity
  8
Linee visibili 2D
 62
   255
100
AcDbVertex
100
AcDb2dVertex
 10
281.2837015504088
 20
297.2814993589261
 30
0.0
  0
SEQEND
  5
122
330
11A
100
AcDbEntity
  8
Linee visibili 2D
 62
   255
  0
POLYLINE
  5
123
330
1F
100
AcDbEntity
  8
Linee visibili 2D
 62
   255
100
AcDb2dPolyline
 66
     1
 10
0.0
 20
0.0
 30
0.0
  0
VERTEX
  5
124
330
123
100
AcDbEntity
  8
Linee visibili 2D
 62
   255
100
AcDbVertex
100
AcDb2dVertex
 10
278.7402020972174
 20
305.5151636069384
 30
0.0
  0
VERTEX
  5
125
330
123
100
AcDbEntity
  8
Linee visibili 2D
 62
   255
100
AcDbVertex
100
AcDb2dVertex
 10
278.7402020972174
 20
311.9458359173827
 30
0.0
  0
VERTEX
  5
126
330
123
100
AcDbEntity
  8
Linee visibili 2D
 62
   255
100
AcDbVertex
100
AcDb2dVertex
 10
278.9831703729366
 20
311.9458359173827
 30
0.0
  0
VERTEX
  5
127
330
123
100
AcDbEntity
  8
Linee visibili 2D
 62
   255
100
AcDbVertex
100
AcDb2dVertex
 10
278.9831703729366
 20
305.5151636069384
 30
0.0
  0
VERTEX
  5
128
330
123
100
AcDbEntity
  8
Linee visibili 2D
 62
   255
100
AcDbVertex
100
AcDb2dVertex
 10
278.7402020972174
 20
305.5151636069384
 30
0.0
  0
SEQEND
  5
129
330
123
100
AcDbEntity
  8
Linee visibili 2D
 62
   255
  0
POLYLINE
  5
12A
330
1F
100
AcDbEntity
  8
Linee visibili 2D
 62
   255
100
AcDb2dPolyline
 66
     1
 10
0.0
 20
0.0
 30
0.0
  0
VERTEX
  5
12B
330
12A
100
AcDbEntity
  8
Linee visibili 2D
 62
   255
100
AcDbVertex
100
AcDb2dVertex
 10
270.2789561987042
 20
302.3770186551989
 30
0.0
  0
VERTEX
  5
12C
330
12A
100
AcDbEntity
  8
Linee visibili 2D
 62
   255
100
AcDbVertex
100
AcDb2dVertex
 10
270.1574720608444
 20
302.1666019561123
 30
0.0
  0
VERTEX
  5
12D
330
12A
100
AcDbEntity
  8
Linee visibili 2D
 62
   255
100
AcDbVertex
100
AcDb2dVertex
 10
266.1012561768789
 20
304.5084592886111
 30
0.0
  0
VERTEX
  5
12E
330
12A
100
AcDbEntity
  8
Linee visibili 2D
 62
   255
100
AcDbVertex
100
AcDb2dVertex
 10
266.2227403147385
 20
304.7188759876976
 30
0.0
  0
VERTEX
  5
12F
330
12A
100
AcDbEntity
  8
Linee visibili 2D
 62
   255
100
AcDbVertex
100
AcDb2dVertex
 10
270.2789561987042
 20
302.3770186551989
 30
0.0
  0
SEQEND
  5
130
330
12A
100
AcDbEntity
  8
Linee visibili 2D
 62
   255
  0
ARC
  5
131
330
1F
100
AcDbEntity
  8
Linee visibili 2D
 62
   255
100
AcDbCircle
 10
518.9820626325187
 20
136.6329004776497
 30
0.0
 40
5.252510910012276
100
AcDbArc
 50
305.671695833632
 51
147.3682821184011
  0
POLYLINE
  5
132
330
1F
100
AcDbEntity
  8
Linee visibili 2D
 62
   255
100
AcDb2dPolyline
 66
     1
 10
0.0
 20
0.0
 30
0.0
  0
VERTEX
  5
133
330
132
100
AcDbEntity
  8
Linee visibili 2D
 62
   255
100
AcDbVertex
100
AcDb2dVertex
 10
279.6268736379922
 20
56.29736794636543
 30
0.0
  0
VERTEX
  5
134
330
132
100
AcDbEntity
  8
Linee visibili 2D
 62
   255
100
AcDbVertex
100
AcDb2dVertex
 10
257.3463111547235
 20
55.90845928158276
 30
0.0
  0
VERTEX
  5
135
330
132
100
AcDbEntity
  8
Linee visibili 2D
 62
   255
100
AcDbVertex
100
AcDb2dVertex
 10
257.103346147076
 20
55.80395792039425
 30
0.0
  0
SEQEND
  5
136
330
132
100
AcDbEntity
  8
Linee visibili 2D
 62
   255
  0
LINE
  5
137
330
1F
100
AcDbEntity
  8
Linee visibili 2D
 62
   255
100
AcDbLine
 10
264.0021081090587
 20
44.76561164801402
 30
0.0
 11
283.7619693374752
 21
44.76561164801402
 31
0.0
  0
LINE
  5
138
330
1F
100
AcDbEntity
  8
Linee visibili 2D
 62
   255
100
AcDbLine
 10
518.6327573517976
 20
18.91702087465646
 30
0.0
 11
517.9341467903557
 21
18.21841031321432
 31
0.0
  0
LINE
  5
139
330
1F
100
AcDbEntity
  8
Linee visibili 2D
 62
   255
100
AcDbLine
 10
292.5259233130615
 20
55.59407535036652
 30
0.0
 11
296.2125279216984
 21
55.59407535036652
 31
0.0
  0
POLYLINE
  5
13A
330
1F
100
AcDbEntity
  8
Linee visibili 2D
 62
   255
100
AcDb2dPolyline
 66
     1
 10
0.0
 20
0.0
 30
0.0
  0
VERTEX
  5
13B
330
13A
100
AcDbEntity
  8
Linee visibili 2D
 62
   255
100
AcDbVertex
100
AcDb2dVertex
 10
259.3092802769437
 20
55.91626572114436
 30
0.0
  0
VERTEX
  5
13C
330
13A
100
AcDbEntity
  8
Linee visibili 2D
 62
   255
100
AcDbVertex
100
AcDb2dVertex
 10
259.0989337760585
 20
55.59579007987642
 30
0.0
  0
VERTEX
  5
13D
330
13A
100
AcDbEntity
  8
Linee visibili 2D
 62
   255
100
AcDbVertex
100
AcDb2dVertex
 10
259.0989337760585
 20
44.75055646823787
 30
0.0
  0
VERTEX
  5
13E
330
13A
100
AcDbEntity
  8
Linee visibili 2D
 62
   255
100
AcDbVertex
100
AcDb2dVertex
 10
258.7557247130673
 20
44.40130438840296
 30
0.0
  0
VERTEX
  5
13F
330
13A
100
AcDbEntity
  8
Linee visibili 2D
 62
   255
100
AcDbVertex
100
AcDb2dVertex
 10
257.3463111547235
 20
44.37670298323135
 30
0.0
  0
VERTEX
  5
140
330
13A
100
AcDbEntity
  8
Linee visibili 2D
 62
   255
100
AcDbVertex
100
AcDb2dVertex
 10
257.0453808934532
 20
44.19294513196965
 30
0.0
  0
SEQEND
  5
141
330
13A
100
AcDbEntity
  8
Linee visibili 2D
 62
   255
  0
POLYLINE
  5
142
330
1F
100
AcDbEntity
  8
Linee visibili 2D
 62
   255
100
AcDb2dPolyline
 66
     1
 10
0.0
 20
0.0
 30
0.0
  0
VERTEX
  5
143
330
142
100
AcDbEntity
  8
Linee visibili 2D
 62
   255
100
AcDbVertex
100
AcDb2dVertex
 10
275.3339547567076
 20
306.6186660808213
 30
0.0
  0
VERTEX
  5
144
330
142
100
AcDbEntity
  8
Linee visibili 2D
 62
   255
100
AcDbVertex
100
AcDb2dVertex
 10
273.7320299956885
 20
311.0199181893863
 30
0.0
  0
VERTEX
  5
145
330
142
100
AcDbEntity
  8
Linee visibili 2D
 62
   255
100
AcDbVertex
100
AcDb2dVertex
 10
273.960345491467
 20
311.1030182338714
 30
0.0
  0
VERTEX
  5
146
330
142
100
AcDbEntity
  8
Linee visibili 2D
 62
   255
100
AcDbVertex
100
AcDb2dVertex
 10
275.562270252486
 20
306.7017661253064
 30
0.0
  0
VERTEX
  5
147
330
142
100
AcDbEntity
  8
Linee visibili 2D
 62
   255
100
AcDbVertex
100
AcDb2dVertex
 10
275.3339547567076
 20
306.6186660808213
 30
0.0
  0
SEQEND
  5
148
330
142
100
AcDbEntity
  8
Linee visibili 2D
 62
   255
  0
POLYLINE
  5
149
330
1F
100
AcDbEntity
  8
Linee visibili 2D
 62
   255
100
AcDb2dPolyline
 66
     1
 10
0.0
 20
0.0
 30
0.0
  0
VERTEX
  5
14A
330
149
100
AcDbEntity
  8
Linee visibili 2D
 62
   255
100
AcDbVertex
100
AcDb2dVertex
 10
278.9831703729366
 20
289.0478351109138
 30
0.0
  0
VERTEX
  5
14B
330
149
100
AcDbEntity
  8
Linee visibili 2D
 62
   255
100
AcDbVertex
100
AcDb2dVertex
 10
278.9831703729366
 20
282.6171628004695
 30
0.0
  0
VERTEX
  5
14C
330
149
100
AcDbEntity
  8
Linee visibili 2D
 62
   255
100
AcDbVertex
100
AcDb2dVertex
 10
278.7402020972174
 20
282.6171628004695
 30
0.0
  0
VERTEX
  5
14D
330
149
100
AcDbEntity
  8
Linee visibili 2D
 62
   255
100
AcDbVertex
100
AcDb2dVertex
 10
278.7402020972174
 20
289.0478351109138
 30
0.0
  0
VERTEX
  5
14E
330
149
100
AcDbEntity
  8
Linee visibili 2D
 62
   255
100
AcDbVertex
100
AcDb2dVertex
 10
278.9831703729366
 20
289.0478351109138
 30
0.0
  0
SEQEND
  5
14F
330
149
100
AcDbEntity
  8
Linee visibili 2D
 62
   255
  0
LINE
  5
150
330
1F
100
AcDbEntity
  8
Linee visibili 2D
 62
   255
100
AcDbLine
 10
270.5519814986861
 20
56.07522404299263
 30
0.0
 11
279.3585964661401
 21
56.09013836233188
 31
0.0
  0
LINE
  5
151
330
1F
100
AcDbEntity
  8
Linee visibili 2D
 62
   255
100
AcDbLine
 10
296.9110320813684
 20
72.02247106939953
 30
0.0
 11
296.9400857686385
 21
72.15779075406894
 31
0.0
  0
LINE
  5
152
330
1F
100
AcDbEntity
  8
Linee visibili 2D
 62
   255
100
AcDbLine
 10
296.2125279216983
 20
98.9079301597765
 30
0.0
 11
296.9110320813681
 21
98.20942600010673
 31
0.0
  0
LINE
  5
153
330
1F
100
AcDbEntity
  8
Linee visibili 2D
 62
   255
100
AcDbLine
 10
280.6141959548407
 20
56.02191746436748
 30
0.0
 11
281.8286936394125
 21
56.02364000908338
 31
0.0
  0
LINE
  5
154
330
1F
100
AcDbEntity
  8
Linee visibili 2D
 62
   255
100
AcDbLine
 10
293.3308512867214
 20
98.79610290211568
 30
0.0
 11
293.3308512867214
 21
98.44679762139461
 31
0.0
  0
LINE
  5
155
330
1F
100
AcDbEntity
  8
Linee visibili 2D
 62
   255
100
AcDbLine
 10
293.3308512867214
 20
56.40615314954121
 30
0.0
 11
293.3308512867214
 21
56.05684786882026
 31
0.0
  0
LINE
  5
156
330
1F
100
AcDbEntity
  8
Linee visibili 2D
 62
   255
100
AcDbLine
 10
400.5675724680832
 20
135.5849846354866
 30
0.0
 11
401.2661830295252
 21
136.2835951969287
 31
0.0
  0
LINE
  5
157
330
1F
100
AcDbEntity
  8
Linee visibili 2D
 62
   255
100
AcDbLine
 10
281.9011594654819
 20
56.02374710764403
 30
0.0
 11
282.8517867468486
 21
56.0251984191859
 31
0.0
  0
LINE
  5
158
330
1F
100
AcDbEntity
  8
Linee visibili 2D
 62
   255
100
AcDbLine
 10
294.9376555780381
 20
74.58134652743692
 30
0.0
 11
297.074208915924
 21
74.58134652743692
 31
0.0
  0
LINE
  5
159
330
1F
100
AcDbEntity
  8
Linee visibili 2D
 62
   255
100
AcDbLine
 10
282.8516928650899
 20
55.7059026080274
 30
0.0
 11
282.8516928650899
 21
55.57472166366935
 31
0.0
  0
LINE
  5
15A
330
1F
100
AcDbEntity
  8
Linee visibili 2D
 62
   255
100
AcDbLine
 10
274.3679798885108
 20
79.76600077626304
 30
0.0
 11
294.9376555780381
 21
79.76600077626304
 31
0.0
  0
LINE
  5
15B
330
1F
100
AcDbEntity
  8
Linee visibili 2D
 62
   255
100
AcDbLine
 10
293.3308512867214
 20
98.44679762139461
 30
0.0
 11
293.3308512867214
 21
98.0958523606017
 31
0.0
  0
LINE
  5
15C
330
1F
100
AcDbEntity
  8
Linee visibili 2D
 62
   255
100
AcDbLine
 10
275.865587250669
 20
55.57472166370425
 30
0.0
 11
275.865587250669
 21
55.70590260802729
 31
0.0
  0
LINE
  5
15D
330
1F
100
AcDbEntity
  8
Linee visibili 2D
 62
   255
100
AcDbLine
 10
291.68326858007
 20
55.56358961859272
 30
0.0
 11
289.389549501836
 21
55.56358961859272
 31
0.0
  0
ARC
  5
15E
330
1F
100
AcDbEntity
  8
Linee visibili 2D
 62
   255
100
AcDbCircle
 10
400.2182671873622
 20
136.6329004776499
 30
0.0
 40
2.641907177023143
100
AcDbArc
 50
90.00000000000371
 51
180.0000000000025
  0
LINE
  5
15F
330
1F
100
AcDbEntity
  8
Linee visibili 2D
 62
   255
100
AcDbLine
 10
275.6909346103084
 20
55.59407535036652
 30
0.0
 11
283.0263455054504
 21
55.59407535036664
 31
0.0
  0
LINE
  5
160
330
1F
100
AcDbEntity
  8
Linee visibili 2D
 62
   255
100
AcDbLine
 10
297.0773406406303
 20
75.33014128760905
 30
0.0
 11
294.9376555780381
 21
75.33014128760905
 31
0.0
  0
POLYLINE
  5
161
330
1F
100
AcDbEntity
  8
Linee visibili 2D
 62
   255
100
AcDb2dPolyline
 66
     1
 10
0.0
 20
0.0
 30
0.0
  0
VERTEX
  5
162
330
161
100
AcDbEntity
  8
Linee visibili 2D
 62
   255
100
AcDbVertex
100
AcDb2dVertex
 10
257.0945730940177
 20
98.70719976056469
 30
0.0
  0
VERTEX
  5
163
330
161
100
AcDbEntity
  8
Linee visibili 2D
 62
   255
100
AcDbVertex
100
AcDb2dVertex
 10
257.3463111547235
 20
98.59354622856031
 30
0.0
  0
VERTEX
  5
164
330
161
100
AcDbEntity
  8
Linee visibili 2D
 62
   255
100
AcDbVertex
100
AcDb2dVertex
 10
279.6268736379922
 20
98.2046375637776
 30
0.0
  0
SEQEND
  5
165
330
161
100
AcDbEntity
  8
Linee visibili 2D
 62
   255
  0
POLYLINE
  5
166
330
1F
100
AcDbEntity
  8
Linee visibili 2D
 62
   255
100
AcDb2dPolyline
 66
     1
 10
0.0
 20
0.0
 30
0.0
  0
VERTEX
  5
167
330
166
100
AcDbEntity
  8
Linee visibili 2D
 62
   255
100
AcDbVertex
100
AcDb2dVertex
 10
271.4243096063054
 20
309.9204452792646
 30
0.0
  0
VERTEX
  5
168
330
166
100
AcDbEntity
  8
Linee visibili 2D
 62
   255
100
AcDbVertex
100
AcDb2dVertex
 10
271.6347263053919
 20
310.0419294171242
 30
0.0
  0
VERTEX
  5
169
330
166
100
AcDbEntity
  8
Linee visibili 2D
 62
   255
100
AcDbVertex
100
AcDb2dVertex
 10
273.9765836378907
 20
305.9857135331586
 30
0.0
  0
VERTEX
  5
16A
330
166
100
AcDbEntity
  8
Linee visibili 2D
 62
   255
100
AcDbVertex
100
AcDb2dVertex
 10
273.7661669388042
 20
305.864229395299
 30
0.0
  0
VERTEX
  5
16B
330
166
100
AcDbEntity
  8
Linee visibili 2D
 62
   255
100
AcDbVertex
100
AcDb2dVertex
 10
271.4243096063054
 20
309.9204452792646
 30
0.0
  0
SEQEND
  5
16C
330
166
100
AcDbEntity
  8
Linee visibili 2D
 62
   255
  0
POLYLINE
  5
16D
330
1F
100
AcDbEntity
  8
Linee visibili 2D
 62
   255
100
AcDb2dPolyline
 66
     1
 10
0.0
 20
0.0
 30
0.0
  0
VERTEX
  5
16E
330
16D
100
AcDbEntity
  8
Linee visibili 2D
 62
   255
100
AcDbVertex
100
AcDb2dVertex
 10
290.6521218097888
 20
296.2349888863639
 30
0.0
  0
VERTEX
  5
16F
330
16D
100
AcDbEntity
  8
Linee visibili 2D
 62
   255
100
AcDbVertex
100
AcDb2dVertex
 10
289.4448697689761
 20
296.2349888863639
 30
0.0
  0
VERTEX
  5
170
330
16D
100
AcDbEntity
  8
Linee visibili 2D
 62
   255
100
AcDbVertex
100
AcDb2dVertex
 10
288.8532932665685
 20
297.2985277374963
 30
0.0
  0
VERTEX
  5
171
330
16D
100
AcDbEntity
  8
Linee visibili 2D
 62
   255
100
AcDbVertex
100
AcDb2dVertex
 10
289.4448697689761
 20
298.3280098314883
 30
0.0
  0
VERTEX
  5
172
330
16D
100
AcDbEntity
  8
Linee visibili 2D
 62
   255
100
AcDbVertex
100
AcDb2dVertex
 10
290.6521218097888
 20
298.3280098314883
 30
0.0
  0
VERTEX
  5
173
330
16D
100
AcDbEntity
  8
Linee visibili 2D
 62
   255
100
AcDbVertex
100
AcDb2dVertex
 10
291.2436983121964
 20
297.2985277374963
 30
0.0
  0
VERTEX
  5
174
330
16D
100
AcDbEntity
  8
Linee visibili 2D
 62
   255
100
AcDbVertex
100
AcDb2dVertex
 10
290.6521218097888
 20
296.2349888863639
 30
0.0
  0
SEQEND
  5
175
330
16D
100
AcDbEntity
  8
Linee visibili 2D
 62
   255
  0
POLYLINE
  5
176
330
1F
100
AcDbEntity
  8
Linee visibili 2D
 62
   255
100
AcDb2dPolyline
 66
     1
 10
0.0
 20
0.0
 30
0.0
  0
VERTEX
  5
177
330
176
100
AcDbEntity
  8
Linee visibili 2D
 62
   255
100
AcDbVertex
100
AcDb2dVertex
 10
291.7247500639351
 20
297.287175355505
 30
0.0
 42
0.9966253467241742
  0
VERTEX
  5
178
330
176
100
AcDbEntity
  8
Linee visibili 2D
 62
   255
100
AcDbVertex
100
AcDb2dVertex
 10
288.3722415148298
 20
297.2871753555051
 30
0.0
 42
1.003397584880549
  0
VERTEX
  5
179
330
176
100
AcDbEntity
  8
Linee visibili 2D
 62
   255
100
AcDbVertex
100
AcDb2dVertex
 10
291.7247500639351
 20
297.287175355505
 30
0.0
  0
SEQEND
  5
17A
330
176
100
AcDbEntity
  8
Linee visibili 2D
 62
   255
  0
POLYLINE
  5
17B
330
1F
100
AcDbEntity
  8
Predefinito
 62
   255
100
AcDb2dPolyline
 66
     1
 10
0.0
 20
0.0
 30
0.0
  0
VERTEX
  5
17C
330
17B
100
AcDbEntity
  8
Predefinito
 62
   255
100
AcDbVertex
100
AcDb2dVertex
 10
399.7868540448582
 20
308.7810642041958
 30
0.0
  0
VERTEX
  5
17D
330
17B
100
AcDbEntity
  8
Predefinito
 62
   255
100
AcDbVertex
100
AcDb2dVertex
 10
517.2345978310813
 20
308.7810642041955
 30
0.0
  0
VERTEX
  5
17E
330
17B
100
AcDbEntity
  8
Predefinito
 62
   255
100
AcDbVertex
100
AcDb2dVertex
 10
399.7868540448582
 20
308.7810642041958
 30
0.0
  0
VERTEX
  5
17F
330
17B
100
AcDbEntity
  8
Predefinito
 62
   255
100
AcDbVertex
100
AcDb2dVertex
 10
397.5196044387349
 20
308.7810642041958
 30
0.0
  0
VERTEX
  5
180
330
17B
100
AcDbEntity
  8
Predefinito
 62
   255
100
AcDbVertex
100
AcDb2dVertex
 10
397.1742225095408
 20
308.3538695982989
 30
0.0
  0
VERTEX
  5
181
330
17B
100
AcDbEntity
  8
Predefinito
 62
   255
100
AcDbVertex
100
AcDb2dVertex
 10
397.0414664674776
 20
298.7810642041958
 30
0.0
  0
VERTEX
  5
182
330
17B
100
AcDbEntity
  8
Predefinito
 62
   255
100
AcDbVertex
100
AcDb2dVertex
 10
397.1742225095408
 20
308.3538695982989
 30
0.0
  0
SEQEND
  5
183
330
17B
100
AcDbEntity
  8
Predefinito
 62
   255
  0
POLYLINE
  5
184
330
1F
100
AcDbEntity
  8
Linee visibili 2D
 62
   255
100
AcDb2dPolyline
 66
     1
 10
0.0
 20
0.0
 30
0.0
  0
VERTEX
  5
185
330
184
100
AcDbEntity
  8
Linee visibili 2D
 62
   255
100
AcDbVertex
100
AcDb2dVertex
 10
218.1057654156285
 20
246.3920663602867
 30
0.0
  0
VERTEX
  5
186
330
184
100
AcDbEntity
  8
Linee visibili 2D
 62
   255
100
AcDbVertex
100
AcDb2dVertex
 10
216.5962774167758
 20
246.4104917625277
 30
0.0
  0
VERTEX
  5
187
330
184
100
AcDbEntity
  8
Linee visibili 2D
 62
   255
100
AcDbVertex
100
AcDb2dVertex
 10
216.1057838782082
 20
246.7839101180962
 30
0.0
  0
VERTEX
  5
188
330
184
100
AcDbEntity
  8
Linee visibili 2D
 62
   255
100
AcDbVertex
100
AcDb2dVertex
 10
216.1057838783157
 20
257.6711138946885
 30
0.0
  0
VERTEX
  5
189
330
184
100
AcDbEntity
  8
Linee visibili 2D
 62
   255
100
AcDbVertex
100
AcDb2dVertex
 10
216.1057554121396
 20
261.4477634958943
 30
0.0
  0
VERTEX
  5
18A
330
184
100
AcDbEntity
  8
Linee visibili 2D
 62
   255
100
AcDbVertex
100
AcDb2dVertex
 10
216.1057554121396
 20
333.1152352309218
 30
0.0
  0
VERTEX
  5
18B
330
184
100
AcDbEntity
  8
Linee visibili 2D
 62
   255
100
AcDbVertex
100
AcDb2dVertex
 10
216.1057838783157
 20
336.8918848321276
 30
0.0
  0
VERTEX
  5
18C
330
184
100
AcDbEntity
  8
Linee visibili 2D
 62
   255
100
AcDbVertex
100
AcDb2dVertex
 10
216.1057838782082
 20
347.7790886087199
 30
0.0
  0
VERTEX
  5
18D
330
184
100
AcDbEntity
  8
Linee visibili 2D
 62
   255
100
AcDbVertex
100
AcDb2dVertex
 10
216.5962774167758
 20
348.1525069642884
 30
0.0
  0
VERTEX
  5
18E
330
184
100
AcDbEntity
  8
Linee visibili 2D
 62
   255
100
AcDbVertex
100
AcDb2dVertex
 10
216.5970332246079
 20
328.8577087928551
 30
0.0
  0
VERTEX
  5
18F
330
184
100
AcDbEntity
  8
Linee visibili 2D
 62
   255
100
AcDbVertex
100
AcDb2dVertex
 10
216.5970301522576
 20
265.7052899231676
 30
0.0
  0
VERTEX
  5
190
330
184
100
AcDbEntity
  8
Linee visibili 2D
 62
   255
100
AcDbVertex
100
AcDb2dVertex
 10
216.5969875050843
 20
264.5062280157006
 30
0.0
  0
VERTEX
  5
191
330
184
100
AcDbEntity
  8
Linee visibili 2D
 62
   255
100
AcDbVertex
100
AcDb2dVertex
 10
216.597033202134
 20
257.3966353737886
 30
0.0
  0
VERTEX
  5
192
330
184
100
AcDbEntity
  8
Linee visibili 2D
 62
   255
100
AcDbVertex
100
AcDb2dVertex
 10
216.5970318414373
 20
246.4585788986193
 30
0.0
  0
SEQEND
  5
193
330
184
100
AcDbEntity
  8
Linee visibili 2D
 62
   255
  0
LINE
  5
194
330
1F
100
AcDbEntity
  8
Linee visibili 2D
 62
   255
100
AcDbLine
 10
294.9376555780381
 20
74.73600473387998
 30
0.0
 11
274.3674851860469
 21
74.73600473387998
 31
0.0
  0
POLYLINE
  5
195
330
1F
100
AcDbEntity
  8
Linee visibili 2D
 62
   255
100
AcDb2dPolyline
 66
     1
 10
0.0
 20
0.0
 30
0.0
  0
VERTEX
  5
196
330
195
100
AcDbEntity
  8
Linee visibili 2D
 62
   255
100
AcDbVertex
100
AcDb2dVertex
 10
278.861686235077
 20
304.273255330367
 30
0.0
 42
-2.414213464862279
  0
VERTEX
  5
197
330
195
100
AcDbEntity
  8
Linee visibili 2D
 62
   255
100
AcDbVertex
100
AcDb2dVertex
 10
271.8699348716831
 20
297.2871754772124
 30
0.0
 42
-0.4137382593966391
  0
VERTEX
  5
198
330
195
100
AcDbEntity
  8
Linee visibili 2D
 62
   255
100
AcDbVertex
100
AcDb2dVertex
 10
278.861686235077
 20
304.273255330367
 30
0.0
  0
SEQEND
  5
199
330
195
100
AcDbEntity
  8
Linee visibili 2D
 62
   255
  0
POLYLINE
  5
19A
330
1F
100
AcDbEntity
  8
Linee visibili 2D
 62
   255
100
AcDb2dPolyline
 66
     1
 10
0.0
 20
0.0
 30
0.0
  0
VERTEX
  5
19B
330
19A
100
AcDbEntity
  8
Linee visibili 2D
 62
   255
100
AcDbVertex
100
AcDb2dVertex
 10
264.1973496766204
 20
297.1600152210665
 30
0.0
  0
VERTEX
  5
19C
330
19A
100
AcDbEntity
  8
Linee visibili 2D
 62
   255
100
AcDbVertex
100
AcDb2dVertex
 10
264.1973496766204
 20
297.4029834967856
 30
0.0
  0
VERTEX
  5
19D
330
19A
100
AcDbEntity
  8
Linee visibili 2D
 62
   255
100
AcDbVertex
100
AcDb2dVertex
 10
270.6280219870648
 20
297.4029834967856
 30
0.0
  0
VERTEX
  5
19E
330
19A
100
AcDbEntity
  8
Linee visibili 2D
 62
   255
100
AcDbVertex
100
AcDb2dVertex
 10
270.6280219870648
 20
297.1600152210665
 30
0.0
  0
VERTEX
  5
19F
330
19A
100
AcDbEntity
  8
Linee visibili 2D
 62
   255
100
AcDbVertex
100
AcDb2dVertex
 10
264.1973496766204
 20
297.1600152210665
 30
0.0
  0
SEQEND
  5
1A0
330
19A
100
AcDbEntity
  8
Linee visibili 2D
 62
   255
  0
POLYLINE
  5
1A1
330
1F
100
AcDbEntity
  8
Predefinito
 62
   255
100
AcDb2dPolyline
 66
     1
 10
0.0
 20
0.0
 30
0.0
  0
VERTEX
  5
1A2
330
1A1
100
AcDbEntity
  8
Predefinito
 62
   255
100
AcDbVertex
100
AcDb2dVertex
 10
296.9110320813681
 20
9.8639609880494
 30
0.0
  0
VERTEX
  5
1A3
330
1A1
100
AcDbEntity
  8
Predefinito
 62
   255
100
AcDbVertex
100
AcDb2dVertex
 10
296.9110320813681
 20
44.41641276906526
 30
0.0
  0
VERTEX
  5
1A4
330
1A1
100
AcDbEntity
  8
Predefinito
 62
   255
100
AcDbVertex
100
AcDb2dVertex
 10
296.2125279216984
 20
45.11491692873508
 30
0.0
  0
VERTEX
  5
1A5
330
1A1
100
AcDbEntity
  8
Predefinito
 62
   255
100
AcDbVertex
100
AcDb2dVertex
 10
295.0773769514592
 20
45.11489032829192
 30
0.0
  0
VERTEX
  5
1A6
330
1A1
100
AcDbEntity
  8
Predefinito
 62
   255
100
AcDbVertex
100
AcDb2dVertex
 10
294.7729502247032
 20
44.93686872056267
 30
0.0
  0
VERTEX
  5
1A7
330
1A1
100
AcDbEntity
  8
Predefinito
 62
   255
100
AcDbVertex
100
AcDb2dVertex
 10
294.7280724102429
 20
44.76560903070433
 30
0.0
  0
VERTEX
  5
1A8
330
1A1
100
AcDbEntity
  8
Predefinito
 62
   255
100
AcDbVertex
100
AcDb2dVertex
 10
294.3787676685598
 20
44.41630636729334
 30
0.0
  0
VERTEX
  5
1A9
330
1A1
100
AcDbEntity
  8
Predefinito
 62
   255
100
AcDbVertex
100
AcDb2dVertex
 10
279.3586400578794
 20
44.41630636729289
 30
0.0
  0
SEQEND
  5
1AA
330
1A1
100
AcDbEntity
  8
Predefinito
 62
   255
  0
POLYLINE
  5
1AB
330
1F
100
AcDbEntity
  8
Linee visibili 2D
 62
   255
100
AcDb2dPolyline
 66
     1
 10
0.0
 20
0.0
 30
0.0
  0
VERTEX
  5
1AC
330
1AB
100
AcDbEntity
  8
Linee visibili 2D
 62
   255
100
AcDbVertex
100
AcDb2dVertex
 10
267.5500642038552
 20
287.9485077636112
 30
0.0
  0
VERTEX
  5
1AD
330
1AB
100
AcDbEntity
  8
Linee visibili 2D
 62
   255
100
AcDbVertex
100
AcDb2dVertex
 10
271.1379977961315
 20
290.9591415175789
 30
0.0
  0
VERTEX
  5
1AE
330
1AB
100
AcDbEntity
  8
Linee visibili 2D
 62
   255
100
AcDbVertex
100
AcDb2dVertex
 10
271.2941747933107
 20
290.7730170201099
 30
0.0
  0
VERTEX
  5
1AF
330
1AB
100
AcDbEntity
  8
Linee visibili 2D
 62
   255
100
AcDbVertex
100
AcDb2dVertex
 10
267.7062412010344
 20
287.7623832661424
 30
0.0
  0
VERTEX
  5
1B0
330
1AB
100
AcDbEntity
  8
Linee visibili 2D
 62
   255
100
AcDbVertex
100
AcDb2dVertex
 10
267.5500642038552
 20
287.9485077636112
 30
0.0
  0
SEQEND
  5
1B1
330
1AB
100
AcDbEntity
  8
Linee visibili 2D
 62
   255
  0
POLYLINE
  5
1B2
330
1F
100
AcDbEntity
  8
Linee visibili 2D
 62
   255
100
AcDb2dPolyline
 66
     1
 10
0.0
 20
0.0
 30
0.0
  0
VERTEX
  5
1B3
330
1B2
100
AcDbEntity
  8
Linee visibili 2D
 62
   255
100
AcDbVertex
100
AcDb2dVertex
 10
280.0726938927429
 20
299.3790261503584
 30
0.0
  0
VERTEX
  5
1B4
330
1B2
100
AcDbEntity
  8
Linee visibili 2D
 62
   255
100
AcDbVertex
100
AcDb2dVertex
 10
281.2837015504088
 20
297.2814993589261
 30
0.0
  0
VERTEX
  5
1B5
330
1B2
100
AcDbEntity
  8
Linee visibili 2D
 62
   255
100
AcDbVertex
100
AcDb2dVertex
 10
280.0726938927429
 20
295.1839725674938
 30
0.0
  0
VERTEX
  5
1B6
330
1B2
100
AcDbEntity
  8
Linee visibili 2D
 62
   255
100
AcDbVertex
100
AcDb2dVertex
 10
277.6506785774111
 20
295.1839725674938
 30
0.0
  0
VERTEX
  5
1B7
330
1B2
100
AcDbEntity
  8
Linee visibili 2D
 62
   255
100
AcDbVertex
100
AcDb2dVertex
 10
276.4458432714395
 20
297.2921901856627
 30
0.0
  0
VERTEX
  5
1B8
330
1B2
100
AcDbEntity
  8
Linee visibili 2D
 62
   255
100
AcDbVertex
100
AcDb2dVertex
 10
277.6506785774111
 20
299.3790261503584
 30
0.0
  0
VERTEX
  5
1B9
330
1B2
100
AcDbEntity
  8
Linee visibili 2D
 62
   255
100
AcDbVertex
100
AcDb2dVertex
 10
280.0726938927429
 20
299.3790261503584
 30
0.0
  0
SEQEND
  5
1BA
330
1B2
100
AcDbEntity
  8
Linee visibili 2D
 62
   255
  0
POLYLINE
  5
1BB
330
1F
100
AcDbEntity
  8
Linee visibili 2D
 62
   255
100
AcDb2dPolyline
 66
     1
 10
0.0
 20
0.0
 30
0.0
  0
VERTEX
  5
1BC
330
1BB
100
AcDbEntity
  8
Linee visibili 2D
 62
   255
100
AcDbVertex
100
AcDb2dVertex
 10
269.5286946397621
 20
285.9698773277043
 30
0.0
  0
VERTEX
  5
1BD
330
1BB
100
AcDbEntity
  8
Linee visibili 2D
 62
   255
100
AcDbVertex
100
AcDb2dVertex
 10
269.3425701422933
 20
286.1260543248835
 30
0.0
  0
VERTEX
  5
1BE
330
1BB
100
AcDbEntity
  8
Linee visibili 2D
 62
   255
100
AcDbVertex
100
AcDb2dVertex
 10
272.3532038962609
 20
289.7139879171598
 30
0.0
  0
VERTEX
  5
1BF
330
1BB
100
AcDbEntity
  8
Linee visibili 2D
 62
   255
100
AcDbVertex
100
AcDb2dVertex
 10
272.5393283937298
 20
289.5578109199806
 30
0.0
  0
VERTEX
  5
1C0
330
1BB
100
AcDbEntity
  8
Linee visibili 2D
 62
   255
100
AcDbVertex
100
AcDb2dVertex
 10
269.5286946397621
 20
285.9698773277043
 30
0.0
  0
SEQEND
  5
1C1
330
1BB
100
AcDbEntity
  8
Linee visibili 2D
 62
   255
  0
POLYLINE
  5
1C2
330
1F
100
AcDbEntity
  8
Linee visibili 2D
 62
   255
100
AcDb2dPolyline
 66
     1
 10
0.0
 20
0.0
 30
0.0
  0
VERTEX
  5
1C3
330
1C2
100
AcDbEntity
  8
Linee visibili 2D
 62
   255
100
AcDbVertex
100
AcDb2dVertex
 10
276.1956123941744
 20
311.7019561953198
 30
0.0
  0
VERTEX
  5
1C4
330
1C2
100
AcDbEntity
  8
Linee visibili 2D
 62
   255
100
AcDbVertex
100
AcDb2dVertex
 10
276.4348894358386
 20
311.7441471936293
 30
0.0
  0
VERTEX
  5
1C5
330
1C2
100
AcDbEntity
  8
Linee visibili 2D
 62
   255
100
AcDbVertex
100
AcDb2dVertex
 10
277.2482079521273
 20
307.1315886786427
 30
0.0
  0
VERTEX
  5
1C6
330
1C2
100
AcDbEntity
  8
Linee visibili 2D
 62
   255
100
AcDbVertex
100
AcDb2dVertex
 10
277.0089309104631
 20
307.0893976803332
 30
0.0
  0
VERTEX
  5
1C7
330
1C2
100
AcDbEntity
  8
Linee visibili 2D
 62
   255
100
AcDbVertex
100
AcDb2dVertex
 10
276.1956123941744
 20
311.7019561953198
 30
0.0
  0
SEQEND
  5
1C8
330
1C2
100
AcDbEntity
  8
Linee visibili 2D
 62
   255
  0
POLYLINE
  5
1C9
330
1F
100
AcDbEntity
  8
Linee visibili 2D
 62
   255
100
AcDb2dPolyline
 66
     1
 10
0.0
 20
0.0
 30
0.0
  0
VERTEX
  5
1CA
330
1C9
100
AcDbEntity
  8
Linee visibili 2D
 62
   255
100
AcDbVertex
100
AcDb2dVertex
 10
271.6347263053919
 20
284.521069300728
 30
0.0
  0
VERTEX
  5
1CB
330
1C9
100
AcDbEntity
  8
Linee visibili 2D
 62
   255
100
AcDbVertex
100
AcDb2dVertex
 10
271.4243096063054
 20
284.6425534385875
 30
0.0
  0
VERTEX
  5
1CC
330
1C9
100
AcDbEntity
  8
Linee visibili 2D
 62
   255
100
AcDbVertex
100
AcDb2dVertex
 10
273.7661669388042
 20
288.6987693225532
 30
0.0
  0
VERTEX
  5
1CD
330
1C9
100
AcDbEntity
  8
Linee visibili 2D
 62
   255
100
AcDbVertex
100
AcDb2dVertex
 10
273.9765836378907
 20
288.5772851846936
 30
0.0
  0
VERTEX
  5
1CE
330
1C9
100
AcDbEntity
  8
Linee visibili 2D
 62
   255
100
AcDbVertex
100
AcDb2dVertex
 10
271.6347263053919
 20
284.521069300728
 30
0.0
  0
SEQEND
  5
1CF
330
1C9
100
AcDbEntity
  8
Linee visibili 2D
 62
   255
  0
POLYLINE
  5
1D0
330
1F
100
AcDbEntity
  8
Linee visibili 2D
 62
   255
100
AcDb2dPolyline
 66
     1
 10
0.0
 20
0.0
 30
0.0
  0
VERTEX
  5
1D1
330
1D0
100
AcDbEntity
  8
Linee visibili 2D
 62
   255
100
AcDbVertex
100
AcDb2dVertex
 10
236.5999408953786
 20
297.2928511507366
 30
0.0
 42
-1.004228630192245
  0
VERTEX
  5
1D2
330
1D0
100
AcDbEntity
  8
Linee visibili 2D
 62
   255
100
AcDbVertex
100
AcDb2dVertex
 10
231.1464806133995
 20
297.293099488566
 30
0.0
 42
-0.9958109342641133
  0
VERTEX
  5
1D3
330
1D0
100
AcDbEntity
  8
Linee visibili 2D
 62
   255
100
AcDbVertex
100
AcDb2dVertex
 10
236.5999408953786
 20
297.2928511507366
 30
0.0
  0
SEQEND
  5
1D4
330
1D0
100
AcDbEntity
  8
Linee visibili 2D
 62
   255
  0
POLYLINE
  5
1D5
330
1F
100
AcDbEntity
  8
Linee visibili 2D
 62
   255
100
AcDb2dPolyline
 66
     1
 10
0.0
 20
0.0
 30
0.0
  0
VERTEX
  5
1D6
330
1D5
100
AcDbEntity
  8
Linee visibili 2D
 62
   255
100
AcDbVertex
100
AcDb2dVertex
 10
228.2356355473464
 20
230.2192943340083
 30
0.0
  0
VERTEX
  5
1D7
330
1D5
100
AcDbEntity
  8
Linee visibili 2D
 62
   255
100
AcDbVertex
100
AcDb2dVertex
 10
228.1329888980968
 20
230.3769753741812
 30
0.0
  0
VERTEX
  5
1D8
330
1D5
100
AcDbEntity
  8
Linee visibili 2D
 62
   255
100
AcDbVertex
100
AcDb2dVertex
 10
227.743468246957
 20
230.5162254184885
 30
0.0
  0
VERTEX
  5
1D9
330
1D5
100
AcDbEntity
  8
Linee visibili 2D
 62
   255
100
AcDbVertex
100
AcDb2dVertex
 10
218.6037028686924
 20
230.6262758093689
 30
0.0
  0
VERTEX
  5
1DA
330
1D5
100
AcDbEntity
  8
Linee visibili 2D
 62
   255
100
AcDbVertex
100
AcDb2dVertex
 10
218.1057654206539
 20
230.9758103640259
 30
0.0
  0
VERTEX
  5
1DB
330
1D5
100
AcDbEntity
  8
Linee visibili 2D
 62
   255
100
AcDbVertex
100
AcDb2dVertex
 10
218.1057654206541
 20
363.5871883639089
 30
0.0
  0
VERTEX
  5
1DC
330
1D5
100
AcDbEntity
  8
Linee visibili 2D
 62
   255
100
AcDbVertex
100
AcDb2dVertex
 10
218.6037028686924
 20
363.936722918566
 30
0.0
  0
VERTEX
  5
1DD
330
1D5
100
AcDbEntity
  8
Linee visibili 2D
 62
   255
100
AcDbVertex
100
AcDb2dVertex
 10
227.7434682469571
 20
364.0467733094465
 30
0.0
  0
VERTEX
  5
1DE
330
1D5
100
AcDbEntity
  8
Linee visibili 2D
 62
   255
100
AcDbVertex
100
AcDb2dVertex
 10
228.1329046298135
 20
364.1860830629925
 30
0.0
  0
VERTEX
  5
1DF
330
1D5
100
AcDbEntity
  8
Linee visibili 2D
 62
   255
100
AcDbVertex
100
AcDb2dVertex
 10
228.2356355473465
 20
364.3437043939266
 30
0.0
  0
SEQEND
  5
1E0
330
1D5
100
AcDbEntity
  8
Linee visibili 2D
 62
   255
  0
LINE
  5
1E1
330
1F
100
AcDbEntity
  8
Predefinito
 62
   255
100
AcDbLine
 10
290.0757815774908
 20
307.8038165493663
 30
0.0
 11
290.0757796966602
 21
307.8038185539318
 31
0.0
  0
POLYLINE
  5
1E2
330
1F
100
AcDbEntity
  8
Linee visibili 2D
 62
   255
100
AcDb2dPolyline
 66
     1
 10
0.0
 20
0.0
 30
0.0
  0
VERTEX
  5
1E3
330
1E2
100
AcDbEntity
  8
Linee visibili 2D
 62
   255
100
AcDbVertex
100
AcDb2dVertex
 10
272.5393283937298
 20
305.0051877978716
 30
0.0
  0
VERTEX
  5
1E4
330
1E2
100
AcDbEntity
  8
Linee visibili 2D
 62
   255
100
AcDbVertex
100
AcDb2dVertex
 10
272.3532038962609
 20
304.8490108006924
 30
0.0
  0
VERTEX
  5
1E5
330
1E2
100
AcDbEntity
  8
Linee visibili 2D
 62
   255
100
AcDbVertex
100
AcDb2dVertex
 10
269.3425701422933
 20
308.4369443929687
 30
0.0
  0
VERTEX
  5
1E6
330
1E2
100
AcDbEntity
  8
Linee visibili 2D
 62
   255
100
AcDbVertex
100
AcDb2dVertex
 10
269.5286946397621
 20
308.5931213901479
 30
0.0
  0
VERTEX
  5
1E7
330
1E2
100
AcDbEntity
  8
Linee visibili 2D
 62
   255
100
AcDbVertex
100
AcDb2dVertex
 10
272.5393283937298
 20
305.0051877978716
 30
0.0
  0
SEQEND
  5
1E8
330
1E2
100
AcDbEntity
  8
Linee visibili 2D
 62
   255
  0
POLYLINE
  5
1E9
330
1F
100
AcDbEntity
  8
Linee visibili 2D
 62
   255
100
AcDb2dPolyline
 66
     1
 10
0.0
 20
0.0
 30
0.0
  0
VERTEX
  5
1EA
330
1E9
100
AcDbEntity
  8
Linee visibili 2D
 62
   255
100
AcDbVertex
100
AcDb2dVertex
 10
264.4412293986833
 20
294.6154255180234
 30
0.0
  0
VERTEX
  5
1EB
330
1E9
100
AcDbEntity
  8
Linee visibili 2D
 62
   255
100
AcDbVertex
100
AcDb2dVertex
 10
264.3990384003737
 20
294.8547025596877
 30
0.0
  0
VERTEX
  5
1EC
330
1E9
100
AcDbEntity
  8
Linee visibili 2D
 62
   255
100
AcDbVertex
100
AcDb2dVertex
 10
269.0115969153604
 20
295.6680210759764
 30
0.0
  0
VERTEX
  5
1ED
330
1E9
100
AcDbEntity
  8
Linee visibili 2D
 62
   255
100
AcDbVertex
100
AcDb2dVertex
 10
269.05378791367
 20
295.4287440343122
 30
0.0
  0
VERTEX
  5
1EE
330
1E9
100
AcDbEntity
  8
Linee visibili 2D
 62
   255
100
AcDbVertex
100
AcDb2dVertex
 10
264.4412293986833
 20
294.6154255180234
 30
0.0
  0
SEQEND
  5
1EF
330
1E9
100
AcDbEntity
  8
Linee visibili 2D
 62
   255
  0
POLYLINE
  5
1F0
330
1F
100
AcDbEntity
  8
Linee visibili 2D
 62
   255
100
AcDb2dPolyline
 66
     1
 10
0.0
 20
0.0
 30
0.0
  0
VERTEX
  5
1F1
330
1F0
100
AcDbEntity
  8
Linee visibili 2D
 62
   255
100
AcDbVertex
100
AcDb2dVertex
 10
276.4348894358386
 20
311.7441471936293
 30
0.0
  0
VERTEX
  5
1F2
330
1F0
100
AcDbEntity
  8
Linee visibili 2D
 62
   255
100
AcDbVertex
100
AcDb2dVertex
 10
277.2482079521273
 20
307.1315886786427
 30
0.0
  0
VERTEX
  5
1F3
330
1F0
100
AcDbEntity
  8
Linee visibili 2D
 62
   255
100
AcDbVertex
100
AcDb2dVertex
 10
277.0089309104631
 20
307.0893976803332
 30
0.0
  0
VERTEX
  5
1F4
330
1F0
100
AcDbEntity
  8
Linee visibili 2D
 62
   255
100
AcDbVertex
100
AcDb2dVertex
 10
276.1956123941744
 20
311.7019561953198
 30
0.0
  0
VERTEX
  5
1F5
330
1F0
100
AcDbEntity
  8
Linee visibili 2D
 62
   255
100
AcDbVertex
100
AcDb2dVertex
 10
276.4348894358386
 20
311.7441471936293
 30
0.0
  0
SEQEND
  5
1F6
330
1F0
100
AcDbEntity
  8
Linee visibili 2D
 62
   255
  0
POLYLINE
  5
1F7
330
1F
100
AcDbEntity
  8
Predefinito
 62
   255
100
AcDb2dPolyline
 66
     1
 10
0.0
 20
0.0
 30
0.0
  0
VERTEX
  5
1F8
330
1F7
100
AcDbEntity
  8
Predefinito
 62
   255
100
AcDbVertex
100
AcDb2dVertex
 10
296.473344184331
 20
286.5275315572261
 30
0.0
  0
VERTEX
  5
1F9
330
1F7
100
AcDbEntity
  8
Predefinito
 62
   255
100
AcDbVertex
100
AcDb2dVertex
 10
296.6193001604772
 20
286.3376534840575
 30
0.0
  0
VERTEX
  5
1FA
330
1F7
100
AcDbEntity
  8
Predefinito
 62
   255
100
AcDbVertex
100
AcDb2dVertex
 10
296.473344184331
 20
286.5275315572261
 30
0.0
  0
VERTEX
  5
1FB
330
1F7
100
AcDbEntity
  8
Predefinito
 62
   255
100
AcDbVertex
100
AcDb2dVertex
 10
295.9242590060817
 20
286.7938654017648
 30
0.0
  0
VERTEX
  5
1FC
330
1F7
100
AcDbEntity
  8
Predefinito
 62
   255
100
AcDbVertex
100
AcDb2dVertex
 10
290.2648951326074
 20
286.7938654017648
 30
0.0
  0
VERTEX
  5
1FD
330
1F7
100
AcDbEntity
  8
Predefinito
 62
   255
100
AcDbVertex
100
AcDb2dVertex
 10
290.0888521413169
 20
286.746304910117
 30
0.0
  0
VERTEX
  5
1FE
330
1F7
100
AcDbEntity
  8
Predefinito
 62
   255
100
AcDbVertex
100
AcDb2dVertex
 10
290.0352809832246
 20
286.7142251751054
 30
0.0
  0
VERTEX
  5
1FF
330
1F7
100
AcDbEntity
  8
Predefinito
 62
   255
100
AcDbVertex
100
AcDb2dVertex
 10
290.0888521413169
 20
286.746304910117
 30
0.0
  0
VERTEX
  5
200
330
1F7
100
AcDbEntity
  8
Predefinito
 62
   255
100
AcDbVertex
100
AcDb2dVertex
 10
290.2648951326074
 20
286.7938654017648
 30
0.0
  0
VERTEX
  5
201
330
1F7
100
AcDbEntity
  8
Predefinito
 62
   255
100
AcDbVertex
100
AcDb2dVertex
 10
290.3272717647581
 20
286.7938654017648
 30
0.0
  0
VERTEX
  5
202
330
1F7
100
AcDbEntity
  8
Predefinito
 62
   255
100
AcDbVertex
100
AcDb2dVertex
 10
295.9242590060817
 20
286.7938654017648
 30
0.0
  0
VERTEX
  5
203
330
1F7
100
AcDbEntity
  8
Predefinito
 62
   255
100
AcDbVertex
100
AcDb2dVertex
 10
296.473344184331
 20
286.5275315572261
 30
0.0
  0
SEQEND
  5
204
330
1F7
100
AcDbEntity
  8
Predefinito
 62
   255
  0
POLYLINE
  5
205
330
1F
100
AcDbEntity
  8
Linee visibili 2D
 62
   255
100
AcDb2dPolyline
 66
     1
 10
0.0
 20
0.0
 30
0.0
  0
VERTEX
  5
206
330
205
100
AcDbEntity
  8
Linee visibili 2D
 62
   255
100
AcDbVertex
100
AcDb2dVertex
 10
265.0401673601317
 20
292.3801586153161
 30
0.0
  0
VERTEX
  5
207
330
205
100
AcDbEntity
  8
Linee visibili 2D
 62
   255
100
AcDbVertex
100
AcDb2dVertex
 10
269.4414194686967
 20
293.9820833763351
 30
0.0
  0
VERTEX
  5
208
330
205
100
AcDbEntity
  8
Linee visibili 2D
 62
   255
100
AcDbVertex
100
AcDb2dVertex
 10
269.5245195131818
 20
293.7537678805568
 30
0.0
  0
VERTEX
  5
209
330
205
100
AcDbEntity
  8
Linee visibili 2D
 62
   255
100
AcDbVertex
100
AcDb2dVertex
 10
265.1232674046168
 20
292.1518431195377
 30
0.0
  0
VERTEX
  5
20A
330
205
100
AcDbEntity
  8
Linee visibili 2D
 62
   255
100
AcDbVertex
100
AcDb2dVertex
 10
265.0401673601317
 20
292.3801586153161
 30
0.0
  0
SEQEND
  5
20B
330
205
100
AcDbEntity
  8
Linee visibili 2D
 62
   255
  0
POLYLINE
  5
20C
330
1F
100
AcDbEntity
  8
Linee visibili 2D
 62
   255
100
AcDb2dPolyline
 66
     1
 10
0.0
 20
0.0
 30
0.0
  0
VERTEX
  5
20D
330
20C
100
AcDbEntity
  8
Linee visibili 2D
 62
   255
100
AcDbVertex
100
AcDb2dVertex
 10
275.562270252486
 20
306.7017661253064
 30
0.0
  0
VERTEX
  5
20E
330
20C
100
AcDbEntity
  8
Linee visibili 2D
 62
   255
100
AcDbVertex
100
AcDb2dVertex
 10
275.3339547567076
 20
306.6186660808213
 30
0.0
  0
VERTEX
  5
20F
330
20C
100
AcDbEntity
  8
Linee visibili 2D
 62
   255
100
AcDbVertex
100
AcDb2dVertex
 10
273.7320299956885
 20
311.0199181893863
 30
0.0
  0
VERTEX
  5
210
330
20C
100
AcDbEntity
  8
Linee visibili 2D
 62
   255
100
AcDbVertex
100
AcDb2dVertex
 10
273.960345491467
 20
311.1030182338714
 30
0.0
  0
VERTEX
  5
211
330
20C
100
AcDbEntity
  8
Linee visibili 2D
 62
   255
100
AcDbVertex
100
AcDb2dVertex
 10
275.562270252486
 20
306.7017661253064
 30
0.0
  0
SEQEND
  5
212
330
20C
100
AcDbEntity
  8
Linee visibili 2D
 62
   255
  0
POLYLINE
  5
213
330
1F
100
AcDbEntity
  8
Linee visibili 2D
 62
   255
100
AcDb2dPolyline
 66
     1
 10
0.0
 20
0.0
 30
0.0
  0
VERTEX
  5
214
330
213
100
AcDbEntity
  8
Linee visibili 2D
 62
   255
100
AcDbVertex
100
AcDb2dVertex
 10
278.7402020972174
 20
289.0478351109138
 30
0.0
  0
VERTEX
  5
215
330
213
100
AcDbEntity
  8
Linee visibili 2D
 62
   255
100
AcDbVertex
100
AcDb2dVertex
 10
278.9831703729366
 20
289.0478351109138
 30
0.0
  0
VERTEX
  5
216
330
213
100
AcDbEntity
  8
Linee visibili 2D
 62
   255
100
AcDbVertex
100
AcDb2dVertex
 10
278.9831703729366
 20
282.6171628004695
 30
0.0
  0
VERTEX
  5
217
330
213
100
AcDbEntity
  8
Linee visibili 2D
 62
   255
100
AcDbVertex
100
AcDb2dVertex
 10
278.7402020972174
 20
282.6171628004695
 30
0.0
  0
VERTEX
  5
218
330
213
100
AcDbEntity
  8
Linee visibili 2D
 62
   255
100
AcDbVertex
100
AcDb2dVertex
 10
278.7402020972174
 20
289.0478351109138
 30
0.0
  0
SEQEND
  5
219
330
213
100
AcDbEntity
  8
Linee visibili 2D
 62
   255
  0
POLYLINE
  5
21A
330
1F
100
AcDbEntity
  8
Linee visibili 2D
 62
   255
100
AcDb2dPolyline
 66
     1
 10
0.0
 20
0.0
 30
0.0
  0
VERTEX
  5
21B
330
21A
100
AcDbEntity
  8
Linee visibili 2D
 62
   255
100
AcDbVertex
100
AcDb2dVertex
 10
271.2941747933107
 20
303.7899816977422
 30
0.0
  0
VERTEX
  5
21C
330
21A
100
AcDbEntity
  8
Linee visibili 2D
 62
   255
100
AcDbVertex
100
AcDb2dVertex
 10
271.1379977961315
 20
303.6038572002733
 30
0.0
  0
VERTEX
  5
21D
330
21A
100
AcDbEntity
  8
Linee visibili 2D
 62
   255
100
AcDbVertex
100
AcDb2dVertex
 10
267.5500642038552
 20
306.6144909542409
 30
0.0
  0
VERTEX
  5
21E
330
21A
100
AcDbEntity
  8
Linee visibili 2D
 62
   255
100
AcDbVertex
100
AcDb2dVertex
 10
267.7062412010344
 20
306.8006154517098
 30
0.0
  0
VERTEX
  5
21F
330
21A
100
AcDbEntity
  8
Linee visibili 2D
 62
   255
100
AcDbVertex
100
AcDb2dVertex
 10
271.2941747933107
 20
303.7899816977422
 30
0.0
  0
SEQEND
  5
220
330
21A
100
AcDbEntity
  8
Linee visibili 2D
 62
   255
  0
POLYLINE
  5
221
330
1F
100
AcDbEntity
  8
Linee visibili 2D
 62
   255
100
AcDb3dPolyline
 66
     1
 10
0.0
 20
0.0
 30
0.0
 70
     8
  0
VERTEX
  5
222
330
221
100
AcDbEntity
  8
Linee visibili 2D
 62
   255
100
AcDbVertex
100
AcDb3dPolylineVertex
 10
277.9294469447533
 20
312.6819778825605
 30
0.0
 70
    32
  0
VERTEX
  5
223
330
221
100
AcDbEntity
  8
Linee visibili 2D
 62
   255
100
AcDbVertex
100
AcDb3dPolylineVertex
 10
257.1057654162855
 20
313.0454565956845
 30
0.0
 70
    32
  0
VERTEX
  5
224
330
221
100
AcDbEntity
  8
Linee visibili 2D
 62
   255
100
AcDbVertex
100
AcDb3dPolylineVertex
 10
277.9294469447533
 20
312.6819778825605
 30
0.0
 70
    32
  0
SEQEND
  5
225
330
221
100
AcDbEntity
  8
Linee visibili 2D
 62
   255
  0
POLYLINE
  5
226
330
1F
100
AcDbEntity
  8
Predefinito
 62
   255
100
AcDb2dPolyline
 66
     1
 10
0.0
 20
0.0
 30
0.0
  0
VERTEX
  5
227
330
226
100
AcDbEntity
  8
Predefinito
 62
   255
100
AcDbVertex
100
AcDb2dVertex
 10
290.0892556918101
 20
307.8164589507242
 30
0.0
  0
VERTEX
  5
228
330
226
100
AcDbEntity
  8
Predefinito
 62
   255
100
AcDbVertex
100
AcDb2dVertex
 10
289.9861146709605
 20
307.8985737198226
 30
0.0
  0
VERTEX
  5
229
330
226
100
AcDbEntity
  8
Predefinito
 62
   255
100
AcDbVertex
100
AcDb2dVertex
 10
290.0892556918101
 20
307.8164589507242
 30
0.0
  0
VERTEX
  5
22A
330
226
100
AcDbEntity
  8
Predefinito
 62
   255
100
AcDbVertex
100
AcDb2dVertex
 10
290.2648951326074
 20
307.7691333160874
 30
0.0
  0
VERTEX
  5
22B
330
226
100
AcDbEntity
  8
Predefinito
 62
   255
100
AcDbVertex
100
AcDb2dVertex
 10
295.9242590060817
 20
307.7691333160874
 30
0.0
  0
VERTEX
  5
22C
330
226
100
AcDbEntity
  8
Predefinito
 62
   255
100
AcDbVertex
100
AcDb2dVertex
 10
296.551951795141
 20
308.1585126642717
 30
0.0
  0
VERTEX
  5
22D
330
226
100
AcDbEntity
  8
Predefinito
 62
   255
100
AcDbVertex
100
AcDb2dVertex
 10
296.62065836252
 20
308.3031563885895
 30
0.0
  0
VERTEX
  5
22E
330
226
100
AcDbEntity
  8
Predefinito
 62
   255
100
AcDbVertex
100
AcDb2dVertex
 10
296.551951795141
 20
308.1585126642717
 30
0.0
  0
VERTEX
  5
22F
330
226
100
AcDbEntity
  8
Predefinito
 62
   255
100
AcDbVertex
100
AcDb2dVertex
 10
295.9242590060817
 20
307.7691333160874
 30
0.0
  0
VERTEX
  5
230
330
226
100
AcDbEntity
  8
Predefinito
 62
   255
100
AcDbVertex
100
AcDb2dVertex
 10
290.2648951326074
 20
307.7691333160874
 30
0.0
  0
VERTEX
  5
231
330
226
100
AcDbEntity
  8
Predefinito
 62
   255
100
AcDbVertex
100
AcDb2dVertex
 10
290.0892556918101
 20
307.8164589507242
 30
0.0
  0
SEQEND
  5
232
330
226
100
AcDbEntity
  8
Predefinito
 62
   255
  0
POLYLINE
  5
233
330
1F
100
AcDbEntity
  8
Linee visibili 2D
 62
   255
100
AcDb3dPolyline
 66
     1
 10
0.0
 20
0.0
 30
0.0
 70
     8
  0
VERTEX
  5
234
330
233
100
AcDbEntity
  8
Linee visibili 2D
 62
   255
100
AcDbVertex
100
AcDb3dPolylineVertex
 10
257.1057654162856
 20
281.5175421221675
 30
0.0
 70
    32
  0
VERTEX
  5
235
330
233
100
AcDbEntity
  8
Linee visibili 2D
 62
   255
100
AcDbVertex
100
AcDb3dPolylineVertex
 10
277.7853851439482
 20
281.8785062272047
 30
0.0
 70
    32
  0
VERTEX
  5
236
330
233
100
AcDbEntity
  8
Linee visibili 2D
 62
   255
100
AcDbVertex
100
AcDb3dPolylineVertex
 10
257.1057654162856
 20
281.5175421221675
 30
0.0
 70
    32
  0
SEQEND
  5
237
330
233
100
AcDbEntity
  8
Linee visibili 2D
 62
   255
  0
POLYLINE
  5
238
330
1F
100
AcDbEntity
  8
Linee visibili 2D
 62
   255
100
AcDb2dPolyline
 66
     1
 10
0.0
 20
0.0
 30
0.0
  0
VERTEX
  5
239
330
238
100
AcDbEntity
  8
Linee visibili 2D
 62
   255
100
AcDbVertex
100
AcDb2dVertex
 10
273.960345491467
 20
283.4599804839808
 30
0.0
  0
VERTEX
  5
23A
330
238
100
AcDbEntity
  8
Linee visibili 2D
 62
   255
100
AcDbVertex
100
AcDb2dVertex
 10
273.7320299956885
 20
283.5430805284659
 30
0.0
  0
VERTEX
  5
23B
330
238
100
AcDbEntity
  8
Linee visibili 2D
 62
   255
100
AcDbVertex
100
AcDb2dVertex
 10
275.3339547567076
 20
287.9443326370309
 30
0.0
  0
VERTEX
  5
23C
330
238
100
AcDbEntity
  8
Linee visibili 2D
 62
   255
100
AcDbVertex
100
AcDb2dVertex
 10
275.562270252486
 20
287.8612325925458
 30
0.0
  0
VERTEX
  5
23D
330
238
100
AcDbEntity
  8
Linee visibili 2D
 62
   255
100
AcDbVertex
100
AcDb2dVertex
 10
273.960345491467
 20
283.4599804839808
 30
0.0
  0
SEQEND
  5
23E
330
238
100
AcDbEntity
  8
Linee visibili 2D
 62
   255
  0
POLYLINE
  5
23F
330
1F
100
AcDbEntity
  8
Predefinito
 62
   255
100
AcDb2dPolyline
 66
     1
 10
0.0
 20
0.0
 30
0.0
  0
VERTEX
  5
240
330
23F
100
AcDbEntity
  8
Predefinito
 62
   255
100
AcDbVertex
100
AcDb2dVertex
 10
216.5970393875219
 20
127.9076490521666
 30
0.0
  0
VERTEX
  5
241
330
23F
100
AcDbEntity
  8
Predefinito
 62
   255
100
AcDbVertex
100
AcDb2dVertex
 10
216.5970376613994
 20
117.0053779182472
 30
0.0
  0
VERTEX
  5
242
330
23F
100
AcDbEntity
  8
Predefinito
 62
   255
100
AcDbVertex
100
AcDb2dVertex
 10
216.5970383876195
 20
115.6127783994267
 30
0.0
  0
VERTEX
  5
243
330
23F
100
AcDbEntity
  8
Predefinito
 62
   255
100
AcDbVertex
100
AcDb2dVertex
 10
216.5970400040575
 20
109.7037864634572
 30
0.0
  0
VERTEX
  5
244
330
23F
100
AcDbEntity
  8
Predefinito
 62
   255
100
AcDbVertex
100
AcDb2dVertex
 10
216.59704097854
 20
108.7239063209042
 30
0.0
  0
VERTEX
  5
245
330
23F
100
AcDbEntity
  8
Predefinito
 62
   255
100
AcDbVertex
100
AcDb2dVertex
 10
216.5970384115298
 20
45.7780992642806
 30
0.0
  0
VERTEX
  5
246
330
23F
100
AcDbEntity
  8
Predefinito
 62
   255
100
AcDbVertex
100
AcDb2dVertex
 10
216.5970407584288
 20
37.49662757656924
 30
0.0
  0
VERTEX
  5
247
330
23F
100
AcDbEntity
  8
Predefinito
 62
   255
100
AcDbVertex
100
AcDb2dVertex
 10
216.5970392159929
 20
26.5464140115154
 30
0.0
  0
VERTEX
  5
248
330
23F
100
AcDbEntity
  8
Predefinito
 62
   255
100
AcDbVertex
100
AcDb2dVertex
 10
218.1057654182246
 20
26.52806152218076
 30
0.0
  0
SEQEND
  5
249
330
23F
100
AcDbEntity
  8
Predefinito
 62
   255
  0
POLYLINE
  5
24A
330
1F
100
AcDbEntity
  8
Linee visibili 2D
 62
   255
100
AcDb2dPolyline
 66
     1
 10
0.0
 20
0.0
 30
0.0
  0
VERTEX
  5
24B
330
24A
100
AcDbEntity
  8
Linee visibili 2D
 62
   255
100
AcDbVertex
100
AcDb2dVertex
 10
269.5245195131818
 20
300.8092308372954
 30
0.0
  0
VERTEX
  5
24C
330
24A
100
AcDbEntity
  8
Linee visibili 2D
 62
   255
100
AcDbVertex
100
AcDb2dVertex
 10
269.4414194686967
 20
300.580915341517
 30
0.0
  0
VERTEX
  5
24D
330
24A
100
AcDbEntity
  8
Linee visibili 2D
 62
   255
100
AcDbVertex
100
AcDb2dVertex
 10
265.0401673601317
 20
302.1828401025361
 30
0.0
  0
VERTEX
  5
24E
330
24A
100
AcDbEntity
  8
Linee visibili 2D
 62
   255
100
AcDbVertex
100
AcDb2dVertex
 10
265.1232674046168
 20
302.4111555983144
 30
0.0
  0
VERTEX
  5
24F
330
24A
100
AcDbEntity
  8
Linee visibili 2D
 62
   255
100
AcDbVertex
100
AcDb2dVertex
 10
269.5245195131818
 20
300.8092308372954
 30
0.0
  0
SEQEND
  5
250
330
24A
100
AcDbEntity
  8
Linee visibili 2D
 62
   255
  0
POLYLINE
  5
251
330
1F
100
AcDbEntity
  8
Linee visibili 2D
 62
   255
100
AcDb2dPolyline
 66
     1
 10
0.0
 20
0.0
 30
0.0
  0
VERTEX
  5
252
330
251
100
AcDbEntity
  8
Linee visibili 2D
 62
   255
100
AcDbVertex
100
AcDb2dVertex
 10
278.8616862350769
 20
281.8996362217562
 30
0.0
 42
-2.412454630830244
  0
VERTEX
  5
253
330
251
100
AcDbEntity
  8
Linee visibili 2D
 62
   255
100
AcDbVertex
100
AcDb2dVertex
 10
294.24353830352
 20
297.2913917587641
 30
0.0
 42
-0.4141570173231715
  0
VERTEX
  5
254
330
251
100
AcDbEntity
  8
Linee visibili 2D
 62
   255
100
AcDbVertex
100
AcDb2dVertex
 10
278.8616862350769
 20
281.8996362217562
 30
0.0
  0
SEQEND
  5
255
330
251
100
AcDbEntity
  8
Linee visibili 2D
 62
   255
  0
POLYLINE
  5
256
330
1F
100
AcDbEntity
  8
Linee visibili 2D
 62
   255
100
AcDb2dPolyline
 66
     1
 10
0.0
 20
0.0
 30
0.0
  0
VERTEX
  5
257
330
256
100
AcDbEntity
  8
Linee visibili 2D
 62
   255
100
AcDbVertex
100
AcDb2dVertex
 10
278.9831703729366
 20
305.5151636069384
 30
0.0
  0
VERTEX
  5
258
330
256
100
AcDbEntity
  8
Linee visibili 2D
 62
   255
100
AcDbVertex
100
AcDb2dVertex
 10
278.7402020972174
 20
305.5151636069384
 30
0.0
  0
VERTEX
  5
259
330
256
100
AcDbEntity
  8
Linee visibili 2D
 62
   255
100
AcDbVertex
100
AcDb2dVertex
 10
278.7402020972174
 20
311.9458359173827
 30
0.0
  0
VERTEX
  5
25A
330
256
100
AcDbEntity
  8
Linee visibili 2D
 62
   255
100
AcDbVertex
100
AcDb2dVertex
 10
278.9831703729366
 20
311.9458359173827
 30
0.0
  0
VERTEX
  5
25B
330
256
100
AcDbEntity
  8
Linee visibili 2D
 62
   255
100
AcDbVertex
100
AcDb2dVertex
 10
278.9831703729366
 20
305.5151636069384
 30
0.0
  0
SEQEND
  5
25C
330
256
100
AcDbEntity
  8
Linee visibili 2D
 62
   255
  0
POLYLINE
  5
25D
330
1F
100
AcDbEntity
  8
Predefinito
 62
   255
100
AcDb2dPolyline
 66
     1
 10
0.0
 20
0.0
 30
0.0
  0
VERTEX
  5
25E
330
25D
100
AcDbEntity
  8
Predefinito
 62
   255
100
AcDbVertex
100
AcDb2dVertex
 10
275.6909346103084
 20
98.9079301597765
 30
0.0
  0
VERTEX
  5
25F
330
25D
100
AcDbEntity
  8
Predefinito
 62
   255
100
AcDbVertex
100
AcDb2dVertex
 10
264.3385142240102
 20
98.90793016088716
 30
0.0
  0
VERTEX
  5
260
330
25D
100
AcDbEntity
  8
Predefinito
 62
   255
100
AcDbVertex
100
AcDb2dVertex
 10
263.9892218991644
 20
99.25728864939842
 30
0.0
  0
VERTEX
  5
261
330
25D
100
AcDbEntity
  8
Predefinito
 62
   255
100
AcDbVertex
100
AcDb2dVertex
 10
263.9892077061533
 20
109.736393862129
 30
0.0
  0
VERTEX
  5
262
330
25D
100
AcDbEntity
  8
Predefinito
 62
   255
100
AcDbVertex
100
AcDb2dVertex
 10
264.3688916103609
 20
110.0856991428498
 30
0.0
  0
VERTEX
  5
263
330
25D
100
AcDbEntity
  8
Predefinito
 62
   255
100
AcDbVertex
100
AcDb2dVertex
 10
294.348388505398
 20
110.0856991428499
 30
0.0
  0
VERTEX
  5
264
330
25D
100
AcDbEntity
  8
Predefinito
 62
   255
100
AcDbVertex
100
AcDb2dVertex
 10
294.7280724100509
 20
109.7363979093507
 30
0.0
  0
VERTEX
  5
265
330
25D
100
AcDbEntity
  8
Predefinito
 62
   255
100
AcDbVertex
100
AcDb2dVertex
 10
294.7729502247036
 20
109.5651367895797
 30
0.0
  0
VERTEX
  5
266
330
25D
100
AcDbEntity
  8
Predefinito
 62
   255
100
AcDbVertex
100
AcDb2dVertex
 10
295.0773769514592
 20
109.387115181851
 30
0.0
  0
VERTEX
  5
267
330
25D
100
AcDbEntity
  8
Predefinito
 62
   255
100
AcDbVertex
100
AcDb2dVertex
 10
296.2125279216983
 20
109.387088581408
 30
0.0
  0
VERTEX
  5
268
330
25D
100
AcDbEntity
  8
Predefinito
 62
   255
100
AcDbVertex
100
AcDb2dVertex
 10
296.9110320813681
 20
110.0855927410777
 30
0.0
  0
VERTEX
  5
269
330
25D
100
AcDbEntity
  8
Predefinito
 62
   255
100
AcDbVertex
100
AcDb2dVertex
 10
296.9110320813681
 20
144.6380445220937
 30
0.0
  0
VERTEX
  5
26A
330
25D
100
AcDbEntity
  8
Predefinito
 62
   255
100
AcDbVertex
100
AcDb2dVertex
 10
297.6323164987193
 20
145.359382140331
 30
0.0
  0
VERTEX
  5
26B
330
25D
100
AcDbEntity
  8
Predefinito
 62
   255
100
AcDbVertex
100
AcDb2dVertex
 10
528.7564601373632
 20
145.3593821403311
 30
0.0
  0
VERTEX
  5
26C
330
25D
100
AcDbEntity
  8
Predefinito
 62
   255
100
AcDbVertex
100
AcDb2dVertex
 10
529.1057654180842
 20
145.0100768596101
 30
0.0
  0
VERTEX
  5
26D
330
25D
100
AcDbEntity
  8
Predefinito
 62
   255
100
AcDbVertex
100
AcDb2dVertex
 10
529.1057654180842
 20
9.491928650533026
 30
0.0
  0
VERTEX
  5
26E
330
25D
100
AcDbEntity
  8
Predefinito
 62
   255
100
AcDbVertex
100
AcDb2dVertex
 10
528.7626104927076
 20
9.142623369811957
 30
0.0
  0
VERTEX
  5
26F
330
25D
100
AcDbEntity
  8
Predefinito
 62
   255
100
AcDbVertex
100
AcDb2dVertex
 10
297.6323164987194
 20
9.142623369811957
 30
0.0
  0
SEQEND
  5
270
330
25D
100
AcDbEntity
  8
Predefinito
 62
   255
  0
POLYLINE
  5
271
330
1F
100
AcDbEntity
  8
Linee visibili 2D
 62
   255
100
AcDb2dPolyline
 66
     1
 10
0.0
 20
0.0
 30
0.0
  0
VERTEX
  5
272
330
271
100
AcDbEntity
  8
Linee visibili 2D
 62
   255
100
AcDbVertex
100
AcDb2dVertex
 10
279.3586400578794
 20
44.41630636729289
 30
0.0
  0
VERTEX
  5
273
330
271
100
AcDbEntity
  8
Linee visibili 2D
 62
   255
100
AcDbVertex
100
AcDb2dVertex
 10
264.368891610361
 20
44.41630636729317
 30
0.0
  0
VERTEX
  5
274
330
271
100
AcDbEntity
  8
Linee visibili 2D
 62
   255
100
AcDbVertex
100
AcDb2dVertex
 10
263.9892077061533
 20
44.76561164801402
 30
0.0
  0
VERTEX
  5
275
330
271
100
AcDbEntity
  8
Linee visibili 2D
 62
   255
100
AcDbVertex
100
AcDb2dVertex
 10
263.9892218991644
 20
55.24471686074472
 30
0.0
  0
VERTEX
  5
276
330
271
100
AcDbEntity
  8
Linee visibili 2D
 62
   255
100
AcDbVertex
100
AcDb2dVertex
 10
264.3385142240102
 20
55.59407534925586
 30
0.0
  0
VERTEX
  5
277
330
271
100
AcDbEntity
  8
Linee visibili 2D
 62
   255
100
AcDbVertex
100
AcDb2dVertex
 10
275.6909346103084
 20
55.59407535036652
 30
0.0
  0
SEQEND
  5
278
330
271
100
AcDbEntity
  8
Linee visibili 2D
 62
   255
  0
POLYLINE
  5
279
330
1F
100
AcDbEntity
  8
Linee visibili 2D
 62
   255
100
AcDb2dPolyline
 66
     1
 10
0.0
 20
0.0
 30
0.0
  0
VERTEX
  5
27A
330
279
100
AcDbEntity
  8
Linee visibili 2D
 62
   255
100
AcDbVertex
100
AcDb2dVertex
 10
266.1012561768789
 20
290.054539429241
 30
0.0
  0
VERTEX
  5
27B
330
279
100
AcDbEntity
  8
Linee visibili 2D
 62
   255
100
AcDbVertex
100
AcDb2dVertex
 10
270.1574720608444
 20
292.3963967617398
 30
0.0
  0
VERTEX
  5
27C
330
279
100
AcDbEntity
  8
Linee visibili 2D
 62
   255
100
AcDbVertex
100
AcDb2dVertex
 10
270.2789561987042
 20
292.1859800626533
 30
0.0
  0
VERTEX
  5
27D
330
279
100
AcDbEntity
  8
Linee visibili 2D
 62
   255
100
AcDbVertex
100
AcDb2dVertex
 10
266.2227403147385
 20
289.8441227301545
 30
0.0
  0
VERTEX
  5
27E
330
279
100
AcDbEntity
  8
Linee visibili 2D
 62
   255
100
AcDbVertex
100
AcDb2dVertex
 10
266.1012561768789
 20
290.054539429241
 30
0.0
  0
SEQEND
  5
27F
330
279
100
AcDbEntity
  8
Linee visibili 2D
 62
   255
  0
POLYLINE
  5
280
330
1F
100
AcDbEntity
  8
Linee visibili 2D
 62
   255
100
AcDb2dPolyline
 66
     1
 10
0.0
 20
0.0
 30
0.0
  0
VERTEX
  5
281
330
280
100
AcDbEntity
  8
Linee visibili 2D
 62
   255
100
AcDbVertex
100
AcDb2dVertex
 10
236.6057654196249
 20
77.92638081734
 30
0.0
  0
VERTEX
  5
282
330
280
100
AcDbEntity
  8
Linee visibili 2D
 62
   255
100
AcDbVertex
100
AcDb2dVertex
 10
234.6057654194735
 20
76.77168027887328
 30
0.0
  0
VERTEX
  5
283
330
280
100
AcDbEntity
  8
Linee visibili 2D
 62
   255
100
AcDbVertex
100
AcDb2dVertex
 10
232.6057654193222
 20
77.94969686767243
 30
0.0
  0
VERTEX
  5
284
330
280
100
AcDbEntity
  8
Linee visibili 2D
 62
   255
100
AcDbVertex
100
AcDb2dVertex
 10
232.6057654193222
 20
80.23578189427323
 30
0.0
  0
VERTEX
  5
285
330
280
100
AcDbEntity
  8
Linee visibili 2D
 62
   255
100
AcDbVertex
100
AcDb2dVertex
 10
234.6332501464417
 20
81.37461411822628
 30
0.0
  0
VERTEX
  5
286
330
280
100
AcDbEntity
  8
Linee visibili 2D
 62
   255
100
AcDbVertex
100
AcDb2dVertex
 10
236.6057654196249
 20
80.23578189427323
 30
0.0
  0
VERTEX
  5
287
330
280
100
AcDbEntity
  8
Linee visibili 2D
 62
   255
100
AcDbVertex
100
AcDb2dVertex
 10
236.6057654196249
 20
77.92638081734
 30
0.0
  0
SEQEND
  5
288
330
280
100
AcDbEntity
  8
Linee visibili 2D
 62
   255
  0
POLYLINE
  5
289
330
1F
100
AcDbEntity
  8
Linee visibili 2D
 62
   255
100
AcDb2dPolyline
 66
     1
 10
0.0
 20
0.0
 30
0.0
  0
VERTEX
  5
28A
330
289
100
AcDbEntity
  8
Linee visibili 2D
 62
   255
100
AcDbVertex
100
AcDb2dVertex
 10
238.5144916229879
 20
79.08108135580656
 30
0.0
 42
-0.9999997058556868
  0
VERTEX
  5
28B
330
289
100
AcDbEntity
  8
Linee visibili 2D
 62
   255
100
AcDbVertex
100
AcDb2dVertex
 10
230.7144916216865
 20
79.08107992950548
 30
0.0
 42
-1.000000180910861
  0
VERTEX
  5
28C
330
289
100
AcDbEntity
  8
Linee visibili 2D
 62
   255
100
AcDbVertex
100
AcDb2dVertex
 10
238.5144916229879
 20
79.08108135580656
 30
0.0
  0
SEQEND
  5
28D
330
289
100
AcDbEntity
  8
Linee visibili 2D
 62
   255
  0
LINE
  5
28E
330
1F
100
AcDbEntity
  8
Linee visibili 2D
 62
   255
100
AcDbLine
 10
282.8517395797074
 20
56.08521743249216
 30
0.0
 11
293.2743324154206
 21
56.05684786882031
 31
0.0
  0
LINE
  5
28F
330
1F
100
AcDbEntity
  8
Linee visibili 2D
 62
   255
100
AcDbLine
 10
278.424968935013
 20
72.3770261150481
 30
0.0
 11
279.6268736379922
 21
72.35604679042004
 31
0.0
  0
LINE
  5
290
330
1F
100
AcDbEntity
  8
Linee visibili 2D
 62
   255
100
AcDbLine
 10
294.9376555780381
 20
81.84152045016847
 30
0.0
 11
297.0561077976806
 21
81.84152045016847
 31
0.0
  0
LINE
  5
291
330
1F
100
AcDbEntity
  8
Linee visibili 2D
 62
   255
100
AcDbLine
 10
296.2125279216983
 20
98.9079301597765
 30
0.0
 11
292.2829354445582
 21
98.9079301597765
 31
0.0
  0
LINE
  5
292
330
1F
100
AcDbEntity
  8
Linee visibili 2D
 62
   255
100
AcDbLine
 10
279.3586836496188
 20
55.67097213444518
 30
0.0
 11
293.3308512867214
 21
55.7059026080274
 31
0.0
  0
LINE
  5
293
330
1F
100
AcDbEntity
  8
Linee visibili 2D
 62
   255
100
AcDbLine
 10
294.9376555780381
 20
79.92065898270616
 30
0.0
 11
294.9376555780381
 21
79.17186422253397
 31
0.0
  0
LINE
  5
294
330
1F
100
AcDbEntity
  8
Linee visibili 2D
 62
   255
100
AcDbLine
 10
279.3586836496188
 20
56.09013836233046
 30
0.0
 11
280.614105244035
 21
56.08849843674776
 31
0.0
  0
LINE
  5
295
330
1F
100
AcDbEntity
  8
Linee visibili 2D
 62
   255
100
AcDbLine
 10
290.6003275190403
 20
56.41829809699411
 30
0.0
 11
293.2743324154206
 21
56.40615314954132
 31
0.0
  0
LINE
  5
296
330
1F
100
AcDbEntity
  8
Linee visibili 2D
 62
   255
100
AcDbLine
 10
517.9341467903557
 20
18.21841031321432
 30
0.0
 11
401.2661830295252
 21
18.21841031321432
 31
0.0
  0
POLYLINE
  5
297
330
1F
100
AcDbEntity
  8
Linee visibili 2D
 62
   255
100
AcDb2dPolyline
 66
     1
 10
0.0
 20
0.0
 30
0.0
  0
VERTEX
  5
298
330
297
100
AcDbEntity
  8
Linee visibili 2D
 62
   255
100
AcDbVertex
100
AcDb2dVertex
 10
257.1057654211766
 20
144.5544936442799
 30
0.0
  0
VERTEX
  5
299
330
297
100
AcDbEntity
  8
Linee visibili 2D
 62
   255
100
AcDbVertex
100
AcDb2dVertex
 10
257.1057654211766
 20
9.958242086379329
 30
0.0
  0
VERTEX
  5
29A
330
297
100
AcDbEntity
  8
Linee visibili 2D
 62
   255
100
AcDbVertex
100
AcDb2dVertex
 10
256.6166916861811
 20
9.609609109595766
 30
0.0
  0
VERTEX
  5
29B
330
297
100
AcDbEntity
  8
Linee visibili 2D
 62
   255
100
AcDbVertex
100
AcDb2dVertex
 10
228.7420835357108
 20
9.268774169014335
 30
0.0
  0
VERTEX
  5
29C
330
297
100
AcDbEntity
  8
Linee visibili 2D
 62
   255
100
AcDbVertex
100
AcDb2dVertex
 10
228.2356355510467
 20
9.617407145798012
 30
0.0
  0
VERTEX
  5
29D
330
297
100
AcDbEntity
  8
Linee visibili 2D
 62
   255
100
AcDbVertex
100
AcDb2dVertex
 10
228.2356355510467
 20
144.8953285848612
 30
0.0
  0
VERTEX
  5
29E
330
297
100
AcDbEntity
  8
Linee visibili 2D
 62
   255
100
AcDbVertex
100
AcDb2dVertex
 10
228.7420835357108
 20
145.2439615616448
 30
0.0
  0
VERTEX
  5
29F
330
297
100
AcDbEntity
  8
Linee visibili 2D
 62
   255
100
AcDbVertex
100
AcDb2dVertex
 10
256.6166916861811
 20
144.9031266210635
 30
0.0
  0
VERTEX
  5
2A0
330
297
100
AcDbEntity
  8
Linee visibili 2D
 62
   255
100
AcDbVertex
100
AcDb2dVertex
 10
257.1057654211766
 20
144.5544936442799
 30
0.0
  0
SEQEND
  5
2A1
330
297
100
AcDbEntity
  8
Linee visibili 2D
 62
   255
  0
POLYLINE
  5
2A2
330
1F
100
AcDbEntity
  8
Predefinito
 62
   255
100
AcDb2dPolyline
 66
     1
 10
0.0
 20
0.0
 30
0.0
  0
VERTEX
  5
2A3
330
2A2
100
AcDbEntity
  8
Predefinito
 62
   255
100
AcDbVertex
100
AcDb2dVertex
 10
296.7046785486542
 20
313.1166698165534
 30
0.0
 42
-0.4091108014276952
  0
VERTEX
  5
2A4
330
2A2
100
AcDbEntity
  8
Predefinito
 62
   255
100
AcDbVertex
100
AcDb2dVertex
 10
302.6467659778242
 20
318.9559428703929
 30
0.0
  0
VERTEX
  5
2A5
330
2A2
100
AcDbEntity
  8
Predefinito
 62
   255
100
AcDbVertex
100
AcDb2dVertex
 10
372.8924322121932
 20
318.9559428703929
 30
0.0
 42
-0.2404486394859778
  0
VERTEX
  5
2A6
330
2A2
100
AcDbEntity
  8
Predefinito
 62
   255
100
AcDbVertex
100
AcDb2dVertex
 10
377.7606467297926
 20
316.421710797513
 30
0.0
  0
VERTEX
  5
2A7
330
2A2
100
AcDbEntity
  8
Predefinito
 62
   255
100
AcDbVertex
100
AcDb2dVertex
 10
388.3478191101773
 20
301.3016616654313
 30
0.0
 42
0.1897582392250303
  0
VERTEX
  5
2A8
330
2A2
100
AcDbEntity
  8
Predefinito
 62
   255
100
AcDbVertex
100
AcDb2dVertex
 10
392.0409923686192
 20
298.8984656435838
 30
0.0
  0
VERTEX
  5
2A9
330
2A2
100
AcDbEntity
  8
Predefinito
 62
   255
100
AcDbVertex
100
AcDb2dVertex
 10
393.2073179604562
 20
298.7800363730466
 30
0.0
  0
VERTEX
  5
2AA
330
2A2
100
AcDbEntity
  8
Predefinito
 62
   255
100
AcDbVertex
100
AcDb2dVertex
 10
394.1730956932994
 20
298.7810642041958
 30
0.0
  0
VERTEX
  5
2AB
330
2A2
100
AcDbEntity
  8
Predefinito
 62
   255
100
AcDbVertex
100
AcDb2dVertex
 10
526.7697551527141
 20
298.7810642041958
 30
0.0
 42
-0.3883357585687247
  0
VERTEX
  5
2AC
330
2A2
100
AcDbEntity
  8
Predefinito
 62
   255
100
AcDbVertex
100
AcDb2dVertex
 10
528.5174279259994
 20
297.0636309530665
 30
0.0
  0
VERTEX
  5
2AD
330
2A2
100
AcDbEntity
  8
Predefinito
 62
   255
100
AcDbVertex
100
AcDb2dVertex
 10
528.8107536404265
 20
275.9627447943776
 30
0.0
  0
VERTEX
  5
2AE
330
2A2
100
AcDbEntity
  8
Predefinito
 62
   255
100
AcDbVertex
100
AcDb2dVertex
 10
528.4612190857694
 20
275.6070558474593
 30
0.0
  0
VERTEX
  5
2AF
330
2A2
100
AcDbEntity
  8
Predefinito
 62
   255
100
AcDbVertex
100
AcDb2dVertex
 10
297.1501424118179
 20
275.6070558474593
 30
0.0
  0
VERTEX
  5
2B0
330
2A2
100
AcDbEntity
  8
Predefinito
 62
   255
100
AcDbVertex
100
AcDb2dVertex
 10
296.8006078571609
 20
275.9505424976851
 30
0.0
  0
VERTEX
  5
2B1
330
2A2
100
AcDbEntity
  8
Predefinito
 62
   255
100
AcDbVertex
100
AcDb2dVertex
 10
296.4282746201669
 20
297.2814993589261
 30
0.0
  0
VERTEX
  5
2B2
330
2A2
100
AcDbEntity
  8
Predefinito
 62
   255
100
AcDbVertex
100
AcDb2dVertex
 10
296.4286835450084
 20
297.3049260294433
 30
0.0
  0
VERTEX
  5
2B3
330
2A2
100
AcDbEntity
  8
Predefinito
 62
   255
100
AcDbVertex
100
AcDb2dVertex
 10
296.7046785486542
 20
313.1166698165534
 30
0.0
  0
VERTEX
  5
2B4
330
2A2
100
AcDbEntity
  8
Predefinito
 62
   255
100
AcDbVertex
100
AcDb2dVertex
 10
296.4286835450084
 20
297.3049260294433
 30
0.0
  0
VERTEX
  5
2B5
330
2A2
100
AcDbEntity
  8
Predefinito
 62
   255
100
AcDbVertex
100
AcDb2dVertex
 10
296.4282746201669
 20
297.2814993589261
 30
0.0
  0
VERTEX
  5
2B6
330
2A2
100
AcDbEntity
  8
Predefinito
 62
   255
100
AcDbVertex
100
AcDb2dVertex
 10
296.8006078571609
 20
275.9505424976851
 30
0.0
  0
SEQEND
  5
2B7
330
2A2
100
AcDbEntity
  8
Predefinito
 62
   255
  0
POLYLINE
  5
2B8
330
1F
100
AcDbEntity
  8
Linee visibili 2D
 62
   255
100
AcDb2dPolyline
 66
     1
 10
0.0
 20
0.0
 30
0.0
  0
VERTEX
  5
2B9
330
2B8
100
AcDbEntity
  8
Linee visibili 2D
 62
   255
100
AcDbVertex
100
AcDb2dVertex
 10
257.1057654162856
 20
229.8093381226241
 30
0.0
  0
VERTEX
  5
2BA
330
2B8
100
AcDbEntity
  8
Linee visibili 2D
 62
   255
100
AcDbVertex
100
AcDb2dVertex
 10
256.6166916812786
 20
229.459803567967
 30
0.0
  0
VERTEX
  5
2BB
330
2B8
100
AcDbEntity
  8
Linee visibili 2D
 62
   255
100
AcDbVertex
100
AcDb2dVertex
 10
228.7377399677359
 20
229.118060593567
 30
0.0
  0
VERTEX
  5
2BC
330
2B8
100
AcDbEntity
  8
Linee visibili 2D
 62
   255
100
AcDbVertex
100
AcDb2dVertex
 10
228.2356355454772
 20
229.4676217701816
 30
0.0
  0
VERTEX
  5
2BD
330
2B8
100
AcDbEntity
  8
Linee visibili 2D
 62
   255
100
AcDbVertex
100
AcDb2dVertex
 10
228.2356355454771
 20
365.0953769566397
 30
0.0
  0
VERTEX
  5
2BE
330
2B8
100
AcDbEntity
  8
Linee visibili 2D
 62
   255
100
AcDbVertex
100
AcDb2dVertex
 10
228.7377399677359
 20
365.4449381332542
 30
0.0
  0
VERTEX
  5
2BF
330
2B8
100
AcDbEntity
  8
Linee visibili 2D
 62
   255
100
AcDbVertex
100
AcDb2dVertex
 10
256.6166916812785
 20
365.1031951588542
 30
0.0
  0
VERTEX
  5
2C0
330
2B8
100
AcDbEntity
  8
Linee visibili 2D
 62
   255
100
AcDbVertex
100
AcDb2dVertex
 10
257.1057654162855
 20
364.7536606041972
 30
0.0
  0
VERTEX
  5
2C1
330
2B8
100
AcDbEntity
  8
Linee visibili 2D
 62
   255
100
AcDbVertex
100
AcDb2dVertex
 10
257.1057654162856
 20
229.8093381226241
 30
0.0
  0
SEQEND
  5
2C2
330
2B8
100
AcDbEntity
  8
Linee visibili 2D
 62
   255
  0
POLYLINE
  5
2C3
330
1F
100
AcDbEntity
  8
Linee visibili 2D
 62
   255
100
AcDb2dPolyline
 66
     1
 10
0.0
 20
0.0
 30
0.0
  0
VERTEX
  5
2C4
330
2C3
100
AcDbEntity
  8
Linee visibili 2D
 62
   255
100
AcDbVertex
100
AcDb2dVertex
 10
517.2345978310813
 20
308.7810642041955
 30
0.0
  0
VERTEX
  5
2C5
330
2C3
100
AcDbEntity
  8
Linee visibili 2D
 62
   255
100
AcDbVertex
100
AcDb2dVertex
 10
519.5018474372046
 20
308.7810642041954
 30
0.0
  0
VERTEX
  5
2C6
330
2C3
100
AcDbEntity
  8
Linee visibili 2D
 62
   255
100
AcDbVertex
100
AcDb2dVertex
 10
519.8472293663986
 20
308.3538695982986
 30
0.0
  0
VERTEX
  5
2C7
330
2C3
100
AcDbEntity
  8
Linee visibili 2D
 62
   255
100
AcDbVertex
100
AcDb2dVertex
 10
519.9799854084621
 20
298.7810642041955
 30
0.0
  0
SEQEND
  5
2C8
330
2C3
100
AcDbEntity
  8
Linee visibili 2D
 62
   255
  0
LINE
  5
2C9
330
1F
100
AcDbEntity
  8
Linee visibili 2D
 62
   255
100
AcDbLine
 10
216.5962774167758
 20
348.1525069642884
 30
0.0
 11
218.1057654156285
 21
348.1709323665293
 31
0.0
  0
POLYLINE
  5
2CA
330
1F
100
AcDbEntity
  8
Linee visibili 2D
 62
   255
100
AcDb2dPolyline
 66
     1
 10
0.0
 20
0.0
 30
0.0
  0
VERTEX
  5
2CB
330
2CA
100
AcDbEntity
  8
Linee visibili 2D
 62
   255
100
AcDbVertex
100
AcDb2dVertex
 10
257.3065993342812
 20
298.2984839359672
 30
0.0
  0
VERTEX
  5
2CC
330
2CA
100
AcDbEntity
  8
Linee visibili 2D
 62
   255
100
AcDbVertex
100
AcDb2dVertex
 10
257.1052523148348
 20
298.4436796093121
 30
0.0
  0
VERTEX
  5
2CD
330
2CA
100
AcDbEntity
  8
Linee visibili 2D
 62
   255
100
AcDbVertex
100
AcDb2dVertex
 10
257.3065993342812
 20
298.2984839359672
 30
0.0
  0
VERTEX
  5
2CE
330
2CA
100
AcDbEntity
  8
Linee visibili 2D
 62
   255
100
AcDbVertex
100
AcDb2dVertex
 10
258.8728694234876
 20
297.8788031304353
 30
0.0
  0
VERTEX
  5
2CF
330
2CA
100
AcDbEntity
  8
Linee visibili 2D
 62
   255
100
AcDbVertex
100
AcDb2dVertex
 10
259.1450183073473
 20
297.5376329042716
 30
0.0
  0
VERTEX
  5
2D0
330
2CA
100
AcDbEntity
  8
Linee visibili 2D
 62
   255
100
AcDbVertex
100
AcDb2dVertex
 10
259.1450183073473
 20
297.0253658135804
 30
0.0
  0
VERTEX
  5
2D1
330
2CA
100
AcDbEntity
  8
Linee visibili 2D
 62
   255
100
AcDbVertex
100
AcDb2dVertex
 10
258.8728694234875
 20
296.6841955874167
 30
0.0
  0
VERTEX
  5
2D2
330
2CA
100
AcDbEntity
  8
Linee visibili 2D
 62
   255
100
AcDbVertex
100
AcDb2dVertex
 10
257.3065993342812
 20
296.2645147818848
 30
0.0
  0
VERTEX
  5
2D3
330
2CA
100
AcDbEntity
  8
Linee visibili 2D
 62
   255
100
AcDbVertex
100
AcDb2dVertex
 10
257.1057654162856
 20
296.1200947954293
 30
0.0
  0
VERTEX
  5
2D4
330
2CA
100
AcDbEntity
  8
Linee visibili 2D
 62
   255
100
AcDbVertex
100
AcDb2dVertex
 10
257.3065993342812
 20
296.2645147818848
 30
0.0
  0
VERTEX
  5
2D5
330
2CA
100
AcDbEntity
  8
Linee visibili 2D
 62
   255
100
AcDbVertex
100
AcDb2dVertex
 10
258.8728694234875
 20
296.6841955874167
 30
0.0
  0
VERTEX
  5
2D6
330
2CA
100
AcDbEntity
  8
Linee visibili 2D
 62
   255
100
AcDbVertex
100
AcDb2dVertex
 10
259.1450183073473
 20
297.0253658135804
 30
0.0
  0
VERTEX
  5
2D7
330
2CA
100
AcDbEntity
  8
Linee visibili 2D
 62
   255
100
AcDbVertex
100
AcDb2dVertex
 10
259.1450183073473
 20
297.5376329042716
 30
0.0
  0
VERTEX
  5
2D8
330
2CA
100
AcDbEntity
  8
Linee visibili 2D
 62
   255
100
AcDbVertex
100
AcDb2dVertex
 10
258.8728694234876
 20
297.8788031304353
 30
0.0
  0
VERTEX
  5
2D9
330
2CA
100
AcDbEntity
  8
Linee visibili 2D
 62
   255
100
AcDbVertex
100
AcDb2dVertex
 10
257.3065993342812
 20
298.2984839359672
 30
0.0
  0
SEQEND
  5
2DA
330
2CA
100
AcDbEntity
  8
Linee visibili 2D
 62
   255
  0
POLYLINE
  5
2DB
330
1F
100
AcDbEntity
  8
Linee visibili 2D
 62
   255
100
AcDb2dPolyline
 66
     1
 10
0.0
 20
0.0
 30
0.0
  0
VERTEX
  5
2DC
330
2DB
100
AcDbEntity
  8
Linee visibili 2D
 62
   255
100
AcDbVertex
100
AcDb2dVertex
 10
271.4243096063054
 20
284.6425534385875
 30
0.0
  0
VERTEX
  5
2DD
330
2DB
100
AcDbEntity
  8
Linee visibili 2D
 62
   255
100
AcDbVertex
100
AcDb2dVertex
 10
273.7661669388042
 20
288.6987693225532
 30
0.0
  0
VERTEX
  5
2DE
330
2DB
100
AcDbEntity
  8
Linee visibili 2D
 62
   255
100
AcDbVertex
100
AcDb2dVertex
 10
273.9765836378907
 20
288.5772851846936
 30
0.0
  0
VERTEX
  5
2DF
330
2DB
100
AcDbEntity
  8
Linee visibili 2D
 62
   255
100
AcDbVertex
100
AcDb2dVertex
 10
271.6347263053919
 20
284.521069300728
 30
0.0
  0
VERTEX
  5
2E0
330
2DB
100
AcDbEntity
  8
Linee visibili 2D
 62
   255
100
AcDbVertex
100
AcDb2dVertex
 10
271.4243096063054
 20
284.6425534385875
 30
0.0
  0
SEQEND
  5
2E1
330
2DB
100
AcDbEntity
  8
Linee visibili 2D
 62
   255
  0
LINE
  5
2E2
330
1F
100
AcDbEntity
  8
Linee visibili 2D
 62
   255
100
AcDbLine
 10
294.9376555780381
 20
79.17186422253397
 30
0.0
 11
294.9376555780381
 21
75.33014128760905
 31
0.0
  0
POLYLINE
  5
2E3
330
1F
100
AcDbEntity
  8
Linee visibili 2D
 62
   255
100
AcDb2dPolyline
 66
     1
 10
0.0
 20
0.0
 30
0.0
  0
VERTEX
  5
2E4
330
2E3
100
AcDbEntity
  8
Linee visibili 2D
 62
   255
100
AcDbVertex
100
AcDb2dVertex
 10
279.3585964661401
 20
55.6709721344441
 30
0.0
  0
VERTEX
  5
2E5
330
2E3
100
AcDbEntity
  8
Linee visibili 2D
 62
   255
100
AcDbVertex
100
AcDb2dVertex
 10
265.4146758789629
 20
55.70508280509787
 30
0.0
  0
VERTEX
  5
2E6
330
2E3
100
AcDbEntity
  8
Linee visibili 2D
 62
   255
100
AcDbVertex
100
AcDb2dVertex
 10
265.3864288290375
 20
56.05520788874841
 30
0.0
  0
SEQEND
  5
2E7
330
2E3
100
AcDbEntity
  8
Linee visibili 2D
 62
   255
  0
LINE
  5
2E8
330
1F
100
AcDbEntity
  8
Linee visibili 2D
 62
   255
100
AcDbLine
 10
281.8286470980388
 20
56.08677583703766
 30
0.0
 11
281.9010662620267
 21
56.08666880791716
 31
0.0
  0
POLYLINE
  5
2E9
330
1F
100
AcDbEntity
  8
Linee visibili 2D
 62
   255
100
AcDb2dPolyline
 66
     1
 10
0.0
 20
0.0
 30
0.0
  0
VERTEX
  5
2EA
330
2E9
100
AcDbEntity
  8
Linee visibili 2D
 62
   255
100
AcDbVertex
100
AcDb2dVertex
 10
271.8699348716831
 20
297.2871754772124
 30
0.0
 42
-0.9987834606695292
  0
VERTEX
  5
2EB
330
2E9
100
AcDbEntity
  8
Linee visibili 2D
 62
   255
100
AcDbVertex
100
AcDb2dVertex
 10
285.853437598471
 20
297.2871754772124
 30
0.0
 42
-1.000812489752281
  0
VERTEX
  5
2EC
330
2E9
100
AcDbEntity
  8
Linee visibili 2D
 62
   255
100
AcDbVertex
100
AcDb2dVertex
 10
271.8699348716831
 20
297.2871754772124
 30
0.0
  0
SEQEND
  5
2ED
330
2E9
100
AcDbEntity
  8
Linee visibili 2D
 62
   255
  0
POLYLINE
  5
2EE
330
1F
100
AcDbEntity
  8
Linee visibili 2D
 62
   255
100
AcDb2dPolyline
 66
     1
 10
0.0
 20
0.0
 30
0.0
  0
VERTEX
  5
2EF
330
2EE
100
AcDbEntity
  8
Linee visibili 2D
 62
   255
100
AcDbVertex
100
AcDb2dVertex
 10
269.05378791367
 20
295.4287440343122
 30
0.0
  0
VERTEX
  5
2F0
330
2EE
100
AcDbEntity
  8
Linee visibili 2D
 62
   255
100
AcDbVertex
100
AcDb2dVertex
 10
264.4412293986833
 20
294.6154255180234
 30
0.0
  0
VERTEX
  5
2F1
330
2EE
100
AcDbEntity
  8
Linee visibili 2D
 62
   255
100
AcDbVertex
100
AcDb2dVertex
 10
264.3990384003737
 20
294.8547025596877
 30
0.0
  0
VERTEX
  5
2F2
330
2EE
100
AcDbEntity
  8
Linee visibili 2D
 62
   255
100
AcDbVertex
100
AcDb2dVertex
 10
269.0115969153604
 20
295.6680210759764
 30
0.0
  0
VERTEX
  5
2F3
330
2EE
100
AcDbEntity
  8
Linee visibili 2D
 62
   255
100
AcDbVertex
100
AcDb2dVertex
 10
269.05378791367
 20
295.4287440343122
 30
0.0
  0
SEQEND
  5
2F4
330
2EE
100
AcDbEntity
  8
Linee visibili 2D
 62
   255
  0
POLYLINE
  5
2F5
330
1F
100
AcDbEntity
  8
Linee visibili 2D
 62
   255
100
AcDb2dPolyline
 66
     1
 10
0.0
 20
0.0
 30
0.0
  0
VERTEX
  5
2F6
330
2F5
100
AcDbEntity
  8
Linee visibili 2D
 62
   255
100
AcDbVertex
100
AcDb2dVertex
 10
267.7062412010344
 20
287.7623832661424
 30
0.0
  0
VERTEX
  5
2F7
330
2F5
100
AcDbEntity
  8
Linee visibili 2D
 62
   255
100
AcDbVertex
100
AcDb2dVertex
 10
267.5500642038552
 20
287.9485077636112
 30
0.0
  0
VERTEX
  5
2F8
330
2F5
100
AcDbEntity
  8
Linee visibili 2D
 62
   255
100
AcDbVertex
100
AcDb2dVertex
 10
271.1379977961315
 20
290.9591415175789
 30
0.0
  0
VERTEX
  5
2F9
330
2F5
100
AcDbEntity
  8
Linee visibili 2D
 62
   255
100
AcDbVertex
100
AcDb2dVertex
 10
271.2941747933107
 20
290.7730170201099
 30
0.0
  0
VERTEX
  5
2FA
330
2F5
100
AcDbEntity
  8
Linee visibili 2D
 62
   255
100
AcDbVertex
100
AcDb2dVertex
 10
267.7062412010344
 20
287.7623832661424
 30
0.0
  0
SEQEND
  5
2FB
330
2F5
100
AcDbEntity
  8
Linee visibili 2D
 62
   255
  0
POLYLINE
  5
2FC
330
1F
100
AcDbEntity
  8
Linee visibili 2D
 62
   255
100
AcDb2dPolyline
 66
     1
 10
0.0
 20
0.0
 30
0.0
  0
VERTEX
  5
2FD
330
2FC
100
AcDbEntity
  8
Linee visibili 2D
 62
   255
100
AcDbVertex
100
AcDb2dVertex
 10
269.05378791367
 20
299.1342546835401
 30
0.0
  0
VERTEX
  5
2FE
330
2FC
100
AcDbEntity
  8
Linee visibili 2D
 62
   255
100
AcDbVertex
100
AcDb2dVertex
 10
269.0115969153604
 20
298.8949776418758
 30
0.0
  0
VERTEX
  5
2FF
330
2FC
100
AcDbEntity
  8
Linee visibili 2D
 62
   255
100
AcDbVertex
100
AcDb2dVertex
 10
264.3990384003737
 20
299.7082961581644
 30
0.0
  0
VERTEX
  5
300
330
2FC
100
AcDbEntity
  8
Linee visibili 2D
 62
   255
100
AcDbVertex
100
AcDb2dVertex
 10
264.4412293986833
 20
299.9475731998287
 30
0.0
  0
VERTEX
  5
301
330
2FC
100
AcDbEntity
  8
Linee visibili 2D
 62
   255
100
AcDbVertex
100
AcDb2dVertex
 10
269.05378791367
 20
299.1342546835401
 30
0.0
  0
SEQEND
  5
302
330
2FC
100
AcDbEntity
  8
Linee visibili 2D
 62
   255
  0
POLYLINE
  5
303
330
1F
100
AcDbEntity
  8
Linee visibili 2D
 62
   255
100
AcDb2dPolyline
 66
     1
 10
0.0
 20
0.0
 30
0.0
  0
VERTEX
  5
304
330
303
100
AcDbEntity
  8
Linee visibili 2D
 62
   255
100
AcDbVertex
100
AcDb2dVertex
 10
265.1232674046168
 20
292.1518431195377
 30
0.0
  0
VERTEX
  5
305
330
303
100
AcDbEntity
  8
Linee visibili 2D
 62
   255
100
AcDbVertex
100
AcDb2dVertex
 10
265.0401673601317
 20
292.3801586153161
 30
0.0
  0
VERTEX
  5
306
330
303
100
AcDbEntity
  8
Linee visibili 2D
 62
   255
100
AcDbVertex
100
AcDb2dVertex
 10
269.4414194686967
 20
293.9820833763351
 30
0.0
  0
VERTEX
  5
307
330
303
100
AcDbEntity
  8
Linee visibili 2D
 62
   255
100
AcDbVertex
100
AcDb2dVertex
 10
269.5245195131818
 20
293.7537678805568
 30
0.0
  0
VERTEX
  5
308
330
303
100
AcDbEntity
  8
Linee visibili 2D
 62
   255
100
AcDbVertex
100
AcDb2dVertex
 10
265.1232674046168
 20
292.1518431195377
 30
0.0
  0
SEQEND
  5
309
330
303
100
AcDbEntity
  8
Linee visibili 2D
 62
   255
  0
POLYLINE
  5
30A
330
1F
100
AcDbEntity
  8
Linee visibili 2D
 62
   255
100
AcDb2dPolyline
 66
     1
 10
0.0
 20
0.0
 30
0.0
  0
VERTEX
  5
30B
330
30A
100
AcDbEntity
  8
Linee visibili 2D
 62
   255
100
AcDbVertex
100
AcDb2dVertex
 10
266.2227403147385
 20
289.8441227301545
 30
0.0
  0
VERTEX
  5
30C
330
30A
100
AcDbEntity
  8
Linee visibili 2D
 62
   255
100
AcDbVertex
100
AcDb2dVertex
 10
266.1012561768789
 20
290.054539429241
 30
0.0
  0
VERTEX
  5
30D
330
30A
100
AcDbEntity
  8
Linee visibili 2D
 62
   255
100
AcDbVertex
100
AcDb2dVertex
 10
270.1574720608444
 20
292.3963967617398
 30
0.0
  0
VERTEX
  5
30E
330
30A
100
AcDbEntity
  8
Linee visibili 2D
 62
   255
100
AcDbVertex
100
AcDb2dVertex
 10
270.2789561987042
 20
292.1859800626533
 30
0.0
  0
VERTEX
  5
30F
330
30A
100
AcDbEntity
  8
Linee visibili 2D
 62
   255
100
AcDbVertex
100
AcDb2dVertex
 10
266.2227403147385
 20
289.8441227301545
 30
0.0
  0
SEQEND
  5
310
330
30A
100
AcDbEntity
  8
Linee visibili 2D
 62
   255
  0
LINE
  5
311
330
1F
100
AcDbEntity
  8
Linee visibili 2D
 62
   255
100
AcDbLine
 10
401.2661830295252
 20
18.21841031321432
 30
0.0
 11
400.5675724680832
 21
18.91702087465646
 31
0.0
  0
LINE
  5
312
330
1F
100
AcDbEntity
  8
Predefinito
 62
   255
100
AcDbLine
 10
297.6323164987194
 20
9.142623369811957
 30
0.0
 11
296.9110321029656
 21
9.863748211518072
 31
0.0
  0
POLYLINE
  5
313
330
1F
100
AcDbEntity
  8
Linee visibili 2D
 62
   255
100
AcDb2dPolyline
 66
     1
 10
0.0
 20
0.0
 30
0.0
  0
VERTEX
  5
314
330
313
100
AcDbEntity
  8
Linee visibili 2D
 62
   255
100
AcDbVertex
100
AcDb2dVertex
 10
269.3425701422933
 20
286.1260543248835
 30
0.0
  0
VERTEX
  5
315
330
313
100
AcDbEntity
  8
Linee visibili 2D
 62
   255
100
AcDbVertex
100
AcDb2dVertex
 10
272.3532038962609
 20
289.7139879171598
 30
0.0
  0
VERTEX
  5
316
330
313
100
AcDbEntity
  8
Linee visibili 2D
 62
   255
100
AcDbVertex
100
AcDb2dVertex
 10
272.5393283937298
 20
289.5578109199806
 30
0.0
  0
VERTEX
  5
317
330
313
100
AcDbEntity
  8
Linee visibili 2D
 62
   255
100
AcDbVertex
100
AcDb2dVertex
 10
269.5286946397621
 20
285.9698773277043
 30
0.0
  0
VERTEX
  5
318
330
313
100
AcDbEntity
  8
Linee visibili 2D
 62
   255
100
AcDbVertex
100
AcDb2dVertex
 10
269.3425701422933
 20
286.1260543248835
 30
0.0
  0
SEQEND
  5
319
330
313
100
AcDbEntity
  8
Linee visibili 2D
 62
   255
  0
POLYLINE
  5
31A
330
1F
100
AcDbEntity
  8
Linee visibili 2D
 62
   255
100
AcDb2dPolyline
 66
     1
 10
0.0
 20
0.0
 30
0.0
  0
VERTEX
  5
31B
330
31A
100
AcDbEntity
  8
Linee visibili 2D
 62
   255
100
AcDbVertex
100
AcDb2dVertex
 10
235.2654583306497
 20
298.0888378018544
 30
0.0
  0
VERTEX
  5
31C
330
31A
100
AcDbEntity
  8
Linee visibili 2D
 62
   255
100
AcDbVertex
100
AcDb2dVertex
 10
235.2654583306497
 20
296.4741609249666
 30
0.0
  0
VERTEX
  5
31D
330
31A
100
AcDbEntity
  8
Linee visibili 2D
 62
   255
100
AcDbVertex
100
AcDb2dVertex
 10
233.8671071363616
 20
295.6668224865227
 30
0.0
  0
VERTEX
  5
31E
330
31A
100
AcDbEntity
  8
Linee visibili 2D
 62
   255
100
AcDbVertex
100
AcDb2dVertex
 10
232.4687559420734
 20
296.4741609249666
 30
0.0
  0
VERTEX
  5
31F
330
31A
100
AcDbEntity
  8
Linee visibili 2D
 62
   255
100
AcDbVertex
100
AcDb2dVertex
 10
232.4687559420734
 20
298.0888378018544
 30
0.0
  0
VERTEX
  5
320
330
31A
100
AcDbEntity
  8
Linee visibili 2D
 62
   255
100
AcDbVertex
100
AcDb2dVertex
 10
233.8671071363616
 20
298.8961762402984
 30
0.0
  0
VERTEX
  5
321
330
31A
100
AcDbEntity
  8
Linee visibili 2D
 62
   255
100
AcDbVertex
100
AcDb2dVertex
 10
235.2654583306497
 20
298.0888378018544
 30
0.0
  0
SEQEND
  5
322
330
31A
100
AcDbEntity
  8
Linee visibili 2D
 62
   255
  0
ENDSEC
  0
SECTION
  2
OBJECTS
  0
DICTIONARY
  5
C
330
0
100
AcDbDictionary
281
     1
  3
ACAD_GROUP
350
D
  3
ACAD_LAYOUT
350
1A
  3
ACAD_MLEADERSTYLE
350
324
  3
ACAD_MLINESTYLE
350
17
  3
ACAD_PLOTSETTINGS
350
19
  3
ACAD_PLOTSTYLENAME
350
E
  3
ACAD_TABLESTYLE
350
323
  3
ACAD_VISUALSTYLE
350
2A
  0
DICTIONARY
  5
D
102
{ACAD_REACTORS
330
C
102
}
330
C
100
AcDbDictionary
281
     1
  0
DICTIONARY
  5
1A
102
{ACAD_REACTORS
330
C
102
}
330
C
100
AcDbDictionary
281
     1
  3
Layout1
350
1E
  3
Layout2
350
26
  3
Model
350
22
  0
DICTIONARY
  5
324
102
{ACAD_REACTORS
330
C
102
}
330
C
100
AcDbDictionary
281
     1
  0
DICTIONARY
  5
17
102
{ACAD_REACTORS
330
C
102
}
330
C
100
AcDbDictionary
281
     1
  3
Standard
350
18
  0
DICTIONARY
  5
19
102
{ACAD_REACTORS
330
C
102
}
330
C
100
AcDbDictionary
281
     1
  0
ACDBDICTIONARYWDFLT
  5
E
102
{ACAD_REACTORS
330
C
102
}
330
C
100
AcDbDictionary
281
     1
  3
Normal
350
F
100
AcDbDictionaryWithDefault
340
F
  0
DICTIONARY
  5
323
102
{ACAD_REACTORS
330
C
102
}
330
C
100
AcDbDictionary
281
     1
  0
DICTIONARY
  5
2A
102
{ACAD_REACTORS
330
C
102
}
330
C
100
AcDbDictionary
281
     1
  3
2dWireframe
350
2F
  3
3D Hidden
350
31
  3
3dWireframe
350
30
  3
Basic
350
32
  3
Brighten
350
36
  3
ColorChange
350
3A
  3
Conceptual
350
34
  3
Dim
350
35
  3
Facepattern
350
39
  3
Flat
350
2B
  3
FlatWithEdges
350
2C
  3
Gouraud
350
2D
  3
GouraudWithEdges
350
2E
  3
Linepattern
350
38
  3
Realistic
350
33
  3
Thicken
350
37
  0
LAYOUT
  5
1E
102
{ACAD_REACTORS
330
1A
102
}
330
1A
100
AcDbPlotSettings
  1

  2
none_device
  4

  6

 40
0.0
 41
0.0
 42
0.0
 43
0.0
 44
0.0
 45
0.0
 46
0.0
 47
0.0
 48
0.0
 49
0.0
140
0.0
141
0.0
142
1.0
143
1.0
 70
   688
 72
     0
 73
     0
 74
     5
  7

 75
    16
 76
     0
 77
     2
 78
   300
147
1.0
148
0.0
149
0.0
100
AcDbLayout
  1
Layout1
 70
     1
 71
     1
 10
0.0
 20
0.0
 11
12.0
 21
9.0
 12
0.0
 22
0.0
 32
0.0
 14
1.000000000000000E+20
 24
1.000000000000000E+20
 34
1.000000000000000E+20
 15
-1.000000000000000E+20
 25
-1.000000000000000E+20
 35
-1.000000000000000E+20
146
0.0
 13
0.0
 23
0.0
 33
0.0
 16
1.0
 26
0.0
 36
0.0
 17
0.0
 27
1.0
 37
0.0
 76
     0
330
1B
  0
LAYOUT
  5
26
102
{ACAD_REACTORS
330
1A
102
}
330
1A
100
AcDbPlotSettings
  1

  2
none_device
  4

  6

 40
0.0
 41
0.0
 42
0.0
 43
0.0
 44
0.0
 45
0.0
 46
0.0
 47
0.0
 48
0.0
 49
0.0
140
0.0
141
0.0
142
1.0
143
1.0
 70
   688
 72
     0
 73
     0
 74
     5
  7

 75
    16
 76
     0
 77
     2
 78
   300
147
1.0
148
0.0
149
0.0
100
AcDbLayout
  1
Layout2
 70
     1
 71
     2
 10
0.0
 20
0.0
 11
0.0
 21
0.0
 12
0.0
 22
0.0
 32
0.0
 14
0.0
 24
0.0
 34
0.0
 15
0.0
 25
0.0
 35
0.0
146
0.0
 13
0.0
 23
0.0
 33
0.0
 16
1.0
 26
0.0
 36
0.0
 17
0.0
 27
1.0
 37
0.0
 76
     0
330
23
  0
LAYOUT
  5
22
102
{ACAD_REACTORS
330
1A
102
}
330
1A
100
AcDbPlotSettings
  1

  2
none_device
  4

  6

 40
0.0
 41
0.0
 42
0.0
 43
0.0
 44
0.0
 45
0.0
 46
0.0
 47
0.0
 48
0.0
 49
0.0
140
0.0
141
0.0
142
1.0
143
1.0
 70
  1712
 72
     0
 73
     0
 74
     0
  7

 75
     0
 76
     0
 77
     2
 78
   300
147
1.0
148
0.0
149
0.0
100
AcDbLayout
  1
Model
 70
     1
 71
     0
 10
0.0
 20
0.0
 11
12.0
 21
9.0
 12
0.0
 22
0.0
 32
0.0
 14
0.0000001372243463
 24
9.142623369811957
 34
0.0
 15
529.1057654180842
 25
365.4449381332542
 35
0.0
146
0.0
 13
0.0
 23
0.0
 33
0.0
 16
1.0
 26
0.0
 36
0.0
 17
0.0
 27
1.0
 37
0.0
 76
     0
330
1F
331
29
  0
MLINESTYLE
  5
18
102
{ACAD_REACTORS
330
17
102
}
330
17
100
AcDbMlineStyle
  2
Standard
 70
     0
  3

 62
   256
 51
90.0
 52
90.0
 71
     2
 49
0.5
 62
   256
  6
BYLAYER
 49
-0.5
 62
   256
  6
BYLAYER
  0
ACDBPLACEHOLDER
  5
F
102
{ACAD_REACTORS
330
E
102
}
330
E
  0
VISUALSTYLE
  5
2F
102
{ACAD_REACTORS
330
2A
102
}
330
2A
100
AcDbVisualStyle
  2
2dWireframe
 70
     4
 71
     0
 72
     2
 73
     0
 90
        0
 40
-0.6
 41
-30.0
 62
     5
 63
     7
421
 16777215
 74
     1
 91
        4
 64
     7
 65
   257
 75
     1
175
     1
 42
1.0
 92
        0
 66
   257
 43
1.0
 76
     1
 77
     6
 78
     2
 67
     7
 79
     5
170
     0
171
     0
290
     0
174
     0
 93
        1
 44
0.0
173
     0
291
     0
 45
0.0
1001
ACAD
1000
AcDbSavedByObjectVersion
1070
     0
  0
VISUALSTYLE
  5
31
102
{ACAD_REACTORS
330
2A
102
}
330
2A
100
AcDbVisualStyle
  2
3D Hidden
 70
     6
 71
     1
 72
     2
 73
     2
 90
        0
 40
-0.6
 41
-30.0
 62
     5
 63
     7
421
 16777215
 74
     2
 91
        2
 64
     7
 65
   257
 75
     2
175
     1
 42
40.0
 92
        0
 66
   257
 43
1.0
 76
     1
 77
     6
 78
     2
 67
     7
 79
     3
170
     0
171
     0
290
     0
174
     0
 93
        1
 44
0.0
173
     0
291
     0
 45
0.0
1001
ACAD
1000
AcDbSavedByObjectVersion
1070
     0
  0
VISUALSTYLE
  5
30
102
{ACAD_REACTORS
330
2A
102
}
330
2A
100
AcDbVisualStyle
  2
3dWireframe
 70
     5
 71
     0
 72
     2
 73
     0
 90
        0
 40
-0.6
 41
-30.0
 62
     5
 63
     7
421
 16777215
 74
     1
 91
        4
 64
     7
 65
   257
 75
     1
175
     1
 42
1.0
 92
        0
 66
   257
 43
1.0
 76
     1
 77
     6
 78
     2
 67
     7
 79
     5
170
     0
171
     0
290
     0
174
     0
 93
        1
 44
0.0
173
     0
291
     0
 45
0.0
1001
ACAD
1000
AcDbSavedByObjectVersion
1070
     0
  0
VISUALSTYLE
  5
32
102
{ACAD_REACTORS
330
2A
102
}
330
2A
100
AcDbVisualStyle
  2
Basic
 70
     7
 71
     1
 72
     0
 73
     1
 90
        0
 40
-0.6
 41
-30.0
 62
     5
 63
     7
421
 16777215
 74
     0
 91
        4
 64
     7
 65
   257
 75
     1
175
     1
 42
1.0
 92
        8
 66
     7
 43
1.0
 76
     1
 77
     6
 78
     2
 67
     7
 79
     5
170
     0
171
     0
290
     0
174
     0
 93
        1
 44
0.0
173
     0
291
     1
 45
0.0
1001
ACAD
1000
AcDbSavedByObjectVersion
1070
     0
  0
VISUALSTYLE
  5
36
102
{ACAD_REACTORS
330
2A
102
}
330
2A
100
AcDbVisualStyle
  2
Brighten
 70
    12
 71
     2
 72
     2
 73
     0
 90
        0
 40
-0.6
 41
-30.0
 62
     5
 63
     7
421
 16777215
 74
     1
 91
        4
 64
     7
 65
   257
 75
     1
175
     1
 42
1.0
 92
        8
 66
     7
 43
1.0
 76
     1
 77
     6
 78
     2
 67
     7
 79
     5
170
     0
171
     0
290
     0
174
     0
 93
        1
 44
50.0
173
     0
291
     1
 45
0.0
1001
ACAD
1000
AcDbSavedByObjectVersion
1070
     0
  0
VISUALSTYLE
  5
3A
102
{ACAD_REACTORS
330
2A
102
}
330
2A
100
AcDbVisualStyle
  2
ColorChange
 70
    16
 71
     2
 72
     2
 73
     3
 90
        0
 40
-0.6
 41
-30.0
 62
     5
 63
     8
421
  8421504
 74
     1
 91
        4
 64
     7
 65
   257
 75
     1
175
     1
 42
1.0
 92
        8
 66
     8
424
  8421504
 43
1.0
 76
     1
 77
     6
 78
     2
 67
     7
 79
     5
170
     0
171
     0
290
     0
174
     0
 93
        1
 44
0.0
173
     0
291
     1
 45
0.0
1001
ACAD
1000
AcDbSavedByObjectVersion
1070
     0
  0
VISUALSTYLE
  5
34
102
{ACAD_REACTORS
330
2A
102
}
330
2A
100
AcDbVisualStyle
  2
Conceptual
 70
     9
 71
     3
 72
     2
 73
     0
 90
        0
 40
-0.6
 41
-30.0
 62
     5
 63
     7
421
 16777215
 74
     2
 91
        2
 64
     7
 65
   257
 75
     1
175
     1
 42
40.0
 92
        8
 66
     7
 43
1.0
 76
     1
 77
     6
 78
     2
 67
     7
 79
     3
170
     0
171
     0
290
     0
174
     0
 93
        1
 44
0.0
173
     0
291
     0
 45
0.0
1001
ACAD
1000
AcDbSavedByObjectVersion
1070
     0
  0
VISUALSTYLE
  5
35
102
{ACAD_REACTORS
330
2A
102
}
330
2A
100
AcDbVisualStyle
  2
Dim
 70
    11
 71
     2
 72
     2
 73
     0
 90
        0
 40
-0.6
 41
-30.0
 62
     5
 63
     7
421
 16777215
 74
     1
 91
        4
 64
     7
 65
   257
 75
     1
175
     1
 42
1.0
 92
        8
 66
     7
 43
1.0
 76
     1
 77
     6
 78
     2
 67
     7
 79
     5
170
     0
171
     0
290
     0
174
     0
 93
        1
 44
-50.0
173
     0
291
     1
 45
0.0
1001
ACAD
1000
AcDbSavedByObjectVersion
1070
     0
  0
VISUALSTYLE
  5
39
102
{ACAD_REACTORS
330
2A
102
}
330
2A
100
AcDbVisualStyle
  2
Facepattern
 70
    15
 71
     2
 72
     2
 73
     0
 90
        0
 40
-0.6
 41
-30.0
 62
     5
 63
     7
421
 16777215
 74
     1
 91
        4
 64
     7
 65
   257
 75
     1
175
     1
 42
1.0
 92
        8
 66
     7
 43
1.0
 76
     1
 77
     6
 78
     2
 67
     7
 79
     5
170
     0
171
     0
290
     0
174
     0
 93
        1
 44
0.0
173
     0
291
     1
 45
0.0
1001
ACAD
1000
AcDbSavedByObjectVersion
1070
     0
  0
VISUALSTYLE
  5
2B
102
{ACAD_REACTORS
330
2A
102
}
330
2A
100
AcDbVisualStyle
  2
Flat
 70
     0
 71
     2
 72
     1
 73
     1
 90
        2
 40
-0.6
 41
30.0
 62
     5
 63
     7
421
 16777215
 74
     0
 91
        4
 64
     7
 65
   257
 75
     1
175
     1
 42
1.0
 92
        8
 66
     7
 43
1.0
 76
     1
 77
     6
 78
     2
 67
     7
 79
     5
170
     0
171
     0
290
     0
174
     0
 93
       13
 44
0.0
173
     0
291
     1
 45
0.0
1001
ACAD
1000
AcDbSavedByObjectVersion
1070
     0
  0
VISUALSTYLE
  5
2C
102
{ACAD_REACTORS
330
2A
102
}
330
2A
100
AcDbVisualStyle
  2
FlatWithEdges
 70
     1
 71
     2
 72
     1
 73
     1
 90
        2
 40
-0.6
 41
30.0
 62
     5
 63
     7
421
 16777215
 74
     1
 91
        4
 64
     7
 65
   257
 75
     1
175
     1
 42
1.0
 92
        0
 66
   257
 43
1.0
 76
     1
 77
     6
 78
     2
 67
     7
 79
     5
170
     0
171
     0
290
     0
174
     0
 93
       13
 44
0.0
173
     0
291
     1
 45
0.0
1001
ACAD
1000
AcDbSavedByObjectVersion
1070
     0
  0
VISUALSTYLE
  5
2D
102
{ACAD_REACTORS
330
2A
102
}
330
2A
100
AcDbVisualStyle
  2
Gouraud
 70
     2
 71
     2
 72
     2
 73
     1
 90
        2
 40
-0.6
 41
30.0
 62
     5
 63
     7
421
 16777215
 74
     0
 91
        4
 64
     7
 65
   257
 75
     1
175
     1
 42
1.0
 92
        0
 66
     7
 43
1.0
 76
     1
 77
     6
 78
     2
 67
     7
 79
     5
170
     0
171
     0
290
     0
174
     0
 93
       13
 44
0.0
173
     0
291
     1
 45
0.0
1001
ACAD
1000
AcDbSavedByObjectVersion
1070
     0
  0
VISUALSTYLE
  5
2E
102
{ACAD_REACTORS
330
2A
102
}
330
2A
100
AcDbVisualStyle
  2
GouraudWithEdges
 70
     3
 71
     2
 72
     2
 73
     1
 90
        2
 40
-0.6
 41
30.0
 62
     5
 63
     7
421
 16777215
 74
     1
 91
        4
 64
     7
 65
   257
 75
     1
175
     1
 42
1.0
 92
        0
 66
   257
 43
1.0
 76
     1
 77
     6
 78
     2
 67
     7
 79
     5
170
     0
171
     0
290
     0
174
     0
 93
       13
 44
0.0
173
     0
291
     1
 45
0.0
1001
ACAD
1000
AcDbSavedByObjectVersion
1070
     0
  0
VISUALSTYLE
  5
38
102
{ACAD_REACTORS
330
2A
102
}
330
2A
100
AcDbVisualStyle
  2
Linepattern
 70
    14
 71
     2
 72
     2
 73
     0
 90
        0
 40
-0.6
 41
-30.0
 62
     5
 63
     7
421
 16777215
 74
     1
 91
        4
 64
     7
 65
   257
 75
     7
175
     7
 42
1.0
 92
        8
 66
     7
 43
1.0
 76
     1
 77
     6
 78
     2
 67
     7
 79
     5
170
     0
171
     0
290
     0
174
     0
 93
        1
 44
0.0
173
     0
291
     1
 45
0.0
1001
ACAD
1000
AcDbSavedByObjectVersion
1070
     0
  0
VISUALSTYLE
  5
33
102
{ACAD_REACTORS
330
2A
102
}
330
2A
100
AcDbVisualStyle
  2
Realistic
 70
     8
 71
     2
 72
     2
 73
     0
 90
        0
 40
-0.6
 41
-30.0
 62
     5
 63
     7
421
 16777215
 74
     1
 91
        0
 64
     7
 65
   257
 75
     1
175
     1
 42
1.0
 92
        8
 66
     8
424
  7895160
 43
1.0
 76
     1
 77
     6
 78
     2
 67
     7
 79
     5
170
     0
171
     0
290
     0
174
     0
 93
       13
 44
0.0
173
     0
291
     0
 45
0.0
1001
ACAD
1000
AcDbSavedByObjectVersion
1070
     0
  0
VISUALSTYLE
  5
37
102
{ACAD_REACTORS
330
2A
102
}
330
2A
100
AcDbVisualStyle
  2
Thicken
 70
    13
 71
     2
 72
     2
 73
     0
 90
        0
 40
-0.6
 41
-30.0
 62
     5
 63
     7
421
 16777215
 74
     1
 91
        4
 64
     7
 65
   257
 75
     1
175
     1
 42
1.0
 92
       12
 66
     7
 43
1.0
 76
     1
 77
     6
 78
     2
 67
     7
 79
     5
170
     0
171
     0
290
     0
174
     0
 93
        1
 44
0.0
173
     0
291
     1
 45
0.0
1001
ACAD
1000
AcDbSavedByObjectVersion
1070
     0
  0
ENDSEC
  0
EOF
