  0
SECTION
  2
HEADER
  9
$ACADVER
  1
AC1018
  9
$ACADMAINTVER
 70
     0
  9
$DWGCODEPAGE
  3
ANSI_1252
  9
$INSBASE
 10
0.0
 20
0.0
 30
0.0
  9
$EXTMIN
 10
12.11601285642615
 20
8.000038076210899
 30
0.0
  9
$EXTMAX
 10
754.4935046254898
 20
500.9828024642392
 30
0.0
  9
$LIMMIN
 10
0.0
 20
0.0
  9
$LIMMAX
 10
12.0
 20
9.0
  9
$ORTHOMODE
 70
     0
  9
$REGENMODE
 70
     1
  9
$FILLMODE
 70
     1
  9
$QTEXTMODE
 70
     0
  9
$MIRRTEXT
 70
     1
  9
$LTSCALE
 40
1.0
  9
$ATTMODE
 70
     1
  9
$TEXTSIZE
 40
0.2
  9
$TRACEWID
 40
0.05
  9
$TEXTSTYLE
  7
Standard
  9
$CLAYER
  8
Predefinito
  9
$CELTYPE
  6
ByLayer
  9
$CECOLOR
 62
   256
  9
$CELTSCALE
 40
1.0
  9
$DISPSILH
 70
     0
  9
$DIMSCALE
 40
1.0
  9
$DIMASZ
 40
0.18
  9
$DIMEXO
 40
0.0625
  9
$DIMDLI
 40
0.38
  9
$DIMRND
 40
0.0
  9
$DIMDLE
 40
0.0
  9
$DIMEXE
 40
0.18
  9
$DIMTP
 40
0.0
  9
$DIMTM
 40
0.0
  9
$DIMTXT
 40
0.18
  9
$DIMCEN
 40
0.09
  9
$DIMTSZ
 40
0.0
  9
$DIMTOL
 70
     0
  9
$DIMLIM
 70
     0
  9
$DIMTIH
 70
     1
  9
$DIMTOH
 70
     1
  9
$DIMSE1
 70
     0
  9
$DIMSE2
 70
     0
  9
$DIMTAD
 70
     0
  9
$DIMZIN
 70
     0
  9
$DIMBLK
  1

  9
$DIMASO
 70
     1
  9
$DIMSHO
 70
     1
  9
$DIMPOST
  1

  9
$DIMAPOST
  1

  9
$DIMALT
 70
     0
  9
$DIMALTD
 70
     2
  9
$DIMALTF
 40
25.4
  9
$DIMLFAC
 40
1.0
  9
$DIMTOFL
 70
     0
  9
$DIMTVP
 40
0.0
  9
$DIMTIX
 70
     0
  9
$DIMSOXD
 70
     0
  9
$DIMSAH
 70
     0
  9
$DIMBLK1
  1

  9
$DIMBLK2
  1

  9
$DIMSTYLE
  2
Standard
  9
$DIMCLRD
 70
     0
  9
$DIMCLRE
 70
     0
  9
$DIMCLRT
 70
     0
  9
$DIMTFAC
 40
1.0
  9
$DIMGAP
 40
0.09
  9
$DIMJUST
 70
     0
  9
$DIMSD1
 70
     0
  9
$DIMSD2
 70
     0
  9
$DIMTOLJ
 70
     1
  9
$DIMTZIN
 70
     0
  9
$DIMALTZ
 70
     0
  9
$DIMALTTZ
 70
     0
  9
$DIMUPT
 70
     0
  9
$DIMDEC
 70
     4
  9
$DIMTDEC
 70
     4
  9
$DIMALTU
 70
     2
  9
$DIMALTTD
 70
     2
  9
$DIMTXSTY
  7
Standard
  9
$DIMAUNIT
 70
     0
  9
$DIMADEC
 70
     0
  9
$DIMALTRND
 40
0.0
  9
$DIMAZIN
 70
     0
  9
$DIMDSEP
 70
    46
  9
$DIMATFIT
 70
     3
  9
$DIMFRAC
 70
     0
  9
$DIMLDRBLK
  1

  9
$DIMLUNIT
 70
     2
  9
$DIMLWD
 70
    -2
  9
$DIMLWE
 70
    -2
  9
$DIMTMOVE
 70
     2
  9
$LUNITS
 70
     2
  9
$LUPREC
 70
     3
  9
$SKETCHINC
 40
0.1
  9
$FILLETRAD
 40
0.5
  9
$AUNITS
 70
     0
  9
$AUPREC
 70
     0
  9
$MENU
  1
.
  9
$ELEVATION
 40
0.0
  9
$PELEVATION
 40
0.0
  9
$THICKNESS
 40
0.0
  9
$LIMCHECK
 70
     0
  9
$CHAMFERA
 40
0.5
  9
$CHAMFERB
 40
0.5
  9
$CHAMFERC
 40
1.0
  9
$CHAMFERD
 40
0.0
  9
$SKPOLY
 70
     0
  9
$TDCREATE
 40
2455958.407889803
  9
$TDUCREATE
 40
2455958.366223136
  9
$TDUPDATE
 40
2455958.407889815
  9
$TDUUPDATE
 40
2455958.366223148
  9
$TDINDWG
 40
0.0000000116
  9
$TDUSRTIMER
 40
0.0000000116
  9
$USRTIMER
 70
     1
  9
$ANGBASE
 50
0.0
  9
$ANGDIR
 70
     0
  9
$PDMODE
 70
     0
  9
$PDSIZE
 40
0.0
  9
$PLINEWID
 40
0.0
  9
$SPLFRAME
 70
     0
  9
$SPLINETYPE
 70
     6
  9
$SPLINESEGS
 70
     8
  9
$HANDSEED
  5
26E
  9
$SURFTAB1
 70
     6
  9
$SURFTAB2
 70
     6
  9
$SURFTYPE
 70
     6
  9
$SURFU
 70
     6
  9
$SURFV
 70
     6
  9
$UCSBASE
  2

  9
$UCSNAME
  2

  9
$UCSORG
 10
0.0
 20
0.0
 30
0.0
  9
$UCSXDIR
 10
1.0
 20
0.0
 30
0.0
  9
$UCSYDIR
 10
0.0
 20
1.0
 30
0.0
  9
$UCSORTHOREF
  2

  9
$UCSORTHOVIEW
 70
     0
  9
$UCSORGTOP
 10
0.0
 20
0.0
 30
0.0
  9
$UCSORGBOTTOM
 10
0.0
 20
0.0
 30
0.0
  9
$UCSORGLEFT
 10
0.0
 20
0.0
 30
0.0
  9
$UCSORGRIGHT
 10
0.0
 20
0.0
 30
0.0
  9
$UCSORGFRONT
 10
0.0
 20
0.0
 30
0.0
  9
$UCSORGBACK
 10
0.0
 20
0.0
 30
0.0
  9
$PUCSBASE
  2

  9
$PUCSNAME
  2

  9
$PUCSORG
 10
0.0
 20
0.0
 30
0.0
  9
$PUCSXDIR
 10
1.0
 20
0.0
 30
0.0
  9
$PUCSYDIR
 10
0.0
 20
1.0
 30
0.0
  9
$PUCSORTHOREF
  2

  9
$PUCSORTHOVIEW
 70
     0
  9
$PUCSORGTOP
 10
0.0
 20
0.0
 30
0.0
  9
$PUCSORGBOTTOM
 10
0.0
 20
0.0
 30
0.0
  9
$PUCSORGLEFT
 10
0.0
 20
0.0
 30
0.0
  9
$PUCSORGRIGHT
 10
0.0
 20
0.0
 30
0.0
  9
$PUCSORGFRONT
 10
0.0
 20
0.0
 30
0.0
  9
$PUCSORGBACK
 10
0.0
 20
0.0
 30
0.0
  9
$USERI1
 70
     0
  9
$USERI2
 70
     0
  9
$USERI3
 70
     0
  9
$USERI4
 70
     0
  9
$USERI5
 70
     0
  9
$USERR1
 40
0.0
  9
$USERR2
 40
0.0
  9
$USERR3
 40
0.0
  9
$USERR4
 40
0.0
  9
$USERR5
 40
0.0
  9
$WORLDVIEW
 70
     1
  9
$SHADEDGE
 70
     3
  9
$SHADEDIF
 70
    70
  9
$TILEMODE
 70
     1
  9
$MAXACTVP
 70
    64
  9
$PINSBASE
 10
0.0
 20
0.0
 30
0.0
  9
$PLIMCHECK
 70
     0
  9
$PEXTMIN
 10
1.000000000000000E+20
 20
1.000000000000000E+20
 30
1.000000000000000E+20
  9
$PEXTMAX
 10
-1.000000000000000E+20
 20
-1.000000000000000E+20
 30
-1.000000000000000E+20
  9
$PLIMMIN
 10
0.0
 20
0.0
  9
$PLIMMAX
 10
12.0
 20
9.0
  9
$UNITMODE
 70
     0
  9
$VISRETAIN
 70
     1
  9
$PLINEGEN
 70
     0
  9
$PSLTSCALE
 70
     1
  9
$TREEDEPTH
 70
  3020
  9
$CMLSTYLE
  2
Standard
  9
$CMLJUST
 70
     0
  9
$CMLSCALE
 40
1.0
  9
$PROXYGRAPHICS
 70
     1
  9
$MEASUREMENT
 70
     0
  9
$CELWEIGHT
370
    -1
  9
$ENDCAPS
280
     0
  9
$JOINSTYLE
280
     0
  9
$LWDISPLAY
290
     0
  9
$INSUNITS
 70
     4
  9
$HYPERLINKBASE
  1

  9
$STYLESHEET
  1

  9
$XEDIT
290
     1
  9
$CEPSNTYPE
380
     0
  9
$PSTYLEMODE
290
     1
  9
$FINGERPRINTGUID
  2
{AE8EA078-6BB6-4EA9-9FEA-A67D483D47F0}
  9
$VERSIONGUID
  2
{FAEB1C32-E019-11D5-929B-00C0DF256EC4}
  9
$EXTNAMES
290
     1
  9
$PSVPSCALE
 40
0.0
  9
$OLESTARTUP
290
     0
  9
$SORTENTS
280
   127
  9
$INDEXCTL
280
     0
  9
$HIDETEXT
280
     1
  9
$XCLIPFRAME
290
     0
  9
$HALOGAP
280
     0
  9
$OBSCOLOR
 70
   257
  9
$OBSLTYPE
280
     0
  9
$INTERSECTIONDISPLAY
280
     0
  9
$INTERSECTIONCOLOR
 70
   257
  9
$DIMASSOC
280
     2
  9
$PROJECTNAME
  1

  0
ENDSEC
  0
SECTION
  2
CLASSES
  0
CLASS
  1
ACDBDICTIONARYWDFLT
  2
AcDbDictionaryWithDefault
  3
ObjectDBX Classes
 90
        0
 91
        4
280
     0
281
     0
  0
CLASS
  1
VISUALSTYLE
  2
AcDbVisualStyle
  3
ObjectDBX Classes
 90
     4095
 91
        4
280
     0
281
     0
  0
ENDSEC
  0
SECTION
  2
TABLES
  0
TABLE
  2
VPORT
  5
8
330
0
100
AcDbSymbolTable
 70
     1
  0
VPORT
  5
29
330
8
100
AcDbSymbolTableRecord
100
AcDbViewportTableRecord
  2
*Active
 70
     0
 10
0.0
 20
0.0
 11
1.0
 21
1.0
 12
383.3047587409579
 22
254.4914202702251
 13
0.0
 23
0.0
 14
0.5
 24
0.5
 15
0.5
 25
0.5
 16
0.0
 26
0.0
 36
1.0
 17
0.0
 27
0.0
 37
0.0
 40
502.8424196757889
 41
1.505889344205827
 42
50.0
 43
0.0
 44
0.0
 50
0.0
 51
0.0
 71
     0
 72
   100
 73
     1
 74
     3
 75
     0
 76
     0
 77
     0
 78
     0
281
     0
 65
     1
110
0.0
120
0.0
130
0.0
111
1.0
121
0.0
131
0.0
112
0.0
122
1.0
132
0.0
 79
     0
146
0.0
  0
ENDTAB
  0
TABLE
  2
LTYPE
  5
5
330
0
100
AcDbSymbolTable
 70
     1
  0
LTYPE
  5
14
330
5
100
AcDbSymbolTableRecord
100
AcDbLinetypeTableRecord
  2
ByBlock
 70
     0
  3

 72
    65
 73
     0
 40
0.0
  0
LTYPE
  5
15
330
5
100
AcDbSymbolTableRecord
100
AcDbLinetypeTableRecord
  2
ByLayer
 70
     0
  3

 72
    65
 73
     0
 40
0.0
  0
LTYPE
  5
16
330
5
100
AcDbSymbolTableRecord
100
AcDbLinetypeTableRecord
  2
Continuous
 70
     0
  3
Solid line
 72
    65
 73
     0
 40
0.0
  0
ENDTAB
  0
TABLE
  2
LAYER
  5
2
330
0
100
AcDbSymbolTable
 70
     3
  0
LAYER
  5
10
330
2
100
AcDbSymbolTableRecord
100
AcDbLayerTableRecord
  2
0
 70
     0
 62
     7
  6
Continuous
370
    -3
390
F
  0
LAYER
  5
3B
330
2
100
AcDbSymbolTableRecord
100
AcDbLayerTableRecord
  2
Linee visibili 2D
 70
     0
 62
     7
  6
Continuous
370
    -3
390
F
  0
LAYER
  5
5D
330
2
100
AcDbSymbolTableRecord
100
AcDbLayerTableRecord
  2
Predefinito
 70
     0
 62
     7
  6
Continuous
370
    -3
390
F
  0
ENDTAB
  0
TABLE
  2
STYLE
  5
3
330
0
100
AcDbSymbolTable
 70
     1
  0
STYLE
  5
11
330
3
100
AcDbSymbolTableRecord
100
AcDbTextStyleTableRecord
  2
Standard
 70
     0
 40
0.0
 41
1.0
 50
0.0
 71
     0
 42
0.2
  3
txt
  4

  0
ENDTAB
  0
TABLE
  2
VIEW
  5
6
330
0
100
AcDbSymbolTable
 70
     0
  0
ENDTAB
  0
TABLE
  2
UCS
  5
7
330
0
100
AcDbSymbolTable
 70
     0
  0
ENDTAB
  0
TABLE
  2
APPID
  5
9
330
0
100
AcDbSymbolTable
 70
     1
  0
APPID
  5
12
330
9
100
AcDbSymbolTableRecord
100
AcDbRegAppTableRecord
  2
ACAD
 70
     0
  0
ENDTAB
  0
TABLE
  2
DIMSTYLE
  5
A
330
0
100
AcDbSymbolTable
 70
     1
100
AcDbDimStyleTable
  0
DIMSTYLE
105
27
330
A
100
AcDbSymbolTableRecord
100
AcDbDimStyleTableRecord
  2
Standard
 70
     0
340
11
  0
ENDTAB
  0
TABLE
  2
BLOCK_RECORD
  5
1
330
0
100
AcDbSymbolTable
 70
     1
  0
BLOCK_RECORD
  5
1F
330
1
100
AcDbSymbolTableRecord
100
AcDbBlockTableRecord
  2
*Model_Space
340
22
  0
BLOCK_RECORD
  5
1B
330
1
100
AcDbSymbolTableRecord
100
AcDbBlockTableRecord
  2
*Paper_Space
340
1E
  0
BLOCK_RECORD
  5
23
330
1
100
AcDbSymbolTableRecord
100
AcDbBlockTableRecord
  2
*Paper_Space0
340
26
  0
ENDTAB
  0
ENDSEC
  0
SECTION
  2
BLOCKS
  0
BLOCK
  5
20
330
1F
100
AcDbEntity
  8
0
100
AcDbBlockBegin
  2
*Model_Space
 70
     0
 10
0.0
 20
0.0
 30
0.0
  3
*Model_Space
  1

  0
ENDBLK
  5
21
330
1F
100
AcDbEntity
  8
0
100
AcDbBlockEnd
  0
BLOCK
  5
1C
330
1B
100
AcDbEntity
 67
     1
  8
0
100
AcDbBlockBegin
  2
*Paper_Space
 70
     0
 10
0.0
 20
0.0
 30
0.0
  3
*Paper_Space
  1

  0
ENDBLK
  5
1D
330
1B
100
AcDbEntity
 67
     1
  8
0
100
AcDbBlockEnd
  0
BLOCK
  5
24
330
23
100
AcDbEntity
  8
0
100
AcDbBlockBegin
  2
*Paper_Space0
 70
     0
 10
0.0
 20
0.0
 30
0.0
  3
*Paper_Space0
  1

  0
ENDBLK
  5
25
330
23
100
AcDbEntity
  8
0
100
AcDbBlockEnd
  0
ENDSEC
  0
SECTION
  2
ENTITIES
  0
POLYLINE
  5
3C
330
1F
100
AcDbEntity
  8
Linee visibili 2D
 62
   255
100
AcDb2dPolyline
 66
     1
 10
0.0
 20
0.0
 30
0.0
  0
VERTEX
  5
3D
330
3C
100
AcDbEntity
  8
Linee visibili 2D
 62
   255
100
AcDbVertex
100
AcDb2dVertex
 10
365.0603923175722
 20
450.810863017429
 30
0.0
  0
VERTEX
  5
3E
330
3C
100
AcDbEntity
  8
Linee visibili 2D
 62
   255
100
AcDbVertex
100
AcDb2dVertex
 10
365.4912737967816
 20
450.5478850887219
 30
0.0
  0
VERTEX
  5
3F
330
3C
100
AcDbEntity
  8
Linee visibili 2D
 62
   255
100
AcDbVertex
100
AcDb2dVertex
 10
367.5087262032189
 20
450.512670325978
 30
0.0
  0
VERTEX
  5
40
330
3C
100
AcDbEntity
  8
Linee visibili 2D
 62
   255
100
AcDbVertex
100
AcDb2dVertex
 10
368.0000000000002
 20
450.0127464783998
 30
0.0
  0
VERTEX
  5
41
330
3C
100
AcDbEntity
  8
Linee visibili 2D
 62
   255
100
AcDbVertex
100
AcDb2dVertex
 10
368.0000000000002
 20
434.4887418179901
 30
0.0
  0
VERTEX
  5
42
330
3C
100
AcDbEntity
  8
Linee visibili 2D
 62
   255
100
AcDbVertex
100
AcDb2dVertex
 10
368.3010140526234
 20
434.0300430140386
 30
0.0
  0
SEQEND
  5
43
330
3C
100
AcDbEntity
  8
Linee visibili 2D
 62
   255
  0
POLYLINE
  5
44
330
1F
100
AcDbEntity
  8
Linee visibili 2D
 62
   255
100
AcDb2dPolyline
 66
     1
 10
0.0
 20
0.0
 30
0.0
  0
VERTEX
  5
45
330
44
100
AcDbEntity
  8
Linee visibili 2D
 62
   255
100
AcDbVertex
100
AcDb2dVertex
 10
368.3010926437343
 20
372.9523836782264
 30
0.0
  0
VERTEX
  5
46
330
44
100
AcDbEntity
  8
Linee visibili 2D
 62
   255
100
AcDbVertex
100
AcDb2dVertex
 10
368.0000000000002
 20
372.4936507890378
 30
0.0
  0
VERTEX
  5
47
330
44
100
AcDbEntity
  8
Linee visibili 2D
 62
   255
100
AcDbVertex
100
AcDb2dVertex
 10
368.0000000000002
 20
356.9696461286281
 30
0.0
  0
VERTEX
  5
48
330
44
100
AcDbEntity
  8
Linee visibili 2D
 62
   255
100
AcDbVertex
100
AcDb2dVertex
 10
367.5087262032189
 20
356.4697222810499
 30
0.0
  0
VERTEX
  5
49
330
44
100
AcDbEntity
  8
Linee visibili 2D
 62
   255
100
AcDbVertex
100
AcDb2dVertex
 10
365.4912737967816
 20
356.434507518306
 30
0.0
  0
VERTEX
  5
4A
330
44
100
AcDbEntity
  8
Linee visibili 2D
 62
   255
100
AcDbVertex
100
AcDb2dVertex
 10
365.0605184119087
 20
356.1714742041769
 30
0.0
  0
SEQEND
  5
4B
330
44
100
AcDbEntity
  8
Linee visibili 2D
 62
   255
  0
LINE
  5
4C
330
1F
100
AcDbEntity
  8
Linee visibili 2D
 62
   255
100
AcDbLine
 10
375.0184658000003
 20
356.9911963035139
 30
0.0
 11
403.3029812639914
 21
356.9911963035139
 31
0.0
  0
POLYLINE
  5
4D
330
1F
100
AcDbEntity
  8
Linee visibili 2D
 62
   255
100
AcDb2dPolyline
 66
     1
 10
0.0
 20
0.0
 30
0.0
  0
VERTEX
  5
4E
330
4D
100
AcDbEntity
  8
Linee visibili 2D
 62
   255
100
AcDbVertex
100
AcDb2dVertex
 10
326.0000000000003
 20
476.2761064333705
 30
0.0
  0
VERTEX
  5
4F
330
4D
100
AcDbEntity
  8
Linee visibili 2D
 62
   255
100
AcDbVertex
100
AcDb2dVertex
 10
324.4905195511829
 20
476.2497533937103
 30
0.0
  0
VERTEX
  5
50
330
4D
100
AcDbEntity
  8
Linee visibili 2D
 62
   255
100
AcDbVertex
100
AcDb2dVertex
 10
324.0
 20
475.7156695997481
 30
0.0
  0
VERTEX
  5
51
330
4D
100
AcDbEntity
  8
Linee visibili 2D
 62
   255
100
AcDbVertex
100
AcDb2dVertex
 10
324.0000000000133
 20
449.8249465749793
 30
0.0
  0
VERTEX
  5
52
330
4D
100
AcDbEntity
  8
Linee visibili 2D
 62
   255
100
AcDbVertex
100
AcDb2dVertex
 10
324.0000000000252
 20
449.8701268571578
 30
0.0
  0
VERTEX
  5
53
330
4D
100
AcDbEntity
  8
Linee visibili 2D
 62
   255
100
AcDbVertex
100
AcDb2dVertex
 10
324.000000000026
 20
449.8705363344243
 30
0.0
  0
VERTEX
  5
54
330
4D
100
AcDbEntity
  8
Linee visibili 2D
 62
   255
100
AcDbVertex
100
AcDb2dVertex
 10
324.0000000000268
 20
449.8706565421372
 30
0.0
  0
VERTEX
  5
55
330
4D
100
AcDbEntity
  8
Linee visibili 2D
 62
   255
100
AcDbVertex
100
AcDb2dVertex
 10
324.0000000000283
 20
449.8700268619884
 30
0.0
  0
VERTEX
  5
56
330
4D
100
AcDbEntity
  8
Linee visibili 2D
 62
   255
100
AcDbVertex
100
AcDb2dVertex
 10
324.0000000000313
 20
449.8652746065804
 30
0.0
  0
VERTEX
  5
57
330
4D
100
AcDbEntity
  8
Linee visibili 2D
 62
   255
100
AcDbVertex
100
AcDb2dVertex
 10
324.0000000000372
 20
449.841751644858
 30
0.0
  0
VERTEX
  5
58
330
4D
100
AcDbEntity
  8
Linee visibili 2D
 62
   255
100
AcDbVertex
100
AcDb2dVertex
 10
324.00000000006
 20
449.5656436989593
 30
0.0
  0
VERTEX
  5
59
330
4D
100
AcDbEntity
  8
Linee visibili 2D
 62
   255
100
AcDbVertex
100
AcDb2dVertex
 10
324.0000000000937
 20
448.3437239365216
 30
0.0
  0
VERTEX
  5
5A
330
4D
100
AcDbEntity
  8
Linee visibili 2D
 62
   255
100
AcDbVertex
100
AcDb2dVertex
 10
324.0000000000732
 20
331.2667276076524
 30
0.0
  0
VERTEX
  5
5B
330
4D
100
AcDbEntity
  8
Linee visibili 2D
 62
   255
100
AcDbVertex
100
AcDb2dVertex
 10
324.4912738780437
 20
330.7326254928024
 30
0.0
  0
SEQEND
  5
5C
330
4D
100
AcDbEntity
  8
Linee visibili 2D
 62
   255
  0
POLYLINE
  5
5E
330
1F
100
AcDbEntity
  8
Predefinito
 62
   255
100
AcDb2dPolyline
 66
     1
 10
0.0
 20
0.0
 30
0.0
  0
VERTEX
  5
5F
330
5E
100
AcDbEntity
  8
Predefinito
 62
   255
100
AcDbVertex
100
AcDb2dVertex
 10
324.4912739694118
 20
476.18097648179
 30
0.0
  0
VERTEX
  5
60
330
5E
100
AcDbEntity
  8
Predefinito
 62
   255
100
AcDbVertex
100
AcDb2dVertex
 10
324.4912722432894
 20
460.5367570141076
 30
0.0
  0
VERTEX
  5
61
330
5E
100
AcDbEntity
  8
Predefinito
 62
   255
100
AcDbVertex
100
AcDb2dVertex
 10
324.4912729695094
 20
458.5384456315155
 30
0.0
  0
VERTEX
  5
62
330
5E
100
AcDbEntity
  8
Predefinito
 62
   255
100
AcDbVertex
100
AcDb2dVertex
 10
324.4912745859474
 20
450.0593346698128
 30
0.0
  0
VERTEX
  5
63
330
5E
100
AcDbEntity
  8
Predefinito
 62
   255
100
AcDbVertex
100
AcDb2dVertex
 10
324.4912755604299
 20
448.653255164559
 30
0.0
  0
VERTEX
  5
64
330
5E
100
AcDbEntity
  8
Predefinito
 62
   255
100
AcDbVertex
100
AcDb2dVertex
 10
324.4912729934197
 20
358.3291375501592
 30
0.0
  0
VERTEX
  5
65
330
5E
100
AcDbEntity
  8
Predefinito
 62
   255
100
AcDbVertex
100
AcDb2dVertex
 10
324.4912753403187
 20
346.4456355709364
 30
0.0
  0
VERTEX
  5
66
330
5E
100
AcDbEntity
  8
Predefinito
 62
   255
100
AcDbVertex
100
AcDb2dVertex
 10
324.4912737978829
 20
330.7326210874936
 30
0.0
  0
VERTEX
  5
67
330
5E
100
AcDbEntity
  8
Predefinito
 62
   255
100
AcDbVertex
100
AcDb2dVertex
 10
326.0000000000003
 20
330.7062861736575
 30
0.0
  0
SEQEND
  5
68
330
5E
100
AcDbEntity
  8
Predefinito
 62
   255
  0
POLYLINE
  5
69
330
1F
100
AcDbEntity
  8
Linee visibili 2D
 62
   255
100
AcDb2dPolyline
 66
     1
 10
0.0
 20
0.0
 30
0.0
  0
VERTEX
  5
6A
330
69
100
AcDbEntity
  8
Linee visibili 2D
 62
   255
100
AcDbVertex
100
AcDb2dVertex
 10
326.0023844743976
 20
32.70628617365753
 30
0.0
  0
VERTEX
  5
6B
330
69
100
AcDbEntity
  8
Linee visibili 2D
 62
   255
100
AcDbVertex
100
AcDb2dVertex
 10
324.4929040255802
 20
32.7326392133177
 30
0.0
  0
VERTEX
  5
6C
330
69
100
AcDbEntity
  8
Linee visibili 2D
 62
   255
100
AcDbVertex
100
AcDb2dVertex
 10
324.0024129403237
 20
33.26672300727989
 30
0.0
  0
VERTEX
  5
6D
330
69
100
AcDbEntity
  8
Linee visibili 2D
 62
   255
100
AcDbVertex
100
AcDb2dVertex
 10
324.0024129404311
 20
48.83821008586654
 30
0.0
  0
VERTEX
  5
6E
330
69
100
AcDbEntity
  8
Linee visibili 2D
 62
   255
100
AcDbVertex
100
AcDb2dVertex
 10
324.0023844743973
 20
54.23978533625029
 30
0.0
  0
VERTEX
  5
6F
330
69
100
AcDbEntity
  8
Linee visibili 2D
 62
   255
100
AcDbVertex
100
AcDb2dVertex
 10
324.0023844743973
 20
156.7426072707777
 30
0.0
  0
VERTEX
  5
70
330
69
100
AcDbEntity
  8
Linee visibili 2D
 62
   255
100
AcDbVertex
100
AcDb2dVertex
 10
324.0024129404311
 20
162.1441825211615
 30
0.0
  0
VERTEX
  5
71
330
69
100
AcDbEntity
  8
Linee visibili 2D
 62
   255
100
AcDbVertex
100
AcDb2dVertex
 10
324.0024129403237
 20
177.7156695997481
 30
0.0
  0
VERTEX
  5
72
330
69
100
AcDbEntity
  8
Linee visibili 2D
 62
   255
100
AcDbVertex
100
AcDb2dVertex
 10
324.4929040255802
 20
178.2497533937103
 30
0.0
  0
VERTEX
  5
73
330
69
100
AcDbEntity
  8
Linee visibili 2D
 62
   255
100
AcDbVertex
100
AcDb2dVertex
 10
326.0023844743976
 20
178.2761064333705
 30
0.0
  0
SEQEND
  5
74
330
69
100
AcDbEntity
  8
Linee visibili 2D
 62
   255
  0
POLYLINE
  5
75
330
1F
100
AcDbEntity
  8
Predefinito
 62
   255
100
AcDb2dPolyline
 66
     1
 10
0.0
 20
0.0
 30
0.0
  0
VERTEX
  5
76
330
75
100
AcDbEntity
  8
Predefinito
 62
   255
100
AcDbVertex
100
AcDb2dVertex
 10
324.4929040255802
 20
178.2497533937103
 30
0.0
  0
VERTEX
  5
77
330
75
100
AcDbEntity
  8
Predefinito
 62
   255
100
AcDbVertex
100
AcDb2dVertex
 10
324.4936598296319
 20
150.6532551030858
 30
0.0
  0
VERTEX
  5
78
330
75
100
AcDbEntity
  8
Predefinito
 62
   255
100
AcDbVertex
100
AcDb2dVertex
 10
324.4936582801228
 20
105.5074329291917
 30
0.0
  0
VERTEX
  5
79
330
75
100
AcDbEntity
  8
Predefinito
 62
   255
100
AcDbVertex
100
AcDb2dVertex
 10
324.493656757297
 20
60.32913748850501
 30
0.0
  0
VERTEX
  5
7A
330
75
100
AcDbEntity
  8
Predefinito
 62
   255
100
AcDbVertex
100
AcDb2dVertex
 10
324.493614110337
 20
58.61417216024586
 30
0.0
  0
VERTEX
  5
7B
330
75
100
AcDbEntity
  8
Predefinito
 62
   255
100
AcDbVertex
100
AcDb2dVertex
 10
324.4936598071581
 20
48.4456355709363
 30
0.0
  0
VERTEX
  5
7C
330
75
100
AcDbEntity
  8
Predefinito
 62
   255
100
AcDbVertex
100
AcDb2dVertex
 10
324.4936584464683
 20
32.80141612184832
 30
0.0
  0
SEQEND
  5
7D
330
75
100
AcDbEntity
  8
Predefinito
 62
   255
  0
POLYLINE
  5
7E
330
1F
100
AcDbEntity
  8
Linee visibili 2D
 62
   255
100
AcDb2dPolyline
 66
     1
 10
0.0
 20
0.0
 30
0.0
  0
VERTEX
  5
7F
330
7E
100
AcDbEntity
  8
Linee visibili 2D
 62
   255
100
AcDbVertex
100
AcDb2dVertex
 10
365.0857310623057
 20
103.8300906124105
 30
0.0
  0
VERTEX
  5
80
330
7E
100
AcDbEntity
  8
Linee visibili 2D
 62
   255
100
AcDbVertex
100
AcDb2dVertex
 10
365.3729749518463
 20
104.0366481453756
 30
0.0
  0
VERTEX
  5
81
330
7E
100
AcDbEntity
  8
Linee visibili 2D
 62
   255
100
AcDbVertex
100
AcDb2dVertex
 10
367.6131419365124
 20
104.6368990798277
 30
0.0
  0
VERTEX
  5
82
330
7E
100
AcDbEntity
  8
Linee visibili 2D
 62
   255
100
AcDbVertex
100
AcDb2dVertex
 10
368.0023844743976
 20
105.1248597975034
 30
0.0
  0
VERTEX
  5
83
330
7E
100
AcDbEntity
  8
Linee visibili 2D
 62
   255
100
AcDbVertex
100
AcDb2dVertex
 10
368.0023844743976
 20
105.8575328095244
 30
0.0
  0
VERTEX
  5
84
330
7E
100
AcDbEntity
  8
Linee visibili 2D
 62
   255
100
AcDbVertex
100
AcDb2dVertex
 10
367.6131419365125
 20
106.3454935272001
 30
0.0
  0
VERTEX
  5
85
330
7E
100
AcDbEntity
  8
Linee visibili 2D
 62
   255
100
AcDbVertex
100
AcDb2dVertex
 10
365.3729749518463
 20
106.9457444616522
 30
0.0
  0
VERTEX
  5
86
330
7E
100
AcDbEntity
  8
Linee visibili 2D
 62
   255
100
AcDbVertex
100
AcDb2dVertex
 10
365.0849971959453
 20
107.153411425342
 30
0.0
  0
SEQEND
  5
87
330
7E
100
AcDbEntity
  8
Linee visibili 2D
 62
   255
  0
POLYLINE
  5
88
330
1F
100
AcDbEntity
  8
Linee visibili 2D
 62
   255
100
AcDb2dPolyline
 66
     1
 10
0.0
 20
0.0
 30
0.0
  0
VERTEX
  5
89
330
88
100
AcDbEntity
  8
Linee visibili 2D
 62
   255
100
AcDbVertex
100
AcDb2dVertex
 10
335.9966915457881
 20
9.57508409381012
 30
0.0
  0
VERTEX
  5
8A
330
88
100
AcDbEntity
  8
Linee visibili 2D
 62
   255
100
AcDbVertex
100
AcDb2dVertex
 10
335.8954185660145
 20
9.800608326659514
 30
0.0
  0
VERTEX
  5
8B
330
88
100
AcDbEntity
  8
Linee visibili 2D
 62
   255
100
AcDbVertex
100
AcDb2dVertex
 10
335.5111106776162
 20
9.999771519534306
 30
0.0
  0
VERTEX
  5
8C
330
88
100
AcDbEntity
  8
Linee visibili 2D
 62
   255
100
AcDbVertex
100
AcDb2dVertex
 10
326.4936582711789
 20
10.15717173677569
 30
0.0
  0
VERTEX
  5
8D
330
88
100
AcDbEntity
  8
Linee visibili 2D
 62
   255
100
AcDbVertex
100
AcDb2dVertex
 10
326.0023844743977
 20
10.6570955843539
 30
0.0
  0
VERTEX
  5
8E
330
88
100
AcDbEntity
  8
Linee visibili 2D
 62
   255
100
AcDbVertex
100
AcDb2dVertex
 10
326.0023844743977
 20
200.325297022674
 30
0.0
  0
VERTEX
  5
8F
330
88
100
AcDbEntity
  8
Linee visibili 2D
 62
   255
100
AcDbVertex
100
AcDb2dVertex
 10
326.4936582711789
 20
200.8252208702522
 30
0.0
  0
VERTEX
  5
90
330
88
100
AcDbEntity
  8
Linee visibili 2D
 62
   255
100
AcDbVertex
100
AcDb2dVertex
 10
335.5111106776162
 20
200.9826210874939
 30
0.0
  0
VERTEX
  5
91
330
88
100
AcDbEntity
  8
Linee visibili 2D
 62
   255
100
AcDbVertex
100
AcDb2dVertex
 10
335.895335425452
 20
201.1818696798574
 30
0.0
  0
VERTEX
  5
92
330
88
100
AcDbEntity
  8
Linee visibili 2D
 62
   255
100
AcDbVertex
100
AcDb2dVertex
 10
335.9966915457881
 20
201.4073085132178
 30
0.0
  0
SEQEND
  5
93
330
88
100
AcDbEntity
  8
Linee visibili 2D
 62
   255
  0
POLYLINE
  5
94
330
1F
100
AcDbEntity
  8
Linee visibili 2D
 62
   255
100
AcDb2dPolyline
 66
     1
 10
0.0
 20
0.0
 30
0.0
  0
VERTEX
  5
95
330
94
100
AcDbEntity
  8
Linee visibili 2D
 62
   255
100
AcDbVertex
100
AcDb2dVertex
 10
377.0000000000003
 20
433.8311253514945
 30
0.0
  0
VERTEX
  5
96
330
94
100
AcDbEntity
  8
Linee visibili 2D
 62
   255
100
AcDbVertex
100
AcDb2dVertex
 10
377.0404509138716
 20
434.3311253514945
 30
0.0
  0
VERTEX
  5
97
330
94
100
AcDbEntity
  8
Linee visibili 2D
 62
   255
100
AcDbVertex
100
AcDb2dVertex
 10
417.0000000000003
 20
434.3311253514945
 30
0.0
  0
SEQEND
  5
98
330
94
100
AcDbEntity
  8
Linee visibili 2D
 62
   255
  0
POLYLINE
  5
99
330
1F
100
AcDbEntity
  8
Linee visibili 2D
 62
   255
100
AcDb2dPolyline
 66
     1
 10
0.0
 20
0.0
 30
0.0
  0
VERTEX
  5
9A
330
99
100
AcDbEntity
  8
Linee visibili 2D
 62
   255
100
AcDbVertex
100
AcDb2dVertex
 10
396.9999376022328
 20
372.6012673335292
 30
0.0
  0
VERTEX
  5
9B
330
99
100
AcDbEntity
  8
Linee visibili 2D
 62
   255
100
AcDbVertex
100
AcDb2dVertex
 10
377.040433184788
 20
372.6500937792437
 30
0.0
  0
VERTEX
  5
9C
330
99
100
AcDbEntity
  8
Linee visibili 2D
 62
   255
100
AcDbVertex
100
AcDb2dVertex
 10
377.0000000000003
 20
373.1512672555333
 30
0.0
  0
SEQEND
  5
9D
330
99
100
AcDbEntity
  8
Linee visibili 2D
 62
   255
  0
POLYLINE
  5
9E
330
1F
100
AcDbEntity
  8
Linee visibili 2D
 62
   255
100
AcDb2dPolyline
 66
     1
 10
0.0
 20
0.0
 30
0.0
  0
VERTEX
  5
9F
330
9E
100
AcDbEntity
  8
Linee visibili 2D
 62
   255
100
AcDbVertex
100
AcDb2dVertex
 10
365.130932750425
 20
434.2038682694266
 30
0.0
  0
VERTEX
  5
A0
330
9E
100
AcDbEntity
  8
Linee visibili 2D
 62
   255
100
AcDbVertex
100
AcDb2dVertex
 10
365.4912737967816
 20
434.0411831651966
 30
0.0
  0
VERTEX
  5
A1
330
9E
100
AcDbEntity
  8
Linee visibili 2D
 62
   255
100
AcDbVertex
100
AcDb2dVertex
 10
397.3839529416206
 20
433.4844943799885
 30
0.0
  0
SEQEND
  5
A2
330
9E
100
AcDbEntity
  8
Linee visibili 2D
 62
   255
  0
POLYLINE
  5
A3
330
1F
100
AcDbEntity
  8
Linee visibili 2D
 62
   255
100
AcDb2dPolyline
 66
     1
 10
0.0
 20
0.0
 30
0.0
  0
VERTEX
  5
A4
330
A3
100
AcDbEntity
  8
Linee visibili 2D
 62
   255
100
AcDbVertex
100
AcDb2dVertex
 10
397.3839529416206
 20
373.4978982270393
 30
0.0
  0
VERTEX
  5
A5
330
A3
100
AcDbEntity
  8
Linee visibili 2D
 62
   255
100
AcDbVertex
100
AcDb2dVertex
 10
365.4912737967816
 20
372.9412094418313
 30
0.0
  0
VERTEX
  5
A6
330
A3
100
AcDbEntity
  8
Linee visibili 2D
 62
   255
100
AcDbVertex
100
AcDb2dVertex
 10
365.1434906096137
 20
372.7916248707468
 30
0.0
  0
SEQEND
  5
A7
330
A3
100
AcDbEntity
  8
Linee visibili 2D
 62
   255
  0
POLYLINE
  5
A8
330
1F
100
AcDbEntity
  8
Linee visibili 2D
 62
   255
100
AcDb2dPolyline
 66
     1
 10
0.0
 20
0.0
 30
0.0
  0
VERTEX
  5
A9
330
A8
100
AcDbEntity
  8
Linee visibili 2D
 62
   255
100
AcDbVertex
100
AcDb2dVertex
 10
365.1313728259555
 20
82.77309616721232
 30
0.0
  0
VERTEX
  5
AA
330
A8
100
AcDbEntity
  8
Linee visibili 2D
 62
   255
100
AcDbVertex
100
AcDb2dVertex
 10
365.4936582711789
 20
82.9378582248653
 30
0.0
  0
VERTEX
  5
AB
330
A8
100
AcDbEntity
  8
Linee visibili 2D
 62
   255
100
AcDbVertex
100
AcDb2dVertex
 10
395.4629985239653
 20
83.46097500483347
 30
0.0
  0
SEQEND
  5
AC
330
A8
100
AcDbEntity
  8
Linee visibili 2D
 62
   255
  0
POLYLINE
  5
AD
330
1F
100
AcDbEntity
  8
Linee visibili 2D
 62
   255
100
AcDb2dPolyline
 66
     1
 10
0.0
 20
0.0
 30
0.0
  0
VERTEX
  5
AE
330
AD
100
AcDbEntity
  8
Linee visibili 2D
 62
   255
100
AcDbVertex
100
AcDb2dVertex
 10
395.6690437598023
 20
127.5178210692245
 30
0.0
  0
VERTEX
  5
AF
330
AD
100
AcDbEntity
  8
Linee visibili 2D
 62
   255
100
AcDbVertex
100
AcDb2dVertex
 10
365.4936582711789
 20
128.0445343821625
 30
0.0
  0
VERTEX
  5
B0
330
AD
100
AcDbEntity
  8
Linee visibili 2D
 62
   255
100
AcDbVertex
100
AcDb2dVertex
 10
365.1314262540522
 20
128.2092371246207
 30
0.0
  0
SEQEND
  5
B1
330
AD
100
AcDbEntity
  8
Linee visibili 2D
 62
   255
  0
POLYLINE
  5
B2
330
1F
100
AcDbEntity
  8
Linee visibili 2D
 62
   255
100
AcDb2dPolyline
 66
     1
 10
0.0
 20
0.0
 30
0.0
  0
VERTEX
  5
B3
330
B2
100
AcDbEntity
  8
Linee visibili 2D
 62
   255
100
AcDbVertex
100
AcDb2dVertex
 10
397.0000000000003
 20
356.4911963035139
 30
0.0
  0
VERTEX
  5
B4
330
B2
100
AcDbEntity
  8
Linee visibili 2D
 62
   255
100
AcDbVertex
100
AcDb2dVertex
 10
375.5434843461629
 20
356.4911963035142
 30
0.0
  0
VERTEX
  5
B5
330
B2
100
AcDbEntity
  8
Linee visibili 2D
 62
   255
100
AcDbVertex
100
AcDb2dVertex
 10
375.0000000000003
 20
356.9911963035139
 30
0.0
  0
VERTEX
  5
B6
330
B2
100
AcDbEntity
  8
Linee visibili 2D
 62
   255
100
AcDbVertex
100
AcDb2dVertex
 10
375.0000203160562
 20
371.9911201396199
 30
0.0
  0
VERTEX
  5
B7
330
B2
100
AcDbEntity
  8
Linee visibili 2D
 62
   255
100
AcDbVertex
100
AcDb2dVertex
 10
375.5000017708523
 20
372.4911963019241
 30
0.0
  0
VERTEX
  5
B8
330
B2
100
AcDbEntity
  8
Linee visibili 2D
 62
   255
100
AcDbVertex
100
AcDb2dVertex
 10
391.7500000000003
 20
372.4911963035139
 30
0.0
  0
SEQEND
  5
B9
330
B2
100
AcDbEntity
  8
Linee visibili 2D
 62
   255
  0
POLYLINE
  5
BA
330
1F
100
AcDbEntity
  8
Predefinito
 62
   255
100
AcDb2dPolyline
 66
     1
 10
0.0
 20
0.0
 30
0.0
  0
VERTEX
  5
BB
330
BA
100
AcDbEntity
  8
Predefinito
 62
   255
100
AcDbVertex
100
AcDb2dVertex
 10
391.7500000000003
 20
434.4911963035139
 30
0.0
  0
VERTEX
  5
BC
330
BA
100
AcDbEntity
  8
Predefinito
 62
   255
100
AcDbVertex
100
AcDb2dVertex
 10
375.5000017708523
 20
434.4911963051037
 30
0.0
  0
VERTEX
  5
BD
330
BA
100
AcDbEntity
  8
Predefinito
 62
   255
100
AcDbVertex
100
AcDb2dVertex
 10
375.0000203160562
 20
434.9912724674081
 30
0.0
  0
VERTEX
  5
BE
330
BA
100
AcDbEntity
  8
Predefinito
 62
   255
100
AcDbVertex
100
AcDb2dVertex
 10
375.0000000000003
 20
449.9911963035139
 30
0.0
  0
VERTEX
  5
BF
330
BA
100
AcDbEntity
  8
Predefinito
 62
   255
100
AcDbVertex
100
AcDb2dVertex
 10
375.5434843461628
 20
450.4911963035136
 30
0.0
  0
VERTEX
  5
C0
330
BA
100
AcDbEntity
  8
Predefinito
 62
   255
100
AcDbVertex
100
AcDb2dVertex
 10
418.4565156538378
 20
450.4911963035137
 30
0.0
  0
VERTEX
  5
C1
330
BA
100
AcDbEntity
  8
Predefinito
 62
   255
100
AcDbVertex
100
AcDb2dVertex
 10
419.0000000006378
 20
449.9912020967583
 30
0.0
  0
VERTEX
  5
C2
330
BA
100
AcDbEntity
  8
Predefinito
 62
   255
100
AcDbVertex
100
AcDb2dVertex
 10
419.0642386725526
 20
449.7460567622567
 30
0.0
  0
VERTEX
  5
C3
330
BA
100
AcDbEntity
  8
Predefinito
 62
   255
100
AcDbVertex
100
AcDb2dVertex
 10
419.4999989423761
 20
449.4912343797248
 30
0.0
  0
VERTEX
  5
C4
330
BA
100
AcDbEntity
  8
Predefinito
 62
   255
100
AcDbVertex
100
AcDb2dVertex
 10
421.1248684088439
 20
449.4911963035139
 30
0.0
 42
0.4139982363880702
  0
VERTEX
  5
C5
330
BA
100
AcDbEntity
  8
Predefinito
 62
   255
100
AcDbVertex
100
AcDb2dVertex
 10
422.1247161040003
 20
450.4910439986703
 30
0.0
  0
VERTEX
  5
C6
330
BA
100
AcDbEntity
  8
Predefinito
 62
   255
100
AcDbVertex
100
AcDb2dVertex
 10
422.1247161040003
 20
499.9498608102734
 30
0.0
 42
-0.4310732853244915
  0
VERTEX
  5
C7
330
BA
100
AcDbEntity
  8
Predefinito
 62
   255
100
AcDbVertex
100
AcDb2dVertex
 10
423.1571717483329
 20
500.9823926070277
 30
0.0
  0
VERTEX
  5
C8
330
BA
100
AcDbEntity
  8
Predefinito
 62
   255
100
AcDbVertex
100
AcDb2dVertex
 10
753.9911963035142
 20
500.9823926070279
 30
0.0
 42
-0.4194259384130475
  0
VERTEX
  5
C9
330
BA
100
AcDbEntity
  8
Predefinito
 62
   255
100
AcDbVertex
100
AcDb2dVertex
 10
754.4911963035145
 20
500.4823926070279
 30
0.0
  0
VERTEX
  5
CA
330
BA
100
AcDbEntity
  8
Predefinito
 62
   255
100
AcDbVertex
100
AcDb2dVertex
 10
754.4911963035142
 20
306.5
 30
0.0
 42
-0.4255724748072258
  0
VERTEX
  5
CB
330
BA
100
AcDbEntity
  8
Predefinito
 62
   255
100
AcDbVertex
100
AcDb2dVertex
 10
754.0
 20
306.0
 30
0.0
  0
VERTEX
  5
CC
330
BA
100
AcDbEntity
  8
Predefinito
 62
   255
100
AcDbVertex
100
AcDb2dVertex
 10
423.1571717483329
 20
306.0
 30
0.0
  0
SEQEND
  5
CD
330
BA
100
AcDbEntity
  8
Predefinito
 62
   255
  0
POLYLINE
  5
CE
330
1F
100
AcDbEntity
  8
Linee visibili 2D
 62
   255
100
AcDb2dPolyline
 66
     1
 10
0.0
 20
0.0
 30
0.0
  0
VERTEX
  5
CF
330
CE
100
AcDbEntity
  8
Linee visibili 2D
 62
   255
100
AcDbVertex
100
AcDb2dVertex
 10
335.9943070713908
 20
307.5750840938102
 30
0.0
  0
VERTEX
  5
D0
330
CE
100
AcDbEntity
  8
Linee visibili 2D
 62
   255
100
AcDbVertex
100
AcDb2dVertex
 10
335.893034093642
 20
307.8006083275875
 30
0.0
  0
VERTEX
  5
D1
330
CE
100
AcDbEntity
  8
Linee visibili 2D
 62
   255
100
AcDbVertex
100
AcDb2dVertex
 10
335.5087262032189
 20
307.9997715195343
 30
0.0
  0
VERTEX
  5
D2
330
CE
100
AcDbEntity
  8
Linee visibili 2D
 62
   255
100
AcDbVertex
100
AcDb2dVertex
 10
326.4912737967816
 20
308.1571717367758
 30
0.0
  0
VERTEX
  5
D3
330
CE
100
AcDbEntity
  8
Linee visibili 2D
 62
   255
100
AcDbVertex
100
AcDb2dVertex
 10
326.0000000000003
 20
308.6570955843539
 30
0.0
  0
VERTEX
  5
D4
330
CE
100
AcDbEntity
  8
Linee visibili 2D
 62
   255
100
AcDbVertex
100
AcDb2dVertex
 10
326.0000000000003
 20
498.3252970226739
 30
0.0
  0
VERTEX
  5
D5
330
CE
100
AcDbEntity
  8
Linee visibili 2D
 62
   255
100
AcDbVertex
100
AcDb2dVertex
 10
326.4912737967816
 20
498.8252208702521
 30
0.0
  0
VERTEX
  5
D6
330
CE
100
AcDbEntity
  8
Linee visibili 2D
 62
   255
100
AcDbVertex
100
AcDb2dVertex
 10
335.5087262032189
 20
498.9826210874936
 30
0.0
  0
VERTEX
  5
D7
330
CE
100
AcDbEntity
  8
Linee visibili 2D
 62
   255
100
AcDbVertex
100
AcDb2dVertex
 10
335.8929509510327
 20
499.1818696798675
 30
0.0
  0
VERTEX
  5
D8
330
CE
100
AcDbEntity
  8
Linee visibili 2D
 62
   255
100
AcDbVertex
100
AcDb2dVertex
 10
336.0000000000003
 20
499.4825449350718
 30
0.0
  0
SEQEND
  5
D9
330
CE
100
AcDbEntity
  8
Linee visibili 2D
 62
   255
  0
POLYLINE
  5
DA
330
1F
100
AcDbEntity
  8
Linee visibili 2D
 62
   255
100
AcDb2dPolyline
 66
     1
 10
0.0
 20
0.0
 30
0.0
  0
VERTEX
  5
DB
330
DA
100
AcDbEntity
  8
Linee visibili 2D
 62
   255
100
AcDbVertex
100
AcDb2dVertex
 10
365.0000000000003
 20
499.9936507890378
 30
0.0
  0
VERTEX
  5
DC
330
DA
100
AcDbEntity
  8
Linee visibili 2D
 62
   255
100
AcDbVertex
100
AcDb2dVertex
 10
365.0000000000003
 20
306.9887418179901
 30
0.0
  0
VERTEX
  5
DD
330
DA
100
AcDbEntity
  8
Linee visibili 2D
 62
   255
100
AcDbVertex
100
AcDb2dVertex
 10
364.5087262032189
 20
306.4888179704119
 30
0.0
  0
VERTEX
  5
DE
330
DA
100
AcDbEntity
  8
Linee visibili 2D
 62
   255
100
AcDbVertex
100
AcDb2dVertex
 10
336.5087262032189
 20
306.0000761524218
 30
0.0
  0
VERTEX
  5
DF
330
DA
100
AcDbEntity
  8
Linee visibili 2D
 62
   255
100
AcDbVertex
100
AcDb2dVertex
 10
336.0000000000003
 20
306.5
 30
0.0
  0
VERTEX
  5
E0
330
DA
100
AcDbEntity
  8
Linee visibili 2D
 62
   255
100
AcDbVertex
100
AcDb2dVertex
 10
336.0000000000003
 20
500.4823926070278
 30
0.0
  0
VERTEX
  5
E1
330
DA
100
AcDbEntity
  8
Linee visibili 2D
 62
   255
100
AcDbVertex
100
AcDb2dVertex
 10
336.5087262032189
 20
500.982316454606
 30
0.0
  0
VERTEX
  5
E2
330
DA
100
AcDbEntity
  8
Linee visibili 2D
 62
   255
100
AcDbVertex
100
AcDb2dVertex
 10
364.5087262032189
 20
500.493574636616
 30
0.0
  0
VERTEX
  5
E3
330
DA
100
AcDbEntity
  8
Linee visibili 2D
 62
   255
100
AcDbVertex
100
AcDb2dVertex
 10
365.0000000000003
 20
499.9936507890378
 30
0.0
  0
SEQEND
  5
E4
330
DA
100
AcDbEntity
  8
Linee visibili 2D
 62
   255
  0
POLYLINE
  5
E5
330
1F
100
AcDbEntity
  8
Linee visibili 2D
 62
   255
100
AcDb2dPolyline
 66
     1
 10
0.0
 20
0.0
 30
0.0
  0
VERTEX
  5
E6
330
E5
100
AcDbEntity
  8
Linee visibili 2D
 62
   255
100
AcDbVertex
100
AcDb2dVertex
 10
346.4110359922421
 20
105.5074322639398
 30
0.0
 42
-1.004228630192292
  0
VERTEX
  5
E7
330
E5
100
AcDbEntity
  8
Linee visibili 2D
 62
   255
100
AcDbVertex
100
AcDb2dVertex
 10
338.6111924275428
 20
105.5077874505774
 30
0.0
 42
-0.9958109342640993
  0
VERTEX
  5
E8
330
E5
100
AcDbEntity
  8
Linee visibili 2D
 62
   255
100
AcDbVertex
100
AcDb2dVertex
 10
346.4110359922421
 20
105.5074322639398
 30
0.0
  0
SEQEND
  5
E9
330
E5
100
AcDbEntity
  8
Linee visibili 2D
 62
   255
  0
POLYLINE
  5
EA
330
1F
100
AcDbEntity
  8
Linee visibili 2D
 62
   255
100
AcDb2dPolyline
 66
     1
 10
0.0
 20
0.0
 30
0.0
  0
VERTEX
  5
EB
330
EA
100
AcDbEntity
  8
Linee visibili 2D
 62
   255
100
AcDbVertex
100
AcDb2dVertex
 10
364.5111106776162
 20
8.488817970411901
 30
0.0
  0
VERTEX
  5
EC
330
EA
100
AcDbEntity
  8
Linee visibili 2D
 62
   255
100
AcDbVertex
100
AcDb2dVertex
 10
336.5067475760069
 20
8.000038076210899
 30
0.0
  0
VERTEX
  5
ED
330
EA
100
AcDbEntity
  8
Linee visibili 2D
 62
   255
100
AcDbVertex
100
AcDb2dVertex
 10
336.0023844743977
 20
8.5
 30
0.0
  0
VERTEX
  5
EE
330
EA
100
AcDbEntity
  8
Linee visibili 2D
 62
   255
100
AcDbVertex
100
AcDb2dVertex
 10
336.0023844743977
 20
202.482392607028
 30
0.0
  0
VERTEX
  5
EF
330
EA
100
AcDbEntity
  8
Linee visibili 2D
 62
   255
100
AcDbVertex
100
AcDb2dVertex
 10
336.5067475760069
 20
202.9823545308171
 30
0.0
  0
VERTEX
  5
F0
330
EA
100
AcDbEntity
  8
Linee visibili 2D
 62
   255
100
AcDbVertex
100
AcDb2dVertex
 10
364.5111106776162
 20
202.4935746366161
 30
0.0
  0
VERTEX
  5
F1
330
EA
100
AcDbEntity
  8
Linee visibili 2D
 62
   255
100
AcDbVertex
100
AcDb2dVertex
 10
365.0023844743977
 20
201.9936507890379
 30
0.0
  0
VERTEX
  5
F2
330
EA
100
AcDbEntity
  8
Linee visibili 2D
 62
   255
100
AcDbVertex
100
AcDb2dVertex
 10
365.0023844743977
 20
8.988741817990103
 30
0.0
  0
VERTEX
  5
F3
330
EA
100
AcDbEntity
  8
Linee visibili 2D
 62
   255
100
AcDbVertex
100
AcDb2dVertex
 10
364.5111106776162
 20
8.488817970411901
 30
0.0
  0
SEQEND
  5
F4
330
EA
100
AcDbEntity
  8
Linee visibili 2D
 62
   255
  0
POLYLINE
  5
F5
330
1F
100
AcDbEntity
  8
Linee visibili 2D
 62
   255
100
AcDb2dPolyline
 66
     1
 10
0.0
 20
0.0
 30
0.0
  0
VERTEX
  5
F6
330
F5
100
AcDbEntity
  8
Linee visibili 2D
 62
   255
100
AcDbVertex
100
AcDb2dVertex
 10
344.5023844743977
 20
106.6458968418931
 30
0.0
  0
VERTEX
  5
F7
330
F5
100
AcDbEntity
  8
Linee visibili 2D
 62
   255
100
AcDbVertex
100
AcDb2dVertex
 10
344.5023844743977
 20
104.3364957651346
 30
0.0
  0
VERTEX
  5
F8
330
F5
100
AcDbEntity
  8
Linee visibili 2D
 62
   255
100
AcDbVertex
100
AcDb2dVertex
 10
342.5023844743977
 20
103.1817952267554
 30
0.0
  0
VERTEX
  5
F9
330
F5
100
AcDbEntity
  8
Linee visibili 2D
 62
   255
100
AcDbVertex
100
AcDb2dVertex
 10
340.5023844743977
 20
104.3364957651346
 30
0.0
  0
VERTEX
  5
FA
330
F5
100
AcDbEntity
  8
Linee visibili 2D
 62
   255
100
AcDbVertex
100
AcDb2dVertex
 10
340.5023844743977
 20
106.6458968418931
 30
0.0
  0
VERTEX
  5
FB
330
F5
100
AcDbEntity
  8
Linee visibili 2D
 62
   255
100
AcDbVertex
100
AcDb2dVertex
 10
342.5023844743977
 20
107.8005973802724
 30
0.0
  0
VERTEX
  5
FC
330
F5
100
AcDbEntity
  8
Linee visibili 2D
 62
   255
100
AcDbVertex
100
AcDb2dVertex
 10
344.5023844743977
 20
106.6458968418931
 30
0.0
  0
SEQEND
  5
FD
330
F5
100
AcDbEntity
  8
Linee visibili 2D
 62
   255
  0
ARC
  5
FE
330
1F
100
AcDbEntity
  8
Linee visibili 2D
 62
   255
100
AcDbCircle
 10
346.408726203219
 20
403.4911963035139
 30
0.0
 40
0.0000000000000568
100
AcDbArc
 50
180.0
 51
0.0
  0
POLYLINE
  5
FF
330
1F
100
AcDbEntity
  8
Linee visibili 2D
 62
   255
100
AcDb2dPolyline
 66
     1
 10
0.0
 20
0.0
 30
0.0
  0
VERTEX
  5
100
330
FF
100
AcDbEntity
  8
Linee visibili 2D
 62
   255
100
AcDbVertex
100
AcDb2dVertex
 10
344.5000000000003
 20
402.3364957651347
 30
0.0
  0
VERTEX
  5
101
330
FF
100
AcDbEntity
  8
Linee visibili 2D
 62
   255
100
AcDbVertex
100
AcDb2dVertex
 10
342.5000000000003
 20
401.1817952267554
 30
0.0
  0
VERTEX
  5
102
330
FF
100
AcDbEntity
  8
Linee visibili 2D
 62
   255
100
AcDbVertex
100
AcDb2dVertex
 10
340.5000000000003
 20
402.3598118154654
 30
0.0
  0
VERTEX
  5
103
330
FF
100
AcDbEntity
  8
Linee visibili 2D
 62
   255
100
AcDbVertex
100
AcDb2dVertex
 10
340.5000000000003
 20
404.6458968418932
 30
0.0
  0
VERTEX
  5
104
330
FF
100
AcDbEntity
  8
Linee visibili 2D
 62
   255
100
AcDbVertex
100
AcDb2dVertex
 10
342.5274847269664
 20
405.78472906576
 30
0.0
  0
VERTEX
  5
105
330
FF
100
AcDbEntity
  8
Linee visibili 2D
 62
   255
100
AcDbVertex
100
AcDb2dVertex
 10
344.5000000000003
 20
404.6458968418932
 30
0.0
  0
VERTEX
  5
106
330
FF
100
AcDbEntity
  8
Linee visibili 2D
 62
   255
100
AcDbVertex
100
AcDb2dVertex
 10
344.5000000000003
 20
402.3364957651347
 30
0.0
  0
SEQEND
  5
107
330
FF
100
AcDbEntity
  8
Linee visibili 2D
 62
   255
  0
POLYLINE
  5
108
330
1F
100
AcDbEntity
  8
Predefinito
 62
   255
100
AcDb2dPolyline
 66
     1
 10
0.0
 20
0.0
 30
0.0
  0
VERTEX
  5
109
330
108
100
AcDbEntity
  8
Predefinito
 62
   255
100
AcDbVertex
100
AcDb2dVertex
 10
422.1247161040003
 20
307.0325317967544
 30
0.0
  0
VERTEX
  5
10A
330
108
100
AcDbEntity
  8
Predefinito
 62
   255
100
AcDbVertex
100
AcDb2dVertex
 10
422.1247161040003
 20
356.4913486083575
 30
0.0
 42
0.4139982363881797
  0
VERTEX
  5
10B
330
108
100
AcDbEntity
  8
Predefinito
 62
   255
100
AcDbVertex
100
AcDb2dVertex
 10
421.124868408844
 20
357.4911963035139
 30
0.0
  0
VERTEX
  5
10C
330
108
100
AcDbEntity
  8
Predefinito
 62
   255
100
AcDbVertex
100
AcDb2dVertex
 10
419.4999989423761
 20
357.491158227303
 30
0.0
  0
VERTEX
  5
10D
330
108
100
AcDbEntity
  8
Predefinito
 62
   255
100
AcDbVertex
100
AcDb2dVertex
 10
419.0642386725521
 20
357.2363358447701
 30
0.0
  0
VERTEX
  5
10E
330
108
100
AcDbEntity
  8
Predefinito
 62
   255
100
AcDbVertex
100
AcDb2dVertex
 10
419.0000000009128
 20
356.9911925570636
 30
0.0
  0
VERTEX
  5
10F
330
108
100
AcDbEntity
  8
Predefinito
 62
   255
100
AcDbVertex
100
AcDb2dVertex
 10
418.5000007724984
 20
356.4911963035145
 30
0.0
  0
VERTEX
  5
110
330
108
100
AcDbEntity
  8
Predefinito
 62
   255
100
AcDbVertex
100
AcDb2dVertex
 10
397.0000000000003
 20
356.4911963035139
 30
0.0
  0
SEQEND
  5
111
330
108
100
AcDbEntity
  8
Predefinito
 62
   255
  0
LINE
  5
112
330
1F
100
AcDbEntity
  8
Linee visibili 2D
 62
   255
100
AcDbLine
 10
404.7635318754353
 20
356.9911963035139
 30
0.0
 11
418.6648726264192
 21
356.9911963035139
 31
0.0
  0
ARC
  5
113
330
1F
100
AcDbEntity
  8
Predefinito
 62
   255
100
AcDbCircle
 10
423.1504061612702
 20
307.0256885546865
 30
0.0
 40
1.02571086782932
100
AcDbArc
 50
179.6347500997906
 51
270.3779256003683
  0
LINE
  5
114
330
1F
100
AcDbEntity
  8
Linee visibili 2D
 62
   255
100
AcDbLine
 10
739.5000000000005
 20
319.9911963035139
 30
0.0
 11
738.5000000000005
 21
318.9911963035139
 31
0.0
  0
POLYLINE
  5
115
330
1F
100
AcDbEntity
  8
Predefinito
 62
   255
100
AcDb2dPolyline
 66
     1
 10
0.0
 20
0.0
 30
0.0
  0
VERTEX
  5
116
330
115
100
AcDbEntity
  8
Predefinito
 62
   255
100
AcDbVertex
100
AcDb2dVertex
 10
566.0285670717899
 20
101.491196303514
 30
0.0
  0
VERTEX
  5
117
330
115
100
AcDbEntity
  8
Predefinito
 62
   255
100
AcDbVertex
100
AcDb2dVertex
 10
566.2207251024441
 20
112.4999225067326
 30
0.0
  0
VERTEX
  5
118
330
115
100
AcDbEntity
  8
Predefinito
 62
   255
100
AcDbVertex
100
AcDb2dVertex
 10
566.7206489500226
 20
112.991196303514
 30
0.0
  0
VERTEX
  5
119
330
115
100
AcDbEntity
  8
Predefinito
 62
   255
100
AcDbVertex
100
AcDb2dVertex
 10
740.0023844743977
 20
112.991196303514
 30
0.0
  0
SEQEND
  5
11A
330
115
100
AcDbEntity
  8
Predefinito
 62
   255
  0
POLYLINE
  5
11B
330
1F
100
AcDbEntity
  8
Predefinito
 62
   255
100
AcDb2dPolyline
 66
     1
 10
0.0
 20
0.0
 30
0.0
  0
VERTEX
  5
11C
330
11B
100
AcDbEntity
  8
Predefinito
 62
   255
100
AcDbVertex
100
AcDb2dVertex
 10
740.0023844743977
 20
112.991196303514
 30
0.0
  0
VERTEX
  5
11D
330
11B
100
AcDbEntity
  8
Predefinito
 62
   255
100
AcDbVertex
100
AcDb2dVertex
 10
743.2841199987728
 20
112.991196303514
 30
0.0
  0
VERTEX
  5
11E
330
11B
100
AcDbEntity
  8
Predefinito
 62
   255
100
AcDbVertex
100
AcDb2dVertex
 10
743.7840438463511
 20
112.4999225067326
 30
0.0
  0
SEQEND
  5
11F
330
11B
100
AcDbEntity
  8
Predefinito
 62
   255
  0
POLYLINE
  5
120
330
1F
100
AcDbEntity
  8
Predefinito
 62
   255
100
AcDb2dPolyline
 66
     1
 10
0.0
 20
0.0
 30
0.0
  0
VERTEX
  5
121
330
120
100
AcDbEntity
  8
Predefinito
 62
   255
100
AcDbVertex
100
AcDb2dVertex
 10
412.9834839203568
 20
90.37729040207135
 30
0.0
  0
VERTEX
  5
122
330
120
100
AcDbEntity
  8
Predefinito
 62
   255
100
AcDbVertex
100
AcDb2dVertex
 10
413.0601043835296
 20
90.4231726312891
 30
0.0
  0
VERTEX
  5
123
330
120
100
AcDbEntity
  8
Predefinito
 62
   255
100
AcDbVertex
100
AcDb2dVertex
 10
413.3118909046976
 20
90.49119630351402
 30
0.0
  0
VERTEX
  5
124
330
120
100
AcDbEntity
  8
Predefinito
 62
   255
100
AcDbVertex
100
AcDb2dVertex
 10
421.4062292892052
 20
90.49119630351402
 30
0.0
  0
VERTEX
  5
125
330
120
100
AcDbEntity
  8
Predefinito
 62
   255
100
AcDbVertex
100
AcDb2dVertex
 10
422.1915615869742
 20
90.11027075973561
 30
0.0
  0
VERTEX
  5
126
330
120
100
AcDbEntity
  8
Predefinito
 62
   255
100
AcDbVertex
100
AcDb2dVertex
 10
422.4003159782064
 20
89.83869653153863
 30
0.0
  0
SEQEND
  5
127
330
120
100
AcDbEntity
  8
Predefinito
 62
   255
  0
POLYLINE
  5
128
330
1F
100
AcDbEntity
  8
Predefinito
 62
   255
100
AcDb2dPolyline
 66
     1
 10
0.0
 20
0.0
 30
0.0
  0
VERTEX
  5
129
330
128
100
AcDbEntity
  8
Predefinito
 62
   255
100
AcDbVertex
100
AcDb2dVertex
 10
422.1276854455514
 20
105.4964118719163
 30
0.0
  0
VERTEX
  5
12A
330
128
100
AcDbEntity
  8
Predefinito
 62
   255
100
AcDbVertex
100
AcDb2dVertex
 10
422.0560793753932
 20
105.4964118719163
 30
0.0
  0
VERTEX
  5
12B
330
128
100
AcDbEntity
  8
Predefinito
 62
   255
100
AcDbVertex
100
AcDb2dVertex
 10
421.1275359616683
 20
105.4912012417624
 30
0.0
  0
VERTEX
  5
12C
330
128
100
AcDbEntity
  8
Predefinito
 62
   255
100
AcDbVertex
100
AcDb2dVertex
 10
419.5023834167733
 20
105.491196303514
 30
0.0
  0
VERTEX
  5
12D
330
128
100
AcDbEntity
  8
Predefinito
 62
   255
100
AcDbVertex
100
AcDb2dVertex
 10
419.0
 20
105.491196303514
 30
0.0
  0
SEQEND
  5
12E
330
128
100
AcDbEntity
  8
Predefinito
 62
   255
  0
POLYLINE
  5
12F
330
1F
100
AcDbEntity
  8
Predefinito
 62
   255
100
AcDb2dPolyline
 66
     1
 10
0.0
 20
0.0
 30
0.0
  0
VERTEX
  5
130
330
12F
100
AcDbEntity
  8
Predefinito
 62
   255
100
AcDbVertex
100
AcDb2dVertex
 10
422.659632375152
 20
74.98247010029536
 30
0.0
  0
VERTEX
  5
131
330
12F
100
AcDbEntity
  8
Predefinito
 62
   255
100
AcDbVertex
100
AcDb2dVertex
 10
422.1271005783976
 20
105.491196303514
 30
0.0
  0
VERTEX
  5
132
330
12F
100
AcDbEntity
  8
Predefinito
 62
   255
100
AcDbVertex
100
AcDb2dVertex
 10
422.1276854455514
 20
105.5247024364695
 30
0.0
  0
VERTEX
  5
133
330
12F
100
AcDbEntity
  8
Predefinito
 62
   255
100
AcDbVertex
100
AcDb2dVertex
 10
422.5224289188264
 20
128.139541758231
 30
0.0
  0
SEQEND
  5
134
330
12F
100
AcDbEntity
  8
Predefinito
 62
   255
  0
POLYLINE
  5
135
330
1F
100
AcDbEntity
  8
Predefinito
 62
   255
100
AcDb2dPolyline
 66
     1
 10
0.0
 20
0.0
 30
0.0
  0
VERTEX
  5
136
330
135
100
AcDbEntity
  8
Predefinito
 62
   255
100
AcDbVertex
100
AcDb2dVertex
 10
422.4022585546469
 20
121.2549859361662
 30
0.0
  0
VERTEX
  5
137
330
135
100
AcDbEntity
  8
Predefinito
 62
   255
100
AcDbVertex
100
AcDb2dVertex
 10
422.3039905835398
 20
121.0481084008109
 30
0.0
  0
VERTEX
  5
138
330
135
100
AcDbEntity
  8
Predefinito
 62
   255
100
AcDbVertex
100
AcDb2dVertex
 10
421.4062292892052
 20
120.491196303514
 30
0.0
  0
VERTEX
  5
139
330
135
100
AcDbEntity
  8
Predefinito
 62
   255
100
AcDbVertex
100
AcDb2dVertex
 10
413.3118909046977
 20
120.491196303514
 30
0.0
  0
VERTEX
  5
13A
330
135
100
AcDbEntity
  8
Predefinito
 62
   255
100
AcDbVertex
100
AcDb2dVertex
 10
413.0606815639902
 20
120.5588840701209
 30
0.0
  0
VERTEX
  5
13B
330
135
100
AcDbEntity
  8
Predefinito
 62
   255
100
AcDbVertex
100
AcDb2dVertex
 10
412.9131635137738
 20
120.6763292004056
 30
0.0
  0
SEQEND
  5
13C
330
135
100
AcDbEntity
  8
Predefinito
 62
   255
  0
LINE
  5
13D
330
1F
100
AcDbEntity
  8
Predefinito
 62
   255
100
AcDbLine
 10
413.0414101329301
 20
120.5408022014036
 30
0.0
 11
413.041407442861
 21
120.5408050684453
 31
0.0
  0
ARC
  5
13E
330
1F
100
AcDbEntity
  8
Linee visibili 2D
 62
   255
100
AcDbCircle
 10
419.0023686432858
 20
105.5053449664227
 30
0.0
 40
0.0000000000001137
100
AcDbArc
 50
180.0
 51
0.0
  0
POLYLINE
  5
13F
330
1F
100
AcDbEntity
  8
Linee visibili 2D
 62
   255
100
AcDb2dPolyline
 66
     1
 10
0.0
 20
0.0
 30
0.0
  0
VERTEX
  5
140
330
13F
100
AcDbEntity
  8
Linee visibili 2D
 62
   255
100
AcDbVertex
100
AcDb2dVertex
 10
383.528992661441
 20
110.2102053708613
 30
0.0
  0
VERTEX
  5
141
330
13F
100
AcDbEntity
  8
Linee visibili 2D
 62
   255
100
AcDbVertex
100
AcDb2dVertex
 10
377.2340760102553
 20
112.5013676590796
 30
0.0
  0
VERTEX
  5
142
330
13F
100
AcDbEntity
  8
Linee visibili 2D
 62
   255
100
AcDbVertex
100
AcDb2dVertex
 10
377.3529303364425
 20
112.8279172364832
 30
0.0
  0
VERTEX
  5
143
330
13F
100
AcDbEntity
  8
Linee visibili 2D
 62
   255
100
AcDbVertex
100
AcDb2dVertex
 10
383.6478469876281
 20
110.5367549482651
 30
0.0
  0
VERTEX
  5
144
330
13F
100
AcDbEntity
  8
Linee visibili 2D
 62
   255
100
AcDbVertex
100
AcDb2dVertex
 10
383.528992661441
 20
110.2102053708613
 30
0.0
  0
SEQEND
  5
145
330
13F
100
AcDbEntity
  8
Linee visibili 2D
 62
   255
  0
POLYLINE
  5
146
330
1F
100
AcDbEntity
  8
Linee visibili 2D
 62
   255
100
AcDb2dPolyline
 66
     1
 10
0.0
 20
0.0
 30
0.0
  0
VERTEX
  5
147
330
146
100
AcDbEntity
  8
Linee visibili 2D
 62
   255
100
AcDbVertex
100
AcDb2dVertex
 10
384.7268844835075
 20
112.7790926733048
 30
0.0
  0
VERTEX
  5
148
330
146
100
AcDbEntity
  8
Linee visibili 2D
 62
   255
100
AcDbVertex
100
AcDb2dVertex
 10
384.5531310825652
 20
112.478142954885
 30
0.0
  0
VERTEX
  5
149
330
146
100
AcDbEntity
  8
Linee visibili 2D
 62
   255
100
AcDbVertex
100
AcDb2dVertex
 10
378.7517045160004
 20
115.8275981447752
 30
0.0
  0
VERTEX
  5
14A
330
146
100
AcDbEntity
  8
Linee visibili 2D
 62
   255
100
AcDbVertex
100
AcDb2dVertex
 10
378.9254579169425
 20
116.128547863195
 30
0.0
  0
VERTEX
  5
14B
330
146
100
AcDbEntity
  8
Linee visibili 2D
 62
   255
100
AcDbVertex
100
AcDb2dVertex
 10
384.7268844835075
 20
112.7790926733048
 30
0.0
  0
SEQEND
  5
14C
330
146
100
AcDbEntity
  8
Linee visibili 2D
 62
   255
  0
POLYLINE
  5
14D
330
1F
100
AcDbEntity
  8
Linee visibili 2D
 62
   255
100
AcDb2dPolyline
 66
     1
 10
0.0
 20
0.0
 30
0.0
  0
VERTEX
  5
14E
330
14D
100
AcDbEntity
  8
Linee visibili 2D
 62
   255
100
AcDbVertex
100
AcDb2dVertex
 10
400.4664860895354
 20
105.491196303514
 30
0.0
  0
VERTEX
  5
14F
330
14D
100
AcDbEntity
  8
Linee visibili 2D
 62
   255
100
AcDbVertex
100
AcDb2dVertex
 10
398.7344352819665
 20
102.491196303514
 30
0.0
  0
VERTEX
  5
150
330
14D
100
AcDbEntity
  8
Linee visibili 2D
 62
   255
100
AcDbVertex
100
AcDb2dVertex
 10
395.2703336668287
 20
102.491196303514
 30
0.0
  0
VERTEX
  5
151
330
14D
100
AcDbEntity
  8
Linee visibili 2D
 62
   255
100
AcDbVertex
100
AcDb2dVertex
 10
393.5471109014848
 20
105.5064869211789
 30
0.0
  0
VERTEX
  5
152
330
14D
100
AcDbEntity
  8
Linee visibili 2D
 62
   255
100
AcDbVertex
100
AcDb2dVertex
 10
395.2703336668287
 20
108.491196303514
 30
0.0
  0
VERTEX
  5
153
330
14D
100
AcDbEntity
  8
Linee visibili 2D
 62
   255
100
AcDbVertex
100
AcDb2dVertex
 10
398.7344352819665
 20
108.491196303514
 30
0.0
  0
VERTEX
  5
154
330
14D
100
AcDbEntity
  8
Linee visibili 2D
 62
   255
100
AcDbVertex
100
AcDb2dVertex
 10
400.4664860895354
 20
105.491196303514
 30
0.0
  0
SEQEND
  5
155
330
14D
100
AcDbEntity
  8
Linee visibili 2D
 62
   255
  0
POLYLINE
  5
156
330
1F
100
AcDbEntity
  8
Linee visibili 2D
 62
   255
100
AcDb2dPolyline
 66
     1
 10
0.0
 20
0.0
 30
0.0
  0
VERTEX
  5
157
330
156
100
AcDbEntity
  8
Linee visibili 2D
 62
   255
100
AcDbVertex
100
AcDb2dVertex
 10
396.8286310734554
 20
117.2674429025718
 30
0.0
  0
VERTEX
  5
158
330
156
100
AcDbEntity
  8
Linee visibili 2D
 62
   255
100
AcDbVertex
100
AcDb2dVertex
 10
396.8286310734554
 20
126.4649497044562
 30
0.0
  0
VERTEX
  5
159
330
156
100
AcDbEntity
  8
Linee visibili 2D
 62
   255
100
AcDbVertex
100
AcDb2dVertex
 10
397.1761378753398
 20
126.4649497044562
 30
0.0
  0
VERTEX
  5
15A
330
156
100
AcDbEntity
  8
Linee visibili 2D
 62
   255
100
AcDbVertex
100
AcDb2dVertex
 10
397.1761378753398
 20
117.2674429025718
 30
0.0
  0
VERTEX
  5
15B
330
156
100
AcDbEntity
  8
Linee visibili 2D
 62
   255
100
AcDbVertex
100
AcDb2dVertex
 10
396.8286310734554
 20
117.2674429025718
 30
0.0
  0
SEQEND
  5
15C
330
156
100
AcDbEntity
  8
Linee visibili 2D
 62
   255
  0
POLYLINE
  5
15D
330
1F
100
AcDbEntity
  8
Linee visibili 2D
 62
   255
100
AcDb2dPolyline
 66
     1
 10
0.0
 20
0.0
 30
0.0
  0
VERTEX
  5
15E
330
15D
100
AcDbEntity
  8
Linee visibili 2D
 62
   255
100
AcDbVertex
100
AcDb2dVertex
 10
391.9568258296465
 20
118.8457337902835
 30
0.0
  0
VERTEX
  5
15F
330
15D
100
AcDbEntity
  8
Linee visibili 2D
 62
   255
100
AcDbVertex
100
AcDb2dVertex
 10
389.6656635414282
 20
125.1406504414691
 30
0.0
  0
VERTEX
  5
160
330
15D
100
AcDbEntity
  8
Linee visibili 2D
 62
   255
100
AcDbVertex
100
AcDb2dVertex
 10
389.992213118832
 20
125.2595047676564
 30
0.0
  0
VERTEX
  5
161
330
15D
100
AcDbEntity
  8
Linee visibili 2D
 62
   255
100
AcDbVertex
100
AcDb2dVertex
 10
392.2833754070502
 20
118.9645881164707
 30
0.0
  0
VERTEX
  5
162
330
15D
100
AcDbEntity
  8
Linee visibili 2D
 62
   255
100
AcDbVertex
100
AcDb2dVertex
 10
391.9568258296465
 20
118.8457337902835
 30
0.0
  0
SEQEND
  5
163
330
15D
100
AcDbEntity
  8
Linee visibili 2D
 62
   255
  0
POLYLINE
  5
164
330
1F
100
AcDbEntity
  8
Linee visibili 2D
 62
   255
100
AcDb2dPolyline
 66
     1
 10
0.0
 20
0.0
 30
0.0
  0
VERTEX
  5
165
330
164
100
AcDbEntity
  8
Linee visibili 2D
 62
   255
100
AcDbVertex
100
AcDb2dVertex
 10
397.1761378753398
 20
93.71494970445622
 30
0.0
  0
VERTEX
  5
166
330
164
100
AcDbEntity
  8
Linee visibili 2D
 62
   255
100
AcDbVertex
100
AcDb2dVertex
 10
397.1761378753398
 20
84.51744290257182
 30
0.0
  0
VERTEX
  5
167
330
164
100
AcDbEntity
  8
Linee visibili 2D
 62
   255
100
AcDbVertex
100
AcDb2dVertex
 10
396.8286310734554
 20
84.51744290257182
 30
0.0
  0
VERTEX
  5
168
330
164
100
AcDbEntity
  8
Linee visibili 2D
 62
   255
100
AcDbVertex
100
AcDb2dVertex
 10
396.8286310734554
 20
93.71494970445622
 30
0.0
  0
VERTEX
  5
169
330
164
100
AcDbEntity
  8
Linee visibili 2D
 62
   255
100
AcDbVertex
100
AcDb2dVertex
 10
397.1761378753398
 20
93.71494970445622
 30
0.0
  0
SEQEND
  5
16A
330
164
100
AcDbEntity
  8
Linee visibili 2D
 62
   255
  0
POLYLINE
  5
16B
330
1F
100
AcDbEntity
  8
Linee visibili 2D
 62
   255
100
AcDb2dPolyline
 66
     1
 10
0.0
 20
0.0
 30
0.0
  0
VERTEX
  5
16C
330
16B
100
AcDbEntity
  8
Linee visibili 2D
 62
   255
100
AcDbVertex
100
AcDb2dVertex
 10
385.9555337683743
 20
114.5337857004724
 30
0.0
  0
VERTEX
  5
16D
330
16B
100
AcDbEntity
  8
Linee visibili 2D
 62
   255
100
AcDbVertex
100
AcDb2dVertex
 10
380.8238706969915
 20
118.8397622909957
 30
0.0
  0
VERTEX
  5
16E
330
16B
100
AcDbEntity
  8
Linee visibili 2D
 62
   255
100
AcDbVertex
100
AcDb2dVertex
 10
381.0472437635246
 20
119.1059679455253
 30
0.0
  0
VERTEX
  5
16F
330
16B
100
AcDbEntity
  8
Linee visibili 2D
 62
   255
100
AcDbVertex
100
AcDb2dVertex
 10
386.1789068349074
 20
114.799991355002
 30
0.0
  0
VERTEX
  5
170
330
16B
100
AcDbEntity
  8
Linee visibili 2D
 62
   255
100
AcDbVertex
100
AcDb2dVertex
 10
385.9555337683743
 20
114.5337857004724
 30
0.0
  0
SEQEND
  5
171
330
16B
100
AcDbEntity
  8
Linee visibili 2D
 62
   255
  0
POLYLINE
  5
172
330
1F
100
AcDbEntity
  8
Linee visibili 2D
 62
   255
100
AcDb2dPolyline
 66
     1
 10
0.0
 20
0.0
 30
0.0
  0
VERTEX
  5
173
330
172
100
AcDbEntity
  8
Linee visibili 2D
 62
   255
100
AcDbVertex
100
AcDb2dVertex
 10
387.6935894229096
 20
116.3146739430043
 30
0.0
  0
VERTEX
  5
174
330
172
100
AcDbEntity
  8
Linee visibili 2D
 62
   255
100
AcDbVertex
100
AcDb2dVertex
 10
383.3876128323863
 20
121.4463370143869
 30
0.0
  0
VERTEX
  5
175
330
172
100
AcDbEntity
  8
Linee visibili 2D
 62
   255
100
AcDbVertex
100
AcDb2dVertex
 10
383.6538184869158
 20
121.6697100809201
 30
0.0
  0
VERTEX
  5
176
330
172
100
AcDbEntity
  8
Linee visibili 2D
 62
   255
100
AcDbVertex
100
AcDb2dVertex
 10
387.9597950774391
 20
116.5380470095374
 30
0.0
  0
VERTEX
  5
177
330
172
100
AcDbEntity
  8
Linee visibili 2D
 62
   255
100
AcDbVertex
100
AcDb2dVertex
 10
387.6935894229096
 20
116.3146739430043
 30
0.0
  0
SEQEND
  5
178
330
172
100
AcDbEntity
  8
Linee visibili 2D
 62
   255
  0
POLYLINE
  5
179
330
1F
100
AcDbEntity
  8
Linee visibili 2D
 62
   255
100
AcDb2dPolyline
 66
     1
 10
0.0
 20
0.0
 30
0.0
  0
VERTEX
  5
17A
330
179
100
AcDbEntity
  8
Linee visibili 2D
 62
   255
100
AcDbVertex
100
AcDb2dVertex
 10
386.6659826331364
 20
123.7418762619113
 30
0.0
  0
VERTEX
  5
17B
330
179
100
AcDbEntity
  8
Linee visibili 2D
 62
   255
100
AcDbVertex
100
AcDb2dVertex
 10
390.0154378230266
 20
117.9404496953464
 30
0.0
  0
VERTEX
  5
17C
330
179
100
AcDbEntity
  8
Linee visibili 2D
 62
   255
100
AcDbVertex
100
AcDb2dVertex
 10
389.7144881046067
 20
117.7666962944041
 30
0.0
  0
VERTEX
  5
17D
330
179
100
AcDbEntity
  8
Linee visibili 2D
 62
   255
100
AcDbVertex
100
AcDb2dVertex
 10
386.3650329147166
 20
123.5681228609691
 30
0.0
  0
VERTEX
  5
17E
330
179
100
AcDbEntity
  8
Linee visibili 2D
 62
   255
100
AcDbVertex
100
AcDb2dVertex
 10
386.6659826331364
 20
123.7418762619113
 30
0.0
  0
SEQEND
  5
17F
330
179
100
AcDbEntity
  8
Linee visibili 2D
 62
   255
  0
POLYLINE
  5
180
330
1F
100
AcDbEntity
  8
Linee visibili 2D
 62
   255
100
AcDb2dPolyline
 66
     1
 10
0.0
 20
0.0
 30
0.0
  0
VERTEX
  5
181
330
180
100
AcDbEntity
  8
Linee visibili 2D
 62
   255
100
AcDbVertex
100
AcDb2dVertex
 10
376.0286310734555
 20
105.3174429025718
 30
0.0
  0
VERTEX
  5
182
330
180
100
AcDbEntity
  8
Linee visibili 2D
 62
   255
100
AcDbVertex
100
AcDb2dVertex
 10
376.0286310734555
 20
105.6649497044561
 30
0.0
  0
VERTEX
  5
183
330
180
100
AcDbEntity
  8
Linee visibili 2D
 62
   255
100
AcDbVertex
100
AcDb2dVertex
 10
385.2261378753399
 20
105.6649497044561
 30
0.0
  0
VERTEX
  5
184
330
180
100
AcDbEntity
  8
Linee visibili 2D
 62
   255
100
AcDbVertex
100
AcDb2dVertex
 10
385.2261378753399
 20
105.3174429025718
 30
0.0
  0
VERTEX
  5
185
330
180
100
AcDbEntity
  8
Linee visibili 2D
 62
   255
100
AcDbVertex
100
AcDb2dVertex
 10
376.0286310734555
 20
105.3174429025718
 30
0.0
  0
SEQEND
  5
186
330
180
100
AcDbEntity
  8
Linee visibili 2D
 62
   255
  0
ARC
  5
187
330
1F
100
AcDbEntity
  8
Linee visibili 2D
 62
   255
100
AcDbCircle
 10
397.0023844743977
 20
115.491196303514
 30
0.0
 40
0.0000000000000284
100
AcDbArc
 50
270.0
 51
90.0
  0
POLYLINE
  5
188
330
1F
100
AcDbEntity
  8
Linee visibili 2D
 62
   255
100
AcDb2dPolyline
 66
     1
 10
0.0
 20
0.0
 30
0.0
  0
VERTEX
  5
189
330
188
100
AcDbEntity
  8
Linee visibili 2D
 62
   255
100
AcDbVertex
100
AcDb2dVertex
 10
376.3774414768206
 20
101.6780285502447
 30
0.0
  0
VERTEX
  5
18A
330
188
100
AcDbEntity
  8
Linee visibili 2D
 62
   255
100
AcDbVertex
100
AcDb2dVertex
 10
376.3170975539465
 20
102.0202559429649
 30
0.0
  0
VERTEX
  5
18B
330
188
100
AcDbEntity
  8
Linee visibili 2D
 62
   255
100
AcDbVertex
100
AcDb2dVertex
 10
382.9142364326881
 20
103.1835095227678
 30
0.0
  0
VERTEX
  5
18C
330
188
100
AcDbEntity
  8
Linee visibili 2D
 62
   255
100
AcDbVertex
100
AcDb2dVertex
 10
382.9745803555622
 20
102.8412821300476
 30
0.0
  0
VERTEX
  5
18D
330
188
100
AcDbEntity
  8
Linee visibili 2D
 62
   255
100
AcDbVertex
100
AcDb2dVertex
 10
376.3774414768206
 20
101.6780285502447
 30
0.0
  0
SEQEND
  5
18E
330
188
100
AcDbEntity
  8
Linee visibili 2D
 62
   255
  0
POLYLINE
  5
18F
330
1F
100
AcDbEntity
  8
Linee visibili 2D
 62
   255
100
AcDb2dPolyline
 66
     1
 10
0.0
 20
0.0
 30
0.0
  0
VERTEX
  5
190
330
18F
100
AcDbEntity
  8
Linee visibili 2D
 62
   255
100
AcDbVertex
100
AcDb2dVertex
 10
393.5314441138486
 20
126.1764832239651
 30
0.0
  0
VERTEX
  5
191
330
18F
100
AcDbEntity
  8
Linee visibili 2D
 62
   255
100
AcDbVertex
100
AcDb2dVertex
 10
394.6946976936515
 20
119.5793443452236
 30
0.0
  0
VERTEX
  5
192
330
18F
100
AcDbEntity
  8
Linee visibili 2D
 62
   255
100
AcDbVertex
100
AcDb2dVertex
 10
394.3524703009313
 20
119.5190004223494
 30
0.0
  0
VERTEX
  5
193
330
18F
100
AcDbEntity
  8
Linee visibili 2D
 62
   255
100
AcDbVertex
100
AcDb2dVertex
 10
393.1892167211283
 20
126.116139301091
 30
0.0
  0
VERTEX
  5
194
330
18F
100
AcDbEntity
  8
Linee visibili 2D
 62
   255
100
AcDbVertex
100
AcDb2dVertex
 10
393.5314441138486
 20
126.1764832239651
 30
0.0
  0
SEQEND
  5
195
330
18F
100
AcDbEntity
  8
Linee visibili 2D
 62
   255
  0
POLYLINE
  5
196
330
1F
100
AcDbEntity
  8
Linee visibili 2D
 62
   255
100
AcDb2dPolyline
 66
     1
 10
0.0
 20
0.0
 30
0.0
  0
VERTEX
  5
197
330
196
100
AcDbEntity
  8
Linee visibili 2D
 62
   255
100
AcDbVertex
100
AcDb2dVertex
 10
377.2340760102553
 20
98.48102494794841
 30
0.0
  0
VERTEX
  5
198
330
196
100
AcDbEntity
  8
Linee visibili 2D
 62
   255
100
AcDbVertex
100
AcDb2dVertex
 10
383.528992661441
 20
100.7721872361666
 30
0.0
  0
VERTEX
  5
199
330
196
100
AcDbEntity
  8
Linee visibili 2D
 62
   255
100
AcDbVertex
100
AcDb2dVertex
 10
383.6478469876281
 20
100.445637658763
 30
0.0
  0
VERTEX
  5
19A
330
196
100
AcDbEntity
  8
Linee visibili 2D
 62
   255
100
AcDbVertex
100
AcDb2dVertex
 10
377.3529303364425
 20
98.15447537054467
 30
0.0
  0
VERTEX
  5
19B
330
196
100
AcDbEntity
  8
Linee visibili 2D
 62
   255
100
AcDbVertex
100
AcDb2dVertex
 10
377.2340760102553
 20
98.48102494794841
 30
0.0
  0
SEQEND
  5
19C
330
196
100
AcDbEntity
  8
Linee visibili 2D
 62
   255
  0
POLYLINE
  5
19D
330
1F
100
AcDbEntity
  8
Linee visibili 2D
 62
   255
100
AcDb2dPolyline
 66
     1
 10
0.0
 20
0.0
 30
0.0
  0
VERTEX
  5
19E
330
19D
100
AcDbEntity
  8
Linee visibili 2D
 62
   255
100
AcDbVertex
100
AcDb2dVertex
 10
378.7517045160004
 20
95.15479446225277
 30
0.0
  0
VERTEX
  5
19F
330
19D
100
AcDbEntity
  8
Linee visibili 2D
 62
   255
100
AcDbVertex
100
AcDb2dVertex
 10
384.5531310825652
 20
98.5042496521429
 30
0.0
  0
VERTEX
  5
1A0
330
19D
100
AcDbEntity
  8
Linee visibili 2D
 62
   255
100
AcDbVertex
100
AcDb2dVertex
 10
384.7268844835075
 20
98.20329993372309
 30
0.0
  0
VERTEX
  5
1A1
330
19D
100
AcDbEntity
  8
Linee visibili 2D
 62
   255
100
AcDbVertex
100
AcDb2dVertex
 10
378.9254579169425
 20
94.85384474383295
 30
0.0
  0
VERTEX
  5
1A2
330
19D
100
AcDbEntity
  8
Linee visibili 2D
 62
   255
100
AcDbVertex
100
AcDb2dVertex
 10
378.7517045160004
 20
95.15479446225277
 30
0.0
  0
SEQEND
  5
1A3
330
19D
100
AcDbEntity
  8
Linee visibili 2D
 62
   255
  0
POLYLINE
  5
1A4
330
1F
100
AcDbEntity
  8
Linee visibili 2D
 62
   255
100
AcDb2dPolyline
 66
     1
 10
0.0
 20
0.0
 30
0.0
  0
VERTEX
  5
1A5
330
1A4
100
AcDbEntity
  8
Linee visibili 2D
 62
   255
100
AcDbVertex
100
AcDb2dVertex
 10
380.8238706969915
 20
92.14263031603218
 30
0.0
  0
VERTEX
  5
1A6
330
1A4
100
AcDbEntity
  8
Linee visibili 2D
 62
   255
100
AcDbVertex
100
AcDb2dVertex
 10
385.9555337683743
 20
96.4486069065556
 30
0.0
  0
VERTEX
  5
1A7
330
1A4
100
AcDbEntity
  8
Linee visibili 2D
 62
   255
100
AcDbVertex
100
AcDb2dVertex
 10
386.1789068349074
 20
96.1824012520259
 30
0.0
  0
VERTEX
  5
1A8
330
1A4
100
AcDbEntity
  8
Linee visibili 2D
 62
   255
100
AcDbVertex
100
AcDb2dVertex
 10
381.0472437635246
 20
91.8764246615026
 30
0.0
  0
VERTEX
  5
1A9
330
1A4
100
AcDbEntity
  8
Linee visibili 2D
 62
   255
100
AcDbVertex
100
AcDb2dVertex
 10
380.8238706969915
 20
92.14263031603218
 30
0.0
  0
SEQEND
  5
1AA
330
1A4
100
AcDbEntity
  8
Linee visibili 2D
 62
   255
  0
POLYLINE
  5
1AB
330
1F
100
AcDbEntity
  8
Linee visibili 2D
 62
   255
100
AcDb2dPolyline
 66
     1
 10
0.0
 20
0.0
 30
0.0
  0
VERTEX
  5
1AC
330
1AB
100
AcDbEntity
  8
Linee visibili 2D
 62
   255
100
AcDbVertex
100
AcDb2dVertex
 10
383.3876128323863
 20
89.53605559264099
 30
0.0
  0
VERTEX
  5
1AD
330
1AB
100
AcDbEntity
  8
Linee visibili 2D
 62
   255
100
AcDbVertex
100
AcDb2dVertex
 10
387.6935894229096
 20
94.66771866402371
 30
0.0
  0
VERTEX
  5
1AE
330
1AB
100
AcDbEntity
  8
Linee visibili 2D
 62
   255
100
AcDbVertex
100
AcDb2dVertex
 10
387.9597950774391
 20
94.44434559749061
 30
0.0
  0
VERTEX
  5
1AF
330
1AB
100
AcDbEntity
  8
Linee visibili 2D
 62
   255
100
AcDbVertex
100
AcDb2dVertex
 10
383.6538184869158
 20
89.31268252610789
 30
0.0
  0
VERTEX
  5
1B0
330
1AB
100
AcDbEntity
  8
Linee visibili 2D
 62
   255
100
AcDbVertex
100
AcDb2dVertex
 10
383.3876128323863
 20
89.53605559264099
 30
0.0
  0
SEQEND
  5
1B1
330
1AB
100
AcDbEntity
  8
Linee visibili 2D
 62
   255
  0
POLYLINE
  5
1B2
330
1F
100
AcDbEntity
  8
Linee visibili 2D
 62
   255
100
AcDb2dPolyline
 66
     1
 10
0.0
 20
0.0
 30
0.0
  0
VERTEX
  5
1B3
330
1B2
100
AcDbEntity
  8
Linee visibili 2D
 62
   255
100
AcDbVertex
100
AcDb2dVertex
 10
386.3650329147166
 20
87.41426974605884
 30
0.0
  0
VERTEX
  5
1B4
330
1B2
100
AcDbEntity
  8
Linee visibili 2D
 62
   255
100
AcDbVertex
100
AcDb2dVertex
 10
389.7144881046067
 20
93.21569631262389
 30
0.0
  0
VERTEX
  5
1B5
330
1B2
100
AcDbEntity
  8
Linee visibili 2D
 62
   255
100
AcDbVertex
100
AcDb2dVertex
 10
390.0154378230266
 20
93.04194291168153
 30
0.0
  0
VERTEX
  5
1B6
330
1B2
100
AcDbEntity
  8
Linee visibili 2D
 62
   255
100
AcDbVertex
100
AcDb2dVertex
 10
386.6659826331364
 20
87.2405163451167
 30
0.0
  0
VERTEX
  5
1B7
330
1B2
100
AcDbEntity
  8
Linee visibili 2D
 62
   255
100
AcDbVertex
100
AcDb2dVertex
 10
386.3650329147166
 20
87.41426974605884
 30
0.0
  0
SEQEND
  5
1B8
330
1B2
100
AcDbEntity
  8
Linee visibili 2D
 62
   255
  0
POLYLINE
  5
1B9
330
1F
100
AcDbEntity
  8
Linee visibili 2D
 62
   255
100
AcDb2dPolyline
 66
     1
 10
0.0
 20
0.0
 30
0.0
  0
VERTEX
  5
1BA
330
1B9
100
AcDbEntity
  8
Linee visibili 2D
 62
   255
100
AcDbVertex
100
AcDb2dVertex
 10
382.9142364326881
 20
107.7988830842601
 30
0.0
  0
VERTEX
  5
1BB
330
1B9
100
AcDbEntity
  8
Linee visibili 2D
 62
   255
100
AcDbVertex
100
AcDb2dVertex
 10
376.3170975539465
 20
108.962136664063
 30
0.0
  0
VERTEX
  5
1BC
330
1B9
100
AcDbEntity
  8
Linee visibili 2D
 62
   255
100
AcDbVertex
100
AcDb2dVertex
 10
376.3774414768206
 20
109.3043640567832
 30
0.0
  0
VERTEX
  5
1BD
330
1B9
100
AcDbEntity
  8
Linee visibili 2D
 62
   255
100
AcDbVertex
100
AcDb2dVertex
 10
382.9745803555622
 20
108.1411104769804
 30
0.0
  0
VERTEX
  5
1BE
330
1B9
100
AcDbEntity
  8
Linee visibili 2D
 62
   255
100
AcDbVertex
100
AcDb2dVertex
 10
382.9142364326881
 20
107.7988830842601
 30
0.0
  0
SEQEND
  5
1BF
330
1B9
100
AcDbEntity
  8
Linee visibili 2D
 62
   255
  0
POLYLINE
  5
1C0
330
1F
100
AcDbEntity
  8
Linee visibili 2D
 62
   255
100
AcDb2dPolyline
 66
     1
 10
0.0
 20
0.0
 30
0.0
  0
VERTEX
  5
1C1
330
1C0
100
AcDbEntity
  8
Linee visibili 2D
 62
   255
100
AcDbVertex
100
AcDb2dVertex
 10
389.6656635414282
 20
85.8417421655588
 30
0.0
  0
VERTEX
  5
1C2
330
1C0
100
AcDbEntity
  8
Linee visibili 2D
 62
   255
100
AcDbVertex
100
AcDb2dVertex
 10
391.9568258296465
 20
92.13665881674444
 30
0.0
  0
VERTEX
  5
1C3
330
1C0
100
AcDbEntity
  8
Linee visibili 2D
 62
   255
100
AcDbVertex
100
AcDb2dVertex
 10
392.2833754070502
 20
92.0178044905573
 30
0.0
  0
VERTEX
  5
1C4
330
1C0
100
AcDbEntity
  8
Linee visibili 2D
 62
   255
100
AcDbVertex
100
AcDb2dVertex
 10
389.992213118832
 20
85.72288783937165
 30
0.0
  0
VERTEX
  5
1C5
330
1C0
100
AcDbEntity
  8
Linee visibili 2D
 62
   255
100
AcDbVertex
100
AcDb2dVertex
 10
389.6656635414282
 20
85.8417421655588
 30
0.0
  0
SEQEND
  5
1C6
330
1C0
100
AcDbEntity
  8
Linee visibili 2D
 62
   255
  0
POLYLINE
  5
1C7
330
1F
100
AcDbEntity
  8
Linee visibili 2D
 62
   255
100
AcDb2dPolyline
 66
     1
 10
0.0
 20
0.0
 30
0.0
  0
VERTEX
  5
1C8
330
1C7
100
AcDbEntity
  8
Linee visibili 2D
 62
   255
100
AcDbVertex
100
AcDb2dVertex
 10
393.5314441138486
 20
84.80590938306284
 30
0.0
  0
VERTEX
  5
1C9
330
1C7
100
AcDbEntity
  8
Linee visibili 2D
 62
   255
100
AcDbVertex
100
AcDb2dVertex
 10
393.1892167211283
 20
84.866253305937
 30
0.0
  0
VERTEX
  5
1CA
330
1C7
100
AcDbEntity
  8
Linee visibili 2D
 62
   255
100
AcDbVertex
100
AcDb2dVertex
 10
394.3524703009313
 20
91.46339218467847
 30
0.0
  0
VERTEX
  5
1CB
330
1C7
100
AcDbEntity
  8
Linee visibili 2D
 62
   255
100
AcDbVertex
100
AcDb2dVertex
 10
394.6946976936515
 20
91.40304826180443
 30
0.0
  0
VERTEX
  5
1CC
330
1C7
100
AcDbEntity
  8
Linee visibili 2D
 62
   255
100
AcDbVertex
100
AcDb2dVertex
 10
393.5314441138486
 20
84.80590938306284
 30
0.0
  0
SEQEND
  5
1CD
330
1C7
100
AcDbEntity
  8
Linee visibili 2D
 62
   255
  0
LINE
  5
1CE
330
1F
100
AcDbEntity
  8
Linee visibili 2D
 62
   255
100
AcDbLine
 10
421.1248684088439
 20
434.4911963035139
 30
0.0
 11
415.5000000000003
 21
434.4911963035139
 31
0.0
  0
LINE
  5
1CF
330
1F
100
AcDbEntity
  8
Linee visibili 2D
 62
   255
100
AcDbLine
 10
391.7500000000003
 20
372.4911963035139
 30
0.0
 11
402.2500000000003
 21
372.491196303514
 31
0.0
  0
LINE
  5
1D0
330
1F
100
AcDbEntity
  8
Linee visibili 2D
 62
   255
100
AcDbLine
 10
402.2500000000003
 20
434.491196303514
 30
0.0
 11
391.7500000000003
 21
434.491196303514
 31
0.0
  0
LINE
  5
1D1
330
1F
100
AcDbEntity
  8
Linee visibili 2D
 62
   255
100
AcDbLine
 10
413.0000000000003
 20
434.5348339658344
 30
0.0
 11
415.4721853541981
 21
434.4975426988917
 31
0.0
  0
LINE
  5
1D2
330
1F
100
AcDbEntity
  8
Linee visibili 2D
 62
   255
100
AcDbLine
 10
410.5000000000003
 20
434.4911963035139
 30
0.0
 11
413.0000000000003
 21
434.5348339658344
 31
0.0
  0
LINE
  5
1D3
330
1F
100
AcDbEntity
  8
Linee visibili 2D
 62
   255
100
AcDbLine
 10
410.5000000000003
 20
434.4911963035139
 30
0.0
 11
402.2500000000003
 21
434.4911963035139
 31
0.0
  0
LINE
  5
1D4
330
1F
100
AcDbEntity
  8
Linee visibili 2D
 62
   255
100
AcDbLine
 10
402.2500000000003
 20
372.4911963035139
 30
0.0
 11
410.0500838947506
 21
372.4911963035139
 31
0.0
  0
ARC
  5
1D5
330
1F
100
AcDbEntity
  8
Linee visibili 2D
 62
   255
100
AcDbCircle
 10
740.0000000000002
 20
488.4911963035141
 30
0.0
 40
3.781659371953367
100
AcDbArc
 50
359.9999999999974
 51
90.0
  0
ARC
  5
1D6
330
1F
100
AcDbEntity
  8
Linee visibili 2D
 62
   255
100
AcDbCircle
 10
570.0000000000002
 20
488.4911963035142
 30
0.0
 40
3.78165937195331
100
AcDbArc
 50
90.0
 51
180.0000000000043
  0
ARC
  5
1D7
330
1F
100
AcDbEntity
  8
Linee visibili 2D
 62
   255
100
AcDbCircle
 10
570.0000000000003
 20
318.4911963035138
 30
0.0
 40
3.781659371953424
100
AcDbArc
 50
179.9999999999983
 51
269.9999999999983
  0
ARC
  5
1D8
330
1F
100
AcDbEntity
  8
Linee visibili 2D
 62
   255
100
AcDbCircle
 10
740.0000000000001
 20
318.4911963035139
 30
0.0
 40
7.518510597907196
100
AcDbArc
 50
213.1299438156096
 51
54.32830416636529
  0
ARC
  5
1D9
330
1F
100
AcDbEntity
  8
Linee visibili 2D
 62
   255
100
AcDbCircle
 10
740.0000000000003
 20
488.4911963035138
 30
0.0
 40
7.518510597907155
100
AcDbArc
 50
305.6716958336328
 51
147.3682821184014
  0
LINE
  5
1DA
330
1F
100
AcDbEntity
  8
Linee visibili 2D
 62
   255
100
AcDbLine
 10
415.8478159104866
 20
372.4911963035139
 30
0.0
 11
421.124868408844
 21
372.4911963035139
 31
0.0
  0
ARC
  5
1DB
330
1F
100
AcDbEntity
  8
Linee visibili 2D
 62
   255
100
AcDbCircle
 10
570.0000000000002
 20
488.4911963035141
 30
0.0
 40
7.518510597907115
100
AcDbArc
 50
31.8341928142569
 51
216.7743698086274
  0
ARC
  5
1DC
330
1F
100
AcDbEntity
  8
Linee visibili 2D
 62
   255
100
AcDbCircle
 10
740.0000000000001
 20
318.4911963035139
 30
0.0
 40
3.78165937195358
100
AcDbArc
 50
270.0000000000017
 51
359.7564436411428
  0
ARC
  5
1DD
330
1F
100
AcDbEntity
  8
Linee visibili 2D
 62
   255
100
AcDbCircle
 10
570.0000000000002
 20
318.4911963035138
 30
0.0
 40
7.518510597907115
100
AcDbArc
 50
143.2256301913739
 51
328.1658071857419
  0
LINE
  5
1DE
330
1F
100
AcDbEntity
  8
Linee visibili 2D
 62
   255
100
AcDbLine
 10
417.0000000000003
 20
373.1536147437655
 30
0.0
 11
417.0000000000003
 21
372.6512672555333
 31
0.0
  0
LINE
  5
1DF
330
1F
100
AcDbEntity
  8
Linee visibili 2D
 62
   255
100
AcDbLine
 10
392.0000000000003
 20
434.3311253514945
 30
0.0
 11
392.0000000000003
 21
434.5188994155631
 31
0.0
  0
ARC
  5
1E0
330
1F
100
AcDbEntity
  8
Linee visibili 2D
 62
   255
100
AcDbCircle
 10
413.0023844743976
 20
105.491196303514
 30
0.0
 40
2.39749999999998
100
AcDbArc
 50
179.9999999999993
 51
0.0000000000006792
  0
LINE
  5
1E1
330
1F
100
AcDbEntity
  8
Linee visibili 2D
 62
   255
100
AcDbLine
 10
412.1454513050361
 20
106.991196303514
 30
0.0
 11
413.8593176437593
 21
106.991196303514
 31
0.0
  0
LINE
  5
1E2
330
1F
100
AcDbEntity
  8
Linee visibili 2D
 62
   255
100
AcDbLine
 10
414.7258912253305
 20
105.4763975633178
 30
0.0
 11
413.8721306195658
 21
103.9976408166324
 31
0.0
  0
LINE
  5
1E3
330
1F
100
AcDbEntity
  8
Linee visibili 2D
 62
   255
100
AcDbLine
 10
411.3070003838995
 20
105.5547049204273
 30
0.0
 11
412.1326383292296
 21
106.9847517903956
 31
0.0
  0
ARC
  5
1E4
330
1F
100
AcDbEntity
  8
Linee visibili 2D
 62
   255
100
AcDbCircle
 10
413.0023844743976
 20
105.491196303514
 30
0.0
 40
2.397499999999973
100
AcDbArc
 50
0.3880191812400077
 51
179.6119808187586
  0
LINE
  5
1E5
330
1F
100
AcDbEntity
  8
Linee visibili 2D
 62
   255
100
AcDbLine
 10
13.06984454455977
 20
101.4912724559358
 30
0.0
 11
12.80016703898332
 21
101.4123116975583
 31
0.0
  0
POLYLINE
  5
1E6
330
1F
100
AcDbEntity
  8
Predefinito
 62
   255
100
AcDb2dPolyline
 66
     1
 10
0.0
 20
0.0
 30
0.0
  0
VERTEX
  5
1E7
330
1E6
100
AcDbEntity
  8
Predefinito
 62
   255
100
AcDbVertex
100
AcDb2dVertex
 10
198.3888685318936
 20
112.4999986591544
 30
0.0
  0
VERTEX
  5
1E8
330
1E6
100
AcDbEntity
  8
Predefinito
 62
   255
100
AcDbVertex
100
AcDb2dVertex
 10
197.8889446843155
 20
112.9912724559358
 30
0.0
  0
VERTEX
  5
1E9
330
1E6
100
AcDbEntity
  8
Predefinito
 62
   255
100
AcDbVertex
100
AcDb2dVertex
 10
194.6072091599401
 20
112.9912724559358
 30
0.0
  0
SEQEND
  5
1EA
330
1E6
100
AcDbEntity
  8
Predefinito
 62
   255
  0
LINE
  5
1EB
330
1F
100
AcDbEntity
  8
Linee visibili 2D
 62
   255
100
AcDbLine
 10
13.12130196154584
 20
132.5886101499627
 30
0.0
 11
13.17989398402852
 21
135.9453448698604
 31
0.0
  0
LINE
  5
1EC
330
1F
100
AcDbEntity
  8
Linee visibili 2D
 62
   255
100
AcDbLine
 10
413.8721306195658
 20
106.9847517903956
 30
0.0
 11
414.6977685648958
 21
105.5547049204272
 31
0.0
  0
LINE
  5
1ED
330
1F
100
AcDbEntity
  8
Linee visibili 2D
 62
   255
100
AcDbLine
 10
24.60720915994011
 20
112.9912724559358
 30
0.0
 11
194.6072091599401
 21
112.9912724559358
 31
0.0
  0
LINE
  5
1EE
330
1F
100
AcDbEntity
  8
Linee visibili 2D
 62
   255
100
AcDbLine
 10
21.32547363556478
 20
112.9912724559358
 30
0.0
 11
20.82554978798657
 21
112.4999986591544
 31
0.0
  0
LINE
  5
1EF
330
1F
100
AcDbEntity
  8
Linee visibili 2D
 62
   255
100
AcDbLine
 10
12.79262772096314
 20
101.4073864220251
 30
0.0
 11
12.80016706377961
 21
101.4123117153419
 31
0.0
  0
LINE
  5
1F0
330
1F
100
AcDbEntity
  8
Linee visibili 2D
 62
   255
100
AcDbLine
 10
205.5336465028327
 20
136.4912724559357
 30
0.0
 11
13.6807718170474
 21
136.4912724559358
 31
0.0
  0
LINE
  5
1F1
330
1F
100
AcDbEntity
  8
Linee visibili 2D
 62
   255
100
AcDbLine
 10
12.53561983290018
 20
99.03490347202899
 30
0.0
 11
12.56991872760443
 21
100.999885833612
 31
0.0
  0
LINE
  5
1F2
330
1F
100
AcDbEntity
  8
Linee visibili 2D
 62
   255
100
AcDbLine
 10
206.67879848698
 20
99.03490347202899
 30
0.0
 11
207.0983293110323
 21
74.99999865915447
 31
0.0
  0
LINE
  5
1F3
330
1F
100
AcDbEntity
  8
Linee visibili 2D
 62
   255
100
AcDbLine
 10
206.6444976228986
 20
100.9999986591544
 30
0.0
 11
206.67879848698
 21
99.03490347202899
 31
0.0
  0
LINE
  5
1F4
330
1F
100
AcDbEntity
  8
Linee visibili 2D
 62
   255
100
AcDbLine
 10
206.6396126605981
 20
101.0615327011883
 30
0.0
 11
206.1445737753204
 21
101.4912724559358
 31
0.0
  0
LINE
  5
1F5
330
1F
100
AcDbEntity
  8
Linee visibili 2D
 62
   255
100
AcDbLine
 10
206.0335703504109
 20
135.9999986591544
 30
0.0
 11
206.0931163583343
 21
132.5886101499627
 31
0.0
  0
LINE
  5
1F6
330
1F
100
AcDbEntity
  8
Linee visibili 2D
 62
   255
100
AcDbLine
 10
397.0000623977679
 20
372.6012673335308
 30
0.0
 11
417.0000000000003
 21
372.6512672555334
 31
0.0
  0
LINE
  5
1F7
330
1F
100
AcDbEntity
  8
Linee visibili 2D
 62
   255
100
AcDbLine
 10
400.5355993402976
 20
373.1964540162717
 30
0.0
 11
400.6392610482432
 21
373.1963008134339
 31
0.0
  0
LINE
  5
1F8
330
1F
100
AcDbEntity
  8
Linee visibili 2D
 62
   255
100
AcDbLine
 10
402.0000668678952
 20
373.1942232962806
 30
0.0
 11
416.9190981722579
 21
373.1536147437656
 31
0.0
  0
LINE
  5
1F9
330
1F
100
AcDbEntity
  8
Linee visibili 2D
 62
   255
100
AcDbLine
 10
419.3000000000003
 20
410.0621214347073
 30
0.0
 11
422.3323793205612
 21
410.0621214347073
 31
0.0
  0
LINE
  5
1FA
330
1F
100
AcDbEntity
  8
Linee visibili 2D
 62
   255
100
AcDbLine
 10
414.6416292601558
 20
372.4475586411934
 30
0.0
 11
411.3583707398449
 21
372.4475586411934
 31
0.0
  0
LINE
  5
1FB
330
1F
100
AcDbEntity
  8
Linee visibili 2D
 62
   255
100
AcDbLine
 10
392.0000000000003
 20
372.4634931914649
 30
0.0
 11
392.0000000000003
 21
372.6512672555333
 31
0.0
  0
LINE
  5
1FC
330
1F
100
AcDbEntity
  8
Linee visibili 2D
 62
   255
100
AcDbLine
 10
417.0000000000003
 20
433.8311253514945
 30
0.0
 11
417.0000000000003
 21
433.3287778632623
 31
0.0
  0
LINE
  5
1FD
330
1F
100
AcDbEntity
  8
Linee visibili 2D
 62
   255
100
AcDbLine
 10
419.3000000000002
 20
399.8911963035139
 30
0.0
 11
389.8555977431412
 21
399.8911963035139
 31
0.0
  0
LINE
  5
1FE
330
1F
100
AcDbEntity
  8
Linee visibili 2D
 62
   255
100
AcDbLine
 10
389.8563058665096
 20
407.0911963035139
 30
0.0
 11
419.3000000000003
 21
407.0911963035139
 31
0.0
  0
LINE
  5
1FF
330
1F
100
AcDbEntity
  8
Linee visibili 2D
 62
   255
100
AcDbLine
 10
402.0000000000003
 20
372.6512672555334
 30
0.0
 11
402.0000000000003
 21
372.463493191415
 31
0.0
  0
ARC
  5
200
330
1F
100
AcDbEntity
  8
Linee visibili 2D
 62
   255
100
AcDbCircle
 10
751.4812946134206
 20
98.8964978102762
 30
0.0
 40
2.596366773999396
100
AcDbArc
 50
3.054056743462091
 51
87.94594325653749
  0
LINE
  5
201
330
1F
100
AcDbEntity
  8
Linee visibili 2D
 62
   255
100
AcDbLine
 10
419.3000000000003
 20
399.669816589294
 30
0.0
 11
422.3582894903216
 21
399.669816589294
 31
0.0
  0
LINE
  5
202
330
1F
100
AcDbEntity
  8
Linee visibili 2D
 62
   255
100
AcDbLine
 10
20.63339175733245
 20
101.4912724559358
 30
0.0
 11
20.82554978798657
 21
112.4999986591544
 31
0.0
  0
LINE
  5
203
330
1F
100
AcDbEntity
  8
Linee visibili 2D
 62
   255
100
AcDbLine
 10
206.5788169682147
 20
104.7628408458911
 30
0.0
 11
206.6401273756205
 21
101.2503699580351
 31
0.0
  0
POLYLINE
  5
204
330
1F
100
AcDbEntity
  8
Predefinito
 62
   255
100
AcDb2dPolyline
 66
     1
 10
0.0
 20
0.0
 30
0.0
  0
VERTEX
  5
205
330
204
100
AcDbEntity
  8
Predefinito
 62
   255
100
AcDbVertex
100
AcDb2dVertex
 10
12.11601285642615
 20
109.3142531100966
 30
0.0
  0
VERTEX
  5
206
330
204
100
AcDbEntity
  8
Predefinito
 62
   255
100
AcDbVertex
100
AcDb2dVertex
 10
12.11601285642615
 20
202.4824687594498
 30
0.0
  0
VERTEX
  5
207
330
204
100
AcDbEntity
  8
Predefinito
 62
   255
100
AcDbVertex
100
AcDb2dVertex
 10
12.61601270890719
 20
202.9824687588783
 30
0.0
  0
VERTEX
  5
208
330
204
100
AcDbEntity
  8
Predefinito
 62
   255
100
AcDbVertex
100
AcDb2dVertex
 10
206.5984056109729
 20
202.9824687588783
 30
0.0
  0
VERTEX
  5
209
330
204
100
AcDbEntity
  8
Predefinito
 62
   255
100
AcDbVertex
100
AcDb2dVertex
 10
207.098405463454
 20
202.4824687594497
 30
0.0
  0
SEQEND
  5
20A
330
204
100
AcDbEntity
  8
Predefinito
 62
   255
  0
LINE
  5
20B
330
1F
100
AcDbEntity
  8
Linee visibili 2D
 62
   255
100
AcDbLine
 10
422.3627722807047
 20
400.7416508865404
 30
0.0
 11
419.3000000000003
 21
400.7416508865404
 31
0.0
  0
LINE
  5
20C
330
1F
100
AcDbEntity
  8
Linee visibili 2D
 62
   255
100
AcDbLine
 10
206.0335703504109
 20
135.9999986591544
 30
0.0
 11
205.5336465028327
 21
136.4912724559357
 31
0.0
  0
LINE
  5
20D
330
1F
100
AcDbEntity
  8
Linee visibili 2D
 62
   255
100
AcDbLine
 10
12.63690995589519
 20
104.837810731995
 30
0.0
 11
13.12130196154595
 21
132.5886101499627
 31
0.0
  0
LINE
  5
20E
330
1F
100
AcDbEntity
  8
Linee visibili 2D
 62
   255
100
AcDbLine
 10
21.32547363556478
 20
112.9912724559358
 30
0.0
 11
24.60720915994011
 21
112.9912724559358
 31
0.0
  0
POLYLINE
  5
20F
330
1F
100
AcDbEntity
  8
Linee visibili 2D
 62
   255
100
AcDb2dPolyline
 66
     1
 10
0.0
 20
0.0
 30
0.0
  0
VERTEX
  5
210
330
20F
100
AcDbEntity
  8
Linee visibili 2D
 62
   255
100
AcDbVertex
100
AcDb2dVertex
 10
207.098405463454
 20
109.3142531100966
 30
0.0
  0
VERTEX
  5
211
330
20F
100
AcDbEntity
  8
Linee visibili 2D
 62
   255
100
AcDbVertex
100
AcDb2dVertex
 10
207.098405463454
 20
202.4824687594498
 30
0.0
  0
VERTEX
  5
212
330
20F
100
AcDbEntity
  8
Linee visibili 2D
 62
   255
100
AcDbVertex
100
AcDb2dVertex
 10
206.5984081534235
 20
202.9824687594426
 30
0.0
  0
SEQEND
  5
213
330
20F
100
AcDbEntity
  8
Linee visibili 2D
 62
   255
  0
LINE
  5
214
330
1F
100
AcDbEntity
  8
Linee visibili 2D
 62
   255
100
AcDbLine
 10
206.1445737753204
 20
101.4912724559358
 30
0.0
 11
13.06984454455977
 21
101.4912724559358
 31
0.0
  0
LINE
  5
215
330
1F
100
AcDbEntity
  8
Linee visibili 2D
 62
   255
100
AcDbLine
 10
13.1808479694692
 20
135.9999986591544
 30
0.0
 11
13.6807718170474
 21
136.4912724559358
 31
0.0
  0
LINE
  5
216
330
1F
100
AcDbEntity
  8
Linee visibili 2D
 62
   255
100
AcDbLine
 10
12.71938991240989
 20
101.3478976805129
 30
0.0
 11
12.56992069698157
 21
100.9999986591544
 31
0.0
  0
LINE
  5
217
330
1F
100
AcDbEntity
  8
Linee visibili 2D
 62
   255
100
AcDbLine
 10
206.5984054634541
 20
74.49127245593581
 30
0.0
 11
207.0983293110323
 21
74.99999865915447
 31
0.0
  0
LINE
  5
218
330
1F
100
AcDbEntity
  8
Linee visibili 2D
 62
   255
100
AcDbLine
 10
12.11608900884795
 20
74.99999865915447
 30
0.0
 11
12.61601285642615
 21
74.49127245593581
 31
0.0
  0
LINE
  5
219
330
1F
100
AcDbEntity
  8
Linee visibili 2D
 62
   255
100
AcDbLine
 10
12.11608900884795
 20
74.99999865915447
 30
0.0
 11
12.53561967912964
 21
99.03489466251989
 31
0.0
  0
LINE
  5
21A
330
1F
100
AcDbEntity
  8
Linee visibili 2D
 62
   255
100
AcDbLine
 10
206.0931163583343
 20
132.5886101499627
 30
0.0
 11
206.5775083639851
 21
104.837810731995
 31
0.0
  0
LINE
  5
21B
330
1F
100
AcDbEntity
  8
Linee visibili 2D
 62
   255
100
AcDbLine
 10
388.8839529416205
 20
403.5689190596512
 30
0.0
 11
388.8839529416205
 21
403.4134735473767
 31
0.0
  0
LINE
  5
21C
330
1F
100
AcDbEntity
  8
Linee visibili 2D
 62
   255
100
AcDbLine
 10
392.3974591385789
 20
397.4073357350139
 30
0.0
 11
391.8890555941977
 21
397.7217869590073
 31
0.0
  0
LINE
  5
21D
330
1F
100
AcDbEntity
  8
Linee visibili 2D
 62
   255
100
AcDbLine
 10
391.4533484080847
 20
398.0435747857701
 30
0.0
 11
390.8625248424567
 21
398.5771996237077
 31
0.0
  0
ARC
  5
21E
330
1F
100
AcDbEntity
  8
Linee visibili 2D
 62
   255
100
AcDbCircle
 10
395.8679116522698
 20
403.4448966787569
 30
0.0
 40
6.984029401802315
100
AcDbArc
 50
180.2577908508263
 51
218.7102848346337
  0
LINE
  5
21F
330
1F
100
AcDbEntity
  8
Linee visibili 2D
 62
   255
100
AcDbLine
 10
390.8716868693267
 20
408.4144986983518
 30
0.0
 11
391.4533242651852
 21
408.9388049129141
 31
0.0
  0
LINE
  5
220
330
1F
100
AcDbEntity
  8
Linee visibili 2D
 62
   255
100
AcDbLine
 10
422.3324630091
 20
396.9202711723206
 30
0.0
 11
419.3000000000003
 21
396.9202711723206
 31
0.0
  0
LINE
  5
221
330
1F
100
AcDbEntity
  8
Linee visibili 2D
 62
   255
100
AcDbLine
 10
419.3000000000003
 20
400.7416508865405
 30
0.0
 11
419.3000000000002
 21
399.669816589294
 31
0.0
  0
LINE
  5
222
330
1F
100
AcDbEntity
  8
Linee visibili 2D
 62
   255
100
AcDbLine
 10
198.5810265625478
 20
101.4912724559357
 30
0.0
 11
198.3888685318936
 21
112.4999986591544
 31
0.0
  0
LINE
  5
223
330
1F
100
AcDbEntity
  8
Linee visibili 2D
 62
   255
100
AcDbLine
 10
418.5087262187356
 20
433.1157600908426
 30
0.0
 11
419.0000000000003
 21
432.6158362435353
 31
0.0
  0
LINE
  5
224
330
1F
100
AcDbEntity
  8
Linee visibili 2D
 62
   255
100
AcDbLine
 10
419.0000000000003
 20
411.3665563634926
 30
0.0
 11
418.5087262187356
 21
410.8666325161852
 31
0.0
  0
ARC
  5
225
330
1F
100
AcDbEntity
  8
Linee visibili 2D
 62
   255
100
AcDbCircle
 10
395.8191984962417
 20
403.4784287903714
 30
0.0
 40
6.991172642226805
100
AcDbArc
 50
91.27586727347112
 51
128.6442857655502
  0
ARC
  5
226
330
1F
100
AcDbEntity
  8
Linee visibili 2D
 62
   255
100
AcDbCircle
 10
395.869685849329
 20
403.5334904590785
 30
0.0
 40
6.986131828448024
100
AcDbArc
 50
135.8916115160114
 51
179.1840374216943
  0
LINE
  5
227
330
1F
100
AcDbEntity
  8
Linee visibili 2D
 62
   255
100
AcDbLine
 10
391.4533484110409
 20
398.0435747834324
 30
0.0
 11
391.8890908498846
 21
397.7218388647373
 31
0.0
  0
LINE
  5
228
330
1F
100
AcDbEntity
  8
Linee visibili 2D
 62
   255
100
AcDbLine
 10
390.418263099795
 20
399.0773163800181
 30
0.0
 11
390.8601678189364
 21
398.5795993675897
 31
0.0
  0
LINE
  5
229
330
1F
100
AcDbEntity
  8
Linee visibili 2D
 62
   255
100
AcDbLine
 10
418.5095579691426
 20
396.115744880414
 30
0.0
 11
419.0000000000003
 21
395.6158362435353
 31
0.0
  0
LINE
  5
22A
330
1F
100
AcDbEntity
  8
Linee visibili 2D
 62
   255
100
AcDbLine
 10
419.0000000000003
 20
374.3665563634925
 30
0.0
 11
418.5087262187355
 21
373.8666325161853
 31
0.0
  0
LINE
  5
22B
330
1F
100
AcDbEntity
  8
Linee visibili 2D
 62
   255
100
AcDbLine
 10
392.3975640208033
 20
397.407514635807
 30
0.0
 11
395.6635313372033
 21
396.5145244507976
 31
0.0
  0
LINE
  5
22C
330
1F
100
AcDbEntity
  8
Linee visibili 2D
 62
   255
100
AcDbLine
 10
206.5984054634541
 20
74.49127245593581
 30
0.0
 11
12.61601285642615
 21
74.49127245593581
 31
0.0
  0
LINE
  5
22D
330
1F
100
AcDbEntity
  8
Linee visibili 2D
 62
   255
100
AcDbLine
 10
397.3839529416206
 20
396.4844943799885
 30
0.0
 11
418.4233382259311
 21
396.1172505438011
 31
0.0
  0
LINE
  5
22E
330
1F
100
AcDbEntity
  8
Linee visibili 2D
 62
   255
100
AcDbLine
 10
418.4233382259311
 20
410.8651420632268
 30
0.0
 11
397.3839529416206
 21
410.4978982270393
 31
0.0
  0
LINE
  5
22F
330
1F
100
AcDbEntity
  8
Linee visibili 2D
 62
   255
100
AcDbLine
 10
397.3839529416206
 20
410.4978982270393
 30
0.0
 11
395.6635313372033
 21
410.4678681562302
 31
0.0
  0
LINE
  5
230
330
1F
100
AcDbEntity
  8
Linee visibili 2D
 62
   255
100
AcDbLine
 10
397.3839529416206
 20
433.4844943799885
 30
0.0
 11
418.4233382259311
 21
433.1172505438011
 31
0.0
  0
LINE
  5
231
330
1F
100
AcDbEntity
  8
Linee visibili 2D
 62
   255
100
AcDbLine
 10
395.6635313372033
 20
396.5145244507976
 30
0.0
 11
397.3839529416206
 21
396.4844943799885
 31
0.0
  0
ARC
  5
232
330
1F
100
AcDbEntity
  8
Linee visibili 2D
 62
   255
100
AcDbCircle
 10
421.1245007172175
 20
373.4914116902967
 30
0.0
 40
1.000215454366834
100
AcDbArc
 50
270.0210626407929
 51
359.9789373592071
  0
LINE
  5
233
330
1F
100
AcDbEntity
  8
Linee visibili 2D
 62
   255
100
AcDbLine
 10
418.4233382259311
 20
373.8651420632267
 30
0.0
 11
397.3839529416207
 21
373.4978982270393
 31
0.0
  0
LINE
  5
234
330
1F
100
AcDbEntity
  8
Linee visibili 2D
 62
   255
100
AcDbLine
 10
384.3940374720157
 20
373.1799186320641
 30
0.0
 11
396.9999376022328
 21
373.2012671775376
 31
0.0
  0
LINE
  5
235
330
1F
100
AcDbEntity
  8
Linee visibili 2D
 62
   255
100
AcDbLine
 10
397.0000623977679
 20
373.2012671775356
 30
0.0
 11
398.7970887579544
 21
373.1989197672998
 31
0.0
  0
LINE
  5
236
330
1F
100
AcDbEntity
  8
Linee visibili 2D
 62
   255
100
AcDbLine
 10
422.3583234200848
 20
407.3125760177338
 30
0.0
 11
419.3000000000003
 21
407.3125760177338
 31
0.0
  0
LINE
  5
237
330
1F
100
AcDbEntity
  8
Linee visibili 2D
 62
   255
100
AcDbLine
 10
419.3000000000003
 20
407.3125760177338
 30
0.0
 11
419.3000000000003
 21
406.2407417204874
 31
0.0
  0
LINE
  5
238
330
1F
100
AcDbEntity
  8
Linee visibili 2D
 62
   255
100
AcDbLine
 10
419.3000000000003
 20
406.2407417204874
 30
0.0
 11
422.3628276671905
 21
406.2407417204874
 31
0.0
  0
LINE
  5
239
330
1F
100
AcDbEntity
  8
Linee visibili 2D
 62
   255
100
AcDbLine
 10
419.3000000000003
 20
406.2407417204874
 30
0.0
 11
419.3000000000003
 21
400.7416508865404
 31
0.0
  0
LINE
  5
23A
330
1F
100
AcDbEntity
  8
Linee visibili 2D
 62
   255
100
AcDbLine
 10
403.3029812654545
 20
356.9911963035139
 30
0.0
 11
404.7635319173095
 21
356.9911963035139
 31
0.0
  0
LINE
  5
23B
330
1F
100
AcDbEntity
  8
Linee visibili 2D
 62
   255
100
AcDbLine
 10
754.0739738014375
 20
99.03482731960719
 30
0.0
 11
754.4935046254898
 21
74.99992250673267
 31
0.0
  0
LINE
  5
23C
330
1F
100
AcDbEntity
  8
Linee visibili 2D
 62
   255
100
AcDbLine
 10
535.5330930838244
 20
132.8665960124978
 30
0.0
 11
554.9644120276308
 21
105.1157965945301
 31
0.0
  0
LINE
  5
23D
330
1F
100
AcDbEntity
  8
Linee visibili 2D
 62
   255
100
AcDbLine
 10
528.5703007073677
 20
136.491196303514
 30
0.0
 11
431.0211343276558
 21
136.491196303514
 31
0.0
  0
LINE
  5
23E
330
1F
100
AcDbEntity
  8
Predefinito
 62
   255
100
AcDbLine
 10
207.098405463454
 20
109.3142531100966
 30
0.0
 11
207.098405463454
 21
101.6682918017764
 31
0.0
  0
LINE
  5
23F
330
1F
100
AcDbEntity
  8
Predefinito
 62
   255
100
AcDbLine
 10
12.11601285642615
 20
109.3142531100966
 30
0.0
 11
12.11601285642615
 21
103.3253084295765
 31
0.0
  0
POLYLINE
  5
240
330
1F
100
AcDbEntity
  8
Predefinito
 62
   255
100
AcDb2dPolyline
 66
     1
 10
0.0
 20
0.0
 30
0.0
  0
VERTEX
  5
241
330
240
100
AcDbEntity
  8
Predefinito
 62
   255
100
AcDbVertex
100
AcDb2dVertex
 10
207.098405463454
 20
101.6682918017764
 30
0.0
  0
VERTEX
  5
242
330
240
100
AcDbEntity
  8
Predefinito
 62
   255
100
AcDbVertex
100
AcDb2dVertex
 10
207.098405463454
 20
8.500076152421798
 30
0.0
  0
VERTEX
  5
243
330
240
100
AcDbEntity
  8
Predefinito
 62
   255
100
AcDbVertex
100
AcDb2dVertex
 10
206.5984068084387
 20
8.000076152425379
 30
0.0
  0
VERTEX
  5
244
330
240
100
AcDbEntity
  8
Predefinito
 62
   255
100
AcDbVertex
100
AcDb2dVertex
 10
111.7730802228876
 20
8.000076152421798
 30
0.0
  0
VERTEX
  5
245
330
240
100
AcDbEntity
  8
Predefinito
 62
   255
100
AcDbVertex
100
AcDb2dVertex
 10
12.61601151144146
 20
8.000076152425436
 30
0.0
  0
VERTEX
  5
246
330
240
100
AcDbEntity
  8
Predefinito
 62
   255
100
AcDbVertex
100
AcDb2dVertex
 10
12.11601285642615
 20
8.500076152421798
 30
0.0
  0
VERTEX
  5
247
330
240
100
AcDbEntity
  8
Predefinito
 62
   255
100
AcDbVertex
100
AcDb2dVertex
 10
12.11601285642615
 20
103.3253084295765
 30
0.0
  0
SEQEND
  5
248
330
240
100
AcDbEntity
  8
Predefinito
 62
   255
  0
ARC
  5
249
330
1F
100
AcDbEntity
  8
Linee visibili 2D
 62
   255
100
AcDbCircle
 10
421.1245007172174
 20
433.490980916731
 30
0.0
 40
1.000215454366948
100
AcDbArc
 50
0.0210626407993883
 51
89.97893735920387
  0
ARC
  5
24A
330
1F
100
AcDbEntity
  8
Linee visibili 2D
 62
   255
100
AcDbCircle
 10
561.9834142587578
 20
110.0877776739762
 30
0.0
 40
8.60168722502325
100
AcDbArc
 50
215.4582270490742
 51
258.4366160630129
  0
LINE
  5
24B
330
1F
100
AcDbEntity
  8
Linee visibili 2D
 62
   255
100
AcDbLine
 10
753.9935807779117
 20
74.49119630351402
 30
0.0
 11
754.4935046254898
 21
74.99992250673267
 31
0.0
  0
LINE
  5
24C
330
1F
100
AcDbEntity
  8
Linee visibili 2D
 62
   255
100
AcDbLine
 10
12.57428917668199
 20
101.2502686935768
 30
0.0
 11
12.63560135166563
 21
104.762840845891
 31
0.0
  0
LINE
  5
24D
330
1F
100
AcDbEntity
  8
Linee visibili 2D
 62
   255
100
AcDbLine
 10
561.9272044040875
 20
101.491196303514
 30
0.0
 11
560.2590425998129
 21
101.6599404778595
 31
0.0
  0
ARC
  5
24E
330
1F
100
AcDbEntity
  8
Linee visibili 2D
 62
   255
100
AcDbCircle
 10
528.5009988698404
 20
127.8580687122574
 30
0.0
 40
8.633405744641049
100
AcDbArc
 50
35.45992804738642
 51
89.54007195261433
  0
LINE
  5
24F
330
1F
100
AcDbEntity
  8
Linee visibili 2D
 62
   255
100
AcDbLine
 10
753.9935807779117
 20
74.49119630351402
 30
0.0
 11
423.1595562227302
 21
74.49119630351402
 31
0.0
  0
LINE
  5
250
330
1F
100
AcDbEntity
  8
Linee visibili 2D
 62
   255
100
AcDbLine
 10
422.1247161040008
 20
396.0070098708338
 30
0.0
 11
422.1663039196932
 21
396.200708180218
 31
0.0
  0
LINE
  5
251
330
1F
100
AcDbEntity
  8
Linee visibili 2D
 62
   255
100
AcDbLine
 10
422.1408818601997
 20
410.8556764410849
 30
0.0
 11
422.1247161040008
 21
410.9753827361941
 31
0.0
  0
LINE
  5
252
330
1F
100
AcDbEntity
  8
Linee visibili 2D
 62
   255
100
AcDbLine
 10
417.0000000000003
 20
373.6536147437654
 30
0.0
 11
417.0000000000003
 21
373.1536147437655
 31
0.0
  0
LINE
  5
253
330
1F
100
AcDbEntity
  8
Linee visibili 2D
 62
   255
100
AcDbLine
 10
417.0000000000003
 20
434.3311253514945
 30
0.0
 11
417.0000000000003
 21
433.8311253514945
 31
0.0
  0
LINE
  5
254
330
1F
100
AcDbEntity
  8
Linee visibili 2D
 62
   255
100
AcDbLine
 10
398.7972186025499
 20
373.1036149207157
 30
0.0
 11
400.5356659602089
 21
373.1060805930244
 31
0.0
  0
LINE
  5
255
330
1F
100
AcDbEntity
  8
Linee visibili 2D
 62
   255
100
AcDbLine
 10
400.6393944608486
 20
373.1062338952597
 30
0.0
 11
402.0001343835381
 21
373.1083113209701
 31
0.0
  0
LINE
  5
256
330
1F
100
AcDbEntity
  8
Linee visibili 2D
 62
   255
100
AcDbLine
 10
413.0914937185541
 20
373.6709991752687
 30
0.0
 11
416.9190981722579
 21
373.6536147437655
 31
0.0
  0
LINE
  5
257
330
1F
100
AcDbEntity
  8
Linee visibili 2D
 62
   255
100
AcDbLine
 10
743.784043846351
 20
112.4999225067326
 30
0.0
 11
743.9762018770055
 21
101.491196303514
 31
0.0
  0
ARC
  5
258
330
1F
100
AcDbEntity
  8
Linee visibili 2D
 62
   255
100
AcDbCircle
 10
431.0211343276561
 20
127.9911963035137
 30
0.0
 40
8.500000000000298
100
AcDbArc
 50
90.00000000000192
 51
178.9999999999978
  0
LINE
  5
259
330
1F
100
AcDbEntity
  8
Linee visibili 2D
 62
   255
100
AcDbLine
 10
412.1326383292296
 20
103.9976408166324
 30
0.0
 11
411.2788777234647
 21
105.4763975633177
 31
0.0
  0
LINE
  5
25A
330
1F
100
AcDbEntity
  8
Linee visibili 2D
 62
   255
100
AcDbLine
 10
738.5000000000005
 20
318.9911963035139
 30
0.0
 11
571.5000000000002
 21
318.9911963035139
 31
0.0
  0
LINE
  5
25B
330
1F
100
AcDbEntity
  8
Linee visibili 2D
 62
   255
100
AcDbLine
 10
570.5000000000002
 20
319.9911963035139
 30
0.0
 11
570.5000000000002
 21
486.9911963035139
 31
0.0
  0
LINE
  5
25C
330
1F
100
AcDbEntity
  8
Linee visibili 2D
 62
   255
100
AcDbLine
 10
738.5000000000005
 20
487.9911963035139
 30
0.0
 11
739.5000000000005
 21
486.9911963035139
 31
0.0
  0
LINE
  5
25D
330
1F
100
AcDbEntity
  8
Linee visibili 2D
 62
   255
100
AcDbLine
 10
571.5000000000002
 20
318.9911963035139
 30
0.0
 11
570.5000000000002
 21
319.9911963035139
 31
0.0
  0
LINE
  5
25E
330
1F
100
AcDbEntity
  8
Linee visibili 2D
 62
   255
100
AcDbLine
 10
570.5000000000002
 20
486.9911963035139
 30
0.0
 11
571.5000000000002
 21
487.9911963035139
 31
0.0
  0
LINE
  5
25F
330
1F
100
AcDbEntity
  8
Linee visibili 2D
 62
   255
100
AcDbLine
 10
419.3000000000003
 20
396.9202711723206
 30
0.0
 11
419.3000000000003
 21
399.669816589294
 31
0.0
  0
LINE
  5
260
330
1F
100
AcDbEntity
  8
Linee visibili 2D
 62
   255
100
AcDbLine
 10
416.9190981722956
 20
433.3311253514945
 30
0.0
 11
412.5270637514972
 21
433.3311253514945
 31
0.0
  0
LINE
  5
261
330
1F
100
AcDbEntity
  8
Linee visibili 2D
 62
   255
100
AcDbLine
 10
417.0000000000003
 20
433.8311253514945
 30
0.0
 11
382.8578643762694
 21
433.8311253514945
 31
0.0
  0
LINE
  5
262
330
1F
100
AcDbEntity
  8
Linee visibili 2D
 62
   255
100
AcDbLine
 10
571.5000000000002
 20
487.9911963035139
 30
0.0
 11
738.5000000000005
 21
487.9911963035139
 31
0.0
  0
LINE
  5
263
330
1F
100
AcDbEntity
  8
Linee visibili 2D
 62
   255
100
AcDbLine
 10
739.5000000000005
 20
486.9911963035139
 30
0.0
 11
739.5000000000005
 21
319.9911963035139
 31
0.0
  0
LINE
  5
264
330
1F
100
AcDbEntity
  8
Linee visibili 2D
 62
   255
100
AcDbLine
 10
419.3000000000003
 20
410.0621214347073
 30
0.0
 11
419.3000000000003
 21
407.3125760177338
 31
0.0
  0
LINE
  5
265
330
1F
100
AcDbEntity
  8
Linee visibili 2D
 62
   255
100
AcDbLine
 10
419.0000000000003
 20
432.6158362435353
 30
0.0
 11
419.0000000000003
 21
411.3665563634926
 31
0.0
  0
LINE
  5
266
330
1F
100
AcDbEntity
  8
Linee visibili 2D
 62
   255
100
AcDbLine
 10
419.0000000000003
 20
395.6158362435353
 30
0.0
 11
419.0000000000003
 21
374.3665563634925
 31
0.0
  0
LINE
  5
267
330
1F
100
AcDbEntity
  8
Linee visibili 2D
 62
   255
100
AcDbLine
 10
413.8593176437593
 20
103.991196303514
 30
0.0
 11
412.1454513050361
 21
103.991196303514
 31
0.0
  0
LINE
  5
268
330
1F
100
AcDbEntity
  8
Linee visibili 2D
 62
   255
100
AcDbLine
 10
423.1595562227302
 20
74.49119630351402
 30
0.0
 11
422.659632375152
 21
74.98247010029536
 31
0.0
  0
LINE
  5
269
330
1F
100
AcDbEntity
  8
Linee visibili 2D
 62
   255
100
AcDbLine
 10
751.5743545635465
 20
101.491196303514
 30
0.0
 11
561.9272044040875
 21
101.491196303514
 31
0.0
  0
LINE
  5
26A
330
1F
100
AcDbEntity
  8
Linee visibili 2D
 62
   255
100
AcDbLine
 10
422.1247161040003
 20
373.4910439986703
 30
0.0
 11
422.1247161040008
 21
396.0070098708338
 31
0.0
  0
LINE
  5
26B
330
1F
100
AcDbEntity
  8
Linee visibili 2D
 62
   255
100
AcDbLine
 10
422.1247161040008
 20
410.9753827361941
 30
0.0
 11
422.1247161040003
 21
433.4913486083575
 31
0.0
  0
ENDSEC
  0
SECTION
  2
OBJECTS
  0
DICTIONARY
  5
C
330
0
100
AcDbDictionary
281
     1
  3
ACAD_GROUP
350
D
  3
ACAD_LAYOUT
350
1A
  3
ACAD_MLEADERSTYLE
350
26D
  3
ACAD_MLINESTYLE
350
17
  3
ACAD_PLOTSETTINGS
350
19
  3
ACAD_PLOTSTYLENAME
350
E
  3
ACAD_TABLESTYLE
350
26C
  3
ACAD_VISUALSTYLE
350
2A
  0
DICTIONARY
  5
D
102
{ACAD_REACTORS
330
C
102
}
330
C
100
AcDbDictionary
281
     1
  0
DICTIONARY
  5
1A
102
{ACAD_REACTORS
330
C
102
}
330
C
100
AcDbDictionary
281
     1
  3
Layout1
350
1E
  3
Layout2
350
26
  3
Model
350
22
  0
DICTIONARY
  5
26D
102
{ACAD_REACTORS
330
C
102
}
330
C
100
AcDbDictionary
281
     1
  0
DICTIONARY
  5
17
102
{ACAD_REACTORS
330
C
102
}
330
C
100
AcDbDictionary
281
     1
  3
Standard
350
18
  0
DICTIONARY
  5
19
102
{ACAD_REACTORS
330
C
102
}
330
C
100
AcDbDictionary
281
     1
  0
ACDBDICTIONARYWDFLT
  5
E
102
{ACAD_REACTORS
330
C
102
}
330
C
100
AcDbDictionary
281
     1
  3
Normal
350
F
100
AcDbDictionaryWithDefault
340
F
  0
DICTIONARY
  5
26C
102
{ACAD_REACTORS
330
C
102
}
330
C
100
AcDbDictionary
281
     1
  0
DICTIONARY
  5
2A
102
{ACAD_REACTORS
330
C
102
}
330
C
100
AcDbDictionary
281
     1
  3
2dWireframe
350
2F
  3
3D Hidden
350
31
  3
3dWireframe
350
30
  3
Basic
350
32
  3
Brighten
350
36
  3
ColorChange
350
3A
  3
Conceptual
350
34
  3
Dim
350
35
  3
Facepattern
350
39
  3
Flat
350
2B
  3
FlatWithEdges
350
2C
  3
Gouraud
350
2D
  3
GouraudWithEdges
350
2E
  3
Linepattern
350
38
  3
Realistic
350
33
  3
Thicken
350
37
  0
LAYOUT
  5
1E
102
{ACAD_REACTORS
330
1A
102
}
330
1A
100
AcDbPlotSettings
  1

  2
none_device
  4

  6

 40
0.0
 41
0.0
 42
0.0
 43
0.0
 44
0.0
 45
0.0
 46
0.0
 47
0.0
 48
0.0
 49
0.0
140
0.0
141
0.0
142
1.0
143
1.0
 70
   688
 72
     0
 73
     0
 74
     5
  7

 75
    16
 76
     0
 77
     2
 78
   300
147
1.0
148
0.0
149
0.0
100
AcDbLayout
  1
Layout1
 70
     1
 71
     1
 10
0.0
 20
0.0
 11
12.0
 21
9.0
 12
0.0
 22
0.0
 32
0.0
 14
1.000000000000000E+20
 24
1.000000000000000E+20
 34
1.000000000000000E+20
 15
-1.000000000000000E+20
 25
-1.000000000000000E+20
 35
-1.000000000000000E+20
146
0.0
 13
0.0
 23
0.0
 33
0.0
 16
1.0
 26
0.0
 36
0.0
 17
0.0
 27
1.0
 37
0.0
 76
     0
330
1B
  0
LAYOUT
  5
26
102
{ACAD_REACTORS
330
1A
102
}
330
1A
100
AcDbPlotSettings
  1

  2
none_device
  4

  6

 40
0.0
 41
0.0
 42
0.0
 43
0.0
 44
0.0
 45
0.0
 46
0.0
 47
0.0
 48
0.0
 49
0.0
140
0.0
141
0.0
142
1.0
143
1.0
 70
   688
 72
     0
 73
     0
 74
     5
  7

 75
    16
 76
     0
 77
     2
 78
   300
147
1.0
148
0.0
149
0.0
100
AcDbLayout
  1
Layout2
 70
     1
 71
     2
 10
0.0
 20
0.0
 11
0.0
 21
0.0
 12
0.0
 22
0.0
 32
0.0
 14
0.0
 24
0.0
 34
0.0
 15
0.0
 25
0.0
 35
0.0
146
0.0
 13
0.0
 23
0.0
 33
0.0
 16
1.0
 26
0.0
 36
0.0
 17
0.0
 27
1.0
 37
0.0
 76
     0
330
23
  0
LAYOUT
  5
22
102
{ACAD_REACTORS
330
1A
102
}
330
1A
100
AcDbPlotSettings
  1

  2
none_device
  4

  6

 40
0.0
 41
0.0
 42
0.0
 43
0.0
 44
0.0
 45
0.0
 46
0.0
 47
0.0
 48
0.0
 49
0.0
140
0.0
141
0.0
142
1.0
143
1.0
 70
  1712
 72
     0
 73
     0
 74
     0
  7

 75
     0
 76
     0
 77
     2
 78
   300
147
1.0
148
0.0
149
0.0
100
AcDbLayout
  1
Model
 70
     1
 71
     0
 10
0.0
 20
0.0
 11
12.0
 21
9.0
 12
0.0
 22
0.0
 32
0.0
 14
12.11601285642615
 24
8.000038076210899
 34
0.0
 15
754.4935046254898
 25
500.9828024642392
 35
0.0
146
0.0
 13
0.0
 23
0.0
 33
0.0
 16
1.0
 26
0.0
 36
0.0
 17
0.0
 27
1.0
 37
0.0
 76
     0
330
1F
331
29
  0
MLINESTYLE
  5
18
102
{ACAD_REACTORS
330
17
102
}
330
17
100
AcDbMlineStyle
  2
Standard
 70
     0
  3

 62
   256
 51
90.0
 52
90.0
 71
     2
 49
0.5
 62
   256
  6
BYLAYER
 49
-0.5
 62
   256
  6
BYLAYER
  0
ACDBPLACEHOLDER
  5
F
102
{ACAD_REACTORS
330
E
102
}
330
E
  0
VISUALSTYLE
  5
2F
102
{ACAD_REACTORS
330
2A
102
}
330
2A
100
AcDbVisualStyle
  2
2dWireframe
 70
     4
 71
     0
 72
     2
 73
     0
 90
        0
 40
-0.6
 41
-30.0
 62
     5
 63
     7
421
 16777215
 74
     1
 91
        4
 64
     7
 65
   257
 75
     1
175
     1
 42
1.0
 92
        0
 66
   257
 43
1.0
 76
     1
 77
     6
 78
     2
 67
     7
 79
     5
170
     0
171
     0
290
     0
174
     0
 93
        1
 44
0.0
173
     0
291
     0
 45
0.0
1001
ACAD
1000
AcDbSavedByObjectVersion
1070
     0
  0
VISUALSTYLE
  5
31
102
{ACAD_REACTORS
330
2A
102
}
330
2A
100
AcDbVisualStyle
  2
3D Hidden
 70
     6
 71
     1
 72
     2
 73
     2
 90
        0
 40
-0.6
 41
-30.0
 62
     5
 63
     7
421
 16777215
 74
     2
 91
        2
 64
     7
 65
   257
 75
     2
175
     1
 42
40.0
 92
        0
 66
   257
 43
1.0
 76
     1
 77
     6
 78
     2
 67
     7
 79
     3
170
     0
171
     0
290
     0
174
     0
 93
        1
 44
0.0
173
     0
291
     0
 45
0.0
1001
ACAD
1000
AcDbSavedByObjectVersion
1070
     0
  0
VISUALSTYLE
  5
30
102
{ACAD_REACTORS
330
2A
102
}
330
2A
100
AcDbVisualStyle
  2
3dWireframe
 70
     5
 71
     0
 72
     2
 73
     0
 90
        0
 40
-0.6
 41
-30.0
 62
     5
 63
     7
421
 16777215
 74
     1
 91
        4
 64
     7
 65
   257
 75
     1
175
     1
 42
1.0
 92
        0
 66
   257
 43
1.0
 76
     1
 77
     6
 78
     2
 67
     7
 79
     5
170
     0
171
     0
290
     0
174
     0
 93
        1
 44
0.0
173
     0
291
     0
 45
0.0
1001
ACAD
1000
AcDbSavedByObjectVersion
1070
     0
  0
VISUALSTYLE
  5
32
102
{ACAD_REACTORS
330
2A
102
}
330
2A
100
AcDbVisualStyle
  2
Basic
 70
     7
 71
     1
 72
     0
 73
     1
 90
        0
 40
-0.6
 41
-30.0
 62
     5
 63
     7
421
 16777215
 74
     0
 91
        4
 64
     7
 65
   257
 75
     1
175
     1
 42
1.0
 92
        8
 66
     7
 43
1.0
 76
     1
 77
     6
 78
     2
 67
     7
 79
     5
170
     0
171
     0
290
     0
174
     0
 93
        1
 44
0.0
173
     0
291
     1
 45
0.0
1001
ACAD
1000
AcDbSavedByObjectVersion
1070
     0
  0
VISUALSTYLE
  5
36
102
{ACAD_REACTORS
330
2A
102
}
330
2A
100
AcDbVisualStyle
  2
Brighten
 70
    12
 71
     2
 72
     2
 73
     0
 90
        0
 40
-0.6
 41
-30.0
 62
     5
 63
     7
421
 16777215
 74
     1
 91
        4
 64
     7
 65
   257
 75
     1
175
     1
 42
1.0
 92
        8
 66
     7
 43
1.0
 76
     1
 77
     6
 78
     2
 67
     7
 79
     5
170
     0
171
     0
290
     0
174
     0
 93
        1
 44
50.0
173
     0
291
     1
 45
0.0
1001
ACAD
1000
AcDbSavedByObjectVersion
1070
     0
  0
VISUALSTYLE
  5
3A
102
{ACAD_REACTORS
330
2A
102
}
330
2A
100
AcDbVisualStyle
  2
ColorChange
 70
    16
 71
     2
 72
     2
 73
     3
 90
        0
 40
-0.6
 41
-30.0
 62
     5
 63
     8
421
  8421504
 74
     1
 91
        4
 64
     7
 65
   257
 75
     1
175
     1
 42
1.0
 92
        8
 66
     8
424
  8421504
 43
1.0
 76
     1
 77
     6
 78
     2
 67
     7
 79
     5
170
     0
171
     0
290
     0
174
     0
 93
        1
 44
0.0
173
     0
291
     1
 45
0.0
1001
ACAD
1000
AcDbSavedByObjectVersion
1070
     0
  0
VISUALSTYLE
  5
34
102
{ACAD_REACTORS
330
2A
102
}
330
2A
100
AcDbVisualStyle
  2
Conceptual
 70
     9
 71
     3
 72
     2
 73
     0
 90
        0
 40
-0.6
 41
-30.0
 62
     5
 63
     7
421
 16777215
 74
     2
 91
        2
 64
     7
 65
   257
 75
     1
175
     1
 42
40.0
 92
        8
 66
     7
 43
1.0
 76
     1
 77
     6
 78
     2
 67
     7
 79
     3
170
     0
171
     0
290
     0
174
     0
 93
        1
 44
0.0
173
     0
291
     0
 45
0.0
1001
ACAD
1000
AcDbSavedByObjectVersion
1070
     0
  0
VISUALSTYLE
  5
35
102
{ACAD_REACTORS
330
2A
102
}
330
2A
100
AcDbVisualStyle
  2
Dim
 70
    11
 71
     2
 72
     2
 73
     0
 90
        0
 40
-0.6
 41
-30.0
 62
     5
 63
     7
421
 16777215
 74
     1
 91
        4
 64
     7
 65
   257
 75
     1
175
     1
 42
1.0
 92
        8
 66
     7
 43
1.0
 76
     1
 77
     6
 78
     2
 67
     7
 79
     5
170
     0
171
     0
290
     0
174
     0
 93
        1
 44
-50.0
173
     0
291
     1
 45
0.0
1001
ACAD
1000
AcDbSavedByObjectVersion
1070
     0
  0
VISUALSTYLE
  5
39
102
{ACAD_REACTORS
330
2A
102
}
330
2A
100
AcDbVisualStyle
  2
Facepattern
 70
    15
 71
     2
 72
     2
 73
     0
 90
        0
 40
-0.6
 41
-30.0
 62
     5
 63
     7
421
 16777215
 74
     1
 91
        4
 64
     7
 65
   257
 75
     1
175
     1
 42
1.0
 92
        8
 66
     7
 43
1.0
 76
     1
 77
     6
 78
     2
 67
     7
 79
     5
170
     0
171
     0
290
     0
174
     0
 93
        1
 44
0.0
173
     0
291
     1
 45
0.0
1001
ACAD
1000
AcDbSavedByObjectVersion
1070
     0
  0
VISUALSTYLE
  5
2B
102
{ACAD_REACTORS
330
2A
102
}
330
2A
100
AcDbVisualStyle
  2
Flat
 70
     0
 71
     2
 72
     1
 73
     1
 90
        2
 40
-0.6
 41
30.0
 62
     5
 63
     7
421
 16777215
 74
     0
 91
        4
 64
     7
 65
   257
 75
     1
175
     1
 42
1.0
 92
        8
 66
     7
 43
1.0
 76
     1
 77
     6
 78
     2
 67
     7
 79
     5
170
     0
171
     0
290
     0
174
     0
 93
       13
 44
0.0
173
     0
291
     1
 45
0.0
1001
ACAD
1000
AcDbSavedByObjectVersion
1070
     0
  0
VISUALSTYLE
  5
2C
102
{ACAD_REACTORS
330
2A
102
}
330
2A
100
AcDbVisualStyle
  2
FlatWithEdges
 70
     1
 71
     2
 72
     1
 73
     1
 90
        2
 40
-0.6
 41
30.0
 62
     5
 63
     7
421
 16777215
 74
     1
 91
        4
 64
     7
 65
   257
 75
     1
175
     1
 42
1.0
 92
        0
 66
   257
 43
1.0
 76
     1
 77
     6
 78
     2
 67
     7
 79
     5
170
     0
171
     0
290
     0
174
     0
 93
       13
 44
0.0
173
     0
291
     1
 45
0.0
1001
ACAD
1000
AcDbSavedByObjectVersion
1070
     0
  0
VISUALSTYLE
  5
2D
102
{ACAD_REACTORS
330
2A
102
}
330
2A
100
AcDbVisualStyle
  2
Gouraud
 70
     2
 71
     2
 72
     2
 73
     1
 90
        2
 40
-0.6
 41
30.0
 62
     5
 63
     7
421
 16777215
 74
     0
 91
        4
 64
     7
 65
   257
 75
     1
175
     1
 42
1.0
 92
        0
 66
     7
 43
1.0
 76
     1
 77
     6
 78
     2
 67
     7
 79
     5
170
     0
171
     0
290
     0
174
     0
 93
       13
 44
0.0
173
     0
291
     1
 45
0.0
1001
ACAD
1000
AcDbSavedByObjectVersion
1070
     0
  0
VISUALSTYLE
  5
2E
102
{ACAD_REACTORS
330
2A
102
}
330
2A
100
AcDbVisualStyle
  2
GouraudWithEdges
 70
     3
 71
     2
 72
     2
 73
     1
 90
        2
 40
-0.6
 41
30.0
 62
     5
 63
     7
421
 16777215
 74
     1
 91
        4
 64
     7
 65
   257
 75
     1
175
     1
 42
1.0
 92
        0
 66
   257
 43
1.0
 76
     1
 77
     6
 78
     2
 67
     7
 79
     5
170
     0
171
     0
290
     0
174
     0
 93
       13
 44
0.0
173
     0
291
     1
 45
0.0
1001
ACAD
1000
AcDbSavedByObjectVersion
1070
     0
  0
VISUALSTYLE
  5
38
102
{ACAD_REACTORS
330
2A
102
}
330
2A
100
AcDbVisualStyle
  2
Linepattern
 70
    14
 71
     2
 72
     2
 73
     0
 90
        0
 40
-0.6
 41
-30.0
 62
     5
 63
     7
421
 16777215
 74
     1
 91
        4
 64
     7
 65
   257
 75
     7
175
     7
 42
1.0
 92
        8
 66
     7
 43
1.0
 76
     1
 77
     6
 78
     2
 67
     7
 79
     5
170
     0
171
     0
290
     0
174
     0
 93
        1
 44
0.0
173
     0
291
     1
 45
0.0
1001
ACAD
1000
AcDbSavedByObjectVersion
1070
     0
  0
VISUALSTYLE
  5
33
102
{ACAD_REACTORS
330
2A
102
}
330
2A
100
AcDbVisualStyle
  2
Realistic
 70
     8
 71
     2
 72
     2
 73
     0
 90
        0
 40
-0.6
 41
-30.0
 62
     5
 63
     7
421
 16777215
 74
     1
 91
        0
 64
     7
 65
   257
 75
     1
175
     1
 42
1.0
 92
        8
 66
     8
424
  7895160
 43
1.0
 76
     1
 77
     6
 78
     2
 67
     7
 79
     5
170
     0
171
     0
290
     0
174
     0
 93
       13
 44
0.0
173
     0
291
     0
 45
0.0
1001
ACAD
1000
AcDbSavedByObjectVersion
1070
     0
  0
VISUALSTYLE
  5
37
102
{ACAD_REACTORS
330
2A
102
}
330
2A
100
AcDbVisualStyle
  2
Thicken
 70
    13
 71
     2
 72
     2
 73
     0
 90
        0
 40
-0.6
 41
-30.0
 62
     5
 63
     7
421
 16777215
 74
     1
 91
        4
 64
     7
 65
   257
 75
     1
175
     1
 42
1.0
 92
       12
 66
     7
 43
1.0
 76
     1
 77
     6
 78
     2
 67
     7
 79
     5
170
     0
171
     0
290
     0
174
     0
 93
        1
 44
0.0
173
     0
291
     1
 45
0.0
1001
ACAD
1000
AcDbSavedByObjectVersion
1070
     0
  0
ENDSEC
  0
EOF
