  0
SECTION
  2
HEADER
  9
$ACADVER
  1
AC1018
  9
$ACADMAINTVER
 70
     0
  9
$DWGCODEPAGE
  3
MAC-ROMAN
  9
$INSBASE
 10
0.0
 20
0.0
 30
0.0
  9
$EXTMIN
 10
-406.2226832842621
 20
-97.4912798427072
 30
-3968.661304842448
  9
$EXTMAX
 10
77.38942613133497
 20
97.49123509521233
 30
31.33869515759359
  9
$LIMMIN
 10
0.0
 20
0.0
  9
$LIMMAX
 10
12.0
 20
9.0
  9
$ORTHOMODE
 70
     0
  9
$REGENMODE
 70
     1
  9
$FILLMODE
 70
     1
  9
$QTEXTMODE
 70
     0
  9
$MIRRTEXT
 70
     1
  9
$LTSCALE
 40
1.0
  9
$ATTMODE
 70
     1
  9
$TEXTSIZE
 40
0.2
  9
$TRACEWID
 40
0.05
  9
$TEXTSTYLE
  7
Standard
  9
$CLAYER
  8
Predefinito
  9
$CELTYPE
  6
ByLayer
  9
$CECOLOR
 62
   256
  9
$CELTSCALE
 40
1.0
  9
$DISPSILH
 70
     0
  9
$DIMSCALE
 40
1.0
  9
$DIMASZ
 40
0.18
  9
$DIMEXO
 40
0.0625
  9
$DIMDLI
 40
0.38
  9
$DIMRND
 40
0.0
  9
$DIMDLE
 40
0.0
  9
$DIMEXE
 40
0.18
  9
$DIMTP
 40
0.0
  9
$DIMTM
 40
0.0
  9
$DIMTXT
 40
0.18
  9
$DIMCEN
 40
0.09
  9
$DIMTSZ
 40
0.0
  9
$DIMTOL
 70
     0
  9
$DIMLIM
 70
     0
  9
$DIMTIH
 70
     1
  9
$DIMTOH
 70
     1
  9
$DIMSE1
 70
     0
  9
$DIMSE2
 70
     0
  9
$DIMTAD
 70
     0
  9
$DIMZIN
 70
     0
  9
$DIMBLK
  1

  9
$DIMASO
 70
     1
  9
$DIMSHO
 70
     1
  9
$DIMPOST
  1

  9
$DIMAPOST
  1

  9
$DIMALT
 70
     0
  9
$DIMALTD
 70
     2
  9
$DIMALTF
 40
25.4
  9
$DIMLFAC
 40
1.0
  9
$DIMTOFL
 70
     0
  9
$DIMTVP
 40
0.0
  9
$DIMTIX
 70
     0
  9
$DIMSOXD
 70
     0
  9
$DIMSAH
 70
     0
  9
$DIMBLK1
  1

  9
$DIMBLK2
  1

  9
$DIMSTYLE
  2
Standard
  9
$DIMCLRD
 70
     0
  9
$DIMCLRE
 70
     0
  9
$DIMCLRT
 70
     0
  9
$DIMTFAC
 40
1.0
  9
$DIMGAP
 40
0.09
  9
$DIMJUST
 70
     0
  9
$DIMSD1
 70
     0
  9
$DIMSD2
 70
     0
  9
$DIMTOLJ
 70
     1
  9
$DIMTZIN
 70
     0
  9
$DIMALTZ
 70
     0
  9
$DIMALTTZ
 70
     0
  9
$DIMUPT
 70
     0
  9
$DIMDEC
 70
     4
  9
$DIMTDEC
 70
     4
  9
$DIMALTU
 70
     2
  9
$DIMALTTD
 70
     2
  9
$DIMTXSTY
  7
Standard
  9
$DIMAUNIT
 70
     0
  9
$DIMADEC
 70
     0
  9
$DIMALTRND
 40
0.0
  9
$DIMAZIN
 70
     0
  9
$DIMDSEP
 70
    46
  9
$DIMATFIT
 70
     3
  9
$DIMFRAC
 70
     0
  9
$DIMLDRBLK
  1

  9
$DIMLUNIT
 70
     2
  9
$DIMLWD
 70
    -2
  9
$DIMLWE
 70
    -2
  9
$DIMTMOVE
 70
     2
  9
$LUNITS
 70
     2
  9
$LUPREC
 70
     3
  9
$SKETCHINC
 40
0.1
  9
$FILLETRAD
 40
0.5
  9
$AUNITS
 70
     0
  9
$AUPREC
 70
     0
  9
$MENU
  1
.
  9
$ELEVATION
 40
0.0
  9
$PELEVATION
 40
0.0
  9
$THICKNESS
 40
0.0
  9
$LIMCHECK
 70
     0
  9
$CHAMFERA
 40
0.0
  9
$CHAMFERB
 40
0.0
  9
$CHAMFERC
 40
0.0
  9
$CHAMFERD
 40
0.0
  9
$SKPOLY
 70
     0
  9
$TDCREATE
 40
2459550.727615729
  9
$TDUCREATE
 40
2459550.685949074
  9
$TDUPDATE
 40
2459550.727627303
  9
$TDUUPDATE
 40
2459550.685960648
  9
$TDINDWG
 40
0.0000000116
  9
$TDUSRTIMER
 40
0.0000000116
  9
$USRTIMER
 70
     1
  9
$ANGBASE
 50
0.0
  9
$ANGDIR
 70
     0
  9
$PDMODE
 70
     0
  9
$PDSIZE
 40
0.0
  9
$PLINEWID
 40
0.0
  9
$SPLFRAME
 70
     0
  9
$SPLINETYPE
 70
     6
  9
$SPLINESEGS
 70
     8
  9
$HANDSEED
  5
1F4
  9
$SURFTAB1
 70
     6
  9
$SURFTAB2
 70
     6
  9
$SURFTYPE
 70
     6
  9
$SURFU
 70
     6
  9
$SURFV
 70
     6
  9
$UCSBASE
  2

  9
$UCSNAME
  2

  9
$UCSORG
 10
0.0
 20
0.0
 30
0.0
  9
$UCSXDIR
 10
1.0
 20
0.0
 30
0.0
  9
$UCSYDIR
 10
0.0
 20
1.0
 30
0.0
  9
$UCSORTHOREF
  2

  9
$UCSORTHOVIEW
 70
     0
  9
$UCSORGTOP
 10
0.0
 20
0.0
 30
0.0
  9
$UCSORGBOTTOM
 10
0.0
 20
0.0
 30
0.0
  9
$UCSORGLEFT
 10
0.0
 20
0.0
 30
0.0
  9
$UCSORGRIGHT
 10
0.0
 20
0.0
 30
0.0
  9
$UCSORGFRONT
 10
0.0
 20
0.0
 30
0.0
  9
$UCSORGBACK
 10
0.0
 20
0.0
 30
0.0
  9
$PUCSBASE
  2

  9
$PUCSNAME
  2

  9
$PUCSORG
 10
0.0
 20
0.0
 30
0.0
  9
$PUCSXDIR
 10
1.0
 20
0.0
 30
0.0
  9
$PUCSYDIR
 10
0.0
 20
1.0
 30
0.0
  9
$PUCSORTHOREF
  2

  9
$PUCSORTHOVIEW
 70
     0
  9
$PUCSORGTOP
 10
0.0
 20
0.0
 30
0.0
  9
$PUCSORGBOTTOM
 10
0.0
 20
0.0
 30
0.0
  9
$PUCSORGLEFT
 10
0.0
 20
0.0
 30
0.0
  9
$PUCSORGRIGHT
 10
0.0
 20
0.0
 30
0.0
  9
$PUCSORGFRONT
 10
0.0
 20
0.0
 30
0.0
  9
$PUCSORGBACK
 10
0.0
 20
0.0
 30
0.0
  9
$USERI1
 70
     0
  9
$USERI2
 70
     0
  9
$USERI3
 70
     0
  9
$USERI4
 70
     0
  9
$USERI5
 70
     0
  9
$USERR1
 40
0.0
  9
$USERR2
 40
0.0
  9
$USERR3
 40
0.0
  9
$USERR4
 40
0.0
  9
$USERR5
 40
0.0
  9
$WORLDVIEW
 70
     1
  9
$SHADEDGE
 70
     3
  9
$SHADEDIF
 70
    70
  9
$TILEMODE
 70
     1
  9
$MAXACTVP
 70
    64
  9
$PINSBASE
 10
0.0
 20
0.0
 30
0.0
  9
$PLIMCHECK
 70
     0
  9
$PEXTMIN
 10
1.000000000000000E+20
 20
1.000000000000000E+20
 30
1.000000000000000E+20
  9
$PEXTMAX
 10
-1.000000000000000E+20
 20
-1.000000000000000E+20
 30
-1.000000000000000E+20
  9
$PLIMMIN
 10
0.0
 20
0.0
  9
$PLIMMAX
 10
12.0
 20
9.0
  9
$UNITMODE
 70
     0
  9
$VISRETAIN
 70
     1
  9
$PLINEGEN
 70
     0
  9
$PSLTSCALE
 70
     1
  9
$TREEDEPTH
 70
  3020
  9
$CMLSTYLE
  2
Standard
  9
$CMLJUST
 70
     0
  9
$CMLSCALE
 40
1.0
  9
$PROXYGRAPHICS
 70
     1
  9
$MEASUREMENT
 70
     0
  9
$CELWEIGHT
370
    -1
  9
$ENDCAPS
280
     0
  9
$JOINSTYLE
280
     0
  9
$LWDISPLAY
290
     0
  9
$INSUNITS
 70
     4
  9
$HYPERLINKBASE
  1

  9
$STYLESHEET
  1

  9
$XEDIT
290
     1
  9
$CEPSNTYPE
380
     0
  9
$PSTYLEMODE
290
     1
  9
$FINGERPRINTGUID
  2
{871E1387-3ED2-967C-F354-6633ECEFA640}
  9
$VERSIONGUID
  2
{FAEB1C32-E019-11D5-929B-00C0DF256EC4}
  9
$EXTNAMES
290
     1
  9
$PSVPSCALE
 40
0.0
  9
$OLESTARTUP
290
     0
  9
$SORTENTS
280
   127
  9
$INDEXCTL
280
     0
  9
$HIDETEXT
280
     1
  9
$XCLIPFRAME
290
     0
  9
$HALOGAP
280
     0
  9
$OBSCOLOR
 70
   257
  9
$OBSLTYPE
280
     0
  9
$INTERSECTIONDISPLAY
280
     0
  9
$INTERSECTIONCOLOR
 70
   257
  9
$DIMASSOC
280
     2
  9
$PROJECTNAME
  1

  0
ENDSEC
  0
SECTION
  2
CLASSES
  0
CLASS
  1
ACDBDICTIONARYWDFLT
  2
AcDbDictionaryWithDefault
  3
ObjectDBX Classes
 90
        0
 91
        4
280
     0
281
     0
  0
CLASS
  1
VISUALSTYLE
  2
AcDbVisualStyle
  3
ObjectDBX Classes
 90
     4095
 91
        4
280
     0
281
     0
  0
CLASS
  1
MATERIAL
  2
AcDbMaterial
  3
ObjectDBX Classes
 90
     1153
 91
        4
280
     0
281
     0
  0
CLASS
  1
SCALE
  2
AcDbScale
  3
ObjectDBX Classes
 90
     1153
 91
        4
280
     0
281
     0
  0
CLASS
  1
SUN
  2
AcDbSun
  3
SCENEOE
 90
     1153
 91
        4
280
     0
281
     0
  0
CLASS
  1
DICTIONARYVAR
  2
AcDbDictionaryVar
  3
ObjectDBX Classes
 90
        0
 91
        4
280
     0
281
     0
  0
ENDSEC
  0
SECTION
  2
TABLES
  0
TABLE
  2
VPORT
  5
8
102
{ACAD_XDICTIONARY
360
1B5
102
}
330
0
100
AcDbSymbolTable
 70
     1
  0
VPORT
  5
29
330
8
100
AcDbSymbolTableRecord
100
AcDbViewportTableRecord
  2
*Active
 70
     0
 10
0.0
 20
0.0
 11
1.0
 21
1.0
 12
-164.4166285764636
 22
-0.0000223737474414
 13
0.0
 23
0.0
 14
0.5
 24
0.5
 15
0.5
 25
0.5
 16
0.0
 26
0.0
 36
1.0
 17
0.0
 27
0.0
 37
0.0
 40
198.8821652366779
 41
2.48028449920022
 42
50.0
 43
0.0
 44
0.0
 50
0.0
 51
0.0
 71
     0
 72
   100
 73
     1
 74
     3
 75
     0
 76
     0
 77
     0
 78
     0
281
     0
 65
     1
110
0.0
120
0.0
130
0.0
111
1.0
121
0.0
131
0.0
112
0.0
122
1.0
132
0.0
 79
     0
146
0.0
  0
ENDTAB
  0
TABLE
  2
LTYPE
  5
5
330
0
100
AcDbSymbolTable
 70
     1
  0
LTYPE
  5
14
330
5
100
AcDbSymbolTableRecord
100
AcDbLinetypeTableRecord
  2
ByBlock
 70
     0
  3

 72
    65
 73
     0
 40
0.0
  0
LTYPE
  5
15
330
5
100
AcDbSymbolTableRecord
100
AcDbLinetypeTableRecord
  2
ByLayer
 70
     0
  3

 72
    65
 73
     0
 40
0.0
  0
LTYPE
  5
16
330
5
100
AcDbSymbolTableRecord
100
AcDbLinetypeTableRecord
  2
Continuous
 70
     0
  3
Solid line
 72
    65
 73
     0
 40
0.0
  0
ENDTAB
  0
TABLE
  2
LAYER
  5
2
330
0
100
AcDbSymbolTable
 70
     2
  0
LAYER
  5
10
330
2
100
AcDbSymbolTableRecord
100
AcDbLayerTableRecord
  2
0
 70
     0
 62
     7
  6
Continuous
370
    -3
390
F
  0
LAYER
  5
6A
330
2
100
AcDbSymbolTableRecord
100
AcDbLayerTableRecord
  2
Predefinito
 70
     0
 62
   178
420
        0
  6
Continuous
370
    -3
390
F
  0
ENDTAB
  0
TABLE
  2
STYLE
  5
3
330
0
100
AcDbSymbolTable
 70
     1
  0
STYLE
  5
11
330
3
100
AcDbSymbolTableRecord
100
AcDbTextStyleTableRecord
  2
Standard
 70
     0
 40
0.0
 41
1.0
 50
0.0
 71
     0
 42
0.2
  3
txt
  4

  0
ENDTAB
  0
TABLE
  2
VIEW
  5
6
330
0
100
AcDbSymbolTable
 70
     0
  0
ENDTAB
  0
TABLE
  2
UCS
  5
7
330
0
100
AcDbSymbolTable
 70
     0
  0
ENDTAB
  0
TABLE
  2
APPID
  5
9
330
0
100
AcDbSymbolTable
 70
     1
  0
APPID
  5
12
330
9
100
AcDbSymbolTableRecord
100
AcDbRegAppTableRecord
  2
ACAD
 70
     0
  0
ENDTAB
  0
TABLE
  2
DIMSTYLE
  5
A
330
0
100
AcDbSymbolTable
 70
     1
100
AcDbDimStyleTable
  0
DIMSTYLE
105
27
330
A
100
AcDbSymbolTableRecord
100
AcDbDimStyleTableRecord
  2
Standard
 70
     0
178
     0
340
11
  0
ENDTAB
  0
TABLE
  2
BLOCK_RECORD
  5
1
330
0
100
AcDbSymbolTable
 70
     1
  0
BLOCK_RECORD
  5
1F
330
1
100
AcDbSymbolTableRecord
100
AcDbBlockTableRecord
  2
*Model_Space
340
22
  0
BLOCK_RECORD
  5
1B
330
1
100
AcDbSymbolTableRecord
100
AcDbBlockTableRecord
  2
*Paper_Space
340
1E
  0
BLOCK_RECORD
  5
23
330
1
100
AcDbSymbolTableRecord
100
AcDbBlockTableRecord
  2
*Paper_Space0
340
26
  0
ENDTAB
  0
ENDSEC
  0
SECTION
  2
BLOCKS
  0
BLOCK
  5
20
330
1F
100
AcDbEntity
  8
0
100
AcDbBlockBegin
  2
*Model_Space
 70
     0
 10
0.0
 20
0.0
 30
0.0
  3
*Model_Space
  1
*Model_Space
  0
ENDBLK
  5
21
330
1F
100
AcDbEntity
  8
0
100
AcDbBlockEnd
  0
BLOCK
  5
1C
330
1B
100
AcDbEntity
 67
     1
  8
0
100
AcDbBlockBegin
  2
*Paper_Space
 70
     0
 10
0.0
 20
0.0
 30
0.0
  3
*Paper_Space
  1
*Paper_Space
  0
ENDBLK
  5
1D
330
1B
100
AcDbEntity
 67
     1
  8
0
100
AcDbBlockEnd
  0
BLOCK
  5
24
330
23
100
AcDbEntity
  8
0
100
AcDbBlockBegin
  2
*Paper_Space0
 70
     0
 10
0.0
 20
0.0
 30
0.0
  3
*Paper_Space0
  1
*Paper_Space0
  0
ENDBLK
  5
25
330
23
100
AcDbEntity
  8
0
100
AcDbBlockEnd
  0
ENDSEC
  0
SECTION
  2
ENTITIES
  0
SPLINE
  5
6B
330
1F
100
AcDbEntity
  8
Predefinito
100
AcDbSpline
210
7.107099120374464E-16
220
-1.0
230
-1.368580744989649E-16
 70
    12
 71
     2
 72
    12
 73
     9
 74
     0
 42
0.000000001
 43
0.0000000001
 40
48.6494703125227
 40
48.6494703125227
 40
48.6494703125227
 40
74.9542918181587
 40
74.9542918181587
 40
101.259113323795
 40
101.259113323795
 40
127.563934829431
 40
127.563934829431
 40
153.868756335067
 40
153.868756335067
 40
153.868756335067
 10
-32.64678280096344
 20
-29.789929047981
 30
-14.9999999993378
 41
1.0
 10
-42.86127132977785
 20
-29.789929047981
 30
-25.95910903844181
 41
0.826555088010303
 10
-56.80076553508615
 20
-29.78992904798102
 30
-20.47017944002051
 41
1.0
 10
-70.74025974039454
 20
-29.78992904798103
 30
-14.98124984159921
 41
0.826555088010303
 10
-70.74025974039449
 20
-29.78992904798103
 30
0.0000000006619505
 41
1.0
 10
-70.74025974039456
 20
-29.78992904798103
 30
14.9812498429232
 41
0.826555088010303
 10
-56.80076553508625
 20
-29.78992904798102
 30
20.4701794413446
 41
1.0
 10
-42.86127132977803
 20
-29.78992904798101
 30
25.959109039766
 41
0.826555088010303
 10
-32.63725960331935
 20
-29.789929047981
 30
15.00000000066218
 41
1.0
  0
SPLINE
  5
6C
330
1F
100
AcDbEntity
  8
Predefinito
100
AcDbSpline
210
0.0
220
0.0
230
1.0
 70
    28
 71
     2
 72
     6
 73
     3
 74
     0
 42
0.000000001
 43
0.0000000001
 40
0.0
 40
0.0
 40
0.0
 40
8.501534336620729
 40
8.501534336620729
 40
8.501534336620729
 10
-32.63725960331935
 20
-29.789929047981
 30
15.00000000066218
 41
1.0
 10
-32.63725960331935
 20
-25.53916187967064
 30
15.00000000066218
 41
1.0
 10
-32.63725960331936
 20
-21.28839471136027
 30
15.00000000066218
 41
1.0
  0
SPLINE
  5
6D
330
1F
100
AcDbEntity
  8
Predefinito
100
AcDbSpline
210
7.376550911392201E-16
220
-1.0
230
-6.842903724948121E-17
 70
    12
 71
     2
 72
    12
 73
     9
 74
     0
 42
0.000000001
 43
0.0000000001
 40
48.6494703125227
 40
48.6494703125227
 40
48.6494703125227
 40
74.9542918181587
 40
74.9542918181587
 40
101.259113323795
 40
101.259113323795
 40
127.563934829431
 40
127.563934829431
 40
153.868756335067
 40
153.868756335067
 40
153.868756335067
 10
-32.64678280096344
 20
-21.28839471136027
 30
-14.9999999993378
 41
1.0
 10
-42.86127132977786
 20
-21.28839471136028
 30
-25.9591090384418
 41
0.826555088010303
 10
-56.80076553508616
 20
-21.28839471136029
 30
-20.4701794400205
 41
1.0
 10
-70.74025974039454
 20
-21.2883947113603
 30
-14.9812498415992
 41
0.826555088010303
 10
-70.74025974039449
 20
-21.2883947113603
 30
0.000000000661954
 41
1.0
 10
-70.74025974039456
 20
-21.2883947113603
 30
14.9812498429232
 41
0.826555088010303
 10
-56.80076553508626
 20
-21.28839471136029
 30
20.4701794413446
 41
1.0
 10
-42.86127132977804
 20
-21.28839471136028
 30
25.959109039766
 41
0.826555088010303
 10
-32.63725960331936
 20
-21.28839471136027
 30
15.00000000066218
 41
1.0
  0
SPLINE
  5
6E
330
1F
100
AcDbEntity
  8
Predefinito
100
AcDbSpline
210
0.0
220
0.0
230
1.0
 70
    28
 71
     2
 72
     6
 73
     3
 74
     0
 42
0.000000001
 43
0.0000000001
 40
0.0
 40
0.0
 40
0.0
 40
8.501534336620729
 40
8.501534336620729
 40
8.501534336620729
 10
-32.64678280096344
 20
-29.789929047981
 30
-14.9999999993378
 41
1.0
 10
-32.64678280096344
 20
-25.53916187967063
 30
-14.9999999993378
 41
1.0
 10
-32.64678280096344
 20
-21.28839471136027
 30
-14.9999999993378
 41
1.0
  0
SPLINE
  5
6F
330
1F
100
AcDbEntity
  8
Predefinito
100
AcDbSpline
210
0.0
220
0.0
230
1.0
 70
    28
 71
     2
 72
     8
 73
     5
 74
     0
 42
0.000000001
 43
0.0000000001
 40
153.868756335067
 40
153.868756335067
 40
153.868756335067
 40
163.1434914913283
 40
163.1434914913283
 40
203.4410223581744
 40
203.4410223581744
 40
203.4410223581744
 10
-32.63725960331935
 20
-29.789929047981
 30
15.00000000066218
 41
1.0
 10
-27.99513042636659
 20
-29.789929047981
 30
15.00000000066217
 41
1.0
 10
-23.35300124941382
 20
-29.78992904798099
 30
15.00000000066216
 41
1.0
 10
-3.204235815990785
 20
-29.78992904798098
 30
15.00000000066216
 41
1.0
 10
16.94452961743225
 20
-29.78992904798096
 30
15.00000000066216
 41
1.0
  0
SPLINE
  5
70
330
1F
100
AcDbEntity
  8
Predefinito
100
AcDbSpline
210
0.0
220
0.0
230
1.0
 70
    28
 71
     2
 72
     8
 73
     5
 74
     0
 42
0.000000001
 43
0.0000000001
 40
153.868756335067
 40
153.868756335067
 40
153.868756335067
 40
163.1434914913283
 40
163.1434914913283
 40
195.3740751308982
 40
195.3740751308982
 40
195.3740751308982
 10
-32.63725960331936
 20
-21.28839471136027
 30
15.00000000066218
 41
1.0
 10
-27.99513042636659
 20
-21.28839471136027
 30
15.00000000066218
 41
1.0
 10
-23.35300124941383
 20
-21.28839471136027
 30
15.00000000066217
 41
1.0
 10
-7.23770942962891
 20
-21.28839471136025
 30
15.00000000066216
 41
1.0
 10
8.877582390156007
 20
-21.28839471136024
 30
15.00000000066216
 41
1.0
  0
SPLINE
  5
71
330
1F
100
AcDbEntity
  8
Predefinito
100
AcDbSpline
210
7.376550911392198E-16
220
-1.0
230
-6.842903724948108E-17
 70
    12
 71
     2
 72
    12
 73
     9
 74
     0
 42
0.000000001
 43
0.0000000001
 40
48.6494703125227
 40
48.6494703125227
 40
48.6494703125227
 40
74.9542918181587
 40
74.9542918181587
 40
101.259113323795
 40
101.259113323795
 40
127.563934829431
 40
127.563934829431
 40
153.868756335067
 40
153.868756335067
 40
153.868756335067
 10
-32.64678280096344
 20
20.94441810564515
 30
-14.9999999993378
 41
1.0
 10
-42.86127132977785
 20
20.94441810564514
 30
-25.95910903844181
 41
0.826555088010303
 10
-56.80076553508615
 20
20.94441810564513
 30
-20.47017944002051
 41
1.0
 10
-70.74025974039454
 20
20.94441810564512
 30
-14.98124984159921
 41
0.826555088010303
 10
-70.74025974039449
 20
20.94441810564511
 30
0.0000000006619505
 41
1.0
 10
-70.74025974039456
 20
20.94441810564512
 30
14.9812498429232
 41
0.826555088010303
 10
-56.80076553508625
 20
20.94441810564512
 30
20.4701794413446
 41
1.0
 10
-42.86127132977803
 20
20.94441810564514
 30
25.959109039766
 41
0.826555088010303
 10
-32.63725960331935
 20
20.94441810564514
 30
15.00000000066218
 41
1.0
  0
SPLINE
  5
72
330
1F
100
AcDbEntity
  8
Predefinito
100
AcDbSpline
210
0.0
220
0.0
230
1.0
 70
    28
 71
     2
 72
     6
 73
     3
 74
     0
 42
0.000000001
 43
0.0000000001
 40
0.0
 40
0.0
 40
0.0
 40
8.501534336620729
 40
8.501534336620729
 40
8.501534336620729
 10
-32.63725960331935
 20
20.94441810564514
 30
15.00000000066218
 41
1.0
 10
-32.63725960331935
 20
25.19518527395551
 30
15.00000000066218
 41
1.0
 10
-32.63725960331936
 20
29.44595244226587
 30
15.00000000066218
 41
1.0
  0
SPLINE
  5
73
330
1F
100
AcDbEntity
  8
Predefinito
100
AcDbSpline
210
7.376550911392201E-16
220
-1.0
230
-6.842903724948121E-17
 70
    12
 71
     2
 72
    12
 73
     9
 74
     0
 42
0.000000001
 43
0.0000000001
 40
48.6494703125227
 40
48.6494703125227
 40
48.6494703125227
 40
74.9542918181587
 40
74.9542918181587
 40
101.259113323795
 40
101.259113323795
 40
127.563934829431
 40
127.563934829431
 40
153.868756335067
 40
153.868756335067
 40
153.868756335067
 10
-32.64678280096344
 20
29.44595244226588
 30
-14.9999999993378
 41
1.0
 10
-42.86127132977786
 20
29.44595244226587
 30
-25.9591090384418
 41
0.826555088010303
 10
-56.80076553508616
 20
29.44595244226586
 30
-20.4701794400205
 41
1.0
 10
-70.74025974039454
 20
29.44595244226585
 30
-14.9812498415992
 41
0.826555088010303
 10
-70.74025974039449
 20
29.44595244226584
 30
0.000000000661954
 41
1.0
 10
-70.74025974039456
 20
29.44595244226585
 30
14.9812498429232
 41
0.826555088010303
 10
-56.80076553508626
 20
29.44595244226585
 30
20.4701794413446
 41
1.0
 10
-42.86127132977804
 20
29.44595244226587
 30
25.959109039766
 41
0.826555088010303
 10
-32.63725960331936
 20
29.44595244226587
 30
15.00000000066218
 41
1.0
  0
SPLINE
  5
74
330
1F
100
AcDbEntity
  8
Predefinito
100
AcDbSpline
210
0.0
220
0.0
230
1.0
 70
    28
 71
     2
 72
     6
 73
     3
 74
     0
 42
0.000000001
 43
0.0000000001
 40
0.0
 40
0.0
 40
0.0
 40
8.501534336620729
 40
8.501534336620729
 40
8.501534336620729
 10
-32.64678280096344
 20
20.94441810564515
 30
-14.9999999993378
 41
1.0
 10
-32.64678280096344
 20
25.19518527395551
 30
-14.9999999993378
 41
1.0
 10
-32.64678280096344
 20
29.44595244226588
 30
-14.9999999993378
 41
1.0
  0
SPLINE
  5
75
330
1F
100
AcDbEntity
  8
Predefinito
100
AcDbSpline
210
0.0
220
0.0
230
1.0
 70
    28
 71
     2
 72
     8
 73
     5
 74
     0
 42
0.000000001
 43
0.0000000001
 40
153.868756335067
 40
153.868756335067
 40
153.868756335067
 40
163.1434914913283
 40
163.1434914913283
 40
195.1402603686862
 40
195.1402603686862
 40
195.1402603686862
 10
-32.63725960331935
 20
20.94441810564514
 30
15.00000000066218
 41
1.0
 10
-27.99513042636659
 20
20.94441810564515
 30
15.00000000066217
 41
1.0
 10
-23.35300124941382
 20
20.94441810564515
 30
15.00000000066216
 41
1.0
 10
-7.354616810734912
 20
20.94441810564516
 30
15.00000000066216
 41
1.0
 10
8.643767627943998
 20
20.94441810564518
 30
15.00000000066216
 41
1.0
  0
SPLINE
  5
76
330
1F
100
AcDbEntity
  8
Predefinito
100
AcDbSpline
210
0.0
220
0.0
230
1.0
 70
    28
 71
     2
 72
     8
 73
     5
 74
     0
 42
0.000000001
 43
0.0000000001
 40
153.868756335067
 40
153.868756335067
 40
153.868756335067
 40
163.1434914913283
 40
163.1434914913283
 40
203.0000277001386
 40
203.0000277001386
 40
203.0000277001386
 10
-32.63725960331936
 20
29.44595244226587
 30
15.00000000066218
 41
1.0
 10
-27.99513042636659
 20
29.44595244226588
 30
15.00000000066218
 41
1.0
 10
-23.35300124941383
 20
29.44595244226588
 30
15.00000000066217
 41
1.0
 10
-3.424733145008721
 20
29.4459524422659
 30
15.00000000066217
 41
1.0
 10
16.50353495939639
 20
29.44595244226591
 30
15.00000000066217
 41
1.0
  0
SPLINE
  5
77
330
1F
100
AcDbEntity
  8
Predefinito
100
AcDbSpline
210
0.0
220
0.0
230
1.0
 70
    15
 71
     2
 72
    12
 73
     9
 74
     0
 42
0.000000001
 43
0.0000000001
 40
-236.0174773911631
 40
-236.0174773911631
 40
-236.0174773911631
 40
-177.0131080433723
 40
-177.0131080433723
 40
-118.0087386955816
 40
-118.0087386955816
 40
-59.00436934779078
 40
-59.00436934779078
 40
0.0
 40
0.0
 40
0.0
 10
77.38942613133497
 20
0.0
 30
31.33869515759358
 41
1.0
 10
77.38942613133494
 20
-37.56334818288326
 30
31.33869515759358
 41
0.7071067811865476
 10
39.8260779484517
 20
-37.56334818288326
 30
31.33869515759358
 41
1.0
 10
2.26272976556844
 20
-37.56334818288325
 30
31.33869515759358
 41
0.7071067811865476
 10
2.262729765568452
 20
0.0000000000000046
 30
31.33869515759358
 41
1.0
 10
2.26272976556845
 20
37.56334818288326
 30
31.33869515759358
 41
0.7071067811865476
 10
39.82607794845171
 20
37.56334818288326
 30
31.33869515759358
 41
1.0
 10
77.38942613133497
 20
37.56334818288325
 30
31.33869515759358
 41
0.7071067811865476
 10
77.38942613133497
 20
0.0
 30
31.33869515759358
 41
1.0
  0
SPLINE
  5
78
330
1F
100
AcDbEntity
  8
Predefinito
100
AcDbSpline
210
0.0
220
0.0
230
1.0
 70
    28
 71
     2
 72
     6
 73
     3
 74
     0
 42
0.000000001
 43
0.0000000001
 40
0.0
 40
0.0
 40
0.0
 40
140.5991157522736
 40
140.5991157522736
 40
140.5991157522736
 10
77.38942613133497
 20
0.0
 30
31.33869515759358
 41
1.0
 10
77.38942613133497
 20
0.0
 30
-38.96086271854321
 41
1.0
 10
77.38942613133497
 20
0.0
 30
-109.26042059468
 41
1.0
  0
SPLINE
  5
79
330
1F
100
AcDbEntity
  8
Predefinito
100
AcDbSpline
210
0.0
220
0.0
230
1.0
 70
    15
 71
     2
 72
    12
 73
     9
 74
     0
 42
0.000000001
 43
0.0000000001
 40
-236.0174773911631
 40
-236.0174773911631
 40
-236.0174773911631
 40
-177.0131080433723
 40
-177.0131080433723
 40
-118.0087386955816
 40
-118.0087386955816
 40
-59.00436934779078
 40
-59.00436934779078
 40
0.0
 40
0.0
 40
0.0
 10
77.38942613133497
 20
0.0
 30
-109.26042059468
 41
1.0
 10
77.38942613133494
 20
-37.56334818288326
 30
-109.26042059468
 41
0.7071067811865476
 10
39.8260779484517
 20
-37.56334818288326
 30
-109.26042059468
 41
1.0
 10
2.26272976556844
 20
-37.56334818288325
 30
-109.26042059468
 41
0.7071067811865476
 10
2.262729765568452
 20
0.0000000000000046
 30
-109.26042059468
 41
1.0
 10
2.26272976556845
 20
37.56334818288326
 30
-109.26042059468
 41
0.7071067811865476
 10
39.82607794845171
 20
37.56334818288326
 30
-109.26042059468
 41
1.0
 10
77.38942613133497
 20
37.56334818288325
 30
-109.26042059468
 41
0.7071067811865476
 10
77.38942613133497
 20
0.0
 30
-109.26042059468
 41
1.0
  0
SPLINE
  5
7A
330
1F
100
AcDbEntity
  8
Predefinito
100
AcDbSpline
210
-0.9641346554355197
220
-2.357346102696185E-17
230
-0.2654135757421457
 70
    15
 71
     2
 72
    12
 73
     9
 74
     0
 42
0.000000001
 43
0.0000000001
 40
0.0
 40
0.0
 40
0.0
 40
7.853981633974483
 40
7.853981633974483
 40
15.70796326794897
 40
15.70796326794897
 40
23.56194490192345
 40
23.56194490192345
 40
31.41592653589793
 40
31.41592653589793
 40
31.41592653589793
 10
-75.43637295866415
 20
-0.000044479824525
 30
-2.827783659728026
 41
1.0
 10
-75.43637295866414
 20
4.999955520175473
 30
-2.827783659728025
 41
0.7071067811865476
 10
-76.76344083737487
 20
4.999955520175476
 30
1.992889617449572
 41
1.0
 10
-78.0905087160856
 20
4.999955520175477
 30
6.813562894627171
 41
0.7071067811865476
 10
-78.0905087160856
 20
-0.0000444798245224
 30
6.813562894627172
 41
1.0
 10
-78.0905087160856
 20
-5.000044479824522
 30
6.813562894627172
 41
0.7071067811865476
 10
-76.76344083737487
 20
-5.000044479824524
 30
1.992889617449576
 41
1.0
 10
-75.43637295866414
 20
-5.000044479824525
 30
-2.827783659728024
 41
0.7071067811865476
 10
-75.43637295866415
 20
-0.000044479824525
 30
-2.827783659728026
 41
1.0
  0
SPLINE
  5
7B
330
1F
100
AcDbEntity
  8
Predefinito
100
AcDbSpline
 70
     7
 71
     3
 72
    29
 73
    25
 74
     0
 42
0.000000001
 43
0.0000000001
 40
0.0
 40
0.0
 40
0.0
 40
0.0
 40
4.064469824247036
 40
4.064469824247036
 40
4.064469824247036
 40
8.287091750565423
 40
8.287091750565423
 40
8.287091750565423
 40
12.6002651143063
 40
12.6002651143063
 40
12.6002651143063
 40
16.72777298611486
 40
16.72777298611486
 40
16.72777298611486
 40
20.85527970720108
 40
20.85527970720108
 40
20.85527970720108
 40
25.16845275469008
 40
25.16845275469008
 40
25.16845275469008
 40
29.39107681080755
 40
29.39107681080755
 40
29.39107681080755
 40
33.45555103435268
 40
33.45555103435268
 40
33.45555103435268
 40
33.45555103435268
 10
2.262729765568658
 20
-0.0000039347465551
 30
-10.1831096009717
 41
0.9999999566112999
 10
2.262729765568452
 20
1.341224987514781
 30
-10.18310900901284
 41
1.0
 10
2.342000305947795
 20
2.610171024702143
 30
-9.633367848347026
 41
1.0
 10
2.429485128880423
 20
3.535529973809921
 30
-8.670832890852626
 41
1.0
 10
2.520718087120286
 20
4.500534320059176
 30
-7.667059794699478
 41
1.0
 10
2.596987631124168
 20
4.999996085277245
 30
-6.317086463391882
 41
1.0
 10
2.596987636032868
 20
4.999996121826555
 30
-4.931281964227346
 41
1.0
 10
2.59698764102389
 20
4.999996158988831
 30
-3.52223616816077
 41
1.0
 10
2.519125171823386
 20
4.483685428847856
 30
-2.126007564479659
 41
1.0
 10
2.429485144213417
 20
3.535530135992579
 30
-1.08157952036737
 41
1.0
 10
2.343656215907552
 20
2.627686231622211
 30
-0.0815559582508052
 41
1.0
 10
2.262729765568451
 20
1.369888643042115
 30
0.5375695767041984
 41
1.0
 10
2.262729765568641
 20
-0.0000037678046351
 30
0.5375716842082134
 41
0.999999958452169
 10
2.262729902975892
 20
-1.369893381807025
 30
0.5375726465561845
 41
0.999999958452169
 10
2.343656628653204
 20
-2.627692550754182
 30
-0.0815509709647453
 41
0.999999958452169
 10
2.42948585704618
 20
-3.535537675876816
 30
-1.081574833756282
 41
0.999999958452169
 10
2.519126126395691
 20
-4.48369348558575
 30
-2.12600235681566
 41
0.999999958452169
 10
2.596988672747699
 20
-5.000003841016495
 30
-3.522231012947471
 41
0.999999958452169
 10
2.596988677738801
 20
-5.000003878179299
 30
-4.931276592365388
 41
0.999999958452169
 10
2.59698868264758
 20
-5.000003914729147
 30
-6.317081748961682
 41
0.999999958452169
 10
2.520719026837262
 20
-4.500542094088736
 30
-7.667055965771728
 41
0.999999958452169
 10
2.429485872379335
 20
-3.535537838060832
 30
-8.670829989834079
 41
0.999999958452169
 10
2.342000810503112
 20
-2.610178438278684
 30
-9.633366395887391
 41
0.999999958452169
 10
2.262729943860959
 20
-1.34123131176812
 30
-10.18310884883826
 41
0.999999958452169
 10
2.262729765568658
 20
-0.0000039347465551
 30
-10.18310960097171
 41
0.999999958452169
  0
SPLINE
  5
7C
330
1F
100
AcDbEntity
  8
Predefinito
100
AcDbSpline
 70
     4
 71
     3
 72
    18
 73
    14
 74
     0
 42
0.000000001
 43
0.0000000001
 40
4.807991234052701
 40
4.807991234052701
 40
4.807991234052701
 40
4.807991234052701
 40
11.80969752917564
 40
19.25079106419033
 40
26.34611977055688
 40
30.84192647832957
 40
35.47018218991206
 40
44.06844146305053
 40
54.09717700875962
 40
60.29551576807749
 40
67.53357662063195
 40
76.27141735470693
 40
87.552797427822
 40
87.552797427822
 40
87.552797427822
 40
87.552797427822
 10
2.262729765568658
 20
-0.0000039347465551
 30
-10.1831096009717
 41
0.9999999999999998
 10
0.1541846566815595
 20
-0.0000072330478772
 30
-9.33267792846353
 41
0.9999999999999998
 10
-4.13507560738462
 20
-0.0000177885791133
 30
-7.719073337429754
 41
1.0
 10
-9.771668247550629
 20
-0.0000394488347077
 30
-6.656991495101984
 41
0.9999999999999996
 10
-15.67053303553952
 20
-0.000044094671814
 30
-6.901619882623683
 41
1.0
 10
-20.43562448136906
 20
-0.0000445582753216
 30
-7.466094391354384
 41
0.9999999999999997
 10
-26.5876411051633
 20
-0.0000444553572603
 30
-8.758679311268162
 41
1.0
 10
-35.52548418250636
 20
-0.000044488559013
 30
-8.836598550194772
 41
0.9999999999999998
 10
-44.53590905056848
 20
-0.0000444775220312
 30
-7.000878408356708
 41
1.0
 10
-52.40508611981578
 20
-0.0000444803244347
 30
-3.869114988019721
 41
0.9999999999999998
 10
-58.51895244876194
 20
-0.0000444796787138
 30
-1.730486984161804
 41
0.9999999999999998
 10
-66.22962991161005
 20
-0.0000444798774362
 30
-0.9140908555280064
 41
1.000000000000001
 10
-72.12483716636484
 20
-0.000044479812682
 30
-1.915572978639475
 41
1.0
 10
-75.43637295866415
 20
-0.0000444798245246
 30
-2.827783659728026
 41
1.0
  0
SPLINE
  5
7D
330
1F
100
AcDbEntity
  8
Predefinito
100
AcDbSpline
210
0.0
220
0.0
230
1.0
 70
    12
 71
     2
 72
     6
 73
     3
 74
     0
 42
0.000000001
 43
0.0000000001
 40
-95.43476487918872
 40
-95.43476487918872
 40
-95.43476487918872
 40
-84.38782010185406
 40
-84.38782010185406
 40
-84.38782010185406
 10
8.643767627943998
 20
20.94441810564518
 30
15.00000000066217
 41
0.8616297039374736
 10
11.91062697851201
 20
25.80815896151584
 30
15.00000000066216
 41
0.8487521242343081
 10
16.50353495939639
 20
29.44595244226592
 30
15.00000000066217
 41
0.8564076828510516
  0
SPLINE
  5
7E
330
1F
100
AcDbEntity
  8
Predefinito
100
AcDbSpline
210
0.0
220
0.0
230
1.0
 70
    12
 71
     2
 72
     6
 73
     3
 74
     0
 42
0.000000001
 43
0.0000000001
 40
84.38782010185405
 40
84.38782010185405
 40
84.38782010185405
 40
95.43476487918872
 40
95.43476487918872
 40
95.43476487918872
 10
16.50353495939641
 20
29.44595244226592
 30
-14.99999999933783
 41
0.8564076828510515
 10
11.91062808342358
 20
25.80815983665641
 30
-14.99999999933783
 41
0.8487521260595355
 10
8.643767627944003
 20
20.94441810564518
 30
-14.99999999933783
 41
0.8616296977969664
  0
SPLINE
  5
7F
330
1F
100
AcDbEntity
  8
Predefinito
100
AcDbSpline
210
0.0
220
0.0
230
1.0
 70
    24
 71
     2
 72
     6
 73
     3
 74
     0
 42
0.000000001
 43
0.0000000001
 40
-29.99999999999996
 40
-29.99999999999996
 40
-29.99999999999996
 40
0.0000000000000355
 40
0.0000000000000355
 40
0.0000000000000355
 10
8.643767627943998
 20
20.94441810564518
 30
15.00000000066216
 10
8.643767627944001
 20
20.94441810564518
 30
0.0000000006621654
 10
8.643767627944003
 20
20.94441810564518
 30
-14.99999999933783
  0
SPLINE
  5
80
330
1F
100
AcDbEntity
  8
Predefinito
100
AcDbSpline
210
0.0
220
0.0
230
1.0
 70
    24
 71
     2
 72
     6
 73
     3
 74
     0
 42
0.000000001
 43
0.0000000001
 40
-29.99999999999996
 40
-29.99999999999996
 40
-29.99999999999996
 40
0.0000000000000355
 40
0.0000000000000355
 40
0.0000000000000355
 10
16.50353495939639
 20
29.44595244226591
 30
15.00000000066217
 10
16.5035349593964
 20
29.44595244226592
 30
0.0000000006621681
 10
16.50353495939641
 20
29.44595244226592
 30
-14.99999999933783
  0
SPLINE
  5
81
330
1F
100
AcDbEntity
  8
Predefinito
100
AcDbSpline
210
0.0
220
0.0
230
1.0
 70
    28
 71
     2
 72
     8
 73
     5
 74
     0
 42
0.000000001
 43
0.0000000001
 40
243.61037324953
 40
243.61037324953
 40
243.61037324953
 40
275.6071421268878
 40
275.6071421268878
 40
284.9818772831491
 40
284.9818772831491
 40
284.9818772831491
 10
8.643767627944003
 20
20.94441810564518
 30
-14.99999999933783
 41
1.0
 10
-7.354616810734909
 20
20.94441810564517
 30
-14.99999999933783
 41
1.0
 10
-23.35300124941382
 20
20.94441810564516
 30
-14.99999999933783
 41
1.0
 10
-27.99989202518863
 20
20.94441810564515
 30
-14.99999999933782
 41
1.0
 10
-32.64678280096344
 20
20.94441810564515
 30
-14.9999999993378
 41
1.0
  0
SPLINE
  5
82
330
1F
100
AcDbEntity
  8
Predefinito
100
AcDbSpline
210
0.0
220
0.0
230
1.0
 70
    28
 71
     2
 72
     8
 73
     5
 74
     0
 42
0.000000001
 43
0.0000000001
 40
235.7506059180776
 40
235.7506059180776
 40
235.7506059180776
 40
275.6071421268878
 40
275.6071421268878
 40
284.9818772831491
 40
284.9818772831491
 40
284.9818772831491
 10
16.50353495939641
 20
29.44595244226592
 30
-14.99999999933783
 41
1.0
 10
-3.424733145008712
 20
29.4459524422659
 30
-14.99999999933783
 41
1.0
 10
-23.35300124941383
 20
29.44595244226588
 30
-14.99999999933783
 41
1.0
 10
-27.99989202518864
 20
29.44595244226588
 30
-14.99999999933782
 41
1.0
 10
-32.64678280096344
 20
29.44595244226588
 30
-14.9999999993378
 41
1.0
  0
SPLINE
  5
83
330
1F
100
AcDbEntity
  8
Predefinito
100
AcDbSpline
210
0.0
220
0.0
230
1.0
 70
    12
 71
     2
 72
     6
 73
     3
 74
     0
 42
0.000000001
 43
0.0000000001
 40
-152.1619067211609
 40
-152.1619067211609
 40
-152.1619067211609
 40
-140.9805520424719
 40
-140.9805520424719
 40
-140.9805520424719
 10
16.94452961743225
 20
-29.78992904798096
 30
15.00000000066216
 41
0.8571930440812945
 10
12.23971925200812
 20
-26.17617883722887
 30
15.00000000066217
 41
0.8484430084214533
 10
8.877582390156007
 20
-21.28839471136024
 30
15.00000000066216
 41
0.8607288005678817
  0
SPLINE
  5
84
330
1F
100
AcDbEntity
  8
Predefinito
100
AcDbSpline
210
0.0
220
0.0
230
1.0
 70
    12
 71
     2
 72
     6
 73
     3
 74
     0
 42
0.000000001
 43
0.0000000001
 40
140.9805520424719
 40
140.9805520424719
 40
140.9805520424719
 40
152.1619067211609
 40
152.1619067211609
 40
152.1619067211609
 10
8.877582390156007
 20
-21.28839471136024
 30
-14.99999999933783
 41
0.8607288005678817
 10
12.23971925200812
 20
-26.17617883722887
 30
-14.99999999933783
 41
0.8484430084214533
 10
16.94452961743224
 20
-29.78992904798096
 30
-14.99999999933783
 41
0.8571930440812945
  0
SPLINE
  5
85
330
1F
100
AcDbEntity
  8
Predefinito
100
AcDbSpline
210
0.0
220
0.0
230
1.0
 70
    24
 71
     2
 72
     6
 73
     3
 74
     0
 42
0.000000001
 43
0.0000000001
 40
-29.99999999999996
 40
-29.99999999999996
 40
-29.99999999999996
 40
0.0000000000000355
 40
0.0000000000000355
 40
0.0000000000000355
 10
16.94452961743225
 20
-29.78992904798096
 30
15.00000000066216
 10
16.94452961743225
 20
-29.78992904798096
 30
0.0000000006621654
 10
16.94452961743224
 20
-29.78992904798096
 30
-14.99999999933783
  0
SPLINE
  5
86
330
1F
100
AcDbEntity
  8
Predefinito
100
AcDbSpline
210
0.0
220
0.0
230
1.0
 70
    24
 71
     2
 72
     6
 73
     3
 74
     0
 42
0.000000001
 43
0.0000000001
 40
-29.99999999999996
 40
-29.99999999999996
 40
-29.99999999999996
 40
0.0000000000000355
 40
0.0000000000000355
 40
0.0000000000000355
 10
8.877582390156007
 20
-21.28839471136024
 30
15.00000000066216
 10
8.877582390156007
 20
-21.28839471136024
 30
0.0000000006621663
 10
8.877582390156007
 20
-21.28839471136024
 30
-14.99999999933783
  0
SPLINE
  5
87
330
1F
100
AcDbEntity
  8
Predefinito
100
AcDbSpline
210
0.0
220
0.0
230
1.0
 70
    28
 71
     2
 72
     8
 73
     5
 74
     0
 42
0.000000001
 43
0.0000000001
 40
235.3096112600418
 40
235.3096112600418
 40
235.3096112600418
 40
275.6071421268878
 40
275.6071421268878
 40
284.9818772831491
 40
284.9818772831491
 40
284.9818772831491
 10
16.94452961743224
 20
-29.78992904798096
 30
-14.99999999933783
 41
1.0
 10
-3.20423581599079
 20
-29.78992904798098
 30
-14.99999999933783
 41
1.0
 10
-23.35300124941382
 20
-29.78992904798099
 30
-14.99999999933783
 41
1.0
 10
-27.99989202518863
 20
-29.78992904798099
 30
-14.99999999933782
 41
1.0
 10
-32.64678280096344
 20
-29.789929047981
 30
-14.9999999993378
 41
1.0
  0
SPLINE
  5
88
330
1F
100
AcDbEntity
  8
Predefinito
100
AcDbSpline
210
0.0
220
0.0
230
1.0
 70
    28
 71
     2
 72
     8
 73
     5
 74
     0
 42
0.000000001
 43
0.0000000001
 40
243.376558487318
 40
243.376558487318
 40
243.376558487318
 40
275.6071421268878
 40
275.6071421268878
 40
284.9818772831491
 40
284.9818772831491
 40
284.9818772831491
 10
8.877582390156007
 20
-21.28839471136024
 30
-14.99999999933783
 41
1.0
 10
-7.23770942962891
 20
-21.28839471136025
 30
-14.99999999933783
 41
1.0
 10
-23.35300124941383
 20
-21.28839471136026
 30
-14.99999999933783
 41
1.0
 10
-27.99989202518864
 20
-21.28839471136027
 30
-14.99999999933782
 41
1.0
 10
-32.64678280096344
 20
-21.28839471136027
 30
-14.9999999993378
 41
1.0
  0
SPLINE
  5
89
330
1F
100
AcDbEntity
  8
Predefinito
100
AcDbSpline
210
7.646002702409928E-16
220
-1.0
230
2.825326460157456E-30
 70
    12
 71
     2
 72
    12
 73
     9
 74
     0
 42
0.000000001
 43
0.0000000001
 40
48.6494703125227
 40
48.6494703125227
 40
48.6494703125227
 40
74.9542918181587
 40
74.9542918181587
 40
101.259113323795
 40
101.259113323795
 40
127.563934829431
 40
127.563934829431
 40
153.868756335067
 40
153.868756335067
 40
153.868756335067
 10
-32.64678280096344
 20
-25.53916187967063
 30
-14.9999999993378
 41
1.0
 10
-42.86127132977784
 20
-25.53916187967064
 30
-25.9591090384418
 41
0.826555088010303
 10
-56.80076553508614
 20
-25.53916187967065
 30
-20.4701794400205
 41
1.0
 10
-70.74025974039454
 20
-25.53916187967067
 30
-14.9812498415992
 41
0.826555088010303
 10
-70.74025974039449
 20
-25.53916187967067
 30
0.0000000006619523
 41
1.0
 10
-70.74025974039455
 20
-25.53916187967067
 30
14.9812498429232
 41
0.826555088010303
 10
-56.80076553508624
 20
-25.53916187967065
 30
20.4701794413446
 41
1.0
 10
-42.86127132977803
 20
-25.53916187967064
 30
25.959109039766
 41
0.826555088010303
 10
-32.63725960331935
 20
-25.53916187967063
 30
15.00000000066218
 41
1.0
  0
SPLINE
  5
8A
330
1F
100
AcDbEntity
  8
Predefinito
100
AcDbSpline
210
0.0
220
0.0
230
1.0
 70
    28
 71
     2
 72
     6
 73
     3
 74
     0
 42
0.000000001
 43
0.0000000001
 40
0.0
 40
0.0
 40
0.0
 40
8.501534336620729
 40
8.501534336620729
 40
8.501534336620729
 10
-56.80076553508615
 20
-29.78992904798102
 30
-20.47017944002051
 41
1.0
 10
-56.80076553508616
 20
-25.53916187967065
 30
-20.4701794400205
 41
1.0
 10
-56.80076553508616
 20
-21.28839471136029
 30
-20.4701794400205
 41
1.0
  0
SPLINE
  5
8B
330
1F
100
AcDbEntity
  8
Predefinito
100
AcDbSpline
210
0.0
220
0.0
230
1.0
 70
    28
 71
     2
 72
     6
 73
     3
 74
     0
 42
0.000000001
 43
0.0000000001
 40
0.0
 40
0.0
 40
0.0
 40
8.501534336620729
 40
8.501534336620729
 40
8.501534336620729
 10
-70.74025974039449
 20
-29.78992904798103
 30
0.0000000006619505
 41
1.0
 10
-70.74025974039449
 20
-25.53916187967067
 30
0.0000000006619523
 41
1.0
 10
-70.74025974039449
 20
-21.2883947113603
 30
0.000000000661954
 41
1.0
  0
SPLINE
  5
8C
330
1F
100
AcDbEntity
  8
Predefinito
100
AcDbSpline
210
0.0
220
0.0
230
1.0
 70
    28
 71
     2
 72
     6
 73
     3
 74
     0
 42
0.000000001
 43
0.0000000001
 40
0.0
 40
0.0
 40
0.0
 40
8.501534336620729
 40
8.501534336620729
 40
8.501534336620729
 10
-56.80076553508625
 20
-29.78992904798102
 30
20.4701794413446
 41
1.0
 10
-56.80076553508626
 20
-25.53916187967066
 30
20.4701794413446
 41
1.0
 10
-56.80076553508626
 20
-21.28839471136029
 30
20.4701794413446
 41
1.0
  0
SPLINE
  5
8D
330
1F
100
AcDbEntity
  8
Predefinito
100
AcDbSpline
210
0.0
220
0.0
230
1.0
 70
    28
 71
     2
 72
     8
 73
     5
 74
     0
 42
0.000000001
 43
0.0000000001
 40
153.868756335067
 40
153.868756335067
 40
153.868756335067
 40
163.1434914913283
 40
163.1434914913283
 40
198.7770825431589
 40
198.7770825431589
 40
198.7770825431589
 10
-32.63725960331935
 20
-25.53916187967063
 30
15.00000000066218
 41
1.0
 10
-27.99513042636659
 20
-25.53916187967063
 30
15.00000000066217
 41
1.0
 10
-23.35300124941382
 20
-25.53916187967063
 30
15.00000000066216
 41
1.0
 10
-5.536205723498529
 20
-25.53916187967061
 30
15.00000000066216
 41
1.0
 10
12.28058980241676
 20
-25.5391618796706
 30
15.00000000066216
 41
1.0
  0
SPLINE
  5
8E
330
1F
100
AcDbEntity
  8
Predefinito
100
AcDbSpline
210
0.0
220
0.0
230
1.0
 70
    28
 71
     2
 72
     6
 73
     3
 74
     0
 42
0.000000001
 43
0.0000000001
 40
0.0
 40
0.0
 40
0.0
 40
8.501534336620729
 40
8.501534336620729
 40
8.501534336620729
 10
-23.35300124941382
 20
-29.78992904798099
 30
15.00000000066216
 41
1.0
 10
-23.35300124941383
 20
-25.53916187967063
 30
15.00000000066216
 41
1.0
 10
-23.35300124941383
 20
-21.28839471136027
 30
15.00000000066217
 41
1.0
  0
SPLINE
  5
8F
330
1F
100
AcDbEntity
  8
Predefinito
100
AcDbSpline
210
0.0
220
0.0
230
1.0
 70
    28
 71
     2
 72
     8
 73
     5
 74
     0
 42
0.000000001
 43
0.0000000001
 40
239.9735511648332
 40
239.9735511648332
 40
239.9735511648332
 40
275.6071421268878
 40
275.6071421268878
 40
284.9818772831491
 40
284.9818772831491
 40
284.9818772831491
 10
12.28058971264083
 20
-25.53916187967059
 30
-14.99999999933783
 41
1.0
 10
-5.536205768386496
 20
-25.5391618796706
 30
-14.99999999933783
 41
1.0
 10
-23.35300124941382
 20
-25.53916187967062
 30
-14.99999999933783
 41
1.0
 10
-27.99989202518863
 20
-25.53916187967063
 30
-14.99999999933782
 41
1.0
 10
-32.64678280096344
 20
-25.53916187967063
 30
-14.9999999993378
 41
1.0
  0
SPLINE
  5
90
330
1F
100
AcDbEntity
  8
Predefinito
100
AcDbSpline
210
0.0
220
0.0
230
1.0
 70
    28
 71
     2
 72
     6
 73
     3
 74
     0
 42
0.000000001
 43
0.0000000001
 40
0.0
 40
0.0
 40
0.0
 40
8.501534336620729
 40
8.501534336620729
 40
8.501534336620729
 10
-23.35300124941382
 20
-29.78992904798099
 30
-14.99999999933783
 41
1.0
 10
-23.35300124941383
 20
-25.53916187967063
 30
-14.99999999933783
 41
1.0
 10
-23.35300124941383
 20
-21.28839471136026
 30
-14.99999999933783
 41
1.0
  0
LINE
  5
91
330
1F
100
AcDbEntity
  8
Predefinito
100
AcDbLine
 10
-70.74025974039449
 20
-29.78992904798103
 30
0.0000000006620819
 11
16.94452961743223
 21
-29.78992904798096
 31
0.0000000006620819
  0
LINE
  5
92
330
1F
100
AcDbEntity
  8
Predefinito
100
AcDbLine
 10
-26.4307178360143
 20
-29.789929047981
 30
15.00000000066217
 11
-26.4307178360143
 21
-29.78992904798099
 31
-14.99999999933783
  0
LINE
  5
93
330
1F
100
AcDbEntity
  8
Predefinito
100
AcDbLine
 10
-70.7402597403945
 20
-21.2883947113603
 30
0.0000000006620855
 11
8.877582390156011
 21
-21.28839471136024
 31
0.0000000006620855
  0
LINE
  5
94
330
1F
100
AcDbEntity
  8
Predefinito
100
AcDbLine
 10
-26.4307178360143
 20
-21.28839471136027
 30
15.00000000066217
 11
-26.4307178360143
 21
-21.28839471136027
 31
-14.99999999933782
  0
SPLINE
  5
95
330
1F
100
AcDbEntity
  8
Predefinito
100
AcDbSpline
210
7.107099120374462E-16
220
-1.0
230
-1.368580744989648E-16
 70
    12
 71
     2
 72
    12
 73
     9
 74
     0
 42
0.000000001
 43
0.0000000001
 40
48.6494703125227
 40
48.6494703125227
 40
48.6494703125227
 40
74.9542918181587
 40
74.9542918181587
 40
101.259113323795
 40
101.259113323795
 40
127.563934829431
 40
127.563934829431
 40
153.868756335067
 40
153.868756335067
 40
153.868756335067
 10
-32.64678280096344
 20
25.19518527395551
 30
-14.9999999993378
 41
1.0
 10
-42.86127132977784
 20
25.1951852739555
 30
-25.9591090384418
 41
0.826555088010303
 10
-56.80076553508614
 20
25.19518527395549
 30
-20.4701794400205
 41
1.0
 10
-70.74025974039454
 20
25.19518527395548
 30
-14.9812498415992
 41
0.826555088010303
 10
-70.74025974039449
 20
25.19518527395547
 30
0.0000000006619523
 41
1.0
 10
-70.74025974039455
 20
25.19518527395547
 30
14.9812498429232
 41
0.826555088010303
 10
-56.80076553508624
 20
25.19518527395548
 30
20.4701794413446
 41
1.0
 10
-42.86127132977803
 20
25.1951852739555
 30
25.959109039766
 41
0.826555088010303
 10
-32.63725960331935
 20
25.19518527395551
 30
15.00000000066218
 41
1.0
  0
SPLINE
  5
96
330
1F
100
AcDbEntity
  8
Predefinito
100
AcDbSpline
210
0.0
220
0.0
230
1.0
 70
    28
 71
     2
 72
     6
 73
     3
 74
     0
 42
0.000000001
 43
0.0000000001
 40
0.0
 40
0.0
 40
0.0
 40
8.501534336620729
 40
8.501534336620729
 40
8.501534336620729
 10
-56.80076553508615
 20
20.94441810564513
 30
-20.47017944002051
 41
1.0
 10
-56.80076553508616
 20
25.1951852739555
 30
-20.4701794400205
 41
1.0
 10
-56.80076553508616
 20
29.44595244226586
 30
-20.4701794400205
 41
1.0
  0
SPLINE
  5
97
330
1F
100
AcDbEntity
  8
Predefinito
100
AcDbSpline
210
0.0
220
0.0
230
1.0
 70
    28
 71
     2
 72
     6
 73
     3
 74
     0
 42
0.000000001
 43
0.0000000001
 40
0.0
 40
0.0
 40
0.0
 40
8.501534336620729
 40
8.501534336620729
 40
8.501534336620729
 10
-70.74025974039449
 20
20.94441810564511
 30
0.0000000006619505
 41
1.0
 10
-70.74025974039449
 20
25.19518527395548
 30
0.0000000006619523
 41
1.0
 10
-70.74025974039449
 20
29.44595244226584
 30
0.000000000661954
 41
1.0
  0
SPLINE
  5
98
330
1F
100
AcDbEntity
  8
Predefinito
100
AcDbSpline
210
0.0
220
0.0
230
1.0
 70
    28
 71
     2
 72
     6
 73
     3
 74
     0
 42
0.000000001
 43
0.0000000001
 40
0.0
 40
0.0
 40
0.0
 40
8.501534336620729
 40
8.501534336620729
 40
8.501534336620729
 10
-56.80076553508625
 20
20.94441810564512
 30
20.4701794413446
 41
1.0
 10
-56.80076553508626
 20
25.19518527395549
 30
20.4701794413446
 41
1.0
 10
-56.80076553508626
 20
29.44595244226585
 30
20.4701794413446
 41
1.0
  0
SPLINE
  5
99
330
1F
100
AcDbEntity
  8
Predefinito
100
AcDbSpline
210
0.0
220
0.0
230
1.0
 70
    28
 71
     2
 72
     8
 73
     5
 74
     0
 42
0.000000001
 43
0.0000000001
 40
153.868756335067
 40
153.868756335067
 40
153.868756335067
 40
163.1434914913283
 40
163.1434914913283
 40
198.4621041480289
 40
198.4621041480289
 40
198.4621041480289
 10
-32.63725960331935
 20
25.19518527395551
 30
15.00000000066218
 41
1.0
 10
-27.99513042636659
 20
25.19518527395551
 30
15.00000000066217
 41
1.0
 10
-23.35300124941382
 20
25.19518527395551
 30
15.00000000066216
 41
1.0
 10
-5.693694921063528
 20
25.19518527395553
 30
15.00000000066216
 41
1.0
 10
11.96561140728677
 20
25.19518527395554
 30
15.00000000066216
 41
1.0
  0
SPLINE
  5
9A
330
1F
100
AcDbEntity
  8
Predefinito
100
AcDbSpline
210
0.0
220
0.0
230
1.0
 70
    28
 71
     2
 72
     6
 73
     3
 74
     0
 42
0.000000001
 43
0.0000000001
 40
0.0
 40
0.0
 40
0.0
 40
8.501534336620729
 40
8.501534336620729
 40
8.501534336620729
 10
-23.35300124941382
 20
20.94441810564515
 30
15.00000000066216
 41
1.0
 10
-23.35300124941383
 20
25.19518527395552
 30
15.00000000066216
 41
1.0
 10
-23.35300124941383
 20
29.44595244226588
 30
15.00000000066217
 41
1.0
  0
SPLINE
  5
9B
330
1F
100
AcDbEntity
  8
Predefinito
100
AcDbSpline
210
0.0
220
0.0
230
1.0
 70
    28
 71
     2
 72
     8
 73
     5
 74
     0
 42
0.000000001
 43
0.0000000001
 40
240.2885293840891
 40
240.2885293840891
 40
240.2885293840891
 40
275.6071421268878
 40
275.6071421268878
 40
284.9818772831491
 40
284.9818772831491
 40
284.9818772831491
 10
11.96561149338488
 20
25.19518527395555
 30
-14.99999999933783
 41
1.0
 10
-5.693694878014472
 20
25.19518527395553
 30
-14.99999999933783
 41
1.0
 10
-23.35300124941382
 20
25.19518527395552
 30
-14.99999999933783
 41
1.0
 10
-27.99989202518863
 20
25.19518527395551
 30
-14.99999999933782
 41
1.0
 10
-32.64678280096344
 20
25.19518527395551
 30
-14.9999999993378
 41
1.0
  0
SPLINE
  5
9C
330
1F
100
AcDbEntity
  8
Predefinito
100
AcDbSpline
210
0.0
220
0.0
230
1.0
 70
    28
 71
     2
 72
     6
 73
     3
 74
     0
 42
0.000000001
 43
0.0000000001
 40
0.0
 40
0.0
 40
0.0
 40
8.501534336620729
 40
8.501534336620729
 40
8.501534336620729
 10
-23.35300124941382
 20
20.94441810564516
 30
-14.99999999933783
 41
1.0
 10
-23.35300124941383
 20
25.19518527395552
 30
-14.99999999933783
 41
1.0
 10
-23.35300124941383
 20
29.44595244226588
 30
-14.99999999933783
 41
1.0
  0
LINE
  5
9D
330
1F
100
AcDbEntity
  8
Predefinito
100
AcDbLine
 10
-70.74025974039449
 20
20.94441810564511
 30
0.0000000006620819
 11
8.643767627944017
 21
20.94441810564518
 31
0.0000000006620819
  0
LINE
  5
9E
330
1F
100
AcDbEntity
  8
Predefinito
100
AcDbLine
 10
-26.4307178360143
 20
20.94441810564514
 30
15.00000000066217
 11
-26.4307178360143
 21
20.94441810564515
 31
-14.99999999933783
  0
LINE
  5
9F
330
1F
100
AcDbEntity
  8
Predefinito
100
AcDbLine
 10
-70.7402597403945
 20
29.44595244226584
 30
0.0000000006620855
 11
16.50353495939639
 21
29.44595244226591
 31
0.0000000006620855
  0
LINE
  5
A0
330
1F
100
AcDbEntity
  8
Predefinito
100
AcDbLine
 10
-26.4307178360143
 20
29.44595244226588
 30
15.00000000066217
 11
-26.4307178360143
 21
29.44595244226588
 31
-14.99999999933782
  0
SPLINE
  5
A1
330
1F
100
AcDbEntity
  8
Predefinito
100
AcDbSpline
210
0.0
220
0.0
230
1.0
 70
    15
 71
     2
 72
    12
 73
     9
 74
     0
 42
0.000000001
 43
0.0000000001
 40
-236.0174773911631
 40
-236.0174773911631
 40
-236.0174773911631
 40
-177.0131080433723
 40
-177.0131080433723
 40
-118.0087386955816
 40
-118.0087386955816
 40
-59.00436934779078
 40
-59.00436934779078
 40
0.0
 40
0.0
 40
0.0
 10
77.38942613133497
 20
0.0
 30
-38.96086271854321
 41
1.0
 10
77.38942613133494
 20
-37.56334818288326
 30
-38.9608627185432
 41
0.7071067811865476
 10
39.8260779484517
 20
-37.56334818288326
 30
-38.96086271854321
 41
1.0
 10
2.26272976556844
 20
-37.56334818288325
 30
-38.9608627185432
 41
0.7071067811865476
 10
2.262729765568452
 20
0.0000000000000046
 30
-38.96086271854321
 41
1.0
 10
2.26272976556845
 20
37.56334818288326
 30
-38.9608627185432
 41
0.7071067811865476
 10
39.82607794845171
 20
37.56334818288326
 30
-38.96086271854321
 41
1.0
 10
77.38942613133497
 20
37.56334818288325
 30
-38.9608627185432
 41
0.7071067811865476
 10
77.38942613133497
 20
0.0
 30
-38.96086271854321
 41
1.0
  0
SPLINE
  5
A2
330
1F
100
AcDbEntity
  8
Predefinito
100
AcDbSpline
210
0.0
220
0.0
230
1.0
 70
    28
 71
     2
 72
     6
 73
     3
 74
     0
 42
0.000000001
 43
0.0000000001
 40
0.0
 40
0.0
 40
0.0
 40
140.5991157522736
 40
140.5991157522736
 40
140.5991157522736
 10
39.8260779484517
 20
-37.56334818288326
 30
31.33869515759358
 41
1.0
 10
39.8260779484517
 20
-37.56334818288326
 30
-38.96086271854321
 41
1.0
 10
39.8260779484517
 20
-37.56334818288326
 30
-109.26042059468
 41
1.0
  0
SPLINE
  5
A3
330
1F
100
AcDbEntity
  8
Predefinito
100
AcDbSpline
210
0.0
220
0.0
230
1.0
 70
    28
 71
     2
 72
     6
 73
     3
 74
     0
 42
0.000000001
 43
0.0000000001
 40
0.0
 40
0.0
 40
0.0
 40
30.80112347338748
 40
30.80112347338748
 40
30.80112347338748
 10
2.262729765568452
 20
0.0000000000000046
 30
31.33869515759358
 41
1.0
 10
2.262729765568452
 20
0.0000000000000046
 30
15.93813342089984
 41
1.0
 10
2.262729765568452
 20
0.0000000000000046
 30
0.5375716842061031
 41
1.0
  0
SPLINE
  5
A4
330
1F
100
AcDbEntity
  8
Predefinito
100
AcDbSpline
210
0.0
220
0.0
230
1.0
 70
    28
 71
     2
 72
     6
 73
     3
 74
     0
 42
0.000000001
 43
0.0000000001
 40
41.52180475856521
 40
41.52180475856521
 40
41.52180475856521
 40
140.5991157522736
 40
140.5991157522736
 40
140.5991157522736
 10
2.262729765568452
 20
0.0000000000000046
 30
-10.18310960097163
 41
1.0
 10
2.262729765568452
 20
0.0000000000000046
 30
-59.72176509782582
 41
1.0
 10
2.262729765568452
 20
0.0000000000000046
 30
-109.26042059468
 41
1.0
  0
SPLINE
  5
A5
330
1F
100
AcDbEntity
  8
Predefinito
100
AcDbSpline
210
0.0
220
0.0
230
1.0
 70
    28
 71
     2
 72
     6
 73
     3
 74
     0
 42
0.000000001
 43
0.0000000001
 40
0.0
 40
0.0
 40
0.0
 40
140.5991157522736
 40
140.5991157522736
 40
140.5991157522736
 10
39.82607794845171
 20
37.56334818288326
 30
31.33869515759358
 41
1.0
 10
39.82607794845171
 20
37.56334818288326
 30
-38.96086271854321
 41
1.0
 10
39.82607794845171
 20
37.56334818288326
 30
-109.26042059468
 41
1.0
  0
LINE
  5
A6
330
1F
100
AcDbEntity
  8
Predefinito
100
AcDbLine
 10
77.38942613133497
 20
0.0
 30
31.33869515759358
 11
2.262729765568448
 21
0.0
 31
31.33869515759358
  0
LINE
  5
A7
330
1F
100
AcDbEntity
  8
Predefinito
100
AcDbLine
 10
39.8260779484517
 20
-37.56334818288326
 30
31.33869515759358
 11
39.8260779484517
 21
37.56334818288325
 31
31.33869515759358
  0
LINE
  5
A8
330
1F
100
AcDbEntity
  8
Predefinito
100
AcDbLine
 10
77.38942613133497
 20
0.0
 30
-109.26042059468
 11
2.262729765568448
 21
0.0
 31
-109.26042059468
  0
LINE
  5
A9
330
1F
100
AcDbEntity
  8
Predefinito
100
AcDbLine
 10
39.8260779484517
 20
-37.56334818288326
 30
-109.26042059468
 11
39.8260779484517
 21
37.56334818288325
 31
-109.26042059468
  0
LINE
  5
AA
330
1F
100
AcDbEntity
  8
Predefinito
100
AcDbLine
 10
-78.0905087160856
 20
-0.0000444798245236
 30
6.813562894627173
 11
-75.43637295866415
 21
-0.0000444798245236
 31
-2.827783659728025
  0
LINE
  5
AB
330
1F
100
AcDbEntity
  8
Predefinito
100
AcDbLine
 10
-76.76344083737487
 20
4.999955520175477
 30
1.992889617449575
 11
-76.76344083737487
 21
-5.000044479824524
 31
1.992889617449575
  0
SPLINE
  5
AC
330
1F
100
AcDbEntity
  8
Predefinito
100
AcDbSpline
 70
     4
 71
     3
 72
    18
 73
    14
 74
     0
 42
0.000000001
 43
0.0000000001
 40
6.449919148852552
 40
6.449919148852552
 40
6.449919148852552
 40
6.449919148852552
 40
11.80969752917564
 40
19.25079106419033
 40
26.34611977055688
 40
30.84192647832957
 40
35.47018218991206
 40
44.06844146305053
 40
54.09717700875962
 40
60.29551576807749
 40
67.53357662063195
 40
76.27141735470693
 40
87.552797427822
 40
87.552797427822
 40
87.552797427822
 40
87.552797427822
 10
2.596987636032867
 20
4.999996121826554
 30
-4.931281964227344
 41
1.0
 10
0.9314177495545424
 20
4.999993801440461
 30
-4.282376314577509
 41
1.0
 10
-3.087237724164009
 20
4.999985528000787
 30
-2.84991540463662
 41
1.0
 10
-9.6385257033898
 20
4.999960137086306
 30
-1.605585491727018
 41
0.9999999999999996
 10
-16.00909030521604
 20
4.99995571918188
 30
-1.91126878260237
 41
1.0
 10
-21.37248518403449
 20
4.99995547964036
 30
-2.551197610156851
 41
0.9999999999999997
 10
-27.16899128415865
 20
4.999955532817585
 30
-3.774295640473516
 41
1.0
 10
-34.96626069114154
 20
4.999955515662411
 30
-3.813678011014357
 41
0.9999999999999998
 10
-43.13243116127789
 20
4.999955521365163
 30
-2.186359869873296
 41
1.0
 10
-50.40067235742495
 20
4.999955519917176
 30
0.7177026621690553
 41
0.9999999999999998
 10
-57.38725586117868
 20
4.999955520250817
 30
3.19075983363994
 41
0.9999999999999998
 10
-66.50485809308618
 20
4.999955520148136
 30
4.147028759774138
 41
1.000000000000001
 10
-73.14238274878414
 20
4.999955520181597
 30
2.988705989535273
 41
1.0
 10
-76.76344083737487
 20
4.999955520175476
 30
1.992889617449572
 41
1.0
  0
SPLINE
  5
AD
330
1F
100
AcDbEntity
  8
Predefinito
100
AcDbSpline
 70
     4
 71
     3
 72
    18
 73
    14
 74
     0
 42
0.000000001
 43
0.0000000001
 40
8.626638870552188
 40
8.626638870552188
 40
8.626638870552188
 40
8.626638870552188
 40
11.80969752917564
 40
19.25079106419033
 40
26.34611977055688
 40
30.84192647832957
 40
35.47018218991206
 40
44.06844146305053
 40
54.09717700875962
 40
60.29551576807749
 40
67.53357662063195
 40
76.27141735470693
 40
87.552797427822
 40
87.552797427822
 40
87.552797427822
 40
87.552797427822
 10
2.262729765568639
 20
-0.0000037678046433
 30
0.5375716842103262
 41
1.0
 10
1.196441154993574
 20
-0.0000053985318549
 30
0.9154588726886309
 41
1.0
 10
-2.473488834705259
 20
-0.0000128708013516
 30
2.103207314956272
 41
1.0
 10
-9.50535906753376
 20
-0.0000402769683429
 30
3.445820511647948
 41
0.9999999999999996
 10
-16.34764586605835
 20
-0.0000444669685846
 30
3.079082317418949
 41
1.0
 10
-22.3093462347681
 20
-0.0000444824431163
 30
2.363699171040684
 41
0.9999999999999997
 10
-27.75034135459834
 20
-0.0000444790078343
 30
1.210088030321135
 41
1.0
 10
-34.40703723852963
 20
-0.0000444801160692
 30
1.209242528166057
 41
0.9999999999999998
 10
-41.72895326177165
 20
-0.0000444797476679
 30
2.628158668610117
 41
1.0
 10
-48.39625859725211
 20
-0.0000444798412088
 30
5.304520312357833
 41
0.9999999999999998
 10
-56.25555927294847
 20
-0.0000444798196554
 30
8.112006651441686
 41
0.9999999999999998
 10
-66.78008627479706
 20
-0.0000444798262885
 30
9.20814837507628
 41
1.000000000000001
 10
-74.15992833115095
 20
-0.0000444798241271
 30
7.892984957710028
 41
1.0
 10
-78.0905087160856
 20
-0.0000444798245224
 30
6.813562894627172
 41
1.0
  0
SPLINE
  5
AE
330
1F
100
AcDbEntity
  8
Predefinito
100
AcDbSpline
 70
     4
 71
     3
 72
    18
 73
    14
 74
     0
 42
0.000000001
 43
0.0000000001
 40
6.449933938879216
 40
6.449933938879216
 40
6.449933938879216
 40
6.449933938879216
 40
11.80969752917564
 40
19.25079106419033
 40
26.34611977055688
 40
30.84192647832957
 40
35.47018218991206
 40
44.06844146305053
 40
54.09717700875962
 40
60.29551576807749
 40
67.53357662063195
 40
76.27141735470693
 40
87.552797427822
 40
87.552797427822
 40
87.552797427822
 40
87.552797427822
 10
2.596988677738799
 20
-5.000003878179295
 30
-4.931276592365386
 41
1.0
 10
0.9314284521521028
 20
-5.00000619855691
 30
-4.282373004470227
 41
1.0
 10
-3.087210803440544
 20
-5.000014471973897
 30
-2.849914479652348
 41
1.0
 10
-9.638501611694586
 20
-5.000039862889357
 30
-1.605585491727014
 41
0.9999999999999996
 10
-16.00908859638182
 20
-5.000044280822276
 30
-1.911268782602366
 41
1.0
 10
-21.37248553210267
 20
-5.000044520358798
 30
-2.551197610156846
 41
0.9999999999999997
 10
-27.16899117560301
 20
-5.000044467182677
 30
-3.774295640473515
 41
1.0
 10
-34.96626072989445
 20
-5.000044484337494
 30
-3.813678011014351
 41
0.9999999999999998
 10
-43.13243115106225
 20
-5.000044478634861
 30
-2.186359869873297
 41
1.0
 10
-50.40067235964293
 20
-5.000044480082821
 30
0.7177026621690565
 41
0.9999999999999998
 10
-57.38725586053175
 20
-5.000044479749188
 30
3.190759833639939
 41
0.9999999999999998
 10
-66.50485809332093
 20
-5.000044479851862
 30
4.147028759774143
 41
1.000000000000001
 10
-73.14238274873159
 20
-5.000044479818404
 30
2.988705989535279
 41
1.0
 10
-76.76344083737487
 20
-5.000044479824524
 30
1.992889617449576
 41
1.0
  0
SPLINE
  5
AF
330
1F
100
AcDbEntity
  8
Predefinito
100
AcDbSpline
210
0.9588857103294226
220
2.582699546571395E-6
230
-0.2837925201963015
 70
    15
 71
     2
 72
    12
 73
     9
 74
     0
 42
0.000000001
 43
0.0000000001
 40
0.0
 40
0.0
 40
0.0
 40
7.853981633974483
 40
7.853981633974483
 40
15.70796326794897
 40
15.70796326794897
 40
23.56194490192345
 40
23.56194490192345
 40
31.41592653589793
 40
31.41592653589793
 40
31.41592653589793
 10
-3.884833958543029
 20
-0.0000184002857188
 30
-7.980011758726983
 41
0.9999999999999998
 10
-3.884847425734784
 20
4.999981599697098
 30
-7.980011758726983
 41
0.7071067811865475
 10
-2.468257066699913
 20
4.999985459706789
 30
-3.193598601187265
 41
0.9999999999999998
 10
-1.05166670766504
 20
4.999989319716481
 30
1.592814556352453
 41
0.7071067811865475
 10
-1.051653240473283
 20
-0.0000106802663351
 30
1.592814556352455
 41
0.9999999999999998
 10
-1.051639773281528
 20
-5.000010680249153
 30
1.592814556352457
 41
0.7071067811865475
 10
-2.468230132316398
 20
-5.000014540258845
 30
-3.193598601187262
 41
0.9999999999999998
 10
-3.884820491351272
 20
-5.000018400268535
 30
-7.980011758726983
 41
0.7071067811865475
 10
-3.884833958543029
 20
-0.0000184002857188
 30
-7.980011758726983
 41
0.9999999999999998
  0
SPLINE
  5
B0
330
1F
100
AcDbEntity
  8
Predefinito
100
AcDbSpline
210
0.9985113770374204
220
2.092102115759700E-6
230
-0.05454383487120625
 70
    15
 71
     2
 72
    12
 73
     9
 74
     0
 42
0.000000001
 43
0.0000000001
 40
0.0
 40
0.0
 40
0.0
 40
7.853981633974483
 40
7.853981633974483
 40
15.70796326794897
 40
15.70796326794897
 40
23.56194490192345
 40
23.56194490192345
 40
31.41592653589793
 40
31.41592653589793
 40
31.41592653589793
 10
-10.04589598527604
 20
-0.0000368957193952
 30
-6.876730774083731
 41
0.9999999999999998
 10
-10.04590646138159
 20
4.999963104269558
 30
-6.876730774083728
 41
0.7071067811865475
 10
-9.773142889011996
 20
4.999963672631904
 30
-1.883361112843115
 41
0.9999999999999998
 10
-9.500379316642402
 20
4.999964240994249
 30
3.110008548397499
 41
0.7071067811865475
 10
-9.50036884053685
 20
-0.0000357589947045
 30
3.110008548397501
 41
0.9999999999999998
 10
-9.500358364431301
 20
-5.000035758983659
 30
3.110008548397502
 41
0.7071067811865475
 10
-9.77312193680089
 20
-5.000036327346005
 30
-1.883361112843111
 41
0.9999999999999998
 10
-10.04588550917049
 20
-5.000036895708349
 30
-6.876730774083728
 41
0.7071067811865475
 10
-10.04589598527604
 20
-0.0000368957193952
 30
-6.876730774083731
 41
0.9999999999999998
  0
SPLINE
  5
B1
330
1F
100
AcDbEntity
  8
Predefinito
100
AcDbSpline
210
-0.9958350105626567
220
-3.195426072690610E-7
230
-0.09117363510122418
 70
    15
 71
     2
 72
    12
 73
     9
 74
     0
 42
0.000000001
 43
0.0000000001
 40
0.0
 40
0.0
 40
0.0
 40
7.853981633974483
 40
7.853981633974483
 40
15.70796326794897
 40
15.70796326794897
 40
23.56194490192345
 40
23.56194490192345
 40
31.41592653589793
 40
31.41592653589793
 40
31.41592653589793
 10
-16.40608233994948
 20
-0.0000437931566308
 30
-7.03036375084678
 41
1.0
 10
-16.4060839443448
 20
4.99995620684347
 30
-7.030363750846779
 41
0.7071067811865478
 10
-16.86163758860976
 20
4.99995605981362
 30
-2.054624134401362
 41
1.0
 10
-17.31719123287472
 20
4.999955912783765
 30
2.921115482044057
 41
0.7071067811865478
 10
-17.3171896284794
 20
-0.0000440872163361
 30
2.921115482044059
 41
1.0
 10
-17.31718802408407
 20
-5.000044087216438
 30
2.92111548204406
 41
0.7071067811865478
 10
-16.86163437981912
 20
-5.000043940186587
 30
-2.054624134401358
 41
1.0
 10
-16.40608073555415
 20
-5.000043793156733
 30
-7.030363750846779
 41
0.7071067811865478
 10
-16.40608233994948
 20
-0.0000437931566308
 30
-7.03036375084678
 41
1.0
  0
SPLINE
  5
B2
330
1F
100
AcDbEntity
  8
Predefinito
100
AcDbSpline
210
-0.9869269708844123
220
-6.653247029083887E-10
230
-0.1611680928128096
 70
    15
 71
     2
 72
    12
 73
     9
 74
     0
 42
0.000000001
 43
0.0000000001
 40
0.0
 40
0.0
 40
0.0
 40
7.853981633974483
 40
7.853981633974483
 40
15.70796326794897
 40
15.70796326794897
 40
23.56194490192345
 40
23.56194490192345
 40
31.41592653589793
 40
31.41592653589793
 40
31.41592653589793
 10
-20.51488377450771
 20
-0.0000444783050931
 30
-7.545959732441225
 41
0.9999999999999998
 10
-20.51488377787839
 20
4.999955521694913
 30
-7.54595973244122
 41
0.7071067811865477
 10
-21.32070294078004
 20
4.99995552096056
 30
-2.611455317557937
 41
0.9999999999999998
 10
-22.12652210368166
 20
4.9999555202262
 30
2.323049097325353
 41
0.7071067811865477
 10
-22.12652210031099
 20
-0.0000444797738056
 30
2.323049097325354
 41
0.9999999999999998
 10
-22.1265220969403
 20
-5.000044479773813
 30
2.323049097325356
 41
0.7071067811865477
 10
-21.32070293403867
 20
-5.000044479039459
 30
-2.611455317557932
 41
0.9999999999999998
 10
-20.51488377113701
 20
-5.0000444783051
 30
-7.54595973244122
 41
0.7071067811865477
 10
-20.51488377450771
 20
-0.0000444783050931
 30
-7.545959732441225
 41
0.9999999999999998
  0
SPLINE
  5
B3
330
1F
100
AcDbEntity
  8
Predefinito
100
AcDbSpline
210
0.9924393605717713
220
-4.537441191585895E-9
230
0.122735958821748
 70
    15
 71
     2
 72
    12
 73
     9
 74
     0
 42
0.000000001
 43
0.0000000001
 40
0.0
 40
0.0
 40
0.0
 40
7.853981633974483
 40
7.853981633974483
 40
15.70796326794897
 40
15.70796326794897
 40
23.56194490192345
 40
23.56194490192345
 40
31.41592653589793
 40
31.41592653589793
 40
31.41592653589793
 10
-25.26976979054962
 20
-0.0000444901293382
 30
-8.356430692932191
 41
1.0
 10
-25.26976976768958
 20
4.999955509870606
 30
-8.356430692932191
 41
0.7071067811865477
 10
-25.88381498547124
 20
4.999955514851033
 30
-3.39127908497974
 41
1.0
 10
-26.49786020325291
 20
4.999955519831458
 30
1.573872522972715
 41
0.7071067811865477
 10
-26.49786022611294
 20
-0.0000444801684848
 30
1.573872522972715
 41
1.0
 10
-26.49786024897299
 20
-5.00004448016843
 30
1.573872522972718
 41
0.7071067811865477
 10
-25.88381503119134
 20
-5.000044485148857
 30
-3.391279084979737
 41
1.0
 10
-25.26976981340967
 20
-5.000044490129283
 30
-8.356430692932191
 41
0.7071067811865477
 10
-25.26976979054962
 20
-0.0000444901293382
 30
-8.356430692932191
 41
1.0
  0
SPLINE
  5
B4
330
1F
100
AcDbEntity
  8
Predefinito
100
AcDbSpline
210
-0.9963045628417941
220
-3.266258206137492E-10
230
0.08589073326396417
 70
    15
 71
     2
 72
    12
 73
     9
 74
     0
 42
0.000000001
 43
0.0000000001
 40
0.0
 40
0.0
 40
0.0
 40
7.853981633974483
 40
7.853981633974483
 40
15.70796326794897
 40
15.70796326794897
 40
23.56194490192345
 40
23.56194490192345
 40
31.41592653589793
 40
31.41592653589793
 40
31.41592653589793
 10
-34.89082832566847
 20
-0.0000444790856145
 30
-8.525019571106121
 41
0.9999999999999998
 10
-34.89082832730766
 20
4.999955520914388
 30
-8.525019571106123
 41
0.7071067811865475
 10
-34.46144951771445
 20
4.999955520557267
 30
-3.544365070572454
 41
0.9999999999999998
 10
-34.03207070812123
 20
4.999955520200145
 30
1.436289429961213
 41
0.7071067811865475
 10
-34.03207070648203
 20
-0.0000444797998585
 30
1.436289429961213
 41
0.9999999999999998
 10
-34.03207070484285
 20
-5.000044479799862
 30
1.436289429961218
 41
0.7071067811865475
 10
-34.46144951443607
 20
-5.000044479442741
 30
-3.54436507057245
 41
0.9999999999999998
 10
-34.89082832402929
 20
-5.000044479085619
 30
-8.525019571106123
 41
0.7071067811865475
 10
-34.89082832566847
 20
-0.0000444790856145
 30
-8.525019571106121
 41
0.9999999999999998
  0
SPLINE
  5
B5
330
1F
100
AcDbEntity
  8
Predefinito
100
AcDbSpline
210
0.9550626471423829
220
2.159671351989915E-10
230
-0.2964040148739291
 70
    15
 71
     2
 72
    12
 73
     9
 74
     0
 42
0.000000001
 43
0.0000000001
 40
0.0
 40
0.0
 40
0.0
 40
7.853981633974483
 40
7.853981633974483
 40
15.70796326794897
 40
15.70796326794897
 40
23.56194490192345
 40
23.56194490192345
 40
31.41592653589793
 40
31.41592653589793
 40
31.41592653589793
 10
-45.75511789674204
 20
-0.0000444793148542
 30
-6.34873817974723
 41
0.9999999999999999
 10
-45.75511789787269
 20
4.999955520685147
 30
-6.348738179747234
 41
0.7071067811865475
 10
-44.27342786366906
 20
4.999955520438821
 30
-1.574488387911893
 41
0.9999999999999999
 10
-42.79173782946542
 20
4.999955520192492
 30
3.199761403923441
 41
0.7071067811865475
 10
-42.79173782833477
 20
-0.0000444798075102
 30
3.199761403923445
 41
0.9999999999999999
 10
-42.79173782720413
 20
-5.000044479807513
 30
3.199761403923442
 41
0.7071067811865475
 10
-44.27342786140776
 20
-5.000044479561185
 30
-1.574488387911893
 41
0.9999999999999999
 10
-45.75511789561139
 20
-5.000044479314856
 30
-6.348738179747234
 41
0.7071067811865475
 10
-45.75511789674204
 20
-0.0000444793148542
 30
-6.34873817974723
 41
0.9999999999999999
  0
SPLINE
  5
B6
330
1F
100
AcDbEntity
  8
Predefinito
100
AcDbSpline
210
-0.9335649560716361
220
-2.030275474864378E-11
230
0.3584082487819776
 70
    15
 71
     2
 72
    12
 73
     9
 74
     0
 42
0.000000001
 43
0.0000000001
 40
0.0
 40
0.0
 40
0.0
 40
7.853981633974483
 40
7.853981633974483
 40
15.70796326794897
 40
15.70796326794897
 40
23.56194490192345
 40
23.56194490192345
 40
31.41592653589793
 40
31.41592653589793
 40
31.41592653589793
 10
-51.8858862345753
 20
-0.0000444797755088
 30
-4.113728620376369
 41
0.9999999999999998
 10
-51.88588623468402
 20
4.999955520224491
 30
-4.113728620376379
 41
0.7071067811865475
 10
-50.09386299675175
 20
4.999955520200802
 30
0.5540492588578563
 41
0.9999999999999998
 10
-48.30183975881948
 20
4.999955520177113
 30
5.221827138092083
 41
0.7071067811865475
 10
-48.30183975871074
 20
-0.0000444798228863
 30
5.221827138092083
 41
0.9999999999999998
 10
-48.301839758602
 20
-5.000044479822885
 30
5.221827138092085
 41
0.7071067811865475
 10
-50.09386299653428
 20
-5.000044479799199
 30
0.5540492588578568
 41
0.9999999999999998
 10
-51.88588623446655
 20
-5.00004447977551
 30
-4.113728620376379
 41
0.7071067811865475
 10
-51.8858862345753
 20
-0.0000444797755088
 30
-4.113728620376369
 41
0.9999999999999998
  0
SPLINE
  5
B7
330
1F
100
AcDbEntity
  8
Predefinito
100
AcDbSpline
210
-0.9731677105348224
220
7.453433249690171E-12
230
0.2300969516799647
 70
    15
 71
     2
 72
    12
 73
     9
 74
     0
 42
0.000000001
 43
0.0000000001
 40
0.0
 40
0.0
 40
0.0
 40
7.853981633974483
 40
7.853981633974483
 40
15.70796326794897
 40
15.70796326794897
 40
23.56194490192345
 40
23.56194490192345
 40
31.41592653589793
 40
31.41592653589793
 40
31.41592653589793
 10
-58.12893265395745
 20
-0.0000444798417894
 30
-2.09319159070359
 41
0.9999999999999999
 10
-58.12893265391914
 20
4.999955520158212
 30
-2.093191590703594
 41
0.7071067811865476
 10
-56.97841032494152
 20
4.999955520166557
 30
2.772805862264199
 41
0.9999999999999999
 10
-55.82788799596386
 20
4.999955520174902
 30
7.638803315231995
 41
0.7071067811865476
 10
-55.82788799600217
 20
-0.0000444798250987
 30
7.63880331523199
 41
0.9999999999999999
 10
-55.82788799604045
 20
-5.000044479825098
 30
7.638803315231995
 41
0.7071067811865476
 10
-56.97841032501811
 20
-5.000044479833447
 30
2.7728058622642
 41
0.9999999999999999
 10
-58.12893265399573
 20
-5.00004447984179
 30
-2.093191590703594
 41
0.7071067811865476
 10
-58.12893265395745
 20
-0.0000444798417894
 30
-2.09319159070359
 41
0.9999999999999999
  0
SPLINE
  5
B8
330
1F
100
AcDbEntity
  8
Predefinito
100
AcDbSpline
210
0.9998433018262187
220
2.563236473199735E-12
230
0.01770231039285513
 70
    15
 71
     2
 72
    12
 73
     9
 74
     0
 42
0.000000001
 43
0.0000000001
 40
0.0
 40
0.0
 40
0.0
 40
7.853981633974483
 40
7.853981633974483
 40
15.70796326794897
 40
15.70796326794897
 40
23.56194490192345
 40
23.56194490192345
 40
31.41592653589793
 40
31.41592653589793
 40
31.41592653589793
 10
-65.55431173057025
 20
-0.0000444798187509
 30
-1.29529411736667
 41
1.0
 10
-65.55431173058302
 20
4.999955520181247
 30
-1.295294117366669
 41
0.7071067811865478
 10
-65.64281266571899
 20
4.99995552017846
 30
3.703322743218656
 41
1.0
 10
-65.73131360085493
 20
4.99995552017567
 30
8.701939603803984
 41
0.7071067811865478
 10
-65.73131360084211
 20
-0.0000444798243297
 30
8.701939603803982
 41
1.0
 10
-65.7313136008293
 20
-5.00004447982433
 30
8.701939603803984
 41
0.7071067811865478
 10
-65.64281266569337
 20
-5.000044479821541
 30
3.70332274321866
 41
1.0
 10
-65.55431173055742
 20
-5.000044479818751
 30
-1.295294117366667
 41
0.7071067811865478
 10
-65.55431173057025
 20
-0.0000444798187509
 30
-1.29529411736667
 41
1.0
  0
SPLINE
  5
B9
330
1F
100
AcDbEntity
  8
Predefinito
100
AcDbSpline
 70
     0
 71
     3
 72
    12
 73
     8
 74
     0
 42
0.000000001
 43
0.0000000001
 40
0.0
 40
0.0
 40
0.0
 40
0.0
 40
17.97229636614189
 40
35.94459273228379
 40
53.91688909842568
 40
71.88918546456757
 40
89.86148183070947
 40
89.86148183070947
 40
89.86148183070947
 40
89.86148183070947
 10
-76.76344083737487
 20
-0.000044479824524
 30
1.992889617449574
 10
-61.37266993341309
 20
-0.000044479824524
 30
6.229766194822904
 10
-45.11662206140736
 20
-0.000044479824524
 30
-3.032400615971056
 10
-27.72643131461054
 20
-0.000044479824524
 30
-4.166543490762152
 10
-22.24474075312023
 20
-0.000044479824524
 30
-2.465329178575505
 10
-8.067954818231513
 20
-0.000044479824524
 30
-1.14216249131923
 10
-0.3719491331822695
 20
0.0000000000000046
 30
-3.5994720533666
 10
8.566140678704585
 20
0.0
 30
-7.379948302670261
  0
SPLINE
  5
BA
330
1F
100
AcDbEntity
  8
Predefinito
100
AcDbSpline
210
0.0
220
0.0
230
1.0
 70
    15
 71
     2
 72
    12
 73
     9
 74
     0
 42
0.000000001
 43
0.0000000001
 40
0.0
 40
0.0
 40
0.0
 40
59.00436934779076
 40
59.00436934779076
 40
118.0087386955815
 40
118.0087386955815
 40
177.0131080433723
 40
177.0131080433723
 40
236.0174773911631
 40
236.0174773911631
 40
236.0174773911631
 10
73.38942613133497
 20
0.0
 30
-109.26042059468
 41
1.0
 10
73.38942613133497
 20
-33.56334818288325
 30
-109.26042059468
 41
0.7071067811865476
 10
39.82607794845171
 20
-33.56334818288326
 30
-109.26042059468
 41
1.0
 10
6.262729765568452
 20
-33.56334818288326
 30
-109.26042059468
 41
0.7071067811865476
 10
6.262729765568452
 20
-0.0000000000000041
 30
-109.26042059468
 41
1.0
 10
6.262729765568442
 20
33.56334818288325
 30
-109.26042059468
 41
0.7071067811865476
 10
39.8260779484517
 20
33.56334818288326
 30
-109.26042059468
 41
1.0
 10
73.38942613133496
 20
33.56334818288327
 30
-109.26042059468
 41
0.7071067811865476
 10
73.38942613133497
 20
0.0
 30
-109.26042059468
 41
1.0
  0
SPLINE
  5
BB
330
1F
100
AcDbEntity
  8
Predefinito
100
AcDbSpline
210
0.0
220
0.0
230
1.0
 70
    28
 71
     2
 72
     6
 73
     3
 74
     0
 42
0.000000001
 43
0.0000000001
 40
0.0
 40
0.0
 40
0.0
 40
3859.400884247768
 40
3859.400884247768
 40
3859.400884247768
 10
73.38942613133497
 20
0.0
 30
-109.26042059468
 41
1.0
 10
73.38942613133497
 20
0.0
 30
-2038.960862718564
 41
1.0
 10
73.38942613133497
 20
0.0
 30
-3968.661304842448
 41
1.0
  0
SPLINE
  5
BC
330
1F
100
AcDbEntity
  8
Predefinito
100
AcDbSpline
210
0.0
220
0.0
230
1.0
 70
    15
 71
     2
 72
    12
 73
     9
 74
     0
 42
0.000000001
 43
0.0000000001
 40
0.0
 40
0.0
 40
0.0
 40
59.00436934779076
 40
59.00436934779076
 40
118.0087386955815
 40
118.0087386955815
 40
177.0131080433723
 40
177.0131080433723
 40
236.0174773911631
 40
236.0174773911631
 40
236.0174773911631
 10
73.38942613133497
 20
0.0
 30
-3968.661304842448
 41
1.0
 10
73.38942613133497
 20
-33.56334818288325
 30
-3968.661304842448
 41
0.7071067811865476
 10
39.82607794845171
 20
-33.56334818288326
 30
-3968.661304842448
 41
1.0
 10
6.262729765568452
 20
-33.56334818288326
 30
-3968.661304842448
 41
0.7071067811865476
 10
6.262729765568452
 20
-0.0000000000000041
 30
-3968.661304842448
 41
1.0
 10
6.262729765568442
 20
33.56334818288325
 30
-3968.661304842448
 41
0.7071067811865476
 10
39.8260779484517
 20
33.56334818288326
 30
-3968.661304842448
 41
1.0
 10
73.38942613133496
 20
33.56334818288327
 30
-3968.661304842448
 41
0.7071067811865476
 10
73.38942613133497
 20
0.0
 30
-3968.661304842448
 41
1.0
  0
CIRCLE
  5
BD
330
1F
100
AcDbEntity
  8
Predefinito
100
AcDbCircle
 10
39.82607794845171
 20
0.0
 30
-109.26042059468
 40
33.56334818288326
  0
SPLINE
  5
BE
330
1F
100
AcDbEntity
  8
Predefinito
100
AcDbSpline
210
0.0
220
0.0
230
1.0
 70
    24
 71
     2
 72
     6
 73
     3
 74
     0
 42
0.000000001
 43
0.0000000001
 40
0.0
 40
0.0
 40
0.0
 40
9.27473515626137
 40
9.27473515626137
 40
9.27473515626137
 10
-64.85278307511373
 20
-29.789929047981
 30
-14.999999999338
 10
-69.49015065324444
 20
-29.789929047981
 30
-14.999999999338
 10
-74.12751823137515
 20
-29.789929047981
 30
-14.999999999338
  0
SPLINE
  5
BF
330
1F
100
AcDbEntity
  8
Predefinito
100
AcDbSpline
210
0.0
220
0.0
230
1.0
 70
    24
 71
     2
 72
     6
 73
     3
 74
     0
 42
0.000000001
 43
0.0000000001
 40
9.27473515626137
 40
9.27473515626137
 40
9.27473515626137
 40
39.2747351562614
 40
39.2747351562614
 40
39.2747351562614
 10
-74.12751823137515
 20
-29.789929047981
 30
-14.999999999338
 10
-74.12751823137515
 20
-29.789929047981
 30
0.0000000006619958
 10
-74.12751823137515
 20
-29.789929047981
 30
15.00000000066199
  0
SPLINE
  5
C0
330
1F
100
AcDbEntity
  8
Predefinito
100
AcDbSpline
210
0.0
220
0.0
230
1.0
 70
    24
 71
     2
 72
     6
 73
     3
 74
     0
 42
0.000000001
 43
0.0000000001
 40
39.2747351562614
 40
39.2747351562614
 40
39.2747351562614
 40
48.6494703125227
 40
48.6494703125227
 40
48.6494703125227
 10
-74.12751823137515
 20
-29.789929047981
 30
15.00000000066199
 10
-69.48062745560034
 20
-29.789929047981
 30
15.00000000066198
 10
-64.83373667982553
 20
-29.789929047981
 30
15.00000000066196
  0
SPLINE
  5
C1
330
1F
100
AcDbEntity
  8
Predefinito
100
AcDbSpline
210
0.0
220
0.0
230
1.0
 70
    24
 71
     2
 72
     6
 73
     3
 74
     0
 42
0.000000001
 43
0.0000000001
 40
153.868756335067
 40
153.868756335067
 40
153.868756335067
 40
153.968756335067
 40
153.968756335067
 40
153.968756335067
 10
-64.8337366798255
 20
-29.789929047981
 30
-14.99999999933804
 10
-64.84325987746962
 20
-29.789929047981
 30
-14.99999999933802
 10
-64.85278307511373
 20
-29.789929047981
 30
-14.999999999338
  0
SPLINE
  5
C2
330
1F
100
AcDbEntity
  8
Predefinito
100
AcDbSpline
210
0.0
220
0.0
230
1.0
 70
    24
 71
     2
 72
     6
 73
     3
 74
     0
 42
0.000000001
 43
0.0000000001
 40
0.0
 40
0.0
 40
0.0
 40
17.2100709520194
 40
17.2100709520194
 40
17.2100709520194
 10
-64.8337366798255
 20
-29.789929047981
 30
-14.99999999933804
 10
-64.8337366798255
 20
-38.39496452399069
 30
-14.99999999933804
 10
-64.8337366798255
 20
-47.0000000000004
 30
-14.99999999933804
  0
SPLINE
  5
C3
330
1F
100
AcDbEntity
  8
Predefinito
100
AcDbSpline
210
0.0
220
0.0
230
1.0
 70
    24
 71
     2
 72
     6
 73
     3
 74
     0
 42
0.000000001
 43
0.0000000001
 40
153.868756335067
 40
153.868756335067
 40
153.868756335067
 40
153.968756335067
 40
153.968756335067
 40
153.968756335067
 10
-64.8337366798255
 20
-47.0000000000004
 30
-14.99999999933804
 10
-64.84325987746962
 20
-47.0000000000004
 30
-14.99999999933802
 10
-64.85278307511373
 20
-47.0000000000004
 30
-14.999999999338
  0
SPLINE
  5
C4
330
1F
100
AcDbEntity
  8
Predefinito
100
AcDbSpline
210
0.0
220
0.0
230
1.0
 70
    24
 71
     2
 72
     6
 73
     3
 74
     0
 42
0.000000001
 43
0.0000000001
 40
-17.2100709520194
 40
-17.2100709520194
 40
-17.2100709520194
 40
0.0
 40
0.0
 40
0.0
 10
-64.85278307511373
 20
-47.0000000000004
 30
-14.999999999338
 10
-64.85278307511373
 20
-38.39496452399069
 30
-14.999999999338
 10
-64.85278307511373
 20
-29.789929047981
 30
-14.999999999338
  0
SPLINE
  5
C5
330
1F
100
AcDbEntity
  8
Predefinito
100
AcDbSpline
210
0.0
220
0.0
230
1.0
 70
    24
 71
     2
 72
     6
 73
     3
 74
     0
 42
0.000000001
 43
0.0000000001
 40
-48.6494703125227
 40
-48.6494703125227
 40
-48.6494703125227
 40
-39.2747351562614
 40
-39.2747351562614
 40
-39.2747351562614
 10
-64.83373667982553
 20
-47.0000000000004
 30
15.00000000066196
 10
-69.48062745560034
 20
-47.0000000000004
 30
15.00000000066198
 10
-74.12751823137515
 20
-47.0000000000004
 30
15.00000000066199
  0
SPLINE
  5
C6
330
1F
100
AcDbEntity
  8
Predefinito
100
AcDbSpline
210
0.0
220
0.0
230
1.0
 70
    24
 71
     2
 72
     6
 73
     3
 74
     0
 42
0.000000001
 43
0.0000000001
 40
-39.2747351562614
 40
-39.2747351562614
 40
-39.2747351562614
 40
-9.27473515626137
 40
-9.27473515626137
 40
-9.27473515626137
 10
-74.12751823137515
 20
-47.0000000000004
 30
15.00000000066199
 10
-74.12751823137515
 20
-47.0000000000004
 30
0.0000000006619958
 10
-74.12751823137515
 20
-47.0000000000004
 30
-14.999999999338
  0
SPLINE
  5
C7
330
1F
100
AcDbEntity
  8
Predefinito
100
AcDbSpline
210
0.0
220
0.0
230
1.0
 70
    24
 71
     2
 72
     6
 73
     3
 74
     0
 42
0.000000001
 43
0.0000000001
 40
-9.27473515626137
 40
-9.27473515626137
 40
-9.27473515626137
 40
0.0
 40
0.0
 40
0.0
 10
-74.12751823137515
 20
-47.0000000000004
 30
-14.999999999338
 10
-69.49015065324444
 20
-47.0000000000004
 30
-14.999999999338
 10
-64.85278307511373
 20
-47.0000000000004
 30
-14.999999999338
  0
SPLINE
  5
C8
330
1F
100
AcDbEntity
  8
Predefinito
100
AcDbSpline
210
0.0
220
1.0
230
0.0
 70
    12
 71
     2
 72
    12
 73
     9
 74
     0
 42
0.000000001
 43
0.0000000001
 40
48.6494703125227
 40
48.6494703125227
 40
48.6494703125227
 40
74.9542918181587
 40
74.9542918181587
 40
101.259113323795
 40
101.259113323795
 40
127.563934829431
 40
127.563934829431
 40
153.868756335067
 40
153.868756335067
 40
153.868756335067
 10
-64.83373667982553
 20
-29.789929047981
 30
15.00000000066196
 41
1.0
 10
-54.61924815101112
 20
-29.789929047981
 30
25.95910903976597
 41
0.826555088010303
 10
-40.67975394570282
 20
-29.789929047981
 30
20.47017944134467
 41
1.0
 10
-26.74025974039444
 20
-29.789929047981
 30
14.98124984292337
 41
0.826555088010303
 10
-26.74025974039447
 20
-29.789929047981
 30
0.0000000006622098
 41
1.0
 10
-26.74025974039441
 20
-29.789929047981
 30
-14.98124984159904
 41
0.826555088010303
 10
-40.67975394570272
 20
-29.789929047981
 30
-20.47017944002043
 41
1.0
 10
-54.61924815101094
 20
-29.789929047981
 30
-25.95910903844184
 41
0.826555088010303
 10
-64.8337366798255
 20
-29.789929047981
 30
-14.99999999933804
 41
1.0
  0
SPLINE
  5
C9
330
1F
100
AcDbEntity
  8
Predefinito
100
AcDbSpline
210
0.0
220
1.0
230
0.0
 70
    12
 71
     2
 72
    12
 73
     9
 74
     0
 42
0.000000001
 43
0.0000000001
 40
-153.868756335067
 40
-153.868756335067
 40
-153.868756335067
 40
-127.563934829431
 40
-127.563934829431
 40
-101.259113323795
 40
-101.259113323795
 40
-74.9542918181587
 40
-74.9542918181587
 40
-48.6494703125227
 40
-48.6494703125227
 40
-48.6494703125227
 10
-64.8337366798255
 20
-47.0000000000004
 30
-14.99999999933804
 41
1.0
 10
-54.61924815101094
 20
-47.0000000000004
 30
-25.95910903844184
 41
0.826555088010303
 10
-40.67975394570272
 20
-47.0000000000004
 30
-20.47017944002043
 41
1.0
 10
-26.74025974039441
 20
-47.0000000000004
 30
-14.98124984159904
 41
0.826555088010303
 10
-26.74025974039447
 20
-47.0000000000004
 30
0.0000000006622098
 41
1.0
 10
-26.74025974039444
 20
-47.0000000000004
 30
14.98124984292337
 41
0.826555088010303
 10
-40.67975394570282
 20
-47.0000000000004
 30
20.47017944134467
 41
1.0
 10
-54.61924815101112
 20
-47.0000000000004
 30
25.95910903976597
 41
0.826555088010303
 10
-64.83373667982553
 20
-47.0000000000004
 30
15.00000000066196
 41
1.0
  0
SPLINE
  5
CA
330
1F
100
AcDbEntity
  8
Predefinito
100
AcDbSpline
210
0.0
220
0.0
230
1.0
 70
    24
 71
     2
 72
     6
 73
     3
 74
     0
 42
0.000000001
 43
0.0000000001
 40
0.0
 40
0.0
 40
0.0
 40
17.2100709520194
 40
17.2100709520194
 40
17.2100709520194
 10
-74.12751823137515
 20
-29.789929047981
 30
15.00000000066199
 10
-74.12751823137515
 20
-38.39496452399069
 30
15.00000000066199
 10
-74.12751823137515
 20
-47.0000000000004
 30
15.00000000066199
  0
SPLINE
  5
CB
330
1F
100
AcDbEntity
  8
Predefinito
100
AcDbSpline
210
0.0
220
0.0
230
1.0
 70
    24
 71
     2
 72
     6
 73
     3
 74
     0
 42
0.000000001
 43
0.0000000001
 40
-17.2100709520194
 40
-17.2100709520194
 40
-17.2100709520194
 40
0.0
 40
0.0
 40
0.0
 10
-64.83373667982553
 20
-47.0000000000004
 30
15.00000000066196
 10
-64.83373667982553
 20
-38.39496452399069
 30
15.00000000066196
 10
-64.83373667982553
 20
-29.789929047981
 30
15.00000000066196
  0
SPLINE
  5
CC
330
1F
100
AcDbEntity
  8
Predefinito
100
AcDbSpline
210
0.0
220
0.0
230
1.0
 70
    24
 71
     2
 72
     6
 73
     3
 74
     0
 42
0.000000001
 43
0.0000000001
 40
0.0
 40
0.0
 40
0.0
 40
17.2100709520194
 40
17.2100709520194
 40
17.2100709520194
 10
-74.12751823137515
 20
-29.789929047981
 30
-14.999999999338
 10
-74.12751823137515
 20
-38.39496452399069
 30
-14.999999999338
 10
-74.12751823137515
 20
-47.0000000000004
 30
-14.999999999338
  0
LINE
  5
CD
330
1F
100
AcDbEntity
  8
Predefinito
100
AcDbLine
 10
-50.43388898588479
 20
-29.789929047981
 30
21.93471267210635
 11
-50.43388898588479
 21
-29.789929047981
 31
-21.9347126707823
  0
LINE
  5
CE
330
1F
100
AcDbEntity
  8
Predefinito
100
AcDbLine
 10
-26.74025974039445
 20
-29.789929047981
 30
0.0000000006619985
 11
-74.12751823137513
 21
-29.789929047981
 31
0.0000000006619985
  0
LINE
  5
CF
330
1F
100
AcDbEntity
  8
Predefinito
100
AcDbLine
 10
-64.83373667982553
 20
-38.3949645239907
 30
-14.999999999338
 11
-64.85278307511373
 21
-38.3949645239907
 31
-14.999999999338
  0
LINE
  5
D0
330
1F
100
AcDbEntity
  8
Predefinito
100
AcDbLine
 10
-64.84325987746963
 20
-47.0000000000004
 30
-14.999999999338
 11
-64.84325987746963
 21
-29.789929047981
 31
-14.999999999338
  0
LINE
  5
D1
330
1F
100
AcDbEntity
  8
Predefinito
100
AcDbLine
 10
-50.43388898588479
 20
-47.0000000000004
 30
-21.9347126707823
 11
-50.43388898588479
 21
-47.0000000000004
 31
21.93471267210634
  0
LINE
  5
D2
330
1F
100
AcDbEntity
  8
Predefinito
100
AcDbLine
 10
-26.74025974039445
 20
-47.0000000000004
 30
0.000000000662002
 11
-74.12751823137513
 21
-47.0000000000004
 31
0.000000000662002
  0
SPLINE
  5
D3
330
1F
100
AcDbEntity
  8
Predefinito
100
AcDbSpline
210
0.0
220
1.0
230
0.0
 70
    12
 71
     2
 72
    12
 73
     9
 74
     0
 42
0.000000001
 43
0.0000000001
 40
-153.868756335067
 40
-153.868756335067
 40
-153.868756335067
 40
-127.563934829431
 40
-127.563934829431
 40
-101.259113323795
 40
-101.259113323795
 40
-74.9542918181587
 40
-74.9542918181587
 40
-48.6494703125227
 40
-48.6494703125227
 40
-48.6494703125227
 10
-64.83373667982545
 20
-38.3949645239907
 30
-14.9999999993381
 41
1.0
 10
-54.61924815101085
 20
-38.3949645239907
 30
-25.9591090384419
 41
0.826555088010303
 10
-40.67975394570265
 20
-38.3949645239907
 30
-20.4701794400205
 41
1.0
 10
-26.74025974039435
 20
-38.3949645239907
 30
-14.9812498415991
 41
0.826555088010303
 10
-26.74025974039445
 20
-38.3949645239907
 30
0.0000000006621441
 41
1.0
 10
-26.74025974039445
 20
-38.3949645239907
 30
14.9812498429233
 41
0.826555088010303
 10
-40.67975394570285
 20
-38.3949645239907
 30
20.4701794413446
 41
1.0
 10
-54.61924815101114
 20
-38.3949645239907
 30
25.9591090397659
 41
0.826555088010303
 10
-64.83373667982553
 20
-38.3949645239907
 30
15.0000000006619
 41
1.0
  0
SPLINE
  5
D4
330
1F
100
AcDbEntity
  8
Predefinito
100
AcDbSpline
210
0.0
220
0.0
230
1.0
 70
    28
 71
     2
 72
     6
 73
     3
 74
     0
 42
0.000000001
 43
0.0000000001
 40
0.0
 40
0.0
 40
0.0
 40
17.2100709520194
 40
17.2100709520194
 40
17.2100709520194
 10
-40.67975394570265
 20
-29.789929047981
 30
-20.4701794400205
 41
1.0
 10
-40.67975394570265
 20
-38.3949645239907
 30
-20.4701794400205
 41
1.0
 10
-40.67975394570265
 20
-47.0000000000004
 30
-20.4701794400205
 41
1.0
  0
SPLINE
  5
D5
330
1F
100
AcDbEntity
  8
Predefinito
100
AcDbSpline
210
0.0
220
0.0
230
1.0
 70
    28
 71
     2
 72
     6
 73
     3
 74
     0
 42
0.000000001
 43
0.0000000001
 40
0.0
 40
0.0
 40
0.0
 40
17.2100709520194
 40
17.2100709520194
 40
17.2100709520194
 10
-26.74025974039445
 20
-29.789929047981
 30
0.0000000006621441
 41
1.0
 10
-26.74025974039445
 20
-38.3949645239907
 30
0.0000000006621441
 41
1.0
 10
-26.74025974039445
 20
-47.0000000000004
 30
0.0000000006621441
 41
1.0
  0
SPLINE
  5
D6
330
1F
100
AcDbEntity
  8
Predefinito
100
AcDbSpline
210
0.0
220
0.0
230
1.0
 70
    28
 71
     2
 72
     6
 73
     3
 74
     0
 42
0.000000001
 43
0.0000000001
 40
0.0
 40
0.0
 40
0.0
 40
17.2100709520194
 40
17.2100709520194
 40
17.2100709520194
 10
-40.67975394570285
 20
-29.789929047981
 30
20.4701794413446
 41
1.0
 10
-40.67975394570285
 20
-38.3949645239907
 30
20.4701794413446
 41
1.0
 10
-40.67975394570285
 20
-47.0000000000004
 30
20.4701794413446
 41
1.0
  0
LINE
  5
D7
330
1F
100
AcDbEntity
  8
Predefinito
100
AcDbLine
 10
-74.12751823137515
 20
-38.3949645239907
 30
15.000000000662
 11
-64.83373667982555
 21
-38.3949645239907
 31
15.000000000662
  0
LINE
  5
D8
330
1F
100
AcDbEntity
  8
Predefinito
100
AcDbLine
 10
-69.48062745560034
 20
-47.0000000000004
 30
15.000000000662
 11
-69.48062745560034
 21
-29.789929047981
 31
15.000000000662
  0
LINE
  5
D9
330
1F
100
AcDbEntity
  8
Predefinito
100
AcDbLine
 10
-74.12751823137515
 20
-47.0000000000004
 30
0.0000000006619949
 11
-74.12751823137515
 21
-29.789929047981
 31
0.0000000006619949
  0
LINE
  5
DA
330
1F
100
AcDbEntity
  8
Predefinito
100
AcDbLine
 10
-74.12751823137515
 20
-38.3949645239907
 30
15.000000000662
 11
-74.12751823137515
 21
-38.3949645239907
 31
-14.999999999338
  0
LINE
  5
DB
330
1F
100
AcDbEntity
  8
Predefinito
100
AcDbLine
 10
-64.85278307511373
 20
-38.3949645239907
 30
-14.999999999338
 11
-74.12751823137513
 21
-38.3949645239907
 31
-14.999999999338
  0
LINE
  5
DC
330
1F
100
AcDbEntity
  8
Predefinito
100
AcDbLine
 10
-69.49015065324443
 20
-47.0000000000004
 30
-14.999999999338
 11
-69.49015065324443
 21
-29.789929047981
 31
-14.999999999338
  0
SPLINE
  5
DD
330
1F
100
AcDbEntity
  8
Predefinito
100
AcDbSpline
210
0.0
220
0.0
230
1.0
 70
    24
 71
     2
 72
     6
 73
     3
 74
     0
 42
0.000000001
 43
0.0000000001
 40
0.0
 40
0.0
 40
0.0
 40
167.0
 40
167.0
 40
167.0
 10
-223.2402597403942
 20
84.49999999999959
 30
0.5000000006620444
 10
-306.7402597403942
 20
84.4999999999996
 30
0.5000000006620444
 10
-390.2402597403942
 20
84.4999999999996
 30
0.5000000006620444
  0
SPLINE
  5
DE
330
1F
100
AcDbEntity
  8
Predefinito
100
AcDbSpline
210
0.0
220
0.0
230
1.0
 70
    24
 71
     2
 72
     6
 73
     3
 74
     0
 42
0.000000001
 43
0.0000000001
 40
0.0
 40
0.0
 40
0.0
 40
167.0
 40
167.0
 40
167.0
 10
-391.2402597403942
 20
83.4999999999996
 30
0.5000000006620444
 10
-391.2402597403942
 20
-0.0000000000003979
 30
0.5000000006620444
 10
-391.2402597403942
 20
-83.5000000000004
 30
0.5000000006620444
  0
SPLINE
  5
DF
330
1F
100
AcDbEntity
  8
Predefinito
100
AcDbSpline
210
0.0
220
0.0
230
1.0
 70
    24
 71
     2
 72
     6
 73
     3
 74
     0
 42
0.000000001
 43
0.0000000001
 40
0.0
 40
0.0
 40
0.0
 40
167.0
 40
167.0
 40
167.0
 10
-390.2402597403942
 20
-84.5000000000004
 30
0.5000000006620444
 10
-306.7402597403942
 20
-84.5000000000004
 30
0.5000000006620444
 10
-223.2402597403942
 20
-84.5000000000004
 30
0.5000000006620444
  0
SPLINE
  5
E0
330
1F
100
AcDbEntity
  8
Predefinito
100
AcDbSpline
210
0.0
220
0.0
230
1.0
 70
    24
 71
     2
 72
     6
 73
     3
 74
     0
 42
0.000000001
 43
0.0000000001
 40
0.0
 40
0.0
 40
0.0
 40
167.0
 40
167.0
 40
167.0
 10
-222.2402597403941
 20
-83.5000000000004
 30
0.5000000006620444
 10
-222.2402597403942
 20
-0.0000000000003979
 30
0.5000000006620444
 10
-222.2402597403942
 20
83.4999999999996
 30
0.5000000006620444
  0
SPLINE
  5
E1
330
1F
100
AcDbEntity
  8
Predefinito
100
AcDbSpline
210
0.0
220
0.0
230
1.0
 70
    24
 71
     2
 72
     6
 73
     3
 74
     0
 42
0.000000001
 43
0.0000000001
 40
-8.0
 40
-8.0
 40
-8.0
 40
0.0
 40
0.0
 40
0.0
 10
-391.2402597403942
 20
83.4999999999996
 30
-7.499999999337953
 10
-391.2402597403942
 20
83.4999999999996
 30
-3.499999999337954
 10
-391.2402597403942
 20
83.4999999999996
 30
0.5000000006620444
  0
SPLINE
  5
E2
330
1F
100
AcDbEntity
  8
Predefinito
100
AcDbSpline
210
0.0
220
0.0
230
1.0
 70
    24
 71
     2
 72
     6
 73
     3
 74
     0
 42
0.000000001
 43
0.0000000001
 40
-1.4142135623731
 40
-1.4142135623731
 40
-1.4142135623731
 40
0.0
 40
0.0
 40
0.0
 10
-390.2402597403942
 20
84.4999999999996
 30
0.5000000006620444
 10
-390.7402597403942
 20
83.9999999999996
 30
0.5000000006620444
 10
-391.2402597403942
 20
83.4999999999996
 30
0.5000000006620444
  0
SPLINE
  5
E3
330
1F
100
AcDbEntity
  8
Predefinito
100
AcDbSpline
210
0.0
220
0.0
230
1.0
 70
    24
 71
     2
 72
     6
 73
     3
 74
     0
 42
0.000000001
 43
0.0000000001
 40
-8.0
 40
-8.0
 40
-8.0
 40
0.0
 40
0.0
 40
0.0
 10
-390.2402597403942
 20
84.4999999999996
 30
0.5000000006620444
 10
-390.2402597403942
 20
84.4999999999996
 30
-3.499999999337954
 10
-390.2402597403942
 20
84.4999999999996
 30
-7.499999999337953
  0
SPLINE
  5
E4
330
1F
100
AcDbEntity
  8
Predefinito
100
AcDbSpline
210
0.0
220
0.0
230
1.0
 70
    24
 71
     2
 72
     6
 73
     3
 74
     0
 42
0.000000001
 43
0.0000000001
 40
-1.4142135623731
 40
-1.4142135623731
 40
-1.4142135623731
 40
0.0
 40
0.0
 40
0.0
 10
-390.2402597403942
 20
84.4999999999996
 30
-7.499999999337953
 10
-390.7402597403942
 20
83.9999999999996
 30
-7.499999999337953
 10
-391.2402597403942
 20
83.4999999999996
 30
-7.499999999337953
  0
SPLINE
  5
E5
330
1F
100
AcDbEntity
  8
Predefinito
100
AcDbSpline
210
0.0
220
0.0
230
1.0
 70
    24
 71
     2
 72
     6
 73
     3
 74
     0
 42
0.000000001
 43
0.0000000001
 40
-8.0
 40
-8.0
 40
-8.0
 40
0.0
 40
0.0
 40
0.0
 10
-390.2402597403942
 20
-84.5000000000004
 30
-7.499999999337953
 10
-390.2402597403942
 20
-84.5000000000004
 30
-3.499999999337954
 10
-390.2402597403942
 20
-84.5000000000004
 30
0.5000000006620444
  0
SPLINE
  5
E6
330
1F
100
AcDbEntity
  8
Predefinito
100
AcDbSpline
210
0.0
220
0.0
230
1.0
 70
    24
 71
     2
 72
     6
 73
     3
 74
     0
 42
0.000000001
 43
0.0000000001
 40
-1.4142135623731
 40
-1.4142135623731
 40
-1.4142135623731
 40
0.0
 40
0.0
 40
0.0
 10
-391.2402597403942
 20
-83.5000000000004
 30
0.5000000006620444
 10
-390.7402597403942
 20
-84.0000000000004
 30
0.5000000006620444
 10
-390.2402597403942
 20
-84.5000000000004
 30
0.5000000006620444
  0
SPLINE
  5
E7
330
1F
100
AcDbEntity
  8
Predefinito
100
AcDbSpline
210
0.0
220
0.0
230
1.0
 70
    24
 71
     2
 72
     6
 73
     3
 74
     0
 42
0.000000001
 43
0.0000000001
 40
-8.0
 40
-8.0
 40
-8.0
 40
0.0
 40
0.0
 40
0.0
 10
-391.2402597403942
 20
-83.5000000000004
 30
0.5000000006620444
 10
-391.2402597403942
 20
-83.5000000000004
 30
-3.499999999337954
 10
-391.2402597403942
 20
-83.5000000000004
 30
-7.499999999337953
  0
SPLINE
  5
E8
330
1F
100
AcDbEntity
  8
Predefinito
100
AcDbSpline
210
0.0
220
0.0
230
1.0
 70
    24
 71
     2
 72
     6
 73
     3
 74
     0
 42
0.000000001
 43
0.0000000001
 40
-1.4142135623731
 40
-1.4142135623731
 40
-1.4142135623731
 40
0.0
 40
0.0
 40
0.0
 10
-391.2402597403942
 20
-83.5000000000004
 30
-7.499999999337953
 10
-390.7402597403942
 20
-84.0000000000004
 30
-7.499999999337953
 10
-390.2402597403942
 20
-84.5000000000004
 30
-7.499999999337953
  0
SPLINE
  5
E9
330
1F
100
AcDbEntity
  8
Predefinito
100
AcDbSpline
210
0.0
220
0.0
230
1.0
 70
    24
 71
     2
 72
     6
 73
     3
 74
     0
 42
0.000000001
 43
0.0000000001
 40
-8.0
 40
-8.0
 40
-8.0
 40
0.0
 40
0.0
 40
0.0
 10
-222.2402597403942
 20
-83.5000000000004
 30
-7.499999999337953
 10
-222.2402597403942
 20
-83.5000000000004
 30
-3.499999999337954
 10
-222.2402597403941
 20
-83.5000000000004
 30
0.5000000006620444
  0
SPLINE
  5
EA
330
1F
100
AcDbEntity
  8
Predefinito
100
AcDbSpline
210
0.0
220
0.0
230
1.0
 70
    24
 71
     2
 72
     6
 73
     3
 74
     0
 42
0.000000001
 43
0.0000000001
 40
-1.4142135623731
 40
-1.4142135623731
 40
-1.4142135623731
 40
0.0
 40
0.0
 40
0.0
 10
-223.2402597403942
 20
-84.5000000000004
 30
0.5000000006620444
 10
-222.7402597403942
 20
-84.0000000000004
 30
0.5000000006620444
 10
-222.2402597403941
 20
-83.5000000000004
 30
0.5000000006620444
  0
SPLINE
  5
EB
330
1F
100
AcDbEntity
  8
Predefinito
100
AcDbSpline
210
0.0
220
0.0
230
1.0
 70
    24
 71
     2
 72
     6
 73
     3
 74
     0
 42
0.000000001
 43
0.0000000001
 40
-8.0
 40
-8.0
 40
-8.0
 40
0.0
 40
0.0
 40
0.0
 10
-223.2402597403942
 20
-84.5000000000004
 30
0.5000000006620444
 10
-223.2402597403942
 20
-84.5000000000004
 30
-3.499999999337954
 10
-223.2402597403942
 20
-84.5000000000004
 30
-7.499999999337953
  0
SPLINE
  5
EC
330
1F
100
AcDbEntity
  8
Predefinito
100
AcDbSpline
210
0.0
220
0.0
230
1.0
 70
    24
 71
     2
 72
     6
 73
     3
 74
     0
 42
0.000000001
 43
0.0000000001
 40
-1.4142135623731
 40
-1.4142135623731
 40
-1.4142135623731
 40
0.0
 40
0.0
 40
0.0
 10
-223.2402597403942
 20
-84.5000000000004
 30
-7.499999999337953
 10
-222.7402597403942
 20
-84.0000000000004
 30
-7.499999999337953
 10
-222.2402597403942
 20
-83.5000000000004
 30
-7.499999999337953
  0
SPLINE
  5
ED
330
1F
100
AcDbEntity
  8
Predefinito
100
AcDbSpline
210
0.0
220
0.0
230
1.0
 70
    24
 71
     2
 72
     6
 73
     3
 74
     0
 42
0.000000001
 43
0.0000000001
 40
-8.0
 40
-8.0
 40
-8.0
 40
0.0
 40
0.0
 40
0.0
 10
-223.2402597403942
 20
84.49999999999959
 30
-7.499999999337953
 10
-223.2402597403942
 20
84.49999999999959
 30
-3.499999999337954
 10
-223.2402597403942
 20
84.49999999999959
 30
0.5000000006620444
  0
SPLINE
  5
EE
330
1F
100
AcDbEntity
  8
Predefinito
100
AcDbSpline
210
0.0
220
0.0
230
1.0
 70
    24
 71
     2
 72
     6
 73
     3
 74
     0
 42
0.000000001
 43
0.0000000001
 40
-1.4142135623731
 40
-1.4142135623731
 40
-1.4142135623731
 40
0.0
 40
0.0
 40
0.0
 10
-222.2402597403942
 20
83.4999999999996
 30
0.5000000006620444
 10
-222.7402597403942
 20
83.9999999999996
 30
0.5000000006620444
 10
-223.2402597403942
 20
84.49999999999959
 30
0.5000000006620444
  0
SPLINE
  5
EF
330
1F
100
AcDbEntity
  8
Predefinito
100
AcDbSpline
210
0.0
220
0.0
230
1.0
 70
    24
 71
     2
 72
     6
 73
     3
 74
     0
 42
0.000000001
 43
0.0000000001
 40
-8.0
 40
-8.0
 40
-8.0
 40
0.0
 40
0.0
 40
0.0
 10
-222.2402597403942
 20
83.4999999999996
 30
0.5000000006620444
 10
-222.2402597403942
 20
83.4999999999996
 30
-3.499999999337954
 10
-222.2402597403942
 20
83.4999999999996
 30
-7.499999999337953
  0
SPLINE
  5
F0
330
1F
100
AcDbEntity
  8
Predefinito
100
AcDbSpline
210
0.0
220
0.0
230
1.0
 70
    24
 71
     2
 72
     6
 73
     3
 74
     0
 42
0.000000001
 43
0.0000000001
 40
-1.4142135623731
 40
-1.4142135623731
 40
-1.4142135623731
 40
0.0
 40
0.0
 40
0.0
 10
-222.2402597403942
 20
83.4999999999996
 30
-7.499999999337953
 10
-222.7402597403942
 20
83.9999999999996
 30
-7.499999999337953
 10
-223.2402597403942
 20
84.49999999999959
 30
-7.499999999337953
  0
SPLINE
  5
F1
330
1F
100
AcDbEntity
  8
Predefinito
100
AcDbSpline
210
0.0
220
0.0
230
1.0
 70
    24
 71
     2
 72
     6
 73
     3
 74
     0
 42
0.000000001
 43
0.0000000001
 40
-167.0
 40
-167.0
 40
-167.0
 40
0.0
 40
0.0
 40
0.0
 10
-222.2402597403942
 20
83.4999999999996
 30
-7.499999999337953
 10
-222.2402597403942
 20
-0.0000000000003979
 30
-7.499999999337953
 10
-222.2402597403942
 20
-83.5000000000004
 30
-7.499999999337953
  0
SPLINE
  5
F2
330
1F
100
AcDbEntity
  8
Predefinito
100
AcDbSpline
210
0.0
220
0.0
230
1.0
 70
    24
 71
     2
 72
     6
 73
     3
 74
     0
 42
0.000000001
 43
0.0000000001
 40
-167.0
 40
-167.0
 40
-167.0
 40
0.0
 40
0.0
 40
0.0
 10
-223.2402597403942
 20
-84.5000000000004
 30
-7.499999999337953
 10
-306.7402597403942
 20
-84.5000000000004
 30
-7.499999999337953
 10
-390.2402597403942
 20
-84.5000000000004
 30
-7.499999999337953
  0
SPLINE
  5
F3
330
1F
100
AcDbEntity
  8
Predefinito
100
AcDbSpline
210
0.0
220
0.0
230
1.0
 70
    24
 71
     2
 72
     6
 73
     3
 74
     0
 42
0.000000001
 43
0.0000000001
 40
-167.0
 40
-167.0
 40
-167.0
 40
0.0
 40
0.0
 40
0.0
 10
-391.2402597403942
 20
-83.5000000000004
 30
-7.499999999337953
 10
-391.2402597403942
 20
-0.0000000000003979
 30
-7.499999999337953
 10
-391.2402597403942
 20
83.4999999999996
 30
-7.499999999337953
  0
SPLINE
  5
F4
330
1F
100
AcDbEntity
  8
Predefinito
100
AcDbSpline
210
0.0
220
0.0
230
1.0
 70
    24
 71
     2
 72
     6
 73
     3
 74
     0
 42
0.000000001
 43
0.0000000001
 40
-167.0
 40
-167.0
 40
-167.0
 40
0.0
 40
0.0
 40
0.0
 10
-390.2402597403942
 20
84.4999999999996
 30
-7.499999999337953
 10
-306.7402597403942
 20
84.4999999999996
 30
-7.499999999337953
 10
-223.2402597403942
 20
84.49999999999959
 30
-7.499999999337953
  0
LINE
  5
F5
330
1F
100
AcDbEntity
  8
Predefinito
100
AcDbLine
 10
-391.2402597403942
 20
-0.0000000000003979
 30
0.5000000006620444
 11
-222.2402597403942
 21
-0.0000000000003979
 31
0.5000000006620444
  0
LINE
  5
F6
330
1F
100
AcDbEntity
  8
Predefinito
100
AcDbLine
 10
-306.7402597403942
 20
-84.50000000000038
 30
0.5000000006620444
 11
-306.7402597403942
 21
84.49999999999962
 31
0.5000000006620444
  0
LINE
  5
F7
330
1F
100
AcDbEntity
  8
Predefinito
100
AcDbLine
 10
-390.2402597403941
 20
84.4999999999996
 30
-3.499999999337954
 11
-391.2402597403942
 21
83.4999999999996
 31
-3.499999999337954
  0
LINE
  5
F8
330
1F
100
AcDbEntity
  8
Predefinito
100
AcDbLine
 10
-390.7402597403942
 20
83.9999999999996
 30
-7.499999999337953
 11
-390.7402597403942
 21
83.9999999999996
 31
0.5000000006620451
  0
LINE
  5
F9
330
1F
100
AcDbEntity
  8
Predefinito
100
AcDbLine
 10
-391.2402597403942
 20
-83.5000000000004
 30
-3.499999999337954
 11
-390.2402597403941
 21
-84.5000000000004
 31
-3.499999999337954
  0
LINE
  5
FA
330
1F
100
AcDbEntity
  8
Predefinito
100
AcDbLine
 10
-390.7402597403942
 20
-84.0000000000004
 30
-7.499999999337953
 11
-390.7402597403942
 21
-84.0000000000004
 31
0.5000000006620451
  0
LINE
  5
FB
330
1F
100
AcDbEntity
  8
Predefinito
100
AcDbLine
 10
-223.2402597403942
 20
-84.50000000000038
 30
-3.499999999337954
 11
-222.2402597403942
 21
-83.5000000000004
 31
-3.499999999337954
  0
LINE
  5
FC
330
1F
100
AcDbEntity
  8
Predefinito
100
AcDbLine
 10
-222.7402597403942
 20
-84.0000000000004
 30
-7.499999999337953
 11
-222.7402597403942
 21
-84.0000000000004
 31
0.5000000006620451
  0
LINE
  5
FD
330
1F
100
AcDbEntity
  8
Predefinito
100
AcDbLine
 10
-222.2402597403942
 20
83.4999999999996
 30
-3.499999999337954
 11
-223.2402597403941
 21
84.49999999999957
 31
-3.499999999337954
  0
LINE
  5
FE
330
1F
100
AcDbEntity
  8
Predefinito
100
AcDbLine
 10
-222.7402597403942
 20
83.9999999999996
 30
-7.499999999337953
 11
-222.7402597403942
 21
83.9999999999996
 31
0.5000000006620451
  0
LINE
  5
FF
330
1F
100
AcDbEntity
  8
Predefinito
100
AcDbLine
 10
-222.2402597403942
 20
-0.0000000000003979
 30
-7.499999999337953
 11
-391.2402597403941
 21
-0.0000000000003979
 31
-7.499999999337953
  0
LINE
  5
100
330
1F
100
AcDbEntity
  8
Predefinito
100
AcDbLine
 10
-306.7402597403942
 20
-84.50000000000038
 30
-7.499999999337953
 11
-306.7402597403942
 21
84.49999999999962
 31
-7.499999999337953
  0
LINE
  5
101
330
1F
100
AcDbEntity
  8
Predefinito
100
AcDbLine
 10
-222.2402597403942
 20
83.4999999999996
 30
-3.499999999337954
 11
-222.2402597403942
 21
-83.50000000000038
 31
-3.499999999337954
  0
LINE
  5
102
330
1F
100
AcDbEntity
  8
Predefinito
100
AcDbLine
 10
-222.2402597403942
 20
-0.0000000000003979
 30
0.500000000662044
 11
-222.2402597403942
 21
-0.0000000000003979
 31
-7.499999999337952
  0
LINE
  5
103
330
1F
100
AcDbEntity
  8
Predefinito
100
AcDbLine
 10
-306.7402597403942
 20
-84.5000000000004
 30
-7.499999999337953
 11
-306.7402597403942
 21
-84.5000000000004
 31
0.5000000006620451
  0
LINE
  5
104
330
1F
100
AcDbEntity
  8
Predefinito
100
AcDbLine
 10
-223.2402597403941
 20
-84.5000000000004
 30
-3.499999999337954
 11
-390.2402597403942
 21
-84.5000000000004
 31
-3.499999999337954
  0
LINE
  5
105
330
1F
100
AcDbEntity
  8
Predefinito
100
AcDbLine
 10
-391.2402597403942
 20
-83.5000000000004
 30
-3.499999999337954
 11
-391.2402597403942
 21
83.49999999999959
 31
-3.499999999337954
  0
LINE
  5
106
330
1F
100
AcDbEntity
  8
Predefinito
100
AcDbLine
 10
-391.2402597403942
 20
-0.0000000000003979
 30
0.500000000662044
 11
-391.2402597403942
 21
-0.0000000000003979
 31
-7.499999999337952
  0
LINE
  5
107
330
1F
100
AcDbEntity
  8
Predefinito
100
AcDbLine
 10
-306.7402597403942
 20
84.4999999999996
 30
0.500000000662044
 11
-306.7402597403942
 21
84.4999999999996
 31
-7.499999999337952
  0
LINE
  5
108
330
1F
100
AcDbEntity
  8
Predefinito
100
AcDbLine
 10
-223.2402597403941
 20
84.4999999999996
 30
-3.499999999337954
 11
-390.2402597403942
 21
84.4999999999996
 31
-3.499999999337954
  0
SPLINE
  5
109
330
1F
100
AcDbEntity
  8
Predefinito
100
AcDbSpline
210
0.0
220
0.0
230
1.0
 70
    28
 71
     2
 72
     6
 73
     3
 74
     0
 42
0.000000001
 43
0.0000000001
 40
0.0
 40
0.0
 40
0.0
 40
10.0
 40
10.0
 40
10.0
 10
-398.1406135538592
 20
-94.4140203734286
 30
31.000000000662
 41
1.0
 10
-398.1406135538592
 20
-94.4140203734286
 30
26.000000000662
 41
1.0
 10
-398.1406135538592
 20
-94.4140203734286
 30
21.000000000662
 41
1.0
  0
SPLINE
  5
10A
330
1F
100
AcDbEntity
  8
Predefinito
100
AcDbSpline
210
0.0
220
0.0
230
1.0
 70
    12
 71
     2
 72
    12
 73
     9
 74
     0
 42
0.000000001
 43
0.0000000001
 40
-1794.66324415235
 40
-1794.66324415235
 40
-1794.66324415235
 40
-1478.87968695746
 40
-1478.87968695746
 40
-1471.02570532348
 40
-1471.02570532348
 40
-1311.2239968005
 40
-1311.2239968005
 40
-1303.37001516653
 40
-1303.37001516653
 40
-1303.37001516653
 10
-398.1406135538592
 20
-94.4140203734286
 30
21.000000000662
 41
1.0
 10
-240.2488349564142
 20
-94.4140203734286
 30
21.000000000662
 41
1.0
 10
-82.35705635897014
 20
-94.4140203734286
 30
21.000000000662
 41
1.0
 10
-77.35705635897014
 20
-94.4140203734286
 30
21.000000000662
 41
0.707106781186548
 10
-77.35705635897014
 20
-89.4140203734286
 30
21.000000000662
 41
1.0
 10
-77.35705635897014
 20
-0.0225428384167046
 30
21.000000000662
 41
1.0
 10
-77.35705635897014
 20
89.3689346965951
 30
21.000000000662
 41
1.0
 10
-77.35705635897013
 20
94.36893469659502
 30
21.000000000662
 41
0.707106781186557
 10
-82.35705635897014
 20
94.3689346965943
 30
21.000000000662
 41
1.0
  0
SPLINE
  5
10B
330
1F
100
AcDbEntity
  8
Predefinito
100
AcDbSpline
210
0.0
220
0.0
230
1.0
 70
    28
 71
     2
 72
     6
 73
     3
 74
     0
 42
0.000000001
 43
0.0000000001
 40
-10.0
 40
-10.0
 40
-10.0
 40
0.0
 40
0.0
 40
0.0
 10
-82.35705635897014
 20
94.3689346965943
 30
21.000000000662
 41
1.0
 10
-82.35705635897014
 20
94.3689346965943
 30
26.000000000662
 41
1.0
 10
-82.35705635897014
 20
94.3689346965943
 30
31.000000000662
 41
1.0
  0
SPLINE
  5
10C
330
1F
100
AcDbEntity
  8
Predefinito
100
AcDbSpline
210
0.0
220
0.0
230
1.0
 70
    12
 71
     2
 72
    12
 73
     9
 74
     0
 42
0.000000001
 43
0.0000000001
 40
-1794.66324415235
 40
-1794.66324415235
 40
-1794.66324415235
 40
-1478.87968695746
 40
-1478.87968695746
 40
-1471.02570532348
 40
-1471.02570532348
 40
-1311.2239968005
 40
-1311.2239968005
 40
-1303.37001516653
 40
-1303.37001516653
 40
-1303.37001516653
 10
-398.1406135538592
 20
-94.4140203734286
 30
31.000000000662
 41
1.0
 10
-240.2488349564142
 20
-94.4140203734286
 30
31.000000000662
 41
1.0
 10
-82.35705635897014
 20
-94.4140203734286
 30
31.000000000662
 41
1.0
 10
-77.35705635897014
 20
-94.4140203734286
 30
31.000000000662
 41
0.707106781186548
 10
-77.35705635897014
 20
-89.4140203734286
 30
31.000000000662
 41
1.0
 10
-77.35705635897014
 20
-0.0225428384167046
 30
31.000000000662
 41
1.0
 10
-77.35705635897014
 20
89.3689346965951
 30
31.000000000662
 41
1.0
 10
-77.35705635897013
 20
94.36893469659502
 30
31.0000000006621
 41
0.707106781186557
 10
-82.35705635897014
 20
94.3689346965943
 30
31.000000000662
 41
1.0
  0
SPLINE
  5
10D
330
1F
100
AcDbEntity
  8
Predefinito
100
AcDbSpline
210
0.0
220
0.0
230
1.0
 70
    12
 71
     2
 72
    12
 73
     9
 74
     0
 42
0.000000001
 43
0.0000000001
 40
812.076786180708
 40
812.076786180708
 40
812.076786180708
 40
819.930767814683
 40
819.930767814683
 40
979.732476337663
 40
979.732476337663
 40
987.586457971638
 40
987.586457971638
 40
1303.37001516653
 40
1303.37001516653
 40
1303.37001516653
 10
-398.1406135538592
 20
-94.4140203734286
 30
21.000000000662
 41
1.0
 10
-403.1406135538591
 20
-94.4140203734291
 30
21.000000000662
 41
0.707106781186556
 10
-403.1406135538601
 20
-89.4140203734294
 30
21.000000000662
 41
1.0
 10
-403.1406135538601
 20
-0.0225428384175217
 30
21.000000000662
 41
1.0
 10
-403.1406135538601
 20
89.3689346965943
 30
21.000000000662
 41
1.0
 10
-403.1406135538601
 20
94.3689346965944
 30
21.000000000662
 41
0.707106781186544
 10
-398.1406135538601
 20
94.3689346965943
 30
21.000000000662
 41
1.0
 10
-240.2488349564152
 20
94.3689346965943
 30
21.000000000662
 41
1.0
 10
-82.35705635897014
 20
94.3689346965943
 30
21.000000000662
 41
1.0
  0
SPLINE
  5
10E
330
1F
100
AcDbEntity
  8
Predefinito
100
AcDbSpline
210
0.0
220
0.0
230
1.0
 70
    12
 71
     2
 72
    12
 73
     9
 74
     0
 42
0.000000001
 43
0.0000000001
 40
-1303.37001516653
 40
-1303.37001516653
 40
-1303.37001516653
 40
-987.586457971638
 40
-987.586457971638
 40
-979.732476337663
 40
-979.732476337663
 40
-819.930767814683
 40
-819.930767814683
 40
-812.076786180708
 40
-812.076786180708
 40
-812.076786180708
 10
-82.35705635897014
 20
94.3689346965943
 30
31.000000000662
 41
1.0
 10
-240.2488349564152
 20
94.3689346965943
 30
31.000000000662
 41
1.0
 10
-398.1406135538601
 20
94.3689346965943
 30
31.000000000662
 41
1.0
 10
-403.1406135538601
 20
94.3689346965944
 30
31.000000000662
 41
0.707106781186544
 10
-403.1406135538601
 20
89.3689346965943
 30
31.000000000662
 41
1.0
 10
-403.1406135538601
 20
-0.0225428384175217
 30
31.000000000662
 41
1.0
 10
-403.1406135538601
 20
-89.4140203734294
 30
31.000000000662
 41
1.0
 10
-403.1406135538591
 20
-94.4140203734291
 30
31.000000000662
 41
0.707106781186556
 10
-398.1406135538592
 20
-94.4140203734286
 30
31.000000000662
 41
1.0
  0
LINE
  5
10F
330
1F
100
AcDbEntity
  8
Predefinito
100
AcDbLine
 10
-403.1406135538602
 20
-0.0225428384170669
 30
31.000000000662
 11
-77.35705635897015
 21
-0.0225428384170669
 31
31.000000000662
  0
LINE
  5
110
330
1F
100
AcDbEntity
  8
Predefinito
100
AcDbLine
 10
-240.2488349564152
 20
-94.4140203734286
 30
31.000000000662
 11
-240.2488349564152
 21
94.36893469659431
 31
31.000000000662
  0
SPLINE
  5
111
330
1F
100
AcDbEntity
  8
Predefinito
100
AcDbSpline
210
0.0
220
0.0
230
1.0
 70
    28
 71
     2
 72
     6
 73
     3
 74
     0
 42
0.000000001
 43
0.0000000001
 40
0.0
 40
0.0
 40
0.0
 40
10.0
 40
10.0
 40
10.0
 10
-82.35705635897014
 20
-94.4140203734286
 30
31.000000000662
 41
1.0
 10
-82.35705635897014
 20
-94.4140203734286
 30
26.000000000662
 41
1.0
 10
-82.35705635897014
 20
-94.4140203734286
 30
21.000000000662
 41
1.0
  0
SPLINE
  5
112
330
1F
100
AcDbEntity
  8
Predefinito
100
AcDbSpline
210
0.0
220
0.0
230
1.0
 70
    28
 71
     2
 72
     6
 73
     3
 74
     0
 42
0.000000001
 43
0.0000000001
 40
0.0
 40
0.0
 40
0.0
 40
10.0
 40
10.0
 40
10.0
 10
-77.35705635897014
 20
-89.4140203734286
 30
31.000000000662
 41
1.0
 10
-77.35705635897014
 20
-89.4140203734286
 30
26.000000000662
 41
1.0
 10
-77.35705635897014
 20
-89.4140203734286
 30
21.000000000662
 41
1.0
  0
SPLINE
  5
113
330
1F
100
AcDbEntity
  8
Predefinito
100
AcDbSpline
210
0.0
220
0.0
230
1.0
 70
    28
 71
     2
 72
     6
 73
     3
 74
     0
 42
0.000000001
 43
0.0000000001
 40
0.0
 40
0.0
 40
0.0
 40
10.0
 40
10.0
 40
10.0
 10
-77.35705635897014
 20
89.3689346965951
 30
31.000000000662
 41
1.0
 10
-77.35705635897014
 20
89.3689346965951
 30
26.000000000662
 41
1.0
 10
-77.35705635897014
 20
89.3689346965951
 30
21.000000000662
 41
1.0
  0
SPLINE
  5
114
330
1F
100
AcDbEntity
  8
Predefinito
100
AcDbSpline
210
0.0
220
0.0
230
1.0
 70
    12
 71
     2
 72
    12
 73
     9
 74
     0
 42
0.000000001
 43
0.0000000001
 40
-1794.66324415235
 40
-1794.66324415235
 40
-1794.66324415235
 40
-1478.87968695746
 40
-1478.87968695746
 40
-1471.02570532348
 40
-1471.02570532348
 40
-1311.2239968005
 40
-1311.2239968005
 40
-1303.37001516653
 40
-1303.37001516653
 40
-1303.37001516653
 10
-398.1406135538592
 20
-94.4140203734286
 30
26.000000000662
 41
1.0
 10
-240.2488349564142
 20
-94.4140203734286
 30
26.000000000662
 41
1.0
 10
-82.35705635897014
 20
-94.4140203734286
 30
26.000000000662
 41
1.0
 10
-77.35705635897015
 20
-94.4140203734286
 30
26.000000000662
 41
0.707106781186548
 10
-77.35705635897014
 20
-89.4140203734286
 30
26.000000000662
 41
1.0
 10
-77.35705635897014
 20
-0.0225428384167046
 30
26.000000000662
 41
1.0
 10
-77.35705635897014
 20
89.3689346965951
 30
26.000000000662
 41
1.0
 10
-77.35705635897014
 20
94.36893469659502
 30
26.00000000066205
 41
0.707106781186557
 10
-82.35705635897014
 20
94.3689346965943
 30
26.000000000662
 41
1.0
  0
LINE
  5
115
330
1F
100
AcDbEntity
  8
Predefinito
100
AcDbLine
 10
-77.35705635897014
 20
-0.0225428384170669
 30
21.000000000662
 11
-403.1406135538601
 21
-0.0225428384170669
 31
21.000000000662
  0
LINE
  5
116
330
1F
100
AcDbEntity
  8
Predefinito
100
AcDbLine
 10
-240.2488349564152
 20
-94.4140203734286
 30
21.000000000662
 11
-240.2488349564152
 21
94.36893469659431
 31
21.000000000662
  0
SPLINE
  5
117
330
1F
100
AcDbEntity
  8
Predefinito
100
AcDbSpline
210
0.0
220
0.0
230
1.0
 70
    28
 71
     2
 72
     6
 73
     3
 74
     0
 42
0.000000001
 43
0.0000000001
 40
0.0
 40
0.0
 40
0.0
 40
10.0
 40
10.0
 40
10.0
 10
-398.1406135538601
 20
94.3689346965943
 30
31.000000000662
 41
1.0
 10
-398.1406135538601
 20
94.3689346965943
 30
26.000000000662
 41
1.0
 10
-398.1406135538601
 20
94.3689346965943
 30
21.000000000662
 41
1.0
  0
SPLINE
  5
118
330
1F
100
AcDbEntity
  8
Predefinito
100
AcDbSpline
210
0.0
220
0.0
230
1.0
 70
    28
 71
     2
 72
     6
 73
     3
 74
     0
 42
0.000000001
 43
0.0000000001
 40
0.0
 40
0.0
 40
0.0
 40
10.0
 40
10.0
 40
10.0
 10
-403.1406135538601
 20
89.3689346965943
 30
31.000000000662
 41
1.0
 10
-403.1406135538601
 20
89.3689346965943
 30
26.000000000662
 41
1.0
 10
-403.1406135538601
 20
89.3689346965943
 30
21.000000000662
 41
1.0
  0
SPLINE
  5
119
330
1F
100
AcDbEntity
  8
Predefinito
100
AcDbSpline
210
0.0
220
0.0
230
1.0
 70
    28
 71
     2
 72
     6
 73
     3
 74
     0
 42
0.000000001
 43
0.0000000001
 40
0.0
 40
0.0
 40
0.0
 40
10.0
 40
10.0
 40
10.0
 10
-403.1406135538601
 20
-89.4140203734294
 30
31.000000000662
 41
1.0
 10
-403.1406135538601
 20
-89.4140203734294
 30
26.000000000662
 41
1.0
 10
-403.1406135538601
 20
-89.4140203734294
 30
21.000000000662
 41
1.0
  0
SPLINE
  5
11A
330
1F
100
AcDbEntity
  8
Predefinito
100
AcDbSpline
210
0.0
220
0.0
230
1.0
 70
    12
 71
     2
 72
    12
 73
     9
 74
     0
 42
0.000000001
 43
0.0000000001
 40
-1303.37001516653
 40
-1303.37001516653
 40
-1303.37001516653
 40
-987.586457971638
 40
-987.586457971638
 40
-979.732476337663
 40
-979.732476337663
 40
-819.930767814683
 40
-819.930767814683
 40
-812.076786180708
 40
-812.076786180708
 40
-812.076786180708
 10
-82.35705635897014
 20
94.3689346965943
 30
26.000000000662
 41
1.0
 10
-240.2488349564152
 20
94.3689346965943
 30
26.000000000662
 41
1.0
 10
-398.1406135538601
 20
94.3689346965943
 30
26.000000000662
 41
1.0
 10
-403.1406135538601
 20
94.3689346965944
 30
26.000000000662
 41
0.707106781186544
 10
-403.1406135538601
 20
89.3689346965943
 30
26.000000000662
 41
1.0
 10
-403.1406135538601
 20
-0.0225428384175217
 30
26.000000000662
 41
1.0
 10
-403.1406135538601
 20
-89.4140203734294
 30
26.000000000662
 41
1.0
 10
-403.1406135538591
 20
-94.4140203734291
 30
26.000000000662
 41
0.707106781186556
 10
-398.1406135538592
 20
-94.4140203734286
 30
26.000000000662
 41
1.0
  0
SPLINE
  5
11B
330
1F
100
AcDbEntity
  8
Predefinito
100
AcDbSpline
210
0.0
220
0.0
230
1.0
 70
    24
 71
     2
 72
     6
 73
     3
 74
     0
 42
0.000000001
 43
0.0000000001
 40
-153.968756335067
 40
-153.968756335067
 40
-153.968756335067
 40
-153.868756335067
 40
-153.868756335067
 40
-153.868756335067
 10
-64.85278307511373
 20
29.7899290479802
 30
-14.999999999338
 10
-64.84325987746959
 20
29.7899290479802
 30
-14.99999999933802
 10
-64.83373667982545
 20
29.7899290479802
 30
-14.99999999933804
  0
SPLINE
  5
11C
330
1F
100
AcDbEntity
  8
Predefinito
100
AcDbSpline
210
0.0
220
0.0
230
1.0
 70
    24
 71
     2
 72
     6
 73
     3
 74
     0
 42
0.000000001
 43
0.0000000001
 40
-48.6494703125227
 40
-48.6494703125227
 40
-48.6494703125227
 40
-39.2747351562614
 40
-39.2747351562614
 40
-39.2747351562614
 10
-64.83373667982553
 20
29.7899290479802
 30
15.00000000066196
 10
-69.4806274556003
 20
29.7899290479802
 30
15.00000000066198
 10
-74.12751823137506
 20
29.7899290479802
 30
15.00000000066199
  0
SPLINE
  5
11D
330
1F
100
AcDbEntity
  8
Predefinito
100
AcDbSpline
210
0.0
220
0.0
230
1.0
 70
    24
 71
     2
 72
     6
 73
     3
 74
     0
 42
0.000000001
 43
0.0000000001
 40
-39.2747351562614
 40
-39.2747351562614
 40
-39.2747351562614
 40
-9.27473515626137
 40
-9.27473515626137
 40
-9.27473515626137
 10
-74.12751823137506
 20
29.7899290479802
 30
15.00000000066199
 10
-74.12751823137506
 20
29.7899290479802
 30
0.0000000006619958
 10
-74.12751823137506
 20
29.7899290479802
 30
-14.999999999338
  0
SPLINE
  5
11E
330
1F
100
AcDbEntity
  8
Predefinito
100
AcDbSpline
210
0.0
220
0.0
230
1.0
 70
    24
 71
     2
 72
     6
 73
     3
 74
     0
 42
0.000000001
 43
0.0000000001
 40
-9.27473515626137
 40
-9.27473515626137
 40
-9.27473515626137
 40
0.0
 40
0.0
 40
0.0
 10
-74.12751823137506
 20
29.7899290479802
 30
-14.999999999338
 10
-69.4901506532444
 20
29.7899290479802
 30
-14.999999999338
 10
-64.85278307511373
 20
29.7899290479802
 30
-14.999999999338
  0
SPLINE
  5
11F
330
1F
100
AcDbEntity
  8
Predefinito
100
AcDbSpline
210
0.0
220
0.0
230
1.0
 70
    24
 71
     2
 72
     6
 73
     3
 74
     0
 42
0.000000001
 43
0.0000000001
 40
0.0
 40
0.0
 40
0.0
 40
17.2100709520194
 40
17.2100709520194
 40
17.2100709520194
 10
-64.85278307511373
 20
29.7899290479802
 30
-14.999999999338
 10
-64.85278307511373
 20
38.3949645239899
 30
-14.999999999338
 10
-64.85278307511373
 20
46.9999999999996
 30
-14.999999999338
  0
SPLINE
  5
120
330
1F
100
AcDbEntity
  8
Predefinito
100
AcDbSpline
210
0.0
220
0.0
230
1.0
 70
    24
 71
     2
 72
     6
 73
     3
 74
     0
 42
0.000000001
 43
0.0000000001
 40
-153.968756335067
 40
-153.968756335067
 40
-153.968756335067
 40
-153.868756335067
 40
-153.868756335067
 40
-153.868756335067
 10
-64.85278307511373
 20
46.9999999999996
 30
-14.999999999338
 10
-64.84325987746959
 20
46.9999999999996
 30
-14.99999999933802
 10
-64.83373667982545
 20
46.9999999999996
 30
-14.99999999933804
  0
SPLINE
  5
121
330
1F
100
AcDbEntity
  8
Predefinito
100
AcDbSpline
210
0.0
220
0.0
230
1.0
 70
    24
 71
     2
 72
     6
 73
     3
 74
     0
 42
0.000000001
 43
0.0000000001
 40
-17.2100709520194
 40
-17.2100709520194
 40
-17.2100709520194
 40
0.0
 40
0.0
 40
0.0
 10
-64.83373667982545
 20
46.9999999999996
 30
-14.99999999933804
 10
-64.83373667982545
 20
38.3949645239899
 30
-14.99999999933804
 10
-64.83373667982545
 20
29.7899290479802
 30
-14.99999999933804
  0
SPLINE
  5
122
330
1F
100
AcDbEntity
  8
Predefinito
100
AcDbSpline
210
0.0
220
0.0
230
1.0
 70
    24
 71
     2
 72
     6
 73
     3
 74
     0
 42
0.000000001
 43
0.0000000001
 40
0.0
 40
0.0
 40
0.0
 40
9.27473515626137
 40
9.27473515626137
 40
9.27473515626137
 10
-64.85278307511373
 20
46.9999999999996
 30
-14.999999999338
 10
-69.4901506532444
 20
46.9999999999996
 30
-14.999999999338
 10
-74.12751823137506
 20
46.9999999999996
 30
-14.999999999338
  0
SPLINE
  5
123
330
1F
100
AcDbEntity
  8
Predefinito
100
AcDbSpline
210
0.0
220
0.0
230
1.0
 70
    24
 71
     2
 72
     6
 73
     3
 74
     0
 42
0.000000001
 43
0.0000000001
 40
9.27473515626137
 40
9.27473515626137
 40
9.27473515626137
 40
39.2747351562614
 40
39.2747351562614
 40
39.2747351562614
 10
-74.12751823137506
 20
46.9999999999996
 30
-14.999999999338
 10
-74.12751823137506
 20
46.9999999999996
 30
0.0000000006619958
 10
-74.12751823137506
 20
46.9999999999996
 30
15.00000000066199
  0
SPLINE
  5
124
330
1F
100
AcDbEntity
  8
Predefinito
100
AcDbSpline
210
0.0
220
0.0
230
1.0
 70
    24
 71
     2
 72
     6
 73
     3
 74
     0
 42
0.000000001
 43
0.0000000001
 40
39.2747351562614
 40
39.2747351562614
 40
39.2747351562614
 40
48.6494703125227
 40
48.6494703125227
 40
48.6494703125227
 10
-74.12751823137506
 20
46.9999999999996
 30
15.00000000066199
 10
-69.4806274556003
 20
46.9999999999996
 30
15.00000000066198
 10
-64.83373667982553
 20
46.9999999999996
 30
15.00000000066196
  0
SPLINE
  5
125
330
1F
100
AcDbEntity
  8
Predefinito
100
AcDbSpline
210
0.0
220
1.0
230
0.0
 70
    12
 71
     2
 72
    12
 73
     9
 74
     0
 42
0.000000001
 43
0.0000000001
 40
48.6494703125227
 40
48.6494703125227
 40
48.6494703125227
 40
74.9542918181587
 40
74.9542918181587
 40
101.259113323795
 40
101.259113323795
 40
127.563934829431
 40
127.563934829431
 40
153.868756335067
 40
153.868756335067
 40
153.868756335067
 10
-64.83373667982553
 20
46.9999999999996
 30
15.00000000066196
 41
1.0
 10
-54.61924815101112
 20
46.9999999999996
 30
25.95910903976597
 41
0.826555088010303
 10
-40.67975394570283
 20
46.9999999999996
 30
20.47017944134467
 41
1.0
 10
-26.74025974039444
 20
46.9999999999996
 30
14.98124984292337
 41
0.826555088010303
 10
-26.74025974039444
 20
46.9999999999996
 30
0.0000000006622098
 41
1.0
 10
-26.74025974039436
 20
46.9999999999996
 30
-14.98124984159904
 41
0.826555088010303
 10
-40.67975394570265
 20
46.9999999999996
 30
-20.47017944002043
 41
1.0
 10
-54.61924815101095
 20
46.9999999999996
 30
-25.95910903844184
 41
0.826555088010303
 10
-64.83373667982545
 20
46.9999999999996
 30
-14.99999999933804
 41
1.0
  0
SPLINE
  5
126
330
1F
100
AcDbEntity
  8
Predefinito
100
AcDbSpline
210
0.0
220
1.0
230
0.0
 70
    12
 71
     2
 72
    12
 73
     9
 74
     0
 42
0.000000001
 43
0.0000000001
 40
-153.868756335067
 40
-153.868756335067
 40
-153.868756335067
 40
-127.563934829431
 40
-127.563934829431
 40
-101.259113323795
 40
-101.259113323795
 40
-74.9542918181587
 40
-74.9542918181587
 40
-48.6494703125227
 40
-48.6494703125227
 40
-48.6494703125227
 10
-64.83373667982545
 20
29.7899290479802
 30
-14.99999999933804
 41
1.0
 10
-54.61924815101095
 20
29.78992904798021
 30
-25.95910903844184
 41
0.826555088010303
 10
-40.67975394570265
 20
29.7899290479802
 30
-20.47017944002043
 41
1.0
 10
-26.74025974039436
 20
29.78992904798021
 30
-14.98124984159904
 41
0.826555088010303
 10
-26.74025974039444
 20
29.7899290479802
 30
0.0000000006622098
 41
1.0
 10
-26.74025974039444
 20
29.78992904798021
 30
14.98124984292337
 41
0.826555088010303
 10
-40.67975394570283
 20
29.7899290479802
 30
20.47017944134467
 41
1.0
 10
-54.61924815101112
 20
29.78992904798021
 30
25.95910903976597
 41
0.826555088010303
 10
-64.83373667982553
 20
29.7899290479802
 30
15.00000000066196
 41
1.0
  0
SPLINE
  5
127
330
1F
100
AcDbEntity
  8
Predefinito
100
AcDbSpline
210
0.0
220
0.0
230
1.0
 70
    24
 71
     2
 72
     6
 73
     3
 74
     0
 42
0.000000001
 43
0.0000000001
 40
0.0
 40
0.0
 40
0.0
 40
17.2100709520194
 40
17.2100709520194
 40
17.2100709520194
 10
-64.83373667982553
 20
29.7899290479802
 30
15.00000000066196
 10
-64.83373667982553
 20
38.3949645239899
 30
15.00000000066196
 10
-64.83373667982553
 20
46.9999999999996
 30
15.00000000066196
  0
SPLINE
  5
128
330
1F
100
AcDbEntity
  8
Predefinito
100
AcDbSpline
210
0.0
220
0.0
230
1.0
 70
    24
 71
     2
 72
     6
 73
     3
 74
     0
 42
0.000000001
 43
0.0000000001
 40
-17.2100709520194
 40
-17.2100709520194
 40
-17.2100709520194
 40
0.0
 40
0.0
 40
0.0
 10
-74.12751823137506
 20
46.9999999999996
 30
15.00000000066199
 10
-74.12751823137506
 20
38.3949645239899
 30
15.00000000066199
 10
-74.12751823137506
 20
29.7899290479802
 30
15.00000000066199
  0
SPLINE
  5
129
330
1F
100
AcDbEntity
  8
Predefinito
100
AcDbSpline
210
0.0
220
0.0
230
1.0
 70
    24
 71
     2
 72
     6
 73
     3
 74
     0
 42
0.000000001
 43
0.0000000001
 40
0.0
 40
0.0
 40
0.0
 40
17.2100709520194
 40
17.2100709520194
 40
17.2100709520194
 10
-74.12751823137506
 20
29.7899290479802
 30
-14.999999999338
 10
-74.12751823137506
 20
38.3949645239899
 30
-14.999999999338
 10
-74.12751823137506
 20
46.9999999999996
 30
-14.999999999338
  0
LINE
  5
12A
330
1F
100
AcDbEntity
  8
Predefinito
100
AcDbLine
 10
-50.43388898588471
 20
29.7899290479802
 30
-21.9347126707823
 11
-50.43388898588471
 21
29.7899290479802
 31
21.93471267210634
  0
LINE
  5
12B
330
1F
100
AcDbEntity
  8
Predefinito
100
AcDbLine
 10
-26.74025974039445
 20
29.7899290479802
 30
0.000000000662002
 11
-74.12751823137505
 21
29.7899290479802
 31
0.000000000662002
  0
LINE
  5
12C
330
1F
100
AcDbEntity
  8
Predefinito
100
AcDbLine
 10
-64.83373667982545
 20
38.3949645239899
 30
-14.999999999338
 11
-64.85278307511375
 21
38.3949645239899
 31
-14.999999999338
  0
LINE
  5
12D
330
1F
100
AcDbEntity
  8
Predefinito
100
AcDbLine
 10
-64.84325987746959
 20
29.7899290479802
 30
-14.999999999338
 11
-64.84325987746959
 21
46.9999999999996
 31
-14.999999999338
  0
LINE
  5
12E
330
1F
100
AcDbEntity
  8
Predefinito
100
AcDbLine
 10
-50.43388898588471
 20
46.9999999999996
 30
21.93471267210636
 11
-50.43388898588471
 21
46.9999999999996
 31
-21.9347126707823
  0
LINE
  5
12F
330
1F
100
AcDbEntity
  8
Predefinito
100
AcDbLine
 10
-26.74025974039445
 20
46.9999999999996
 30
0.0000000006619985
 11
-74.12751823137505
 21
46.9999999999996
 31
0.0000000006619985
  0
SPLINE
  5
130
330
1F
100
AcDbEntity
  8
Predefinito
100
AcDbSpline
210
0.0
220
0.0
230
1.0
 70
    28
 71
     2
 72
     6
 73
     3
 74
     0
 42
0.000000001
 43
0.0000000001
 40
0.0
 40
0.0
 40
0.0
 40
17.2100709520194
 40
17.2100709520194
 40
17.2100709520194
 10
-40.67975394570265
 20
29.7899290479802
 30
-20.4701794400205
 41
1.0
 10
-40.67975394570265
 20
38.3949645239899
 30
-20.4701794400205
 41
1.0
 10
-40.67975394570265
 20
46.9999999999996
 30
-20.4701794400205
 41
1.0
  0
SPLINE
  5
131
330
1F
100
AcDbEntity
  8
Predefinito
100
AcDbSpline
210
0.0
220
0.0
230
1.0
 70
    28
 71
     2
 72
     6
 73
     3
 74
     0
 42
0.000000001
 43
0.0000000001
 40
0.0
 40
0.0
 40
0.0
 40
17.2100709520194
 40
17.2100709520194
 40
17.2100709520194
 10
-26.74025974039445
 20
29.7899290479802
 30
0.0000000006621441
 41
1.0
 10
-26.74025974039445
 20
38.3949645239899
 30
0.0000000006621441
 41
1.0
 10
-26.74025974039445
 20
46.9999999999996
 30
0.0000000006621441
 41
1.0
  0
SPLINE
  5
132
330
1F
100
AcDbEntity
  8
Predefinito
100
AcDbSpline
210
0.0
220
0.0
230
1.0
 70
    28
 71
     2
 72
     6
 73
     3
 74
     0
 42
0.000000001
 43
0.0000000001
 40
0.0
 40
0.0
 40
0.0
 40
17.2100709520194
 40
17.2100709520194
 40
17.2100709520194
 10
-40.67975394570285
 20
29.7899290479802
 30
20.4701794413446
 41
1.0
 10
-40.67975394570285
 20
38.3949645239899
 30
20.4701794413446
 41
1.0
 10
-40.67975394570285
 20
46.9999999999996
 30
20.4701794413446
 41
1.0
  0
SPLINE
  5
133
330
1F
100
AcDbEntity
  8
Predefinito
100
AcDbSpline
210
0.0
220
1.0
230
0.0
 70
    12
 71
     2
 72
    12
 73
     9
 74
     0
 42
0.000000001
 43
0.0000000001
 40
-153.868756335067
 40
-153.868756335067
 40
-153.868756335067
 40
-127.563934829431
 40
-127.563934829431
 40
-101.259113323795
 40
-101.259113323795
 40
-74.9542918181587
 40
-74.9542918181587
 40
-48.6494703125227
 40
-48.6494703125227
 40
-48.6494703125227
 10
-64.83373667982545
 20
38.3949645239899
 30
-14.9999999993381
 41
1.0
 10
-54.61924815101095
 20
38.39496452398991
 30
-25.9591090384419
 41
0.826555088010303
 10
-40.67975394570265
 20
38.3949645239899
 30
-20.4701794400205
 41
1.0
 10
-26.74025974039435
 20
38.39496452398991
 30
-14.9812498415991
 41
0.826555088010303
 10
-26.74025974039445
 20
38.3949645239899
 30
0.0000000006621441
 41
1.0
 10
-26.74025974039445
 20
38.39496452398991
 30
14.9812498429233
 41
0.826555088010303
 10
-40.67975394570285
 20
38.3949645239899
 30
20.4701794413446
 41
1.0
 10
-54.61924815101114
 20
38.39496452398991
 30
25.9591090397659
 41
0.826555088010303
 10
-64.83373667982553
 20
38.3949645239899
 30
15.0000000006619
 41
1.0
  0
LINE
  5
134
330
1F
100
AcDbEntity
  8
Predefinito
100
AcDbLine
 10
-74.12751823137503
 20
38.3949645239899
 30
15.000000000662
 11
-64.83373667982553
 21
38.3949645239899
 31
15.000000000662
  0
LINE
  5
135
330
1F
100
AcDbEntity
  8
Predefinito
100
AcDbLine
 10
-69.48062745560028
 20
29.7899290479802
 30
15.000000000662
 11
-69.48062745560028
 21
46.9999999999996
 31
15.000000000662
  0
LINE
  5
136
330
1F
100
AcDbEntity
  8
Predefinito
100
AcDbLine
 10
-74.12751823137515
 20
29.7899290479802
 30
0.0000000006619949
 11
-74.12751823137515
 21
46.9999999999996
 31
0.0000000006619949
  0
LINE
  5
137
330
1F
100
AcDbEntity
  8
Predefinito
100
AcDbLine
 10
-74.12751823137515
 20
38.3949645239899
 30
15.000000000662
 11
-74.12751823137515
 21
38.3949645239899
 31
-14.999999999338
  0
LINE
  5
138
330
1F
100
AcDbEntity
  8
Predefinito
100
AcDbLine
 10
-64.85278307511373
 20
38.3949645239899
 30
-14.999999999338
 11
-74.12751823137505
 21
38.3949645239899
 31
-14.999999999338
  0
LINE
  5
139
330
1F
100
AcDbEntity
  8
Predefinito
100
AcDbLine
 10
-69.49015065324438
 20
29.7899290479802
 30
-14.999999999338
 11
-69.49015065324438
 21
46.9999999999996
 31
-14.999999999338
  0
SPLINE
  5
13A
330
1F
100
AcDbEntity
  8
Predefinito
100
AcDbSpline
210
0.0
220
0.0
230
1.0
 70
    24
 71
     2
 72
     6
 73
     3
 74
     0
 42
0.000000001
 43
0.0000000001
 40
-177.947634807358
 40
-177.947634807358
 40
-177.947634807358
 40
-0.000000000000001
 40
-0.000000000000001
 40
-0.000000000000001
 10
-217.7664298860225
 20
-89.00036896588823
 30
4.000000000662047
 10
-306.7402472896813
 20
-89.00036861142794
 30
3.999999999469967
 10
-395.71406469334
 20
-89.00036825696768
 30
3.999999998277887
  0
SPLINE
  5
13B
330
1F
100
AcDbEntity
  8
Predefinito
100
AcDbSpline
210
2.548240599674853E-8
220
0.9999999999999998
230
-1.197073370515933E-9
 70
    12
 71
     3
 72
    14
 73
    10
 74
     0
 42
0.000000001
 43
0.0000000001
 40
-11.0099143786931
 40
-11.0099143786931
 40
-11.0099143786931
 40
-11.0099143786931
 40
0.0
 40
0.0
 40
0.0
 40
0.776870167703794
 40
0.776870167703794
 40
0.776870167703794
 40
177.356752699533
 40
177.356752699533
 40
177.356752699533
 40
177.356752699533
 10
-395.71406469334
 20
-89.00036825696768
 30
3.999999998277887
 41
1.0
 10
-395.6527502541805
 20
-89.00036826292275
 30
0.330540766532692
 41
1.0
 10
-395.591435815021
 20
-89.0003682688778
 30
-3.3389184652124
 41
1.0
 10
-395.5301213758615
 20
-89.00036827483288
 30
-7.008377696957587
 41
1.0
 10
-395.5252927605987
 20
-89.00036827530185
 30
-7.297353786324468
 41
0.808670920759993
 10
-395.319232162765
 20
-89.00036828079531
 30
-7.500009961978521
 41
0.808670920759993
 10
-395.0302157357145
 20
-89.0003682881602
 30
-7.500024165449154
 41
1.0
 10
-336.1702551202414
 20
-89.00036978805707
 30
-7.502916789009029
 41
1.0
 10
-277.3102945047663
 20
-89.00037128795393
 30
-7.505809412568886
 41
1.0
 10
-218.4503338892932
 20
-89.0003727878508
 30
-7.508702036128751
 41
1.0
  0
SPLINE
  5
13C
330
1F
100
AcDbEntity
  8
Predefinito
100
AcDbSpline
210
0.0
220
0.0
230
1.0
 70
    24
 71
     2
 72
     6
 73
     3
 74
     0
 42
0.000000001
 43
0.0000000001
 40
0.0
 40
0.0
 40
0.0
 40
8.2228603490893
 40
8.2228603490893
 40
8.2228603490893
 10
-395.7140639635727
 20
-97.49123651344735
 30
4.00000000066275
 10
-395.7140643284564
 20
-93.24580238520751
 30
3.999999999470318
 10
-395.71406469334
 20
-89.00036825696768
 30
3.999999998277887
  0
SPLINE
  5
13D
330
1F
100
AcDbEntity
  8
Predefinito
100
AcDbSpline
210
0.0
220
0.0
230
1.0
 70
    24
 71
     2
 72
     6
 73
     3
 74
     0
 42
0.000000001
 43
0.0000000001
 40
186.170495156447
 40
186.170495156447
 40
186.170495156447
 40
194.393332286339
 40
194.393332286339
 40
194.393332286339
 10
-217.7664298860225
 20
-89.00036896588823
 30
4.000000000662047
 10
-217.7664295211177
 20
-93.24581286285806
 30
4.000000000662048
 10
-217.7664291562129
 20
-97.49125675982788
 30
4.000000000662048
  0
SPLINE
  5
13E
330
1F
100
AcDbEntity
  8
Predefinito
100
AcDbSpline
210
4.636424614885622E-8
220
0.9999999999999989
230
-3.467493535642803E-9
 70
    12
 71
     3
 72
    14
 73
    10
 74
     0
 42
0.000000001
 43
0.0000000001
 40
-177.356752699533
 40
-177.356752699533
 40
-177.356752699533
 40
-177.356752699533
 40
-0.776870167703787
 40
-0.776870167703787
 40
-0.776870167703787
 40
0.0
 40
0.0
 40
0.0
 40
11.0099143786931
 40
11.0099143786931
 40
11.0099143786931
 40
11.0099143786931
 10
-218.4503578363639
 20
89.00036621975329
 30
-7.508702036128753
 41
1.0
 10
-277.3103185934869
 20
89.00036894876102
 30
-7.505809412043263
 41
1.0
 10
-336.1702793506109
 20
89.00037167776877
 30
-7.502916787957782
 41
1.0
 10
-395.0302401077338
 20
89.00037440677649
 30
-7.500024163872283
 41
1.0
 10
-395.3192565354815
 20
89.00037442017658
 30
-7.500009960399069
 41
0.808670920759992
 10
-395.5253171338418
 20
89.00037443043314
 30
-7.297353784743048
 41
0.808670920759992
 10
-395.5301457491606
 20
89.00037443165903
 30
-7.008377695375966
 41
1.0
 10
-395.5914601890415
 20
89.00037444722565
 30
-3.338918463628104
 41
1.0
 10
-395.6527746289223
 20
89.00037446279228
 30
0.3305407681196655
 41
1.0
 10
-395.7140890688023
 20
89.0003744783589
 30
3.999999999867533
 41
1.0
  0
SPLINE
  5
13F
330
1F
100
AcDbEntity
  8
Predefinito
100
AcDbSpline
210
0.0
220
0.0
230
1.0
 70
    24
 71
     2
 72
     6
 73
     3
 74
     0
 42
0.000000001
 43
0.0000000001
 40
0.000000000000001
 40
0.000000000000001
 40
0.000000000000001
 40
177.947634807358
 40
177.947634807358
 40
177.947634807358
 10
-395.7140890688023
 20
89.0003744783589
 30
3.999999999867533
 10
-306.7402716651297
 20
89.00037099439514
 30
4.00000000026479
 10
-217.7664542614571
 20
89.00036751043137
 30
4.000000000662047
  0
SPLINE
  5
140
330
1F
100
AcDbEntity
  8
Predefinito
100
AcDbSpline
210
0.0
220
0.0
230
1.0
 70
    24
 71
     2
 72
     6
 73
     3
 74
     0
 42
0.000000001
 43
0.0000000001
 40
-194.393332286339
 40
-194.393332286339
 40
-194.393332286339
 40
-186.170495156447
 40
-186.170495156447
 40
-186.170495156447
 10
-217.7664554513562
 20
97.49120970334815
 30
4.000000000662046
 10
-217.7664548564066
 20
93.24578860688976
 30
4.000000000662046
 10
-217.7664542614571
 20
89.00036751043137
 30
4.000000000662047
  0
SPLINE
  5
141
330
1F
100
AcDbEntity
  8
Predefinito
100
AcDbSpline
210
0.0
220
0.0
230
1.0
 70
    24
 71
     2
 72
     6
 73
     3
 74
     0
 42
0.000000001
 43
0.0000000001
 40
-8.2228603490893
 40
-8.2228603490893
 40
-8.2228603490893
 40
0.0
 40
0.0
 40
0.0
 10
-395.7140890688023
 20
89.0003744783589
 30
3.999999999867533
 10
-395.7140896637597
 20
93.24580407884199
 30
4.000000000264789
 10
-395.7140902587171
 20
97.49123367932505
 30
4.000000000662046
  0
SPLINE
  5
142
330
1F
100
AcDbEntity
  8
Predefinito
100
AcDbSpline
210
0.0
220
0.0
230
1.0
 70
    24
 71
     3
 72
     8
 73
     4
 74
     0
 42
0.000000001
 43
0.0000000001
 40
-372.340967093702
 40
-372.340967093702
 40
-372.340967093702
 40
-372.340967093702
 40
-194.393332286339
 40
-194.393332286339
 40
-194.393332286339
 40
-194.393332286339
 10
-395.7140902587171
 20
97.49123367932505
 30
4.000000000662046
 10
-336.3982120847882
 20
97.49122568733277
 30
4.000000000662046
 10
-277.0823339108602
 20
97.49121769534047
 30
4.000000000662046
 10
-217.7664554513562
 20
97.49120970334815
 30
4.000000000662046
  0
SPLINE
  5
143
330
1F
100
AcDbEntity
  8
Predefinito
100
AcDbSpline
210
-1.347361369834501E-7
220
-0.9999999999999909
230
-1.360456805574738E-15
 70
    12
 71
     2
 72
    18
 73
    15
 74
     0
 42
0.000000001
 43
0.0000000001
 40
1520.08112471964
 40
1520.08112471964
 40
1520.08112471964
 40
1545.98506277095
 40
1545.98506277095
 40
1558.551433791235
 40
1558.551433791235
 40
1657.512945305746
 40
1657.512945305746
 40
1664.232463142983
 40
1664.232463142983
 40
1699.671636186685
 40
1699.671636186685
 40
1706.391154023923
 40
1706.391154023923
 40
1711.27336742516
 40
1711.27336742516
 40
1711.27336742516
 10
-74.12877505446545
 20
97.49119035016193
 30
30.53524435391579
 41
1.0
 10
-74.1281531986908
 20
97.49119035007823
 30
3.767615795389879
 41
1.0
 10
-74.12753134321275
 20
97.49119034999443
 30
-22.9999999993394
 41
1.0
 10
-74.12753134321272
 20
97.49119034999444
 30
-30.9999999993372
 41
0.707106781186642
 10
-82.12753134330714
 20
97.49119142788345
 30
-30.99999999933941
 41
1.0
 10
-131.6082855028122
 20
97.49119809472911
 30
-30.9999999993387
 41
1.0
 10
-181.0890396623162
 20
97.4912047615748
 30
-30.999999999338
 41
1.0
 10
-184.7330090162232
 20
97.49120525254921
 30
-30.99999999933789
 41
0.887010833178172
 10
-186.8231039724092
 20
97.49120553416051
 30
-28.0150350537941
 41
1.0
 10
-196.9866409350422
 20
97.49120690355622
 30
-13.4999999993377
 41
1.0
 10
-207.1501778976752
 20
97.49120827295195
 30
1.015035055118846
 41
1.0
 10
-209.2402728538632
 20
97.49120855456327
 30
4.000000000663245
 41
0.887010833178105
 10
-212.8842422077712
 20
97.49120904553756
 30
4.000000000661146
 41
1.0
 10
-215.3253488295632
 20
97.49120937444283
 30
4.000000000661646
 41
1.0
 10
-217.7664554513562
 20
97.49120970334815
 30
4.000000000662046
 41
1.0
  0
SPLINE
  5
144
330
1F
100
AcDbEntity
  8
Predefinito
100
AcDbSpline
210
1.347361368645715E-7
220
0.999999999999991
230
5.982612285084358E-15
 70
    12
 71
     2
 72
    18
 73
    15
 74
     0
 42
0.000000001
 43
0.0000000001
 40
1151.92243583338
 40
1151.92243583338
 40
1151.92243583338
 40
1159.51975137728
 40
1159.51975137728
 40
1163.40395859765
 40
1163.40395859765
 40
1187.44181449584
 40
1187.44181449584
 40
1187.83879470476
 40
1187.83879470476
 40
1188.23577491368
 40
1188.23577491368
 40
1519.33100016114
 40
1519.33100016114
 40
1520.08112471964
 40
1520.08112471964
 40
1520.08112471964
 10
-395.7140902587171
 20
97.49123367932505
 30
4.000000000662046
 41
1.0
 10
-399.5127480304804
 20
97.49123419114156
 30
3.999957948638146
 41
1.0
 10
-403.3114058022443
 20
97.49123470295795
 30
3.999915896614346
 41
1.0
 10
-405.7689841602453
 20
97.49123503408269
 30
3.999888690651146
 41
0.713131335493697
 10
-405.8110669258073
 20
97.49123503975265
 30
6.457106716620546
 41
1.0
 10
-406.0168751050352
 20
97.49123506748246
 30
18.4742724406572
 41
1.0
 10
-406.2226832842622
 20
97.49123509521226
 30
30.491438164694
 41
1.0
 10
-406.2262727325832
 20
97.49123509569583
 30
30.70102650802959
 41
0.9222327546144621
 10
-406.0793242025542
 20
97.49123507589665
 30
30.8505132543458
 41
1.0
 10
-405.9323756725252
 20
97.49123505609738
 30
31.000000000662
 41
0.9222327546144621
 10
-405.7227565946664
 20
97.49123502785406
 30
31.0000000006621
 41
1.0
 10
-240.1751439689423
 20
97.49121272260828
 30
31.0000000006621
 41
1.0
 10
-74.62753134321744
 20
97.49119041736245
 30
31.000000000662
 41
1.0
 10
-74.16161677006957
 20
97.49119035458696
 30
31.0000000006621
 41
0.731603959293369
 10
-74.12877505446545
 20
97.49119035016193
 30
30.53524435391579
 41
1.0
  0
SPLINE
  5
145
330
1F
100
AcDbEntity
  8
Predefinito
100
AcDbSpline
210
0.0
220
0.0
230
1.0
 70
    28
 71
     2
 72
     6
 73
     3
 74
     0
 42
0.000000001
 43
0.0000000001
 40
8.22283721913049
 40
8.22283721913049
 40
8.22283721913049
 40
180.605177653102
 40
180.605177653102
 40
180.605177653102
 10
-395.7140890688023
 20
89.0003744783589
 30
3.999999999867533
 41
1.0
 10
-395.7140768810712
 20
0.0000031106956158
 30
3.99999999907271
 41
1.0
 10
-395.71406469334
 20
-89.00036825696768
 30
3.999999998277887
 41
1.0
  0
SPLINE
  5
146
330
1F
100
AcDbEntity
  8
Predefinito
100
AcDbSpline
210
0.0
220
0.0
230
1.0
 70
    28
 71
     2
 72
     6
 73
     3
 74
     0
 42
0.000000001
 43
0.0000000001
 40
0.0
 40
0.0
 40
0.0
 40
188.828040746856
 40
188.828040746856
 40
188.828040746856
 10
-74.12877505446545
 20
97.49119035016193
 30
30.53524435391579
 41
1.0
 10
-74.12876193862415
 20
-0.000044479824524
 30
30.53524435391579
 41
1.0
 10
-74.12874882278285
 20
-97.49127930981098
 30
30.53524435391579
 41
1.0
  0
SPLINE
  5
147
330
1F
100
AcDbEntity
  8
Predefinito
100
AcDbSpline
210
0.0
220
0.0
230
1.0
 70
    12
 71
     2
 72
    12
 73
     9
 74
     0
 42
0.000000001
 43
0.0000000001
 40
-194.662743522901
 40
-194.662743522901
 40
-194.662743522901
 40
-186.4901670624684
 40
-186.4901670624684
 40
-20.20614167550181
 40
-20.20614167550181
 40
-12.03356521505862
 40
-12.03356521505862
 40
316.55959569303
 40
316.55959569303
 40
316.55959569303
 10
-81.96849753284624
 20
94.44747356798128
 30
31.00000000066206
 41
1.0
 10
-76.95621002641316
 20
94.44747356798209
 30
31.00000000066206
 41
0.707106781186557
 10
-76.95621002641215
 20
89.44331230079929
 30
31.00000000066207
 41
1.0
 10
-76.95621002641215
 20
-0.0225615985921019
 30
31.00000000066207
 41
1.0
 10
-76.95621002641215
 20
-89.48843549798352
 30
31.00000000066207
 41
1.0
 10
-76.95621002641217
 20
-94.49259676516643
 30
31.00000000066207
 41
0.7071067811865479
 10
-81.96849753284616
 20
-94.49259676516641
 30
31.00000000066207
 41
1.0
 10
-240.2482576425157
 20
-94.49259676516638
 30
31.00000000066209
 41
1.0
 10
-398.5280932258751
 20
-94.49259676516638
 30
31.00000000066209
 41
1.0
  0
SPLINE
  5
148
330
1F
100
AcDbEntity
  8
Predefinito
100
AcDbSpline
210
0.0
220
0.0
230
1.0
 70
    28
 71
     2
 72
     6
 73
     3
 74
     0
 42
0.000000001
 43
0.0000000001
 40
2.99999999999999
 40
2.99999999999999
 40
2.99999999999999
 40
10.0
 40
10.0
 40
10.0
 10
-81.96849753284626
 20
94.44747356798128
 30
31.00000000066206
 41
1.000000000000017
 10
-81.96849753284623
 20
94.44747356798129
 30
27.50000000066203
 41
1.000000000000017
 10
-81.96849753284621
 20
94.44747356798132
 30
24.000000000662
 41
1.000000000000017
  0
SPLINE
  5
149
330
1F
100
AcDbEntity
  8
Predefinito
100
AcDbSpline
210
0.0
220
0.0
230
1.0
 70
    12
 71
     2
 72
    12
 73
     9
 74
     0
 42
0.000000001
 43
0.0000000001
 40
1303.37001516653
 40
1303.37001516653
 40
1303.37001516653
 40
1311.2239949579
 40
1311.2239949579
 40
1471.025704089955
 40
1471.025704089955
 40
1478.87968575387
 40
1478.87968575387
 40
1794.66324415235
 40
1794.66324415235
 40
1794.66324415235
 10
-81.96849753284621
 20
94.44747356798132
 30
24.000000000662
 41
0.9999998603376741
 10
-76.95621002641302
 20
94.4474718807054
 30
24.00000000066199
 41
0.7071068510177366
 10
-76.95621002641201
 20
89.4433123007993
 30
24.00000000066199
 41
1.0
 10
-76.95621002641201
 20
-0.0225615985920911
 30
24.00000000066199
 41
1.0
 10
-76.95621002641204
 20
-89.4884354979835
 30
24.00000000066199
 41
1.0
 10
-76.95621002641208
 20
-94.49259676516643
 30
24.00000000066199
 41
0.7071067811865479
 10
-81.96849753284607
 20
-94.4925967651664
 30
24.00000000066199
 41
1.0
 10
-240.2482953793601
 20
-94.49259676516638
 30
24.00000000066199
 41
1.0
 10
-398.5280932258751
 20
-94.49259676516638
 30
24.000000000662
 41
1.0
  0
SPLINE
  5
14A
330
1F
100
AcDbEntity
  8
Predefinito
100
AcDbSpline
210
0.0
220
0.0
230
1.0
 70
    28
 71
     2
 72
     6
 73
     3
 74
     0
 42
0.000000001
 43
0.0000000001
 40
-10.0
 40
-10.0
 40
-10.0
 40
-2.99999999999999
 40
-2.99999999999999
 40
-2.99999999999999
 10
-398.5280932258751
 20
-94.49259676516638
 30
24.000000000662
 41
1.0
 10
-398.5280932258751
 20
-94.49259676516638
 30
27.50000000066204
 41
1.0
 10
-398.5280932258751
 20
-94.49259676516638
 30
31.00000000066209
 41
1.0
  0
SPLINE
  5
14B
330
1F
100
AcDbEntity
  8
Predefinito
100
AcDbSpline
210
0.0
220
0.0
230
1.0
 70
    24
 71
     2
 72
     6
 73
     3
 74
     0
 42
0.000000001
 43
0.0000000001
 40
-167.0
 40
-167.0
 40
-167.0
 40
0.0
 40
0.0
 40
0.0
 10
-221.5051884419431
 20
84.2523572440377
 30
-0.9301796966689546
 10
-221.5051884419432
 20
-0.0000000000003268
 30
-0.9301796966689546
 10
-221.5051884419432
 20
-84.25235724403835
 30
-0.9301796966689546
  0
SPLINE
  5
14C
330
1F
100
AcDbEntity
  8
Predefinito
100
AcDbSpline
210
0.0
220
0.0
230
1.0
 70
    24
 71
     2
 72
     6
 73
     3
 74
     0
 42
0.000000001
 43
0.0000000001
 40
-167.0
 40
-167.0
 40
-167.0
 40
0.0
 40
0.0
 40
0.0
 10
-222.5138875105642
 20
-85.2613675104341
 30
-0.9301796966689546
 10
-306.7402597403945
 20
-85.26136751043401
 30
-0.9301796966689546
 10
-390.966631970225
 20
-85.26136751043393
 30
-0.9301796966689546
  0
SPLINE
  5
14D
330
1F
100
AcDbEntity
  8
Predefinito
100
AcDbSpline
210
0.0
220
0.0
230
1.0
 70
    24
 71
     2
 72
     6
 73
     3
 74
     0
 42
0.000000001
 43
0.0000000001
 40
-167.0
 40
-167.0
 40
-167.0
 40
0.0
 40
0.0
 40
0.0
 10
-391.9753310388451
 20
-84.2523572440385
 30
-0.9301796966689546
 10
-391.9753310388452
 20
-0.0000000000003126
 30
-0.9301796966689546
 10
-391.9753310388453
 20
84.25235724403788
 30
-0.9301796966689546
  0
SPLINE
  5
14E
330
1F
100
AcDbEntity
  8
Predefinito
100
AcDbSpline
210
0.0
220
0.0
230
1.0
 70
    24
 71
     2
 72
     6
 73
     3
 74
     0
 42
0.000000001
 43
0.0000000001
 40
-167.0
 40
-167.0
 40
-167.0
 40
0.0
 40
0.0
 40
0.0
 10
-390.9666319702251
 20
85.2613675104333
 30
-0.9301796966689546
 10
-306.7402597403947
 20
85.26136751043336
 30
-0.9301796966689546
 10
-222.5138875105641
 20
85.26136751043342
 30
-0.9301796966689546
  0
SPLINE
  5
14F
330
1F
100
AcDbEntity
  8
Predefinito
100
AcDbSpline
210
0.0
220
0.0
230
1.0
 70
    24
 71
     3
 72
     8
 73
     4
 74
     0
 42
0.000000001
 43
0.0000000001
 40
0.0
 40
0.0
 40
0.0
 40
0.0
 40
1.42673597108418
 40
1.42673597108418
 40
1.42673597108418
 40
1.42673597108418
 10
-391.9753329279732
 20
84.25235724403814
 30
-7.50017429395519
 10
-391.6390992753908
 20
84.58869462996603
 30
-7.50019081788365
 10
-391.3028656228078
 20
84.92503201589467
 30
-7.5002073418121
 10
-390.9666319702254
 20
85.26136940182262
 30
-7.50022386574055
  0
SPLINE
  5
150
330
1F
100
AcDbEntity
  8
Predefinito
100
AcDbSpline
210
0.0
220
0.0
230
1.0
 70
    24
 71
     2
 72
     6
 73
     3
 74
     0
 42
0.000000001
 43
0.0000000001
 40
1.42995583092839
 40
1.42995583092839
 40
1.42995583092839
 40
8.0
 40
8.0
 40
8.0
 10
-390.9666319702254
 20
85.26136940182262
 30
-7.50022386574055
 10
-390.9666319702253
 20
85.26136845612797
 30
-4.215201781204752
 10
-390.9666319702251
 20
85.2613675104333
 30
-0.9301796966689546
  0
SPLINE
  5
151
330
1F
100
AcDbEntity
  8
Predefinito
100
AcDbSpline
210
0.0
220
0.0
230
1.0
 70
    24
 71
     2
 72
     6
 73
     3
 74
     0
 42
0.000000001
 43
0.0000000001
 40
0.0
 40
0.0
 40
0.0
 40
1.4142135623731
 40
1.4142135623731
 40
1.4142135623731
 10
-391.9753310388453
 20
84.25235724403788
 30
-0.9301796966689546
 10
-391.4709815045352
 20
84.75686237723559
 30
-0.9301796966689546
 10
-390.9666319702251
 20
85.2613675104333
 30
-0.9301796966689546
  0
SPLINE
  5
152
330
1F
100
AcDbEntity
  8
Predefinito
100
AcDbSpline
210
0.0
220
0.0
230
1.0
 70
    24
 71
     2
 72
     6
 73
     3
 74
     0
 42
0.000000001
 43
0.0000000001
 40
0.0
 40
0.0
 40
0.0
 40
6.56999459737906
 40
6.56999459737906
 40
6.56999459737906
 10
-391.9753310388453
 20
84.25235724403788
 30
-0.9301796966689546
 10
-391.9753319834093
 20
84.25235724403801
 30
-4.215176995312072
 10
-391.9753329279732
 20
84.25235724403814
 30
-7.50017429395519
  0
SPLINE
  5
153
330
1F
100
AcDbEntity
  8
Predefinito
100
AcDbSpline
210
0.0
220
0.0
230
1.0
 70
    24
 71
     3
 72
     8
 73
     4
 74
     0
 42
0.000000001
 43
0.0000000001
 40
0.0
 40
0.0
 40
0.0
 40
0.0
 40
1.42673597108404
 40
1.42673597108404
 40
1.42673597108404
 40
1.42673597108404
 10
-390.9666319702252
 20
-85.26136561904462
 30
-7.500223864613145
 10
-391.3028643633889
 20
-84.92502949404289
 30
-7.500207340751092
 10
-391.6390967565534
 20
-84.58869336904046
 30
-7.50019081688893
 10
-391.9753291497171
 20
-84.25235724403875
 30
-7.500174293026777
  0
SPLINE
  5
154
330
1F
100
AcDbEntity
  8
Predefinito
100
AcDbSpline
210
0.0
220
0.0
230
1.0
 70
    24
 71
     2
 72
     6
 73
     3
 74
     0
 42
0.000000001
 43
0.0000000001
 40
1.43000540373501
 40
1.43000540373501
 40
1.43000540373501
 40
8.0
 40
8.0
 40
8.0
 10
-391.9753291497171
 20
-84.25235724403875
 30
-7.500174293026777
 10
-391.9753300942811
 20
-84.25235724403862
 30
-4.215176994847866
 10
-391.9753310388451
 20
-84.2523572440385
 30
-0.9301796966689546
  0
SPLINE
  5
155
330
1F
100
AcDbEntity
  8
Predefinito
100
AcDbSpline
210
0.0
220
0.0
230
1.0
 70
    24
 71
     2
 72
     6
 73
     3
 74
     0
 42
0.000000001
 43
0.0000000001
 40
0.0
 40
0.0
 40
0.0
 40
1.4142135623731
 40
1.4142135623731
 40
1.4142135623731
 10
-390.966631970225
 20
-85.26136751043393
 30
-0.9301796966689546
 10
-391.4709815045351
 20
-84.75686237723622
 30
-0.9301796966689546
 10
-391.9753310388451
 20
-84.2523572440385
 30
-0.9301796966689546
  0
SPLINE
  5
156
330
1F
100
AcDbEntity
  8
Predefinito
100
AcDbSpline
210
0.0
220
0.0
230
1.0
 70
    24
 71
     2
 72
     6
 73
     3
 74
     0
 42
0.000000001
 43
0.0000000001
 40
0.0
 40
0.0
 40
0.0
 40
6.57004416794419
 40
6.57004416794419
 40
6.57004416794419
 10
-390.966631970225
 20
-85.26136751043393
 30
-0.9301796966689546
 10
-390.9666319702251
 20
-85.26136656473928
 30
-4.21520178064105
 10
-390.9666319702252
 20
-85.26136561904462
 30
-7.500223864613145
  0
SPLINE
  5
157
330
1F
100
AcDbEntity
  8
Predefinito
100
AcDbSpline
210
0.0
220
0.0
230
1.0
 70
    24
 71
     3
 72
     8
 73
     4
 74
     0
 42
0.000000001
 43
0.0000000001
 40
0.0
 40
0.0
 40
0.0
 40
0.0
 40
1.42673597108419
 40
1.42673597108419
 40
1.42673597108419
 40
1.42673597108419
 10
-221.5051865528151
 20
-84.25235724403858
 30
-7.508551907939214
 10
-221.8414202053983
 20
-84.58869462996711
 30
-7.508535384010754
 10
-222.1776538579807
 20
-84.9250320158949
 30
-7.508518860082296
 10
-222.5138875105638
 20
-85.26136940182337
 30
-7.508502336153846
  0
SPLINE
  5
158
330
1F
100
AcDbEntity
  8
Predefinito
100
AcDbSpline
210
0.0
220
0.0
230
1.0
 70
    24
 71
     2
 72
     6
 73
     3
 74
     0
 42
0.000000001
 43
0.0000000001
 40
1.42167736051514
 40
1.42167736051514
 40
1.42167736051514
 40
8.0
 40
8.0
 40
8.0
 10
-222.5138875105638
 20
-85.26136940182337
 30
-7.508502336153846
 10
-222.513887510564
 20
-85.26136845612874
 30
-4.2193410164114
 10
-222.5138875105642
 20
-85.2613675104341
 30
-0.9301796966689546
  0
SPLINE
  5
159
330
1F
100
AcDbEntity
  8
Predefinito
100
AcDbSpline
210
0.0
220
0.0
230
1.0
 70
    24
 71
     2
 72
     6
 73
     3
 74
     0
 42
0.000000001
 43
0.0000000001
 40
0.0
 40
0.0
 40
0.0
 40
1.4142135623731
 40
1.4142135623731
 40
1.4142135623731
 10
-221.5051884419432
 20
-84.25235724403835
 30
-0.9301796966689546
 10
-222.0095379762537
 20
-84.75686237723622
 30
-0.9301796966689546
 10
-222.5138875105642
 20
-85.2613675104341
 30
-0.9301796966689546
  0
SPLINE
  5
15A
330
1F
100
AcDbEntity
  8
Predefinito
100
AcDbSpline
210
0.0
220
0.0
230
1.0
 70
    24
 71
     2
 72
     6
 73
     3
 74
     0
 42
0.000000001
 43
0.0000000001
 40
0.0
 40
0.0
 40
0.0
 40
6.57837221117741
 40
6.57837221117741
 40
6.57837221117741
 10
-221.5051884419432
 20
-84.25235724403835
 30
-0.9301796966689546
 10
-221.5051874973792
 20
-84.25235724403846
 30
-4.219365802304084
 10
-221.5051865528151
 20
-84.25235724403858
 30
-7.508551907939214
  0
SPLINE
  5
15B
330
1F
100
AcDbEntity
  8
Predefinito
100
AcDbSpline
210
0.0
220
0.0
230
1.0
 70
    24
 71
     3
 72
     8
 73
     4
 74
     0
 42
0.000000001
 43
0.0000000001
 40
0.0
 40
0.0
 40
0.0
 40
0.0
 40
1.42673597108417
 40
1.42673597108417
 40
1.42673597108417
 40
1.42673597108417
 10
-222.5138875105638
 20
85.26136561904408
 30
-7.508502337281252
 10
-222.1776551173994
 20
84.92502949404182
 30
-7.508518861143405
 10
-221.8414227242357
 20
84.58869336904026
 30
-7.50853538500556
 10
-221.5051903310712
 20
84.25235724403794
 30
-7.508551908867613
  0
SPLINE
  5
15C
330
1F
100
AcDbEntity
  8
Predefinito
100
AcDbSpline
210
0.0
220
0.0
230
1.0
 70
    24
 71
     2
 72
     6
 73
     3
 74
     0
 42
0.000000001
 43
0.0000000001
 40
1.42162778770852
 40
1.42162778770852
 40
1.42162778770852
 40
8.0
 40
8.0
 40
8.0
 10
-221.5051903310712
 20
84.25235724403794
 30
-7.508551908867613
 10
-221.5051893865071
 20
84.25235724403782
 30
-4.219365802768284
 10
-221.5051884419431
 20
84.2523572440377
 30
-0.9301796966689546
  0
SPLINE
  5
15D
330
1F
100
AcDbEntity
  8
Predefinito
100
AcDbSpline
210
0.0
220
0.0
230
1.0
 70
    24
 71
     2
 72
     6
 73
     3
 74
     0
 42
0.000000001
 43
0.0000000001
 40
0.0
 40
0.0
 40
0.0
 40
1.4142135623731
 40
1.4142135623731
 40
1.4142135623731
 10
-222.5138875105641
 20
85.26136751043342
 30
-0.9301796966689546
 10
-222.0095379762536
 20
84.75686237723556
 30
-0.9301796966689546
 10
-221.5051884419431
 20
84.2523572440377
 30
-0.9301796966689546
  0
SPLINE
  5
15E
330
1F
100
AcDbEntity
  8
Predefinito
100
AcDbSpline
210
0.0
220
0.0
230
1.0
 70
    24
 71
     2
 72
     6
 73
     3
 74
     0
 42
0.000000001
 43
0.0000000001
 40
0.0
 40
0.0
 40
0.0
 40
6.57832264061228
 40
6.57832264061228
 40
6.57832264061228
 10
-222.5138875105641
 20
85.26136751043342
 30
-0.9301796966689546
 10
-222.513887510564
 20
85.26136656473875
 30
-4.219341016975103
 10
-222.5138875105638
 20
85.26136561904408
 30
-7.508502337281252
  0
SPLINE
  5
15F
330
1F
100
AcDbEntity
  8
Predefinito
100
AcDbSpline
210
0.0
220
0.0
230
1.0
 70
    24
 71
     2
 72
     6
 73
     3
 74
     0
 42
0.000000001
 43
0.0000000001
 40
-168.504714488076
 40
-168.504714488076
 40
-168.504714488076
 40
0.0
 40
0.0
 40
0.0
 10
-221.5051903310712
 20
84.25235724403794
 30
-7.508551908867613
 10
-221.5051884419431
 20
-0.0000000000003197
 30
-7.508551908403414
 10
-221.5051865528151
 20
-84.25235724403858
 30
-7.508551907939214
  0
SPLINE
  5
160
330
1F
100
AcDbEntity
  8
Predefinito
100
AcDbSpline
210
0.0
220
0.0
230
1.0
 70
    24
 71
     3
 72
     8
 73
     4
 74
     0
 42
0.000000001
 43
0.0000000001
 40
-168.45274466308
 40
-168.45274466308
 40
-168.45274466308
 40
-168.45274466308
 40
0.0
 40
0.0
 40
0.0
 40
0.0
 10
-222.5138875105638
 20
-85.26136940182337
 30
-7.508502336153846
 10
-278.6648023304509
 20
-85.26136814089712
 30
-7.505742845640236
 10
-334.8157171503381
 20
-85.26136687997088
 30
-7.502983355126745
 10
-390.9666319702252
 20
-85.26136561904462
 30
-7.500223864613145
  0
SPLINE
  5
161
330
1F
100
AcDbEntity
  8
Predefinito
100
AcDbSpline
210
0.0
220
0.0
230
1.0
 70
    24
 71
     2
 72
     6
 73
     3
 74
     0
 42
0.000000001
 43
0.0000000001
 40
-168.504714488076
 40
-168.504714488076
 40
-168.504714488076
 40
0.0
 40
0.0
 40
0.0
 10
-391.9753291497171
 20
-84.25235724403875
 30
-7.500174293026777
 10
-391.9753310388452
 20
-0.0000000000003055
 30
-7.500174293490984
 10
-391.9753329279732
 20
84.25235724403814
 30
-7.50017429395519
  0
SPLINE
  5
162
330
1F
100
AcDbEntity
  8
Predefinito
100
AcDbSpline
210
0.0
220
0.0
230
1.0
 70
    28
 71
     2
 72
     6
 73
     3
 74
     0
 42
0.000000001
 43
0.0000000001
 40
0.0
 40
0.0
 40
0.0
 40
168.45274466308
 40
168.45274466308
 40
168.45274466308
 10
-390.9666319702254
 20
85.26136940182262
 30
-7.50022386574055
 41
1.0
 10
-306.7402597403941
 20
85.26136751043335
 30
-7.504363101510901
 41
1.0
 10
-222.5138875105638
 20
85.26136561904408
 30
-7.508502337281252
 41
1.0
  0
SPLINE
  5
163
330
1F
100
AcDbEntity
  8
Predefinito
100
AcDbSpline
210
-1.276211285410330E-7
220
-0.9999999999999847
230
1.197318886990963E-7
 70
    12
 71
     2
 72
     8
 73
     5
 74
     0
 42
0.000000001
 43
0.0000000001
 40
1711.27336742516
 40
1711.27336742516
 40
1711.27336742516
 40
1722.29195222419
 40
1722.29195222419
 40
1723.06902737309
 40
1723.06902737309
 40
1723.06902737309
 10
-217.7664542614571
 20
89.00036751043137
 30
4.000000000662047
 41
1.0
 10
-217.8584286020807
 20
89.00036686262314
 30
-1.508524617439153
 41
1.0
 10
-217.9504029427043
 20
89.00036621481502
 30
-7.017049235540463
 41
1.0
 10
-217.9586123395886
 20
89.00036615699328
 30
-7.508726202556651
 41
0.712967481820584
 10
-218.4503578363639
 20
89.00036621975329
 30
-7.508702036128753
 41
1.0
  0
SPLINE
  5
164
330
1F
100
AcDbEntity
  8
Predefinito
100
AcDbSpline
210
0.0
220
0.0
230
1.0
 70
    28
 71
     2
 72
     6
 73
     3
 74
     0
 42
0.000000001
 43
0.0000000001
 40
8.22283712989248
 40
8.22283712989248
 40
8.22283712989248
 40
180.605154523141
 40
180.605154523141
 40
180.605154523141
 10
-217.7664542614571
 20
89.00036751043137
 30
4.000000000662047
 41
1.0
 10
-217.7664420737398
 20
-0.0000007277284269
 30
4.000000000662047
 41
1.0
 10
-217.7664298860225
 20
-89.00036896588823
 30
4.000000000662047
 41
1.0
  0
SPLINE
  5
165
330
1F
100
AcDbEntity
  8
Predefinito
100
AcDbSpline
210
-1.145968520143582E-7
220
-0.9999999999999362
230
3.389031880818732E-7
 70
    12
 71
     2
 72
     8
 73
     5
 74
     0
 42
0.000000001
 43
0.0000000001
 40
-1723.06902737309
 40
-1723.06902737309
 40
-1723.06902737309
 40
-1722.29195222419
 40
-1722.29195222419
 40
-1711.27336742516
 40
-1711.27336742516
 40
-1711.27336742516
 10
-218.4503338892932
 20
-89.0003727878508
 30
-7.508702036128751
 41
1.0
 10
-217.958588391436
 20
-89.00037284421147
 30
-7.50872620255665
 41
0.712967481820584
 10
-217.9503789762964
 20
-89.00037267852134
 30
-7.017049235540461
 41
1.0
 10
-217.8584044311594
 20
-89.00037082220486
 30
-1.508524617439152
 41
1.0
 10
-217.7664298860225
 20
-89.00036896588823
 30
4.000000000662047
 41
1.0
  0
SPLINE
  5
166
330
1F
100
AcDbEntity
  8
Predefinito
100
AcDbSpline
210
0.0
220
0.0
230
1.0
 70
    28
 71
     2
 72
     6
 73
     3
 74
     0
 42
0.000000001
 43
0.0000000001
 40
-180.605154523141
 40
-180.605154523141
 40
-180.605154523141
 40
-8.22283712989248
 40
-8.22283712989248
 40
-8.22283712989248
 10
-218.4503338892932
 20
-89.0003727878508
 30
-7.508702036128751
 41
1.0
 10
-218.4503458628286
 20
-0.0000032840487521
 30
-7.508702036128752
 41
1.0
 10
-218.4503578363639
 20
89.00036621975329
 30
-7.508702036128753
 41
1.0
  0
SPLINE
  5
167
330
1F
100
AcDbEntity
  8
Predefinito
100
AcDbSpline
210
-1.562576310473218E-7
220
-0.9999999999999879
230
-3.975823283279716E-9
 70
    12
 71
     2
 72
    18
 73
    15
 74
     0
 42
0.000000001
 43
0.0000000001
 40
1520.08112471964
 40
1520.08112471964
 40
1520.08112471964
 40
1545.98506811017
 40
1545.98506811017
 40
1558.55143872453
 40
1558.55143872453
 40
1657.51294704234
 40
1657.51294704234
 40
1664.23246466252
 40
1664.23246466252
 40
1699.67163656145
 40
1699.67163656145
 40
1706.39115418163
 40
1706.39115418163
 40
1711.27336742516
 40
1711.27336742516
 40
1711.27336742516
 10
-74.12874882278285
 20
-97.49127930981098
 30
30.53524435391579
 41
1.0
 10
-74.12812696504406
 20
-97.49127920348482
 30
3.767622177288247
 41
1.0
 10
-74.12750510730535
 20
-97.49127909715865
 30
-22.9999999993394
 41
1.0
 10
-74.12750510667404
 20
-97.49127906535206
 30
-30.9999999993372
 41
0.707106781186642
 10
-82.12750510335007
 20
-97.49127781529103
 30
-30.9999999993394
 41
1.0
 10
-131.6082592417152
 20
-97.49127008354559
 30
-30.99999999933871
 41
1.0
 10
-181.0890133800813
 20
-97.49126235180019
 30
-30.999999999338
 41
1.0
 10
-184.7329827324314
 20
-97.49126178240212
 30
-30.99999999933789
 41
0.887010833178172
 10
-186.8230776879601
 20
-97.49126146767657
 30
-28.0150350537941
 41
1.0
 10
-196.9866146473965
 20
-97.49125993725558
 30
-13.4999999993377
 41
1.0
 10
-207.1501516068329
 20
-97.49125840683456
 30
1.015035055118848
 41
1.0
 10
-209.2402465623626
 20
-97.49125809210898
 30
4.000000000663249
 41
0.887010833178105
 10
-212.8842159147137
 20
-97.49125752271097
 30
4.000000000661148
 41
1.0
 10
-215.3253225354638
 20
-97.49125714126941
 30
4.000000000661649
 41
1.0
 10
-217.7664291562129
 20
-97.49125675982788
 30
4.000000000662048
 41
1.0
  0
SPLINE
  5
168
330
1F
100
AcDbEntity
  8
Predefinito
100
AcDbSpline
210
1.330905506867699E-7
220
0.9999999999999912
230
-1.357838704071760E-10
 70
    12
 71
     2
 72
    18
 73
    15
 74
     0
 42
0.000000001
 43
0.0000000001
 40
1151.92243583338
 40
1151.92243583338
 40
1151.92243583338
 40
1159.51975137728
 40
1159.51975137728
 40
1163.40395859765
 40
1163.40395859765
 40
1187.44181449584
 40
1187.44181449584
 40
1187.83879470476
 40
1187.83879470476
 40
1188.23577491368
 40
1188.23577491368
 40
1519.33100016114
 40
1519.33100016114
 40
1520.08112471964
 40
1520.08112471964
 40
1520.08112471964
 10
-395.7140639635727
 20
-97.49123651344735
 30
4.00000000066275
 41
1.0
 10
-399.5127217345922
 20
-97.49123600788191
 30
3.999957948638858
 41
1.0
 10
-403.3113795056117
 20
-97.49123550231646
 30
3.999915896615066
 41
1.0
 10
-405.7689578631299
 20
-97.491235175236
 30
3.999888690651872
 41
0.713131335493697
 10
-405.8110406287245
 20
-97.49123516930153
 30
6.457106716621271
 41
1.0
 10
-406.0168488081055
 20
-97.49123514027868
 30
18.47427244065792
 41
1.0
 10
-406.2226569874875
 20
-97.4912351112558
 30
30.49143816469471
 41
1.0
 10
-406.2262464358109
 20
-97.49123511074963
 30
30.70102650803031
 41
0.922232754614462
 10
-406.0792979058135
 20
-97.49123513028678
 30
30.85051325434652
 41
1.0
 10
-405.9323493758153
 20
-97.49123514982394
 30
31.00000000066272
 41
0.922232754614462
 10
-405.7227302979977
 20
-97.49123517772227
 30
31.00000000066282
 41
1.0
 10
-240.1751177047208
 20
-97.4912572105452
 30
31.00000000066246
 41
1.0
 10
-74.62750511144463
 20
-97.49127924336811
 30
31.00000000066199
 41
1.0
 10
-74.16159053838808
 20
-97.49127930537695
 30
31.0000000006621
 41
0.731603959293369
 10
-74.12874882278285
 20
-97.49127930981098
 30
30.53524435391579
 41
1.0
  0
SPLINE
  5
169
330
1F
100
AcDbEntity
  8
Predefinito
100
AcDbSpline
210
0.0
220
0.0
230
1.0
 70
    24
 71
     3
 72
     8
 73
     4
 74
     0
 42
0.000000001
 43
0.0000000001
 40
194.393332286339
 40
194.393332286339
 40
194.393332286339
 40
194.393332286339
 40
372.340967093702
 40
372.340967093702
 40
372.340967093702
 40
372.340967093702
 10
-217.7664291562129
 20
-97.49125675982788
 30
4.000000000662048
 10
-277.0823074253319
 20
-97.49125001103437
 30
4.000000000662282
 10
-336.3981856944517
 20
-97.49124326224086
 30
4.000000000662515
 10
-395.7140639635727
 20
-97.49123651344735
 30
4.00000000066275
  0
SPLINE
  5
16A
330
1F
100
AcDbEntity
  8
Predefinito
100
AcDbSpline
210
0.0
220
0.0
230
1.0
 70
    12
 71
     2
 72
    12
 73
     9
 74
     0
 42
0.000000001
 43
0.0000000001
 40
-705.885082738832
 40
-705.885082738832
 40
-705.885082738832
 40
-697.7125081957387
 40
-697.7125081957387
 40
-531.4284821749911
 40
-531.4284821749911
 40
-523.255905683404
 40
-523.255905683404
 40
-194.662743522901
 40
-194.662743522901
 40
-194.662743522901
 10
-398.5280932258751
 20
-94.49259676516638
 30
31.00000000066209
 41
0.9999998603376807
 10
-403.540380732309
 20
-94.49259507789034
 30
31.00000000066209
 41
0.7071068510177323
 10
-403.5403807323101
 20
-89.48843549798428
 30
31.00000000066209
 41
1.0
 10
-403.5403807323101
 20
-0.0225615985929099
 30
31.00000000066209
 41
1.0
 10
-403.5403807323101
 20
89.4433123007985
 30
31.00000000066209
 41
1.0
 10
-403.5403807323091
 20
94.4474735679814
 30
31.00000000066209
 41
0.707106781186544
 10
-398.5280932258761
 20
94.4474735679813
 30
31.00000000066209
 41
1.0
 10
-240.2483331162057
 20
94.44747356798129
 30
31.00000000066208
 41
1.0
 10
-81.96849753284624
 20
94.44747356798128
 30
31.00000000066206
 41
1.0
  0
SPLINE
  5
16B
330
1F
100
AcDbEntity
  8
Predefinito
100
AcDbSpline
210
0.0
220
0.0
230
1.0
 70
    12
 71
     2
 72
    12
 73
     9
 74
     0
 42
0.000000001
 43
0.0000000001
 40
-1303.37001516653
 40
-1303.37001516653
 40
-1303.37001516653
 40
-987.586457971638
 40
-987.586457971638
 40
-979.732476337663
 40
-979.732476337663
 40
-819.930767814683
 40
-819.930767814683
 40
-812.076786180708
 40
-812.076786180708
 40
-812.076786180708
 10
-81.96849753284621
 20
94.44747356798132
 30
24.000000000662
 41
1.0
 10
-240.2482953793611
 20
94.44747356798132
 30
24.00000000066199
 41
1.0
 10
-398.528093225876
 20
94.4474735679813
 30
24.00000000066199
 41
1.0
 10
-403.540380732309
 20
94.4474735679814
 30
24.00000000066199
 41
0.707106781186544
 10
-403.54038073231
 20
89.4433123007985
 30
24.00000000066199
 41
1.0
 10
-403.5403807323099
 20
-0.0225615985929065
 30
24.00000000066199
 41
1.0
 10
-403.5403807323099
 20
-89.48843549798431
 30
24.00000000066199
 41
1.0
 10
-403.5403807323089
 20
-94.49259676516697
 30
24.00000000066199
 41
0.7071067811865561
 10
-398.5280932258751
 20
-94.49259676516638
 30
24.000000000662
 41
0.9999999999999999
  0
LINE
  5
16C
330
1F
100
AcDbEntity
  8
Predefinito
100
AcDbLine
 10
-306.7402470041246
 20
-89.00037033929212
 30
-7.504363100966113
 11
-306.7402470041246
 21
-89.00037034455362
 31
4.000000000662046
  0
LINE
  5
16D
330
1F
100
AcDbEntity
  8
Predefinito
100
AcDbLine
 10
-217.8625089124152
 20
-89.00037034192188
 30
-1.754358120099051
 11
-395.617912572928
 21
-89.00037034192188
 31
-1.754358120099051
  0
LINE
  5
16E
330
1F
100
AcDbEntity
  8
Predefinito
100
AcDbLine
 10
-217.7664294100601
 20
-93.2458115116621
 30
4.000000000662047
 11
-395.7140642174183
 21
-93.2458115116621
 31
4.000000000662047
  0
LINE
  5
16F
330
1F
100
AcDbEntity
  8
Predefinito
100
AcDbLine
 10
-306.7402468137387
 20
-97.49124530463875
 30
4.000000000662047
 11
-306.7402468137387
 21
-89.00036894285175
 31
4.000000000662047
  0
LINE
  5
170
330
1F
100
AcDbEntity
  8
Predefinito
100
AcDbLine
 10
-306.7402717127322
 20
89.00036751043136
 30
4.00000000066205
 11
-306.7402717127322
 21
89.00036750517002
 31
-7.504363100947254
  0
LINE
  5
171
330
1F
100
AcDbEntity
  8
Predefinito
100
AcDbLine
 10
-217.8625332412173
 20
89.0003675077997
 30
-1.754358120099051
 11
-395.6179372795264
 21
89.0003675077997
 31
-1.754358120099051
  0
LINE
  5
172
330
1F
100
AcDbEntity
  8
Predefinito
100
AcDbLine
 10
-217.7664548802063
 20
93.24580059487826
 30
4.000000000662047
 11
-395.7140896875636
 21
93.24580059487826
 31
4.000000000662047
  0
LINE
  5
173
330
1F
100
AcDbEntity
  8
Predefinito
100
AcDbLine
 10
-306.7402722838851
 20
89.00037149107003
 30
4.000000000662047
 11
-306.7402722838851
 21
97.4912216913367
 31
4.000000000662047
  0
LINE
  5
174
330
1F
100
AcDbEntity
  8
Predefinito
100
AcDbLine
 10
-74.12806567081608
 20
97.49119035006518
 30
0.0000000006613554
 11
-206.4394427009879
 21
97.49120817718946
 31
0.0000000006613554
  0
LINE
  5
175
330
1F
100
AcDbEntity
  8
Predefinito
100
AcDbLine
 10
-240.1769020378979
 20
97.49121272284451
 30
4.000000000662045
 11
-240.1769020378979
 21
97.49121272284451
 31
31.00000000066207
  0
SPLINE
  5
176
330
1F
100
AcDbEntity
  8
Predefinito
100
AcDbSpline
210
-1.347361352901168E-7
220
-0.9999999999999909
230
-8.867890565261254E-16
 70
    12
 71
     2
 72
    18
 73
    15
 74
     0
 42
0.000000001
 43
0.0000000001
 40
-1711.273367044391
 40
-1711.273367044391
 40
-1711.273367044391
 40
-1706.39115418163
 40
-1706.39115418163
 40
-1699.67163656145
 40
-1699.67163656145
 40
-1664.23246466252
 40
-1664.23246466252
 40
-1657.51294704234
 40
-1657.51294704234
 40
-1558.55143872453
 40
-1558.55143872453
 40
-1545.98506811017
 40
-1545.98506811017
 40
-1520.08112471964
 40
-1520.08112471964
 40
-1520.08112471964
 10
-217.7664419547461
 20
-0.0000253930377683
 30
4.000000000662048
 41
1.0
 10
-215.3253355233379
 20
-0.0000257219430296
 30
4.000000000661648
 41
1.0
 10
-212.8842290919297
 20
-0.0000260508482981
 30
4.000000000661148
 41
1.0
 10
-209.2402597380216
 20
-0.0000265418226006
 30
4.000000000663248
 41
0.887010833178105
 10
-207.1501647818342
 20
-0.000026823433906
 30
1.015035055118847
 41
1.0
 10
-196.9866278192012
 20
-0.0000281928296104
 30
-13.4999999993377
 41
1.0
 10
-186.8230908565681
 20
-0.0000295622252864
 30
-28.0150350537941
 41
1.0
 10
-184.7329959003822
 20
-0.0000298438365965
 30
-30.9999999993379
 41
0.8870108331781721
 10
-181.0890265464752
 20
-0.0000303348110009
 30
-30.999999999338
 41
1.0
 10
-131.6082723869707
 20
-0.0000370016566009
 30
-30.9999999993387
 41
1.0
 10
-82.12751822746566
 20
-0.0000436685021867
 30
-30.99999999933941
 41
1.0
 10
-74.12751822737145
 20
-0.0000447463911975
 30
-30.9999999993372
 41
0.707106781186642
 10
-74.12751822737147
 20
-0.0000447463912536
 30
-22.9999999993394
 41
1.0
 10
-74.12814008299776
 20
-0.000044746307438
 30
3.767622177288247
 41
1.0
 10
-74.12876193862417
 20
-0.0000447462236792
 30
30.53524435391579
 41
1.0
  0
SPLINE
  5
177
330
1F
100
AcDbEntity
  8
Predefinito
100
AcDbSpline
210
0.0
220
0.0
230
1.0
 70
    28
 71
     2
 72
     6
 73
     3
 74
     0
 42
0.000000001
 43
0.0000000001
 40
-0.0000000000000415
 40
-0.0000000000000415
 40
-0.0000000000000415
 40
188.8280347131808
 40
188.8280347131808
 40
188.8280347131808
 10
-212.8842422077712
 20
97.4912090455379
 30
4.000000000661148
 41
1.0
 10
-212.8842290919301
 20
-0.0000229356836172
 30
4.000000000661148
 41
1.0
 10
-212.884215976089
 20
-97.49125491690513
 30
4.000000000661148
 41
1.0
  0
SPLINE
  5
178
330
1F
100
AcDbEntity
  8
Predefinito
100
AcDbSpline
210
0.0
220
0.0
230
1.0
 70
    28
 71
     2
 72
     6
 73
     3
 74
     0
 42
0.000000001
 43
0.0000000001
 40
-0.0000000000000398
 40
-0.0000000000000398
 40
-0.0000000000000398
 40
188.8280349307933
 40
188.8280349307933
 40
188.8280349307933
 10
-207.1501778976751
 20
97.4912082729523
 30
1.015035055118847
 41
1.0
 10
-207.1501647818346
 20
-0.000023820621756
 30
1.015035055118847
 41
1.0
 10
-207.150151665994
 20
-97.49125591419582
 30
1.015035055118847
 41
1.0
  0
SPLINE
  5
179
330
1F
100
AcDbEntity
  8
Predefinito
100
AcDbSpline
210
0.0
220
0.0
230
1.0
 70
    28
 71
     2
 72
     6
 73
     3
 74
     0
 42
0.000000001
 43
0.0000000001
 40
-0.0000000000000313
 40
-0.0000000000000313
 40
-0.0000000000000313
 40
188.8280360784956
 40
188.8280360784956
 40
188.8280360784956
 10
-186.8231039724091
 20
97.49120553416094
 30
-28.0150350537941
 41
1.0
 10
-186.8230908565685
 20
-0.0000271519676573
 30
-28.0150350537941
 41
1.0
 10
-186.8230777407278
 20
-97.49125983809625
 30
-28.0150350537941
 41
1.0
  0
SPLINE
  5
17A
330
1F
100
AcDbEntity
  8
Predefinito
100
AcDbSpline
210
0.0
220
0.0
230
1.0
 70
    28
 71
     2
 72
     6
 73
     3
 74
     0
 42
0.000000001
 43
0.0000000001
 40
-0.0000000000000296
 40
-0.0000000000000296
 40
-0.0000000000000296
 40
188.8280362961081
 40
188.8280362961081
 40
188.8280362961081
 10
-181.0890396623161
 20
97.4912047615752
 30
-30.999999999338
 41
1.0
 10
-181.0890265464755
 20
-0.0000280369059453
 30
-30.999999999338
 41
1.0
 10
-181.0890134306348
 20
-97.4912608353871
 30
-30.999999999338
 41
1.0
  0
SPLINE
  5
17B
330
1F
100
AcDbEntity
  8
Predefinito
100
AcDbSpline
210
0.0
220
0.0
230
1.0
 70
    28
 71
     2
 72
     6
 73
     3
 74
     0
 42
0.000000001
 43
0.0000000001
 40
-0.0000000000000057
 40
-0.0000000000000057
 40
-0.0000000000000057
 40
188.8280395009898
 40
188.8280395009898
 40
188.8280395009898
 10
-82.12753134330714
 20
97.49119142788402
 30
-30.9999999993394
 41
1.0
 10
-82.12751822746574
 20
-0.0000430252659314
 30
-30.9999999993394
 41
1.0
 10
-82.12750511162433
 20
-97.49127747841588
 30
-30.9999999993394
 41
1.0
  0
SPLINE
  5
17C
330
1F
100
AcDbEntity
  8
Predefinito
100
AcDbSpline
210
0.0
220
0.0
230
1.0
 70
    28
 71
     2
 72
     6
 73
     3
 74
     0
 42
0.000000001
 43
0.0000000001
 40
-0.0000000000000027
 40
-0.0000000000000027
 40
-0.0000000000000027
 40
188.8280399079534
 40
188.8280399079534
 40
188.8280399079534
 10
-74.12753134321275
 20
97.491190349995
 30
-22.9999999993394
 41
1.0
 10
-74.12751822737151
 20
-0.0000443132688304
 30
-22.9999999993394
 41
1.0
 10
-74.12750511153027
 20
-97.49127897653266
 30
-22.9999999993394
 41
1.0
  0
SPLINE
  5
17D
330
1F
100
AcDbEntity
  8
Predefinito
100
AcDbSpline
210
-1.347361199838027E-7
220
-0.9999999999999909
230
1.110097846878008E-13
 70
    12
 71
     2
 72
     8
 73
     5
 74
     0
 42
0.000000001
 43
0.0000000001
 40
-1520.08112471964
 40
-1520.08112471964
 40
-1520.08112471964
 40
-1519.33100016114
 40
-1519.33100016114
 40
-1517.002308362133
 40
-1517.002308362133
 40
-1517.002308362133
 10
-74.12876193862415
 20
-0.0000447462236863
 30
30.53524435391579
 41
1.0
 10
-74.16160365422827
 20
-0.0000447417986694
 30
31.00000000066209
 41
0.731603959293369
 10
-74.62751822737616
 20
-0.0000446790231834
 30
31.000000000662
 41
1.0
 10
-75.79186412689388
 20
-0.0000445221437167
 30
31.000000000662
 41
1.0
 10
-76.95621002641163
 20
-0.0000443652642499
 30
31.00000000066201
 41
1.0
  0
SPLINE
  5
17E
330
1F
100
AcDbEntity
  8
Predefinito
100
AcDbSpline
210
1.347361406629300E-7
220
0.999999999999991
230
2.071002803854597E-15
 70
    12
 71
     2
 72
    16
 73
    13
 74
     0
 42
0.000000001
 43
0.0000000001
 40
-1190.418137660169
 40
-1190.418137660169
 40
-1190.418137660169
 40
-1188.23577491368
 40
-1188.23577491368
 40
-1187.83879470476
 40
-1187.83879470476
 40
-1187.44181449584
 40
-1187.44181449584
 40
-1163.40395859765
 40
-1163.40395859765
 40
-1159.51975137728
 40
-1159.51975137728
 40
-1151.922435452611
 40
-1151.922435452611
 40
-1151.922435452611
 10
-403.5403807323102
 20
-0.000000362575204
 30
31.0000000006621
 41
1.0
 10
-404.6315621055677
 20
-0.0000002155536427
 30
31.0000000006621
 41
1.0
 10
-405.7227434788252
 20
-0.0000000685320813
 30
31.0000000006621
 41
1.0
 10
-405.9323625566842
 20
-0.0000000402887846
 30
31.000000000662
 41
0.922232754614462
 10
-406.0793110867132
 20
-0.0000000204895372
 30
30.8505132543458
 41
1.0
 10
-406.226259616742
 20
-0.0000000006902852
 30
30.70102650802959
 41
0.922232754614462
 10
-406.2226701684211
 20
-0.0000000011738805
 30
30.491438164694
 41
1.0
 10
-406.0168619891937
 20
-0.0000000289036848
 30
18.4742724406572
 41
1.0
 10
-405.8110538099661
 20
-0.000000056633489
 30
6.457106716620547
 41
1.0
 10
-405.7689710444037
 20
-0.0000000623034903
 30
3.999888690651148
 41
0.713131335493697
 10
-403.3113926864032
 20
-0.0000003934281878
 30
3.999915896614347
 41
1.0
 10
-399.5127347242548
 20
-0.0000009052446571
 30
3.999957948640255
 41
1.0
 10
-395.7140767621067
 20
-0.0000014170611406
 30
4.000000000666263
 41
1.0
  0
SPLINE
  5
17F
330
1F
100
AcDbEntity
  8
Predefinito
100
AcDbSpline
210
0.0
220
0.0
230
1.0
 70
    28
 71
     2
 72
     6
 73
     3
 74
     0
 42
0.000000001
 43
0.0000000001
 40
-0.0000000000000001
 40
-0.0000000000000001
 40
-0.0000000000000001
 40
188.828040746856
 40
188.828040746856
 40
188.828040746856
 10
-74.62753134321744
 20
97.491190417363
 30
31.000000000662
 41
1.0
 10
-74.62751822737616
 20
-0.0000446790231692
 30
31.000000000662
 41
1.0
 10
-74.62750511153487
 20
-97.49127977540934
 30
31.00000000066199
 41
1.0
  0
SPLINE
  5
180
330
1F
100
AcDbEntity
  8
Predefinito
100
AcDbSpline
210
0.0
220
0.0
230
1.0
 70
    28
 71
     2
 72
     6
 73
     3
 74
     0
 42
0.000000001
 43
0.0000000001
 40
-0.0000000000000288
 40
-0.0000000000000288
 40
-0.0000000000000288
 40
188.828040746856
 40
188.828040746856
 40
188.828040746856
 10
-405.7227565946662
 20
97.49123502785413
 30
31.00000000066209
 41
1.0
 10
-405.7227434788252
 20
-0.0000000685320813
 30
31.0000000006621
 41
1.0
 10
-405.7227303629842
 20
-97.4912351649183
 30
31.0000000006621
 41
1.0
  0
SPLINE
  5
181
330
1F
100
AcDbEntity
  8
Predefinito
100
AcDbSpline
210
0.0
220
0.0
230
1.0
 70
    28
 71
     2
 72
     6
 73
     3
 74
     0
 42
0.000000001
 43
0.0000000001
 40
-0.0000000000000289
 40
-0.0000000000000289
 40
-0.0000000000000289
 40
188.828040746856
 40
188.828040746856
 40
188.828040746856
 10
-406.0793242025542
 20
97.49123507589672
 30
30.8505132543458
 41
1.0
 10
-406.0793110867132
 20
-0.0000000204895372
 30
30.8505132543458
 41
1.0
 10
-406.0792979708722
 20
-97.4912351168758
 30
30.8505132543458
 41
1.0
  0
SPLINE
  5
182
330
1F
100
AcDbEntity
  8
Predefinito
100
AcDbSpline
210
0.0
220
0.0
230
1.0
 70
    28
 71
     2
 72
     6
 73
     3
 74
     0
 42
0.000000001
 43
0.0000000001
 40
-0.0000000000000289
 40
-0.0000000000000289
 40
-0.0000000000000289
 40
188.828040746856
 40
188.828040746856
 40
188.828040746856
 10
-406.2226832842621
 20
97.49123509521233
 30
30.491438164694
 41
1.0
 10
-406.2226701684211
 20
-0.0000000011738805
 30
30.491438164694
 41
1.0
 10
-406.2226570525801
 20
-97.4912350975601
 30
30.491438164694
 41
1.0
  0
SPLINE
  5
183
330
1F
100
AcDbEntity
  8
Predefinito
100
AcDbSpline
210
0.0
220
0.0
230
1.0
 70
    28
 71
     2
 72
     6
 73
     3
 74
     0
 42
0.000000001
 43
0.0000000001
 40
-0.000000000000031
 40
-0.000000000000031
 40
-0.000000000000031
 40
188.828040746856
 40
188.828040746856
 40
188.828040746856
 10
-405.8110669258071
 20
97.49123503975272
 30
6.457106716620547
 41
1.0
 10
-405.8110538099661
 20
-0.000000056633489
 30
6.457106716620547
 41
1.0
 10
-405.8110406941252
 20
-97.4912351530197
 30
6.457106716620547
 41
1.0
  0
SPLINE
  5
184
330
1F
100
AcDbEntity
  8
Predefinito
100
AcDbSpline
210
0.0
220
0.0
230
1.0
 70
    28
 71
     2
 72
     6
 73
     3
 74
     0
 42
0.000000001
 43
0.0000000001
 40
-0.0000000000000313
 40
-0.0000000000000313
 40
-0.0000000000000313
 40
188.828040746856
 40
188.828040746856
 40
188.828040746856
 10
-403.3114058022442
 20
97.49123470295802
 30
3.999915896614347
 41
1.0
 10
-403.3113926864032
 20
-0.0000003934281878
 30
3.999915896614347
 41
1.0
 10
-403.3113795705622
 20
-97.4912354898144
 30
3.999915896614347
 41
1.0
  0
SPLINE
  5
185
330
1F
100
AcDbEntity
  8
Predefinito
100
AcDbSpline
210
0.0
220
0.0
230
1.0
 70
    12
 71
     2
 72
    12
 73
     9
 74
     0
 42
0.000000001
 43
0.0000000001
 40
-1794.66324415235
 40
-1794.66324415235
 40
-1794.66324415235
 40
-1478.87968695746
 40
-1478.87968695746
 40
-1471.02570532348
 40
-1471.02570532348
 40
-1311.2239968005
 40
-1311.2239968005
 40
-1303.37001516653
 40
-1303.37001516653
 40
-1303.37001516653
 10
-398.5280932258752
 20
-94.4925967651664
 30
27.50000000066204
 41
1.0
 10
-240.2482953793602
 20
-94.4925967651664
 30
27.50000000066205
 41
1.0
 10
-81.96849753284616
 20
-94.4925967651664
 30
27.50000000066204
 41
1.0
 10
-76.95621002641217
 20
-94.49259676516643
 30
27.50000000066205
 41
0.7071067811865479
 10
-76.95621002641215
 20
-89.4884354979835
 30
27.50000000066204
 41
1.0
 10
-76.95621002641215
 20
-0.0225615985920911
 30
27.50000000066204
 41
1.0
 10
-76.95621002641215
 20
89.4433123007993
 30
27.50000000066204
 41
1.0
 10
-76.95621002641316
 20
94.44747356798231
 30
27.50000000066204
 41
0.7071067811865486
 10
-81.96849753284637
 20
94.44747356798132
 30
27.50000000066205
 41
1.000000000000017
  0
SPLINE
  5
186
330
1F
100
AcDbEntity
  8
Predefinito
100
AcDbSpline
210
0.0
220
0.0
230
1.0
 70
    28
 71
     2
 72
     6
 73
     3
 74
     0
 42
0.000000001
 43
0.0000000001
 40
2.999999999999988
 40
2.999999999999988
 40
2.999999999999988
 40
10.0
 40
10.0
 40
10.0
 10
-81.96849753284616
 20
-94.4925967651664
 30
31.0000000006621
 41
1.0
 10
-81.96849753284616
 20
-94.4925967651664
 30
27.50000000066205
 41
1.0
 10
-81.96849753284616
 20
-94.4925967651664
 30
24.00000000066199
 41
1.0
  0
SPLINE
  5
187
330
1F
100
AcDbEntity
  8
Predefinito
100
AcDbSpline
210
0.0
220
0.0
230
1.0
 70
    28
 71
     2
 72
     6
 73
     3
 74
     0
 42
0.000000001
 43
0.0000000001
 40
2.999999999999988
 40
2.999999999999988
 40
2.999999999999988
 40
10.0
 40
10.0
 40
10.0
 10
-76.95621002641215
 20
-89.4884354979835
 30
31.0000000006621
 41
1.0
 10
-76.95621002641215
 20
-89.4884354979835
 30
27.50000000066205
 41
1.0
 10
-76.95621002641215
 20
-89.4884354979835
 30
24.00000000066199
 41
1.0
  0
SPLINE
  5
188
330
1F
100
AcDbEntity
  8
Predefinito
100
AcDbSpline
210
0.0
220
0.0
230
1.0
 70
    28
 71
     2
 72
     6
 73
     3
 74
     0
 42
0.000000001
 43
0.0000000001
 40
2.999999999999988
 40
2.999999999999988
 40
2.999999999999988
 40
10.0
 40
10.0
 40
10.0
 10
-76.95621002641215
 20
89.4433123007993
 30
31.0000000006621
 41
1.0
 10
-76.95621002641215
 20
89.4433123007993
 30
27.50000000066205
 41
1.0
 10
-76.95621002641215
 20
89.4433123007993
 30
24.00000000066199
 41
1.0
  0
LINE
  5
189
330
1F
100
AcDbEntity
  8
Predefinito
100
AcDbLine
 10
-403.5403807323102
 20
-0.0225615985924321
 30
24.000000000662
 11
-76.95621002641218
 21
-0.0225615985924321
 31
24.000000000662
  0
LINE
  5
18A
330
1F
100
AcDbEntity
  8
Predefinito
100
AcDbLine
 10
-240.2482953793612
 20
-94.4925967651664
 30
24.000000000662
 11
-240.2482953793612
 21
94.44747356798136
 31
24.000000000662
  0
LINE
  5
18B
330
1F
100
AcDbEntity
  8
Predefinito
100
AcDbLine
 10
-221.5051884419431
 20
-0.0000000000003411
 30
-0.9301796966689546
 11
-391.9753310388451
 21
-0.0000000000003411
 31
-0.9301796966689546
  0
LINE
  5
18C
330
1F
100
AcDbEntity
  8
Predefinito
100
AcDbLine
 10
-306.7402597403942
 20
-85.26136751043404
 30
-0.9301796966689546
 11
-306.7402597403942
 21
85.26136751043336
 31
-0.9301796966689546
  0
LINE
  5
18D
330
1F
100
AcDbEntity
  8
Predefinito
100
AcDbLine
 10
-390.9666319702251
 20
85.2613675104333
 30
-4.215201781204753
 11
-391.9753310388454
 21
84.2523572440381
 31
-4.215201781204753
  0
LINE
  5
18E
330
1F
100
AcDbEntity
  8
Predefinito
100
AcDbLine
 10
-391.4709815045353
 20
84.7568623772357
 30
-0.9301796966689544
 11
-391.4709815045353
 21
84.7568623772357
 31
-7.500199079894303
  0
LINE
  5
18F
330
1F
100
AcDbEntity
  8
Predefinito
100
AcDbLine
 10
-391.9753310388451
 20
-84.2523572440385
 30
-4.215201780641054
 11
-390.9666319702249
 21
-85.26136751043373
 31
-4.215201780641054
  0
LINE
  5
190
330
1F
100
AcDbEntity
  8
Predefinito
100
AcDbLine
 10
-391.470981504535
 20
-84.75686237723612
 30
-0.9301796966689547
 11
-391.470981504535
 21
-84.75686237723612
 31
-7.500199078773587
  0
LINE
  5
191
330
1F
100
AcDbEntity
  8
Predefinito
100
AcDbLine
 10
-222.5138875105641
 20
-85.2613675104341
 30
-4.219365802257664
 11
-221.5051884419433
 21
-84.25235724403828
 31
-4.219365802257664
  0
LINE
  5
192
330
1F
100
AcDbEntity
  8
Predefinito
100
AcDbLine
 10
-222.0095379762537
 20
-84.75686237723617
 30
-0.9301796966689548
 11
-222.0095379762537
 21
-84.75686237723617
 31
-7.50852712200011
  0
LINE
  5
193
330
1F
100
AcDbEntity
  8
Predefinito
100
AcDbLine
 10
-221.5051884419432
 20
84.2523572440377
 30
-4.219365802814703
 11
-222.513887510564
 21
85.26136751043354
 31
-4.219365802814703
  0
LINE
  5
194
330
1F
100
AcDbEntity
  8
Predefinito
100
AcDbLine
 10
-222.0095379762536
 20
84.75686237723562
 30
-0.9301796966689546
 11
-222.0095379762536
 21
84.75686237723563
 31
-7.50852712312089
  0
LINE
  5
195
330
1F
100
AcDbEntity
  8
Predefinito
100
AcDbLine
 10
-221.5051884419431
 20
-84.2523572440384
 30
-4.219365802814704
 11
-221.5051884419431
 21
84.25235724403771
 31
-4.219365802814704
  0
LINE
  5
196
330
1F
100
AcDbEntity
  8
Predefinito
100
AcDbLine
 10
-221.5051884419431
 20
-0.0000000000003411
 30
-0.9301796966689545
 11
-221.5051884419431
 21
-0.0000000000003411
 31
-7.508551908403412
  0
LINE
  5
197
330
1F
100
AcDbEntity
  8
Predefinito
100
AcDbLine
 10
-306.7402597403947
 20
-85.2613675104341
 30
-0.9301796966689546
 11
-306.7402597403947
 21
-85.2613675104341
 31
-7.504363100383499
  0
LINE
  5
198
330
1F
100
AcDbEntity
  8
Predefinito
100
AcDbLine
 10
-222.5138875105642
 20
-85.2613675104341
 30
-4.219341016411404
 11
-390.9666319702251
 21
-85.2613675104341
 31
-4.219341016411404
  0
LINE
  5
199
330
1F
100
AcDbEntity
  8
Predefinito
100
AcDbLine
 10
-391.9753310388451
 20
84.2523572440378
 30
-4.215176995358498
 11
-391.9753310388451
 21
-84.2523572440385
 31
-4.215176995358498
  0
LINE
  5
19A
330
1F
100
AcDbEntity
  8
Predefinito
100
AcDbLine
 10
-391.9753310388451
 20
-0.0000000000003553
 30
-0.9301796966689548
 11
-391.9753310388451
 21
-0.0000000000003553
 31
-7.500174293490994
  0
LINE
  5
19B
330
1F
100
AcDbEntity
  8
Predefinito
100
AcDbLine
 10
-306.7402597403947
 20
85.2613675104333
 30
-7.504363101510902
 11
-306.7402597403947
 21
85.2613675104333
 31
-0.9301796966689536
  0
LINE
  5
19C
330
1F
100
AcDbEntity
  8
Predefinito
100
AcDbLine
 10
-222.5138875105642
 20
85.2613675104333
 30
-4.219341016975104
 11
-390.9666319702251
 21
85.2613675104333
 31
-4.219341016975104
  0
SPLINE
  5
19D
330
1F
100
AcDbEntity
  8
Predefinito
100
AcDbSpline
210
-1.347361504393537E-7
220
-0.9999999999999909
230
3.079344513556192E-15
 70
    12
 71
     2
 72
     8
 73
     5
 74
     0
 42
0.000000001
 43
0.0000000001
 40
-1723.06902737309
 40
-1723.06902737309
 40
-1723.06902737309
 40
-1722.29195222419
 40
-1722.29195222419
 40
-1711.27336742516
 40
-1711.27336742516
 40
-1711.27336742516
 10
-218.4503458628291
 20
0.0000000460719036
 30
-7.508702036128753
 41
1.0
 10
-217.9586003661747
 20
-0.0000000201839916
 30
-7.508726202556651
 41
0.712967481820584
 10
-217.9503909713181
 20
-0.0000000212900915
 30
-7.017049235540463
 41
1.0
 10
-217.8584166534181
 20
-0.0000000336823973
 30
-1.508524617439153
 41
1.0
 10
-217.7664423355181
 20
-0.0000000460745895
 30
4.000000000662047
 41
1.0
  0
SPLINE
  5
19E
330
1F
100
AcDbEntity
  8
Predefinito
100
AcDbSpline
210
0.0
220
0.0
230
1.0
 70
    28
 71
     2
 72
     6
 73
     3
 74
     0
 42
0.000000001
 43
0.0000000001
 40
8.22283712989248
 40
8.22283712989248
 40
8.22283712989248
 40
180.605154523141
 40
180.605154523141
 40
180.605154523141
 10
-217.9504029448532
 20
89.0003675352159
 30
-7.017049235540463
 41
1.0
 10
-217.9503909713181
 20
-0.0000000212900986
 30
-7.017049235540463
 41
1.0
 10
-217.9503789977832
 20
-89.0003675777961
 30
-7.017049235540463
 41
1.0
  0
LINE
  5
19F
330
1F
100
AcDbEntity
  8
Predefinito
100
AcDbLine
 10
-206.439416469308
 20
-97.49126201558292
 30
0.0000000006613554
 11
-74.12803943913346
 21
-97.4912798427072
 31
0.0000000006613554
  0
LINE
  5
1A0
330
1F
100
AcDbEntity
  8
Predefinito
100
AcDbLine
 10
-240.1768758062155
 20
-97.49125746992786
 30
4.000000000662052
 11
-240.1768758062155
 21
-97.49125746992786
 31
31.00000000066207
  0
SPLINE
  5
1A1
330
1F
100
AcDbEntity
  8
Predefinito
100
AcDbSpline
210
-1.347361411865037E-7
220
-0.9999999999999909
230
-2.353338608691635E-15
 70
    12
 71
     2
 72
    10
 73
     7
 74
     0
 42
0.000000001
 43
0.0000000001
 40
-1151.922435827018
 40
-1151.922435827018
 40
-1151.922435827018
 40
-1140.91252145469
 40
-1140.91252145469
 40
-1140.13550178294
 40
-1140.13550178294
 40
-1137.080604636707
 40
-1137.080604636707
 40
-1137.080604636707
 10
-395.7140771427713
 20
0.000011247864073
 30
3.999999994301475
 41
1.0
 10
-395.6221054828835
 20
0.0000112354721722
 30
-1.504188850141939
 41
1.0
 10
-395.5301338229956
 20
0.0000112230802713
 30
-7.008377694585462
 41
1.0
 10
-395.5219191122204
 20
0.0000112219734685
 30
-7.499999999337952
 41
0.713006381139989
 10
-395.0302281814265
 20
0.0000111557249127
 30
-7.500024163084152
 41
1.0
 10
-393.5027796101358
 20
0.0000109499223949
 30
-7.500099228287558
 41
1.0
 10
-391.9753310388451
 20
0.0000107441198772
 30
-7.500174293490965
 41
1.0
  0
SPLINE
  5
1A2
330
1F
100
AcDbEntity
  8
Predefinito
100
AcDbSpline
210
0.0
220
0.0
230
1.0
 70
    28
 71
     2
 72
     6
 73
     3
 74
     0
 42
0.000000001
 43
0.0000000001
 40
-966.6104618360056
 40
-966.6104618360056
 40
-966.6104618360056
 40
-963.5556192532379
 40
-963.5556192532379
 40
-963.5556192532379
 10
-221.505188441943
 20
-0.0000122243683537
 30
-7.508551908403414
 41
1.0
 10
-219.9777671523852
 20
-0.0000124301671954
 30
-7.508626972266082
 41
1.0
 10
-218.4503458628274
 20
-0.0000126359660371
 30
-7.508702036128751
 41
1.0
  0
SPLINE
  5
1A3
330
1F
100
AcDbEntity
  8
Predefinito
100
AcDbSpline
210
0.0
220
0.0
230
1.0
 70
    28
 71
     2
 72
     6
 73
     3
 74
     0
 42
0.000000001
 43
0.0000000001
 40
8.222851736177164
 40
8.222851736177164
 40
8.222851736177164
 40
180.6051780973104
 40
180.6051780973104
 40
180.6051780973104
 10
-395.5301457965301
 20
89.00037637928011
 30
-7.008377694585462
 41
1.0
 10
-395.5301338229946
 20
0.0000041926879319
 30
-7.008377694585462
 41
1.0
 10
-395.5301218494591
 20
-89.00036799390425
 30
-7.008377694585462
 41
1.0
  0
SPLINE
  5
1A4
330
1F
100
AcDbEntity
  8
Predefinito
100
AcDbSpline
210
0.0
220
0.0
230
1.0
 70
    28
 71
     2
 72
     6
 73
     3
 74
     0
 42
0.000000001
 43
0.0000000001
 40
8.222851672453544
 40
8.222851672453544
 40
8.222851672453544
 40
180.6051780318085
 40
180.6051780318085
 40
180.6051780318085
 10
-395.0302401549612
 20
89.00037637772539
 30
-7.500024163084151
 41
1.0
 10
-395.0302281814256
 20
0.0000041920512643
 30
-7.500024163084152
 41
1.0
 10
-395.0302162078901
 20
-89.00036799362286
 30
-7.500024163084152
 41
1.0
  0
SPLINE
  5
1A5
330
1F
100
AcDbEntity
  8
Predefinito
100
AcDbSpline
210
0.0
220
0.0
230
1.0
 70
    12
 71
     2
 72
    12
 73
     9
 74
     0
 42
0.000000001
 43
0.0000000001
 40
-1303.37001516653
 40
-1303.37001516653
 40
-1303.37001516653
 40
-987.586457971638
 40
-987.586457971638
 40
-979.732476337663
 40
-979.732476337663
 40
-819.930767814683
 40
-819.930767814683
 40
-812.0767861807078
 40
-812.0767861807078
 40
-812.0767861807078
 10
-81.96849753284616
 20
94.44747356798129
 30
27.50000000066204
 41
1.0
 10
-240.2482953793611
 20
94.44747356798129
 30
27.50000000066205
 41
1.0
 10
-398.5280932258761
 20
94.44747356798129
 30
27.50000000066204
 41
1.0
 10
-403.5403807323091
 20
94.4474735679814
 30
27.50000000066204
 41
0.707106781186544
 10
-403.5403807323102
 20
89.4433123007985
 30
27.50000000066204
 41
1.0
 10
-403.5403807323102
 20
-0.0225615985929082
 30
27.50000000066204
 41
1.0
 10
-403.5403807323102
 20
-89.4884354979843
 30
27.50000000066204
 41
1.0
 10
-403.5403807323091
 20
-94.49259676516719
 30
27.50000000066204
 41
0.7071067811865476
 10
-398.5280932258751
 20
-94.49259676516641
 30
27.50000000066205
 41
1.000000000000017
  0
SPLINE
  5
1A6
330
1F
100
AcDbEntity
  8
Predefinito
100
AcDbSpline
210
0.0
220
0.0
230
1.0
 70
    28
 71
     2
 72
     6
 73
     3
 74
     0
 42
0.000000001
 43
0.0000000001
 40
2.999999999999988
 40
2.999999999999988
 40
2.999999999999988
 40
10.0
 40
10.0
 40
10.0
 10
-398.5280932258761
 20
94.44747356798129
 30
31.0000000006621
 41
1.0
 10
-398.5280932258762
 20
94.44747356798129
 30
27.50000000066205
 41
1.0
 10
-398.5280932258762
 20
94.4474735679813
 30
24.00000000066199
 41
1.0
  0
SPLINE
  5
1A7
330
1F
100
AcDbEntity
  8
Predefinito
100
AcDbSpline
210
0.0
220
0.0
230
1.0
 70
    28
 71
     2
 72
     6
 73
     3
 74
     0
 42
0.000000001
 43
0.0000000001
 40
2.999999999999988
 40
2.999999999999988
 40
2.999999999999988
 40
10.0
 40
10.0
 40
10.0
 10
-403.5403807323102
 20
89.4433123007985
 30
31.0000000006621
 41
1.0
 10
-403.5403807323102
 20
89.4433123007985
 30
27.50000000066205
 41
1.0
 10
-403.5403807323102
 20
89.4433123007985
 30
24.00000000066199
 41
1.0
  0
SPLINE
  5
1A8
330
1F
100
AcDbEntity
  8
Predefinito
100
AcDbSpline
210
0.0
220
0.0
230
1.0
 70
    28
 71
     2
 72
     6
 73
     3
 74
     0
 42
0.000000001
 43
0.0000000001
 40
2.999999999999988
 40
2.999999999999988
 40
2.999999999999988
 40
10.0
 40
10.0
 40
10.0
 10
-403.5403807323102
 20
-89.4884354979843
 30
31.0000000006621
 41
1.0
 10
-403.5403807323102
 20
-89.48843549798431
 30
27.50000000066205
 41
1.0
 10
-403.5403807323102
 20
-89.48843549798431
 30
24.00000000066199
 41
1.0
  0
SPLINE
  5
1A9
330
1F
100
AcDbEntity
  8
Predefinito
100
AcDbSpline
210
0.0
220
0.0
230
1.0
 70
    24
 71
     2
 72
     6
 73
     3
 74
     0
 42
0.000000001
 43
0.0000000001
 40
0.0
 40
0.0
 40
0.0
 40
3.739
 40
3.739
 40
3.739
 10
-390.9666319702251
 20
-85.2613675104341
 30
31.000000000662
 10
-390.9666319702251
 20
-87.1308675104341
 30
31.000000000662
 10
-390.9666319702251
 20
-89.0003675104341
 30
31.000000000662
  0
LINE
  5
1AA
330
1F
100
AcDbEntity
  8
Predefinito
100
AcDbLine
 10
-33.25760617810819
 20
-29.69261657040579
 30
15.62969733203183
 11
-35.27165819776792
 21
-29.69261657040579
 31
15.62969733203184
  0
LINE
  5
1AB
330
1F
100
AcDbEntity
  8
Predefinito
100
AcDbLine
 10
-35.27165819776792
 20
-29.69261657040579
 30
15.62969733203184
 11
-35.27165819776792
 21
-29.69261657040579
 31
-17.39530892116969
  0
SPLINE
  5
1AC
330
1F
100
AcDbEntity
  8
Predefinito
100
AcDbSpline
210
0.0
220
-1.0
230
0.0
 70
    12
 71
     2
 72
    12
 73
     9
 74
     0
 42
0.000000001
 43
0.0000000001
 40
48.6494703125227
 40
48.6494703125227
 40
48.6494703125227
 40
74.9542918181587
 40
74.9542918181587
 40
101.259113323795
 40
101.259113323795
 40
127.563934829431
 40
127.563934829431
 40
153.868756335067
 40
153.868756335067
 40
153.868756335067
 10
-32.64678280096344
 20
-29.789929047981
 30
-14.9999999993378
 41
1.0
 10
-42.86127132977785
 20
-29.789929047981
 30
-25.95910903844181
 41
0.826555088010303
 10
-56.80076553508615
 20
-29.789929047981
 30
-20.47017944002051
 41
1.0
 10
-70.74025974039454
 20
-29.789929047981
 30
-14.98124984159921
 41
0.826555088010303
 10
-70.74025974039449
 20
-29.789929047981
 30
0.0000000006619505
 41
1.0
 10
-70.74025974039456
 20
-29.789929047981
 30
14.9812498429232
 41
0.826555088010303
 10
-56.80076553508625
 20
-29.789929047981
 30
20.47017944134459
 41
1.0
 10
-42.86127132977803
 20
-29.789929047981
 30
25.959109039766
 41
0.826555088010303
 10
-32.63725960331935
 20
-29.789929047981
 30
15.00000000066218
 41
1.0
  0
SPLINE
  5
1AD
330
1F
100
AcDbEntity
  8
Predefinito
100
AcDbSpline
210
0.0
220
0.0
230
1.0
 70
    24
 71
     2
 72
     6
 73
     3
 74
     0
 42
0.000000001
 43
0.0000000001
 40
153.868756335067
 40
153.868756335067
 40
153.868756335067
 40
163.1434914913283
 40
163.1434914913283
 40
163.1434914913283
 10
-32.63725960331935
 20
-29.789929047981
 30
15.00000000066218
 10
-27.99513042636659
 20
-29.789929047981
 30
15.00000000066217
 10
-23.35300124941382
 20
-29.789929047981
 30
15.00000000066216
  0
POLYLINE
  5
1AE
330
1F
100
AcDbEntity
  8
Predefinito
100
AcDb2dPolyline
 66
     1
 10
0.0
 20
0.0
 30
-29.789929047981
210
0.0
220
1.0
230
0.0
  0
VERTEX
  5
1AF
330
1AE
100
AcDbEntity
  8
Predefinito
100
AcDbVertex
100
AcDb2dVertex
 10
23.35300124941382
 20
15.00000000066216
 30
-29.789929047981
  0
VERTEX
  5
1B0
330
1AE
100
AcDbEntity
  8
Predefinito
100
AcDbVertex
100
AcDb2dVertex
 10
-17.87882406836592
 20
15.00000000066216
 30
-29.789929047981
  0
VERTEX
  5
1B1
330
1AE
100
AcDbEntity
  8
Predefinito
100
AcDbVertex
100
AcDb2dVertex
 10
-17.87882406836592
 20
-14.99999999933783
 30
-29.789929047981
  0
VERTEX
  5
1B2
330
1AE
100
AcDbEntity
  8
Predefinito
100
AcDbVertex
100
AcDb2dVertex
 10
23.35300124941382
 20
-14.99999999933783
 30
-29.789929047981
  0
SEQEND
  5
1B3
330
1AE
100
AcDbEntity
  8
Predefinito
  0
SPLINE
  5
1B4
330
1F
100
AcDbEntity
  8
Predefinito
100
AcDbSpline
210
0.0
220
0.0
230
1.0
 70
    24
 71
     2
 72
     6
 73
     3
 74
     0
 42
0.000000001
 43
0.0000000001
 40
275.6071421268878
 40
275.6071421268878
 40
275.6071421268878
 40
284.9818772831491
 40
284.9818772831491
 40
284.9818772831491
 10
-23.35300124941382
 20
-29.789929047981
 30
-14.99999999933783
 10
-27.99989202518863
 20
-29.789929047981
 30
-14.99999999933782
 10
-32.64678280096344
 20
-29.789929047981
 30
-14.9999999993378
  0
ENDSEC
  0
SECTION
  2
OBJECTS
  0
DICTIONARY
  5
C
330
0
100
AcDbDictionary
281
     1
  3
ACAD_DETAILVIEWSTYLE
350
1F2
  3
ACAD_GROUP
350
D
  3
ACAD_LAYOUT
350
1A
  3
ACAD_MATERIAL
350
43
  3
ACAD_MLEADERSTYLE
350
1F1
  3
ACAD_MLINESTYLE
350
17
  3
ACAD_PLOTSETTINGS
350
19
  3
ACAD_PLOTSTYLENAME
350
E
  3
ACAD_SCALELIST
350
47
  3
ACAD_SECTIONVIEWSTYLE
350
1F3
  3
ACAD_TABLESTYLE
350
1F0
  3
ACAD_VISUALSTYLE
350
2A
  3
AcDbVariableDictionary
350
1B7
  0
DICTIONARY
  5
1B5
330
8
100
AcDbDictionary
280
     1
281
     1
  3
ACAD_XREC_ROUNDTRIP
360
1B6
  0
DICTIONARY
  5
1F2
102
{ACAD_REACTORS
330
C
102
}
330
C
100
AcDbDictionary
281
     1
  0
DICTIONARY
  5
D
102
{ACAD_REACTORS
330
C
102
}
330
C
100
AcDbDictionary
281
     1
  0
DICTIONARY
  5
1A
102
{ACAD_REACTORS
330
C
102
}
330
C
100
AcDbDictionary
281
     1
  3
Layout1
350
1E
  3
Layout2
350
26
  3
Model
350
22
  0
DICTIONARY
  5
43
102
{ACAD_REACTORS
330
C
102
}
330
C
100
AcDbDictionary
281
     1
  3
ByBlock
350
45
  3
ByLayer
350
44
  3
Global
350
46
  0
DICTIONARY
  5
1F1
102
{ACAD_REACTORS
330
C
102
}
330
C
100
AcDbDictionary
281
     1
  0
DICTIONARY
  5
17
102
{ACAD_REACTORS
330
C
102
}
330
C
100
AcDbDictionary
281
     1
  3
Standard
350
18
  0
DICTIONARY
  5
19
102
{ACAD_REACTORS
330
C
102
}
330
C
100
AcDbDictionary
281
     1
  0
ACDBDICTIONARYWDFLT
  5
E
102
{ACAD_REACTORS
330
C
102
}
330
C
100
AcDbDictionary
281
     1
  3
Normal
350
F
100
AcDbDictionaryWithDefault
340
F
  0
DICTIONARY
  5
47
102
{ACAD_REACTORS
330
C
102
}
330
C
100
AcDbDictionary
281
     1
  3
A0
350
48
  3
A1
350
49
  3
A2
350
4A
  3
A3
350
4B
  3
A4
350
4C
  3
A5
350
4D
  3
A6
350
4E
  3
A7
350
4F
  3
A8
350
50
  3
A9
350
51
  3
B0
350
52
  3
B1
350
53
  3
B2
350
54
  3
B3
350
55
  3
B4
350
56
  3
B5
350
57
  3
B6
350
58
  3
B7
350
59
  3
B8
350
5A
  3
B9
350
5B
  3
C0
350
5C
  3
C1
350
5D
  3
C2
350
5E
  3
C3
350
5F
  3
C4
350
60
  3
C5
350
61
  3
C6
350
62
  3
C7
350
63
  3
C8
350
64
  3
C9
350
65
  3
D0
350
66
  3
D1
350
67
  3
D2
350
68
  0
DICTIONARY
  5
1F3
102
{ACAD_REACTORS
330
C
102
}
330
C
100
AcDbDictionary
281
     1
  0
DICTIONARY
  5
1F0
102
{ACAD_REACTORS
330
C
102
}
330
C
100
AcDbDictionary
281
     1
  0
DICTIONARY
  5
2A
102
{ACAD_REACTORS
330
C
102
}
330
C
100
AcDbDictionary
281
     1
  3
2dWireframe
350
2F
  3
Basic
350
32
  3
Brighten
350
36
  3
ColorChange
350
3A
  3
Conceptual
350
34
  3
Dim
350
35
  3
EdgeColorOff
350
3D
  3
Facepattern
350
39
  3
Flat
350
2B
  3
FlatWithEdges
350
2C
  3
Gouraud
350
2D
  3
GouraudWithEdges
350
2E
  3
Hidden
350
31
  3
JitterOff
350
3B
  3
Linepattern
350
38
  3
OverhangOff
350
3C
  3
Realistic
350
33
  3
Shaded
350
42
  3
Shaded with edges
350
41
  3
Shades of Gray
350
3E
  3
Sketchy
350
3F
  3
Thicken
350
37
  3
Wireframe
350
30
  3
X-Ray
350
40
  0
DICTIONARY
  5
1B7
102
{ACAD_REACTORS
330
C
102
}
330
C
100
AcDbDictionary
281
     1
  3
CANNOSCALE
350
1B8
  3
MSLTSCALE
350
1B9
  0
XRECORD
  5
1B6
102
{ACAD_REACTORS
330
1B5
102
}
330
1B5
100
AcDbXrecord
280
     1
102
VTR_0.000_0.000_1.000_1.000_GRIDDISPLAY
 70
     3
102
VTR_0.000_0.000_1.000_1.000_GRIDMAJOR
 70
     5
102
VTR_0.000_0.000_1.000_1.000_DEFAULTLIGHTING
280
     1
102
VTR_0.000_0.000_1.000_1.000_DEFAULTLIGHTINGTYPE
 70
     1
102
VTR_0.000_0.000_1.000_1.000_BRIGHTNESS
141
0.0
102
VTR_0.000_0.000_1.000_1.000_CONTRAST
142
0.0
  0
LAYOUT
  5
1E
102
{ACAD_REACTORS
330
1A
102
}
330
1A
100
AcDbPlotSettings
  1

  2
none_device
  4

  6

 40
0.0
 41
0.0
 42
0.0
 43
0.0
 44
0.0
 45
0.0
 46
0.0
 47
0.0
 48
0.0
 49
0.0
140
0.0
141
0.0
142
1.0
143
1.0
 70
   688
 72
     0
 73
     0
 74
     5
  7

 75
    16
 76
     0
 77
     2
 78
   300
147
1.0
148
0.0
149
0.0
100
AcDbLayout
  1
Layout1
 70
     1
 71
     1
 10
0.0
 20
0.0
 11
12.0
 21
9.0
 12
0.0
 22
0.0
 32
0.0
 14
1.000000000000000E+20
 24
1.000000000000000E+20
 34
1.000000000000000E+20
 15
-1.000000000000000E+20
 25
-1.000000000000000E+20
 35
-1.000000000000000E+20
146
0.0
 13
0.0
 23
0.0
 33
0.0
 16
1.0
 26
0.0
 36
0.0
 17
0.0
 27
1.0
 37
0.0
 76
     0
330
1B
  0
LAYOUT
  5
26
102
{ACAD_REACTORS
330
1A
102
}
330
1A
100
AcDbPlotSettings
  1

  2
none_device
  4

  6

 40
0.0
 41
0.0
 42
0.0
 43
0.0
 44
0.0
 45
0.0
 46
0.0
 47
0.0
 48
0.0
 49
0.0
140
0.0
141
0.0
142
1.0
143
1.0
 70
   688
 72
     0
 73
     0
 74
     5
  7

 75
    16
 76
     0
 77
     2
 78
   300
147
1.0
148
0.0
149
0.0
100
AcDbLayout
  1
Layout2
 70
     1
 71
     2
 10
0.0
 20
0.0
 11
0.0
 21
0.0
 12
0.0
 22
0.0
 32
0.0
 14
0.0
 24
0.0
 34
0.0
 15
0.0
 25
0.0
 35
0.0
146
0.0
 13
0.0
 23
0.0
 33
0.0
 16
1.0
 26
0.0
 36
0.0
 17
0.0
 27
1.0
 37
0.0
 76
     0
330
23
  0
LAYOUT
  5
22
102
{ACAD_REACTORS
330
1A
102
}
330
1A
100
AcDbPlotSettings
  1

  2
none_device
  4
Letter_(8.50_x_11.00_Inches)
  6

 40
6.35
 41
6.35
 42
6.35000508
 43
6.35000508
 44
215.9
 45
279.4
 46
0.0
 47
0.0
 48
0.0
 49
0.0
140
0.0
141
0.0
142
1.0
143
1.0
 70
  1712
 72
     0
 73
     0
 74
     0
  7

 75
     0
 76
     0
 77
     2
 78
   300
147
1.0
148
0.0
149
0.0
100
AcDbLayout
  1
Model
 70
     1
 71
     0
 10
0.0
 20
0.0
 11
12.0
 21
9.0
 12
0.0
 22
0.0
 32
0.0
 14
-406.2226832842621
 24
-97.4912798427072
 34
-3968.661304842448
 15
77.38942613133497
 25
97.49123509521233
 35
31.33869515759359
146
0.0
 13
0.0
 23
0.0
 33
0.0
 16
1.0
 26
0.0
 36
0.0
 17
0.0
 27
1.0
 37
0.0
 76
     0
330
1F
331
29
  0
MATERIAL
  5
45
102
{ACAD_REACTORS
330
43
102
}
102
{ACAD_XDICTIONARY
360
1EC
102
}
330
43
100
AcDbMaterial
  1
ByBlock
  0
MATERIAL
  5
44
102
{ACAD_REACTORS
330
43
102
}
102
{ACAD_XDICTIONARY
360
1EA
102
}
330
43
100
AcDbMaterial
  1
ByLayer
  0
MATERIAL
  5
46
102
{ACAD_REACTORS
330
43
102
}
102
{ACAD_XDICTIONARY
360
1EE
102
}
330
43
100
AcDbMaterial
  1
Global
  0
MLINESTYLE
  5
18
102
{ACAD_REACTORS
330
17
102
}
330
17
100
AcDbMlineStyle
  2
Standard
 70
     0
  3

 62
   256
 51
90.0
 52
90.0
 71
     2
 49
0.5
 62
   256
  6
BYLAYER
 49
-0.5
 62
   256
  6
BYLAYER
  0
ACDBPLACEHOLDER
  5
F
102
{ACAD_REACTORS
330
E
102
}
330
E
  0
SCALE
  5
48
102
{ACAD_REACTORS
330
47
102
}
330
47
100
AcDbScale
 70
     0
300
1:1
140
1.0
141
1.0
290
     1
  0
SCALE
  5
49
102
{ACAD_REACTORS
330
47
102
}
330
47
100
AcDbScale
 70
     0
300
1:2
140
1.0
141
2.0
290
     0
  0
SCALE
  5
4A
102
{ACAD_REACTORS
330
47
102
}
330
47
100
AcDbScale
 70
     0
300
1:4
140
1.0
141
4.0
290
     0
  0
SCALE
  5
4B
102
{ACAD_REACTORS
330
47
102
}
330
47
100
AcDbScale
 70
     0
300
1:5
140
1.0
141
5.0
290
     0
  0
SCALE
  5
4C
102
{ACAD_REACTORS
330
47
102
}
330
47
100
AcDbScale
 70
     0
300
1:8
140
1.0
141
8.0
290
     0
  0
SCALE
  5
4D
102
{ACAD_REACTORS
330
47
102
}
330
47
100
AcDbScale
 70
     0
300
1:10
140
1.0
141
10.0
290
     0
  0
SCALE
  5
4E
102
{ACAD_REACTORS
330
47
102
}
330
47
100
AcDbScale
 70
     0
300
1:16
140
1.0
141
16.0
290
     0
  0
SCALE
  5
4F
102
{ACAD_REACTORS
330
47
102
}
330
47
100
AcDbScale
 70
     0
300
1:20
140
1.0
141
20.0
290
     0
  0
SCALE
  5
50
102
{ACAD_REACTORS
330
47
102
}
330
47
100
AcDbScale
 70
     0
300
1:30
140
1.0
141
30.0
290
     0
  0
SCALE
  5
51
102
{ACAD_REACTORS
330
47
102
}
330
47
100
AcDbScale
 70
     0
300
1:40
140
1.0
141
40.0
290
     0
  0
SCALE
  5
52
102
{ACAD_REACTORS
330
47
102
}
330
47
100
AcDbScale
 70
     0
300
1:50
140
1.0
141
50.0
290
     0
  0
SCALE
  5
53
102
{ACAD_REACTORS
330
47
102
}
330
47
100
AcDbScale
 70
     0
300
1:100
140
1.0
141
100.0
290
     0
  0
SCALE
  5
54
102
{ACAD_REACTORS
330
47
102
}
330
47
100
AcDbScale
 70
     0
300
2:1
140
2.0
141
1.0
290
     0
  0
SCALE
  5
55
102
{ACAD_REACTORS
330
47
102
}
330
47
100
AcDbScale
 70
     0
300
4:1
140
4.0
141
1.0
290
     0
  0
SCALE
  5
56
102
{ACAD_REACTORS
330
47
102
}
330
47
100
AcDbScale
 70
     0
300
8:1
140
8.0
141
1.0
290
     0
  0
SCALE
  5
57
102
{ACAD_REACTORS
330
47
102
}
330
47
100
AcDbScale
 70
     0
300
10:1
140
10.0
141
1.0
290
     0
  0
SCALE
  5
58
102
{ACAD_REACTORS
330
47
102
}
330
47
100
AcDbScale
 70
     0
300
100:1
140
100.0
141
1.0
290
     0
  0
SCALE
  5
59
102
{ACAD_REACTORS
330
47
102
}
330
47
100
AcDbScale
 70
     0
300
1/128" = 1'-0"
140
0.0078125
141
12.0
290
     0
  0
SCALE
  5
5A
102
{ACAD_REACTORS
330
47
102
}
330
47
100
AcDbScale
 70
     0
300
1/64" = 1'-0"
140
0.015625
141
12.0
290
     0
  0
SCALE
  5
5B
102
{ACAD_REACTORS
330
47
102
}
330
47
100
AcDbScale
 70
     0
300
1/32" = 1'-0"
140
0.03125
141
12.0
290
     0
  0
SCALE
  5
5C
102
{ACAD_REACTORS
330
47
102
}
330
47
100
AcDbScale
 70
     0
300
1/16" = 1'-0"
140
0.0625
141
12.0
290
     0
  0
SCALE
  5
5D
102
{ACAD_REACTORS
330
47
102
}
330
47
100
AcDbScale
 70
     0
300
3/32" = 1'-0"
140
0.09375
141
12.0
290
     0
  0
SCALE
  5
5E
102
{ACAD_REACTORS
330
47
102
}
330
47
100
AcDbScale
 70
     0
300
1/8" = 1'-0"
140
0.125
141
12.0
290
     0
  0
SCALE
  5
5F
102
{ACAD_REACTORS
330
47
102
}
330
47
100
AcDbScale
 70
     0
300
3/16" = 1'-0"
140
0.1875
141
12.0
290
     0
  0
SCALE
  5
60
102
{ACAD_REACTORS
330
47
102
}
330
47
100
AcDbScale
 70
     0
300
1/4" = 1'-0"
140
0.25
141
12.0
290
     0
  0
SCALE
  5
61
102
{ACAD_REACTORS
330
47
102
}
330
47
100
AcDbScale
 70
     0
300
3/8" = 1'-0"
140
0.375
141
12.0
290
     0
  0
SCALE
  5
62
102
{ACAD_REACTORS
330
47
102
}
330
47
100
AcDbScale
 70
     0
300
1/2" = 1'-0"
140
0.5
141
12.0
290
     0
  0
SCALE
  5
63
102
{ACAD_REACTORS
330
47
102
}
330
47
100
AcDbScale
 70
     0
300
3/4" = 1'-0"
140
0.75
141
12.0
290
     0
  0
SCALE
  5
64
102
{ACAD_REACTORS
330
47
102
}
330
47
100
AcDbScale
 70
     0
300
1" = 1'-0"
140
1.0
141
12.0
290
     0
  0
SCALE
  5
65
102
{ACAD_REACTORS
330
47
102
}
330
47
100
AcDbScale
 70
     0
300
1-1/2" = 1'-0"
140
1.5
141
12.0
290
     0
  0
SCALE
  5
66
102
{ACAD_REACTORS
330
47
102
}
330
47
100
AcDbScale
 70
     0
300
3" = 1'-0"
140
3.0
141
12.0
290
     0
  0
SCALE
  5
67
102
{ACAD_REACTORS
330
47
102
}
330
47
100
AcDbScale
 70
     0
300
6" = 1'-0"
140
6.0
141
12.0
290
     0
  0
SCALE
  5
68
102
{ACAD_REACTORS
330
47
102
}
330
47
100
AcDbScale
 70
     0
300
1'-0" = 1'-0"
140
12.0
141
12.0
290
     0
  0
VISUALSTYLE
  5
2F
102
{ACAD_REACTORS
330
2A
102
}
102
{ACAD_XDICTIONARY
360
1C2
102
}
330
2A
100
AcDbVisualStyle
  2
2dWireframe
 70
     4
 71
     0
 72
     2
 73
     0
 90
        0
 40
0.6
 41
30.0
 62
     5
 63
     7
421
 16777215
 74
     1
 91
        4
 64
     7
 65
   257
 75
     1
175
     1
 42
1.0
 92
        0
 66
   257
 43
1.0
 76
     1
 77
     6
 78
     2
 67
     7
 79
     5
170
     0
171
     0
290
     0
174
     0
 93
        1
 44
0.0
173
     0
291
     0
 45
0.0
1001
ACAD
1000
AcDbSavedByObjectVersion
1070
     0
  0
VISUALSTYLE
  5
32
102
{ACAD_REACTORS
330
2A
102
}
102
{ACAD_XDICTIONARY
360
1C8
102
}
330
2A
100
AcDbVisualStyle
  2
Basic
 70
     7
 71
     1
 72
     0
 73
     1
 90
        0
 40
0.6
 41
30.0
 62
     5
 63
     7
421
 16777215
 74
     0
 91
        4
 64
     7
 65
   257
 75
     1
175
     1
 42
1.0
 92
        8
 66
     7
 43
1.0
 76
     1
 77
     6
 78
     2
 67
     7
 79
     5
170
     0
171
     0
290
     0
174
     0
 93
        1
 44
0.0
173
     0
291
     1
 45
0.0
1001
ACAD
1000
AcDbSavedByObjectVersion
1070
     0
  0
VISUALSTYLE
  5
36
102
{ACAD_REACTORS
330
2A
102
}
102
{ACAD_XDICTIONARY
360
1D0
102
}
330
2A
100
AcDbVisualStyle
  2
Brighten
 70
    12
 71
     2
 72
     2
 73
     0
 90
        0
 40
0.6
 41
30.0
 62
     5
 63
     7
421
 16777215
 74
     1
 91
        4
 64
     7
 65
   257
 75
     1
175
     1
 42
1.0
 92
        8
 66
     7
 43
1.0
 76
     1
 77
     6
 78
     2
 67
     7
 79
     5
170
     0
171
     0
290
     0
174
     0
 93
        1
 44
50.0
173
     0
291
     1
 45
0.0
1001
ACAD
1000
AcDbSavedByObjectVersion
1070
     0
  0
VISUALSTYLE
  5
3A
102
{ACAD_REACTORS
330
2A
102
}
102
{ACAD_XDICTIONARY
360
1D8
102
}
330
2A
100
AcDbVisualStyle
  2
ColorChange
 70
    16
 71
     2
 72
     2
 73
     3
 90
        0
 40
0.6
 41
30.0
 62
     5
 63
     8
421
  8421504
 74
     1
 91
        4
 64
     7
 65
   257
 75
     1
175
     1
 42
1.0
 92
        8
 66
     8
424
  8421504
 43
1.0
 76
     1
 77
     6
 78
     2
 67
     7
 79
     5
170
     0
171
     0
290
     0
174
     0
 93
        1
 44
0.0
173
     0
291
     1
 45
0.0
1001
ACAD
1000
AcDbSavedByObjectVersion
1070
     0
  0
VISUALSTYLE
  5
34
102
{ACAD_REACTORS
330
2A
102
}
102
{ACAD_XDICTIONARY
360
1CC
102
}
330
2A
100
AcDbVisualStyle
  2
Conceptual
 70
     9
 71
     3
 72
     2
 73
     0
 90
        0
 40
0.6
 41
30.0
 62
     5
 63
     7
421
 16777215
 74
     2
 91
        2
 64
     7
 65
   257
 75
     1
175
     1
 42
179.0
 92
        8
 66
     7
 43
1.0
 76
     1
 77
     6
 78
     2
 67
     7
 79
     3
170
     0
171
     0
290
     0
174
     0
 93
        1
 44
0.0
173
     0
291
     0
 45
0.0
1001
ACAD
1000
AcDbSavedByObjectVersion
1070
     0
  0
VISUALSTYLE
  5
35
102
{ACAD_REACTORS
330
2A
102
}
102
{ACAD_XDICTIONARY
360
1CE
102
}
330
2A
100
AcDbVisualStyle
  2
Dim
 70
    11
 71
     2
 72
     2
 73
     0
 90
        0
 40
0.6
 41
30.0
 62
     5
 63
     7
421
 16777215
 74
     1
 91
        4
 64
     7
 65
   257
 75
     1
175
     1
 42
1.0
 92
        8
 66
     7
 43
1.0
 76
     1
 77
     6
 78
     2
 67
     7
 79
     5
170
     0
171
     0
290
     0
174
     0
 93
        1
 44
-50.0
173
     0
291
     1
 45
0.0
1001
ACAD
1000
AcDbSavedByObjectVersion
1070
     0
  0
VISUALSTYLE
  5
3D
102
{ACAD_REACTORS
330
2A
102
}
102
{ACAD_XDICTIONARY
360
1DE
102
}
330
2A
100
AcDbVisualStyle
  2
EdgeColorOff
 70
    22
 71
     2
 72
     2
 73
     0
 90
        0
 40
0.6
 41
30.0
 62
     5
 63
     7
421
 16777215
 74
     1
 91
        4
 64
     7
 65
   257
 75
     1
175
     1
 42
1.0
 92
        8
 66
     7
 43
1.0
 76
     1
 77
     6
 78
     2
 67
     7
 79
     5
170
     0
171
     0
290
     0
174
     0
 93
        1
 44
0.0
173
     0
291
     1
 45
0.0
1001
ACAD
1000
AcDbSavedByObjectVersion
1070
     0
  0
VISUALSTYLE
  5
39
102
{ACAD_REACTORS
330
2A
102
}
102
{ACAD_XDICTIONARY
360
1D6
102
}
330
2A
100
AcDbVisualStyle
  2
Facepattern
 70
    15
 71
     2
 72
     2
 73
     0
 90
        0
 40
0.6
 41
30.0
 62
     5
 63
     7
421
 16777215
 74
     1
 91
        4
 64
     7
 65
   257
 75
     1
175
     1
 42
1.0
 92
        8
 66
     7
 43
1.0
 76
     1
 77
     6
 78
     2
 67
     7
 79
     5
170
     0
171
     0
290
     0
174
     0
 93
        1
 44
0.0
173
     0
291
     1
 45
0.0
1001
ACAD
1000
AcDbSavedByObjectVersion
1070
     0
  0
VISUALSTYLE
  5
2B
102
{ACAD_REACTORS
330
2A
102
}
102
{ACAD_XDICTIONARY
360
1BA
102
}
330
2A
100
AcDbVisualStyle
  2
Flat
 70
     0
 71
     2
 72
     1
 73
     1
 90
        2
 40
0.6
 41
30.0
 62
     5
 63
     7
421
 16777215
 74
     0
 91
        0
 64
     7
 65
   257
 75
     1
175
     1
 42
1.0
 92
        8
 66
     7
 43
1.0
 76
     1
 77
     6
 78
     2
 67
     7
 79
     5
170
     0
171
     0
290
     0
174
     0
 93
       13
 44
0.0
173
     0
291
     1
 45
0.0
1001
ACAD
1000
AcDbSavedByObjectVersion
1070
     0
  0
VISUALSTYLE
  5
2C
102
{ACAD_REACTORS
330
2A
102
}
102
{ACAD_XDICTIONARY
360
1BC
102
}
330
2A
100
AcDbVisualStyle
  2
FlatWithEdges
 70
     1
 71
     2
 72
     1
 73
     1
 90
        2
 40
0.6
 41
30.0
 62
     5
 63
     7
421
 16777215
 74
     1
 91
        0
 64
     7
 65
   257
 75
     1
175
     1
 42
1.0
 92
        0
 66
   257
 43
1.0
 76
     1
 77
     6
 78
     2
 67
     7
 79
     5
170
     0
171
     0
290
     0
174
     0
 93
       13
 44
0.0
173
     0
291
     1
 45
0.0
1001
ACAD
1000
AcDbSavedByObjectVersion
1070
     0
  0
VISUALSTYLE
  5
2D
102
{ACAD_REACTORS
330
2A
102
}
102
{ACAD_XDICTIONARY
360
1BE
102
}
330
2A
100
AcDbVisualStyle
  2
Gouraud
 70
     2
 71
     2
 72
     2
 73
     1
 90
        2
 40
0.6
 41
30.0
 62
     5
 63
     7
421
 16777215
 74
     0
 91
        0
 64
     7
 65
   257
 75
     1
175
     1
 42
1.0
 92
        0
 66
     7
 43
1.0
 76
     1
 77
     6
 78
     2
 67
     7
 79
     5
170
     0
171
     0
290
     0
174
     0
 93
       13
 44
0.0
173
     0
291
     1
 45
0.0
1001
ACAD
1000
AcDbSavedByObjectVersion
1070
     0
  0
VISUALSTYLE
  5
2E
102
{ACAD_REACTORS
330
2A
102
}
102
{ACAD_XDICTIONARY
360
1C0
102
}
330
2A
100
AcDbVisualStyle
  2
GouraudWithEdges
 70
     3
 71
     2
 72
     2
 73
     1
 90
        2
 40
0.6
 41
30.0
 62
     5
 63
     7
421
 16777215
 74
     1
 91
        0
 64
     7
 65
   257
 75
     1
175
     1
 42
1.0
 92
        0
 66
   257
 43
1.0
 76
     1
 77
     6
 78
     2
 67
     7
 79
     5
170
     0
171
     0
290
     0
174
     0
 93
       13
 44
0.0
173
     0
291
     1
 45
0.0
1001
ACAD
1000
AcDbSavedByObjectVersion
1070
     0
  0
VISUALSTYLE
  5
31
102
{ACAD_REACTORS
330
2A
102
}
102
{ACAD_XDICTIONARY
360
1C6
102
}
330
2A
100
AcDbVisualStyle
  2
Hidden
 70
     6
 71
     1
 72
     2
 73
     2
 90
        0
 40
0.6
 41
30.0
 62
     5
 63
     7
421
 16777215
 74
     2
 91
        2
 64
     7
 65
   257
 75
     2
175
     1
 42
40.0
 92
        0
 66
   257
 43
1.0
 76
     1
 77
     6
 78
     2
 67
     7
 79
     3
170
     0
171
     0
290
     0
174
     0
 93
        1
 44
0.0
173
     0
291
     0
 45
0.0
1001
ACAD
1000
AcDbSavedByObjectVersion
1070
     0
  0
VISUALSTYLE
  5
3B
102
{ACAD_REACTORS
330
2A
102
}
102
{ACAD_XDICTIONARY
360
1DA
102
}
330
2A
100
AcDbVisualStyle
  2
JitterOff
 70
    20
 71
     2
 72
     2
 73
     0
 90
        0
 40
0.6
 41
30.0
 62
     5
 63
     7
421
 16777215
 74
     1
 91
        4
 64
     7
 65
   257
 75
     1
175
     1
 42
1.0
 92
       10
 66
     7
 43
1.0
 76
     1
 77
     6
 78
     2
 67
     7
 79
     5
170
     0
171
     0
290
     0
174
     0
 93
        1
 44
0.0
173
     0
291
     1
 45
0.0
1001
ACAD
1000
AcDbSavedByObjectVersion
1070
     0
  0
VISUALSTYLE
  5
38
102
{ACAD_REACTORS
330
2A
102
}
102
{ACAD_XDICTIONARY
360
1D4
102
}
330
2A
100
AcDbVisualStyle
  2
Linepattern
 70
    14
 71
     2
 72
     2
 73
     0
 90
        0
 40
0.6
 41
30.0
 62
     5
 63
     7
421
 16777215
 74
     1
 91
        4
 64
     7
 65
   257
 75
     7
175
     7
 42
1.0
 92
        8
 66
     7
 43
1.0
 76
     1
 77
     6
 78
     2
 67
     7
 79
     5
170
     0
171
     0
290
     0
174
     0
 93
        1
 44
0.0
173
     0
291
     1
 45
0.0
1001
ACAD
1000
AcDbSavedByObjectVersion
1070
     0
  0
VISUALSTYLE
  5
3C
102
{ACAD_REACTORS
330
2A
102
}
102
{ACAD_XDICTIONARY
360
1DC
102
}
330
2A
100
AcDbVisualStyle
  2
OverhangOff
 70
    21
 71
     2
 72
     2
 73
     0
 90
        0
 40
0.6
 41
30.0
 62
     5
 63
     7
421
 16777215
 74
     1
 91
        4
 64
     7
 65
   257
 75
     1
175
     1
 42
1.0
 92
        9
 66
     7
 43
1.0
 76
     1
 77
     6
 78
     2
 67
     7
 79
     5
170
     0
171
     0
290
     0
174
     0
 93
        1
 44
0.0
173
     0
291
     1
 45
0.0
1001
ACAD
1000
AcDbSavedByObjectVersion
1070
     0
  0
VISUALSTYLE
  5
33
102
{ACAD_REACTORS
330
2A
102
}
102
{ACAD_XDICTIONARY
360
1CA
102
}
330
2A
100
AcDbVisualStyle
  2
Realistic
 70
     8
 71
     2
 72
     3
 73
     0
 90
        2
 40
0.6
 41
30.0
 62
     5
 63
     7
421
 16777215
 74
     0
 91
        0
 64
     7
 65
   257
 75
     1
175
     1
 42
1.0
 92
        8
 66
   257
 43
1.0
 76
     1
 77
     6
 78
     2
 67
     7
 79
     3
170
     0
171
     0
290
     0
174
     0
 93
       13
 44
0.0
173
     0
291
     0
 45
0.0
1001
ACAD
1000
AcDbSavedByObjectVersion
1070
     0
  0
VISUALSTYLE
  5
42
102
{ACAD_REACTORS
330
2A
102
}
102
{ACAD_XDICTIONARY
360
1E8
102
}
330
2A
100
AcDbVisualStyle
  2
Shaded
 70
    27
 71
     2
 72
     2
 73
     1
 90
        2
 40
0.6
 41
30.0
 62
     5
 63
     7
421
 16777215
 74
     0
 91
        4
 64
     7
 65
   257
 75
     1
175
     1
 42
1.0
 92
        8
 66
   257
 43
1.0
 76
     1
 77
     6
 78
     2
 67
     8
425
  7895160
 79
     3
170
     0
171
     0
290
     0
174
     0
 93
        5
 44
0.0
173
     0
291
     0
 45
0.0
1001
ACAD
1000
AcDbSavedByObjectVersion
1070
     0
  0
VISUALSTYLE
  5
41
102
{ACAD_REACTORS
330
2A
102
}
102
{ACAD_XDICTIONARY
360
1E6
102
}
330
2A
100
AcDbVisualStyle
  2
Shaded with edges
 70
    26
 71
     2
 72
     2
 73
     1
 90
        2
 40
0.6
 41
30.0
 62
     5
 63
     7
421
 16777215
 74
     1
 91
       10
 64
     7
 65
   257
 75
     2
175
     1
 42
1.0
 92
        8
 66
   257
 43
1.0
 76
     1
 77
     6
 78
     2
 67
     7
 79
     3
170
     0
171
     0
290
     0
174
     0
 93
        5
 44
0.0
173
     0
291
     0
 45
0.0
1001
ACAD
1000
AcDbSavedByObjectVersion
1070
     0
  0
VISUALSTYLE
  5
3E
102
{ACAD_REACTORS
330
2A
102
}
102
{ACAD_XDICTIONARY
360
1E0
102
}
330
2A
100
AcDbVisualStyle
  2
Shades of Gray
 70
    23
 71
     2
 72
     2
 73
     3
 90
        0
 40
0.6
 41
30.0
 62
     5
 63
     7
421
 16777215
 74
     2
 91
        2
 64
     7
 65
     7
 75
     1
175
     1
 42
40.0
 92
        8
 66
     7
 43
1.0
 76
     1
 77
     6
 78
     2
 67
     7
 79
     3
170
     0
171
     0
290
     0
174
     0
 93
        1
 44
0.0
173
     0
291
     0
 45
0.0
1001
ACAD
1000
AcDbSavedByObjectVersion
1070
     0
  0
VISUALSTYLE
  5
3F
102
{ACAD_REACTORS
330
2A
102
}
102
{ACAD_XDICTIONARY
360
1E2
102
}
330
2A
100
AcDbVisualStyle
  2
Sketchy
 70
    24
 71
     1
 72
     2
 73
     2
 90
        0
 40
0.6
 41
30.0
 62
     5
 63
     7
421
 16777215
 74
     2
 91
        2
 64
     7
 65
     7
 75
     1
175
     1
 42
40.0
 92
       11
 66
     7
 43
1.0
 76
     1
 77
     6
 78
     2
 67
     7
 79
     6
170
     0
171
     0
290
     0
174
     0
 93
        1
 44
0.0
173
     0
291
     0
 45
0.0
1001
ACAD
1000
AcDbSavedByObjectVersion
1070
     0
  0
VISUALSTYLE
  5
37
102
{ACAD_REACTORS
330
2A
102
}
102
{ACAD_XDICTIONARY
360
1D2
102
}
330
2A
100
AcDbVisualStyle
  2
Thicken
 70
    13
 71
     2
 72
     2
 73
     0
 90
        0
 40
0.6
 41
30.0
 62
     5
 63
     7
421
 16777215
 74
     1
 91
        4
 64
     7
 65
   257
 75
     1
175
     1
 42
1.0
 92
       12
 66
     7
 43
1.0
 76
     1
 77
     6
 78
     2
 67
     7
 79
     5
170
     0
171
     0
290
     0
174
     0
 93
        1
 44
0.0
173
     0
291
     1
 45
0.0
1001
ACAD
1000
AcDbSavedByObjectVersion
1070
     0
  0
VISUALSTYLE
  5
30
102
{ACAD_REACTORS
330
2A
102
}
102
{ACAD_XDICTIONARY
360
1C4
102
}
330
2A
100
AcDbVisualStyle
  2
Wireframe
 70
     5
 71
     0
 72
     2
 73
     0
 90
        0
 40
0.6
 41
30.0
 62
     5
 63
     7
421
 16777215
 74
     1
 91
        4
 64
     7
 65
   257
 75
     1
175
     1
 42
1.0
 92
        0
 66
   257
 43
1.0
 76
     1
 77
     6
 78
     2
 67
     7
 79
     3
170
     0
171
     0
290
     0
174
     0
 93
        1
 44
0.0
173
     0
291
     0
 45
0.0
1001
ACAD
1000
AcDbSavedByObjectVersion
1070
     0
  0
VISUALSTYLE
  5
40
102
{ACAD_REACTORS
330
2A
102
}
102
{ACAD_XDICTIONARY
360
1E4
102
}
330
2A
100
AcDbVisualStyle
  2
X-Ray
 70
    25
 71
     2
 72
     2
 73
     1
 90
        1
 40
0.5
 41
30.0
 62
     5
 63
     7
421
 16777215
 74
     1
 91
        0
 64
     7
 65
   257
 75
     1
175
     1
 42
1.0
 92
        8
 66
     7
 43
1.0
 76
     1
 77
     6
 78
     2
 67
     7
 79
     3
170
     0
171
     0
290
     0
174
     0
 93
       13
 44
0.0
173
     0
291
     0
 45
0.0
1001
ACAD
1000
AcDbSavedByObjectVersion
1070
     0
  0
DICTIONARYVAR
  5
1B8
102
{ACAD_REACTORS
330
1B7
102
}
330
1B7
100
DictionaryVariables
280
     0
  1
1:1
  0
DICTIONARYVAR
  5
1B9
102
{ACAD_REACTORS
330
1B7
102
}
330
1B7
100
DictionaryVariables
280
     0
  1
1
  0
DICTIONARY
  5
1EC
330
45
100
AcDbDictionary
280
     1
281
     1
  3
ACAD_XREC_ROUNDTRIP
360
1ED
  0
DICTIONARY
  5
1EA
330
44
100
AcDbDictionary
280
     1
281
     1
  3
ACAD_XREC_ROUNDTRIP
360
1EB
  0
DICTIONARY
  5
1EE
330
46
100
AcDbDictionary
280
     1
281
     1
  3
ACAD_XREC_ROUNDTRIP
360
1EF
  0
DICTIONARY
  5
1C2
330
2F
100
AcDbDictionary
280
     1
281
     1
  3
ACAD_XREC_ROUNDTRIP
360
1C3
  0
DICTIONARY
  5
1C8
330
32
100
AcDbDictionary
280
     1
281
     1
  3
ACAD_XREC_ROUNDTRIP
360
1C9
  0
DICTIONARY
  5
1D0
330
36
100
AcDbDictionary
280
     1
281
     1
  3
ACAD_XREC_ROUNDTRIP
360
1D1
  0
DICTIONARY
  5
1D8
330
3A
100
AcDbDictionary
280
     1
281
     1
  3
ACAD_XREC_ROUNDTRIP
360
1D9
  0
DICTIONARY
  5
1CC
330
34
100
AcDbDictionary
280
     1
281
     1
  3
ACAD_XREC_ROUNDTRIP
360
1CD
  0
DICTIONARY
  5
1CE
330
35
100
AcDbDictionary
280
     1
281
     1
  3
ACAD_XREC_ROUNDTRIP
360
1CF
  0
DICTIONARY
  5
1DE
330
3D
100
AcDbDictionary
280
     1
281
     1
  3
ACAD_XREC_ROUNDTRIP
360
1DF
  0
DICTIONARY
  5
1D6
330
39
100
AcDbDictionary
280
     1
281
     1
  3
ACAD_XREC_ROUNDTRIP
360
1D7
  0
DICTIONARY
  5
1BA
330
2B
100
AcDbDictionary
280
     1
281
     1
  3
ACAD_XREC_ROUNDTRIP
360
1BB
  0
DICTIONARY
  5
1BC
330
2C
100
AcDbDictionary
280
     1
281
     1
  3
ACAD_XREC_ROUNDTRIP
360
1BD
  0
DICTIONARY
  5
1BE
330
2D
100
AcDbDictionary
280
     1
281
     1
  3
ACAD_XREC_ROUNDTRIP
360
1BF
  0
DICTIONARY
  5
1C0
330
2E
100
AcDbDictionary
280
     1
281
     1
  3
ACAD_XREC_ROUNDTRIP
360
1C1
  0
DICTIONARY
  5
1C6
330
31
100
AcDbDictionary
280
     1
281
     1
  3
ACAD_XREC_ROUNDTRIP
360
1C7
  0
DICTIONARY
  5
1DA
330
3B
100
AcDbDictionary
280
     1
281
     1
  3
ACAD_XREC_ROUNDTRIP
360
1DB
  0
DICTIONARY
  5
1D4
330
38
100
AcDbDictionary
280
     1
281
     1
  3
ACAD_XREC_ROUNDTRIP
360
1D5
  0
DICTIONARY
  5
1DC
330
3C
100
AcDbDictionary
280
     1
281
     1
  3
ACAD_XREC_ROUNDTRIP
360
1DD
  0
DICTIONARY
  5
1CA
330
33
100
AcDbDictionary
280
     1
281
     1
  3
ACAD_XREC_ROUNDTRIP
360
1CB
  0
DICTIONARY
  5
1E8
330
42
100
AcDbDictionary
280
     1
281
     1
  3
ACAD_XREC_ROUNDTRIP
360
1E9
  0
DICTIONARY
  5
1E6
330
41
100
AcDbDictionary
280
     1
281
     1
  3
ACAD_XREC_ROUNDTRIP
360
1E7
  0
DICTIONARY
  5
1E0
330
3E
100
AcDbDictionary
280
     1
281
     1
  3
ACAD_XREC_ROUNDTRIP
360
1E1
  0
DICTIONARY
  5
1E2
330
3F
100
AcDbDictionary
280
     1
281
     1
  3
ACAD_XREC_ROUNDTRIP
360
1E3
  0
DICTIONARY
  5
1D2
330
37
100
AcDbDictionary
280
     1
281
     1
  3
ACAD_XREC_ROUNDTRIP
360
1D3
  0
DICTIONARY
  5
1C4
330
30
100
AcDbDictionary
280
     1
281
     1
  3
ACAD_XREC_ROUNDTRIP
360
1C5
  0
DICTIONARY
  5
1E4
330
40
100
AcDbDictionary
280
     1
281
     1
  3
ACAD_XREC_ROUNDTRIP
360
1E5
  0
XRECORD
  5
1ED
102
{ACAD_REACTORS
330
1EC
102
}
330
1EC
100
AcDbXrecord
280
     1
102
MATERIAL
148
0.0
149
0.0
149
0.0
 93
        0
 94
      127
282
     0
 72
     1
 77
     1
171
     1
175
     1
179
     1
273
     0
  0
XRECORD
  5
1EB
102
{ACAD_REACTORS
330
1EA
102
}
330
1EA
100
AcDbXrecord
280
     1
102
MATERIAL
148
0.0
149
0.0
149
0.0
 93
        0
 94
      127
282
     0
 72
     1
 77
     1
171
     1
175
     1
179
     1
273
     0
  0
XRECORD
  5
1EF
102
{ACAD_REACTORS
330
1EE
102
}
330
1EE
100
AcDbXrecord
280
     1
102
MATERIAL
148
0.0
149
0.0
149
0.0
 93
        0
 94
      127
282
     0
 72
     1
 77
     1
171
     1
175
     1
179
     1
273
     0
  0
XRECORD
  5
1C3
102
{ACAD_REACTORS
330
1C2
102
}
330
1C2
100
AcDbXrecord
280
     1
102
RTVSPropertyOp0
 70
     1
102
RTVSPropertyOp1
 70
     1
102
RTVSPropertyOp2
 70
     1
102
RTVSPropertyOp3
 70
     1
102
RTVSPropertyOp4
 70
     1
102
RTVSPropertyOp5
 70
     1
102
RTVSPropertyOp6
 70
     1
102
RTVSPropertyOp7
 70
     1
102
RTVSPropertyOp8
 70
     1
102
RTVSPropertyOp9
 70
     1
102
RTVSPropertyOp10
 70
     1
102
RTVSPropertyOp11
 70
     1
102
RTVSPropertyOp12
 70
     1
102
RTVSPropertyOp13
 70
     1
102
RTVSPropertyOp14
 70
     1
102
RTVSPropertyOp15
 70
     1
102
RTVSPropertyOp16
 70
     1
102
RTVSPropertyOp17
 70
     1
102
RTVSPropertyOp18
 70
     1
102
RTVSPropertyOp19
 70
     1
102
RTVSPropertyOp20
 70
     1
102
RTVSPropertyOp21
 70
     1
102
RTVSPropertyOp22
 70
     1
102
RTVSPropertyOp23
 70
     1
102
RTVSPropertyOp24
 70
     1
102
RTVSPropertyOp25
 70
     1
102
RTVSPropertyOp26
 70
     1
102
RTVSPropertyOp27
 70
     1
102
RTVSPropertyOp28
 70
     1
102
RTVSPropertyOp29
 70
     1
102
RTVSPropertyOp30
 70
     1
102
RTVSPropertyOp31
 70
     1
102
RTVSPropertyOp32
 70
     1
102
RTVSPropertyOp33
 70
     1
102
RTVSPropertyOp34
 70
     1
102
RTVSPropertyOp35
 70
     1
102
RTVSPropertyOp36
 70
     1
102
RTVSPropertyOp37
 70
     1
102
RTVSPropertyOp38
 70
     1
102
RTVSPropertyOp39
 70
     1
102
RTVSPropertyOp40
 70
     1
102
RTVSPropertyOp41
 70
     1
102
RTVSPropertyOp42
 70
     1
102
RTVSPropertyOp43
 70
     1
102
RTVSPropertyOp44
 70
     1
102
RTVSPropertyOp45
 70
     1
102
RTVSPropertyOp46
 70
     1
102
RTVSPropertyOp47
 70
     1
102
RTVSPropertyOp48
 70
     1
102
RTVSPropertyOp49
 70
     1
102
RTVSPropertyOp50
 70
     1
102
RTVSPropertyOp51
 70
     0
102
RTVSPropertyOp52
 70
     0
102
RTVSPropertyOp53
 70
     1
102
RTVSPropertyOp54
 70
     1
102
RTVSPropertyOp55
 70
     1
102
RTVSPropertyOp56
 70
     1
102
RTVSPropertyOp57
 70
     1
102
RTVSPost2010Prop28
280
     1
102
RTVSPost2010PropOp28
 70
     1
102
RTVSPost2010Prop29
280
     1
102
RTVSPost2010PropOp29
 70
     1
102
RTVSPost2010Prop30
280
     0
102
RTVSPost2010PropOp30
 70
     1
102
RTVSPost2010Prop31
280
     0
102
RTVSPost2010PropOp31
 70
     1
102
RTVSPost2010Prop32
280
     0
102
RTVSPost2010PropOp32
 70
     1
102
RTVSPost2010Prop33
280
     0
102
RTVSPost2010PropOp33
 70
     1
102
RTVSPost2010Prop34
280
     0
102
RTVSPost2010PropOp34
 70
     1
102
RTVSPost2010Prop35
280
     0
102
RTVSPost2010PropOp35
 70
     1
102
RTVSPost2010Prop36
280
     0
102
RTVSPost2010PropOp36
 70
     1
102
RTVSPost2010Prop37
 90
       50
102
RTVSPost2010PropOp37
 70
     1
102
RTVSPost2010Prop38
140
0.0
102
RTVSPost2010PropOp38
 70
     1
102
RTVSPost2010Prop39
140
1.0
102
RTVSPost2010PropOp39
 70
     1
102
RTVSPost2010Prop40
 90
        0
102
RTVSPost2010PropOp40
 70
     1
102
RTVSPost2010Prop41ColorIndex
 90
      178
102
RTVSPost2010Prop41ColorRGB
 90
        0
102
RTVSPost2010PropOp41
 70
     1
102
RTVSPost2010Prop42
 90
       50
102
RTVSPost2010PropOp42
 70
     1
102
RTVSPost2010Prop43
 90
        3
102
RTVSPost2010PropOp43
 70
     1
102
RTVSPost2010Prop44ColorIndex
 90
        5
102
RTVSPost2010Prop44ColorRGB
 90
      255
102
RTVSPost2010PropOp44
 70
     1
102
RTVSPost2010Prop45
280
     0
102
RTVSPost2010PropOp45
 70
     1
102
RTVSPost2010Prop46
 90
       50
102
RTVSPost2010PropOp46
 70
     1
102
RTVSPost2010Prop47
 90
       50
102
RTVSPost2010PropOp47
 70
     1
102
RTVSPost2010Prop48
 90
       50
102
RTVSPost2010PropOp48
 70
     1
102
RTVSPost2010Prop49
280
     0
102
RTVSPost2010PropOp49
 70
     1
102
RTVSPost2010Prop50
 90
       50
102
RTVSPost2010PropOp50
 70
     1
102
RTVSPost2010Prop51ColorIndex
 90
      256
102
RTVSPost2010Prop51ColorRGB
 90
-16777216
102
RTVSPost2010PropOp51
 70
     0
102
RTVSPost2010Prop52
140
1.0
102
RTVSPost2010PropOp52
 70
     0
102
RTVSPost2010Prop53
 90
        2
102
RTVSPost2010PropOp53
 70
     1
102
RTVSPost2010Prop54
  1
strokes_ogs.tif
102
RTVSPost2010PropOp54
 70
     1
102
RTVSPost2010Prop55
280
     0
102
RTVSPost2010PropOp55
 70
     1
102
RTVSPost2010Prop56
140
1.0
102
RTVSPost2010PropOp56
 70
     1
102
RTVSPost2010Prop57
140
1.0
102
RTVSPost2010PropOp57
 70
     1
  0
XRECORD
  5
1C9
102
{ACAD_REACTORS
330
1C8
102
}
330
1C8
100
AcDbXrecord
280
     1
102
RTVSPropertyOp0
 70
     1
102
RTVSPropertyOp1
 70
     1
102
RTVSPropertyOp2
 70
     1
102
RTVSPropertyOp3
 70
     1
102
RTVSPropertyOp4
 70
     1
102
RTVSPropertyOp5
 70
     1
102
RTVSPropertyOp6
 70
     1
102
RTVSPropertyOp7
 70
     1
102
RTVSPropertyOp8
 70
     1
102
RTVSPropertyOp9
 70
     1
102
RTVSPropertyOp10
 70
     1
102
RTVSPropertyOp11
 70
     1
102
RTVSPropertyOp12
 70
     1
102
RTVSPropertyOp13
 70
     1
102
RTVSPropertyOp14
 70
     1
102
RTVSPropertyOp15
 70
     1
102
RTVSPropertyOp16
 70
     1
102
RTVSPropertyOp17
 70
     1
102
RTVSPropertyOp18
 70
     1
102
RTVSPropertyOp19
 70
     1
102
RTVSPropertyOp20
 70
     1
102
RTVSPropertyOp21
 70
     1
102
RTVSPropertyOp22
 70
     1
102
RTVSPropertyOp23
 70
     1
102
RTVSPropertyOp24
 70
     1
102
RTVSPropertyOp25
 70
     1
102
RTVSPropertyOp26
 70
     1
102
RTVSPropertyOp27
 70
     1
102
RTVSPropertyOp28
 70
     1
102
RTVSPropertyOp29
 70
     1
102
RTVSPropertyOp30
 70
     1
102
RTVSPropertyOp31
 70
     1
102
RTVSPropertyOp32
 70
     1
102
RTVSPropertyOp33
 70
     1
102
RTVSPropertyOp34
 70
     1
102
RTVSPropertyOp35
 70
     1
102
RTVSPropertyOp36
 70
     1
102
RTVSPropertyOp37
 70
     1
102
RTVSPropertyOp38
 70
     1
102
RTVSPropertyOp39
 70
     1
102
RTVSPropertyOp40
 70
     1
102
RTVSPropertyOp41
 70
     1
102
RTVSPropertyOp42
 70
     1
102
RTVSPropertyOp43
 70
     1
102
RTVSPropertyOp44
 70
     1
102
RTVSPropertyOp45
 70
     1
102
RTVSPropertyOp46
 70
     1
102
RTVSPropertyOp47
 70
     1
102
RTVSPropertyOp48
 70
     1
102
RTVSPropertyOp49
 70
     1
102
RTVSPropertyOp50
 70
     1
102
RTVSPropertyOp51
 70
     0
102
RTVSPropertyOp52
 70
     0
102
RTVSPropertyOp53
 70
     1
102
RTVSPropertyOp54
 70
     1
102
RTVSPropertyOp55
 70
     1
102
RTVSPropertyOp56
 70
     1
102
RTVSPropertyOp57
 70
     1
102
RTVSPost2010Prop28
280
     0
102
RTVSPost2010PropOp28
 70
     1
102
RTVSPost2010Prop29
280
     1
102
RTVSPost2010PropOp29
 70
     1
102
RTVSPost2010Prop30
280
     1
102
RTVSPost2010PropOp30
 70
     1
102
RTVSPost2010Prop31
280
     0
102
RTVSPost2010PropOp31
 70
     1
102
RTVSPost2010Prop32
280
     0
102
RTVSPost2010PropOp32
 70
     1
102
RTVSPost2010Prop33
280
     0
102
RTVSPost2010PropOp33
 70
     1
102
RTVSPost2010Prop34
280
     0
102
RTVSPost2010PropOp34
 70
     1
102
RTVSPost2010Prop35
280
     0
102
RTVSPost2010PropOp35
 70
     1
102
RTVSPost2010Prop36
280
     0
102
RTVSPost2010PropOp36
 70
     1
102
RTVSPost2010Prop37
 90
       50
102
RTVSPost2010PropOp37
 70
     1
102
RTVSPost2010Prop38
140
0.0
102
RTVSPost2010PropOp38
 70
     1
102
RTVSPost2010Prop39
140
1.0
102
RTVSPost2010PropOp39
 70
     1
102
RTVSPost2010Prop40
 90
        0
102
RTVSPost2010PropOp40
 70
     1
102
RTVSPost2010Prop41ColorIndex
 90
      178
102
RTVSPost2010Prop41ColorRGB
 90
        0
102
RTVSPost2010PropOp41
 70
     1
102
RTVSPost2010Prop42
 90
       50
102
RTVSPost2010PropOp42
 70
     1
102
RTVSPost2010Prop43
 90
        3
102
RTVSPost2010PropOp43
 70
     1
102
RTVSPost2010Prop44ColorIndex
 90
        5
102
RTVSPost2010Prop44ColorRGB
 90
      255
102
RTVSPost2010PropOp44
 70
     1
102
RTVSPost2010Prop45
280
     0
102
RTVSPost2010PropOp45
 70
     1
102
RTVSPost2010Prop46
 90
       50
102
RTVSPost2010PropOp46
 70
     1
102
RTVSPost2010Prop47
 90
       50
102
RTVSPost2010PropOp47
 70
     1
102
RTVSPost2010Prop48
 90
       50
102
RTVSPost2010PropOp48
 70
     1
102
RTVSPost2010Prop49
280
     0
102
RTVSPost2010PropOp49
 70
     1
102
RTVSPost2010Prop50
 90
       50
102
RTVSPost2010PropOp50
 70
     1
102
RTVSPost2010Prop51ColorIndex
 90
      256
102
RTVSPost2010Prop51ColorRGB
 90
-16777216
102
RTVSPost2010PropOp51
 70
     0
102
RTVSPost2010Prop52
140
1.0
102
RTVSPost2010PropOp52
 70
     0
102
RTVSPost2010Prop53
 90
        2
102
RTVSPost2010PropOp53
 70
     1
102
RTVSPost2010Prop54
  1
strokes_ogs.tif
102
RTVSPost2010PropOp54
 70
     1
102
RTVSPost2010Prop55
280
     0
102
RTVSPost2010PropOp55
 70
     1
102
RTVSPost2010Prop56
140
1.0
102
RTVSPost2010PropOp56
 70
     1
102
RTVSPost2010Prop57
140
1.0
102
RTVSPost2010PropOp57
 70
     1
  0
XRECORD
  5
1D1
102
{ACAD_REACTORS
330
1D0
102
}
330
1D0
100
AcDbXrecord
280
     1
102
RTVSPropertyOp0
 70
     1
102
RTVSPropertyOp1
 70
     1
102
RTVSPropertyOp2
 70
     1
102
RTVSPropertyOp3
 70
     1
102
RTVSPropertyOp4
 70
     1
102
RTVSPropertyOp5
 70
     1
102
RTVSPropertyOp6
 70
     1
102
RTVSPropertyOp7
 70
     1
102
RTVSPropertyOp8
 70
     1
102
RTVSPropertyOp9
 70
     1
102
RTVSPropertyOp10
 70
     1
102
RTVSPropertyOp11
 70
     1
102
RTVSPropertyOp12
 70
     1
102
RTVSPropertyOp13
 70
     1
102
RTVSPropertyOp14
 70
     1
102
RTVSPropertyOp15
 70
     1
102
RTVSPropertyOp16
 70
     1
102
RTVSPropertyOp17
 70
     1
102
RTVSPropertyOp18
 70
     1
102
RTVSPropertyOp19
 70
     1
102
RTVSPropertyOp20
 70
     1
102
RTVSPropertyOp21
 70
     1
102
RTVSPropertyOp22
 70
     1
102
RTVSPropertyOp23
 70
     1
102
RTVSPropertyOp24
 70
     1
102
RTVSPropertyOp25
 70
     1
102
RTVSPropertyOp26
 70
     1
102
RTVSPropertyOp27
 70
     1
102
RTVSPropertyOp28
 70
     1
102
RTVSPropertyOp29
 70
     1
102
RTVSPropertyOp30
 70
     1
102
RTVSPropertyOp31
 70
     1
102
RTVSPropertyOp32
 70
     1
102
RTVSPropertyOp33
 70
     1
102
RTVSPropertyOp34
 70
     1
102
RTVSPropertyOp35
 70
     1
102
RTVSPropertyOp36
 70
     1
102
RTVSPropertyOp37
 70
     1
102
RTVSPropertyOp38
 70
     1
102
RTVSPropertyOp39
 70
     1
102
RTVSPropertyOp40
 70
     1
102
RTVSPropertyOp41
 70
     1
102
RTVSPropertyOp42
 70
     1
102
RTVSPropertyOp43
 70
     1
102
RTVSPropertyOp44
 70
     1
102
RTVSPropertyOp45
 70
     1
102
RTVSPropertyOp46
 70
     1
102
RTVSPropertyOp47
 70
     1
102
RTVSPropertyOp48
 70
     1
102
RTVSPropertyOp49
 70
     1
102
RTVSPropertyOp50
 70
     1
102
RTVSPropertyOp51
 70
     0
102
RTVSPropertyOp52
 70
     0
102
RTVSPropertyOp53
 70
     1
102
RTVSPropertyOp54
 70
     1
102
RTVSPropertyOp55
 70
     1
102
RTVSPropertyOp56
 70
     1
102
RTVSPropertyOp57
 70
     1
102
RTVSPost2010Prop28
280
     0
102
RTVSPost2010PropOp28
 70
     1
102
RTVSPost2010Prop29
280
     1
102
RTVSPost2010PropOp29
 70
     1
102
RTVSPost2010Prop30
280
     1
102
RTVSPost2010PropOp30
 70
     1
102
RTVSPost2010Prop31
280
     0
102
RTVSPost2010PropOp31
 70
     1
102
RTVSPost2010Prop32
280
     0
102
RTVSPost2010PropOp32
 70
     1
102
RTVSPost2010Prop33
280
     0
102
RTVSPost2010PropOp33
 70
     1
102
RTVSPost2010Prop34
280
     0
102
RTVSPost2010PropOp34
 70
     1
102
RTVSPost2010Prop35
280
     0
102
RTVSPost2010PropOp35
 70
     1
102
RTVSPost2010Prop36
280
     0
102
RTVSPost2010PropOp36
 70
     1
102
RTVSPost2010Prop37
 90
       50
102
RTVSPost2010PropOp37
 70
     1
102
RTVSPost2010Prop38
140
0.0
102
RTVSPost2010PropOp38
 70
     1
102
RTVSPost2010Prop39
140
1.0
102
RTVSPost2010PropOp39
 70
     1
102
RTVSPost2010Prop40
 90
        0
102
RTVSPost2010PropOp40
 70
     1
102
RTVSPost2010Prop41ColorIndex
 90
      178
102
RTVSPost2010Prop41ColorRGB
 90
        0
102
RTVSPost2010PropOp41
 70
     1
102
RTVSPost2010Prop42
 90
       50
102
RTVSPost2010PropOp42
 70
     1
102
RTVSPost2010Prop43
 90
        3
102
RTVSPost2010PropOp43
 70
     1
102
RTVSPost2010Prop44ColorIndex
 90
        5
102
RTVSPost2010Prop44ColorRGB
 90
      255
102
RTVSPost2010PropOp44
 70
     1
102
RTVSPost2010Prop45
280
     0
102
RTVSPost2010PropOp45
 70
     1
102
RTVSPost2010Prop46
 90
       50
102
RTVSPost2010PropOp46
 70
     1
102
RTVSPost2010Prop47
 90
       50
102
RTVSPost2010PropOp47
 70
     1
102
RTVSPost2010Prop48
 90
       50
102
RTVSPost2010PropOp48
 70
     1
102
RTVSPost2010Prop49
280
     0
102
RTVSPost2010PropOp49
 70
     1
102
RTVSPost2010Prop50
 90
       50
102
RTVSPost2010PropOp50
 70
     1
102
RTVSPost2010Prop51ColorIndex
 90
      256
102
RTVSPost2010Prop51ColorRGB
 90
-16777216
102
RTVSPost2010PropOp51
 70
     0
102
RTVSPost2010Prop52
140
1.0
102
RTVSPost2010PropOp52
 70
     0
102
RTVSPost2010Prop53
 90
        2
102
RTVSPost2010PropOp53
 70
     1
102
RTVSPost2010Prop54
  1
strokes_ogs.tif
102
RTVSPost2010PropOp54
 70
     1
102
RTVSPost2010Prop55
280
     0
102
RTVSPost2010PropOp55
 70
     1
102
RTVSPost2010Prop56
140
1.0
102
RTVSPost2010PropOp56
 70
     1
102
RTVSPost2010Prop57
140
1.0
102
RTVSPost2010PropOp57
 70
     1
  0
XRECORD
  5
1D9
102
{ACAD_REACTORS
330
1D8
102
}
330
1D8
100
AcDbXrecord
280
     1
102
RTVSPropertyOp0
 70
     1
102
RTVSPropertyOp1
 70
     1
102
RTVSPropertyOp2
 70
     1
102
RTVSPropertyOp3
 70
     1
102
RTVSPropertyOp4
 70
     1
102
RTVSPropertyOp5
 70
     1
102
RTVSPropertyOp6
 70
     1
102
RTVSPropertyOp7
 70
     1
102
RTVSPropertyOp8
 70
     1
102
RTVSPropertyOp9
 70
     1
102
RTVSPropertyOp10
 70
     1
102
RTVSPropertyOp11
 70
     1
102
RTVSPropertyOp12
 70
     1
102
RTVSPropertyOp13
 70
     1
102
RTVSPropertyOp14
 70
     1
102
RTVSPropertyOp15
 70
     1
102
RTVSPropertyOp16
 70
     1
102
RTVSPropertyOp17
 70
     1
102
RTVSPropertyOp18
 70
     1
102
RTVSPropertyOp19
 70
     1
102
RTVSPropertyOp20
 70
     1
102
RTVSPropertyOp21
 70
     1
102
RTVSPropertyOp22
 70
     1
102
RTVSPropertyOp23
 70
     1
102
RTVSPropertyOp24
 70
     1
102
RTVSPropertyOp25
 70
     1
102
RTVSPropertyOp26
 70
     1
102
RTVSPropertyOp27
 70
     1
102
RTVSPropertyOp28
 70
     1
102
RTVSPropertyOp29
 70
     1
102
RTVSPropertyOp30
 70
     1
102
RTVSPropertyOp31
 70
     1
102
RTVSPropertyOp32
 70
     1
102
RTVSPropertyOp33
 70
     1
102
RTVSPropertyOp34
 70
     1
102
RTVSPropertyOp35
 70
     1
102
RTVSPropertyOp36
 70
     1
102
RTVSPropertyOp37
 70
     1
102
RTVSPropertyOp38
 70
     1
102
RTVSPropertyOp39
 70
     1
102
RTVSPropertyOp40
 70
     1
102
RTVSPropertyOp41
 70
     1
102
RTVSPropertyOp42
 70
     1
102
RTVSPropertyOp43
 70
     1
102
RTVSPropertyOp44
 70
     1
102
RTVSPropertyOp45
 70
     1
102
RTVSPropertyOp46
 70
     1
102
RTVSPropertyOp47
 70
     1
102
RTVSPropertyOp48
 70
     1
102
RTVSPropertyOp49
 70
     1
102
RTVSPropertyOp50
 70
     1
102
RTVSPropertyOp51
 70
     0
102
RTVSPropertyOp52
 70
     0
102
RTVSPropertyOp53
 70
     1
102
RTVSPropertyOp54
 70
     1
102
RTVSPropertyOp55
 70
     1
102
RTVSPropertyOp56
 70
     1
102
RTVSPropertyOp57
 70
     1
102
RTVSPost2010Prop28
280
     0
102
RTVSPost2010PropOp28
 70
     1
102
RTVSPost2010Prop29
280
     1
102
RTVSPost2010PropOp29
 70
     1
102
RTVSPost2010Prop30
280
     1
102
RTVSPost2010PropOp30
 70
     1
102
RTVSPost2010Prop31
280
     0
102
RTVSPost2010PropOp31
 70
     1
102
RTVSPost2010Prop32
280
     0
102
RTVSPost2010PropOp32
 70
     1
102
RTVSPost2010Prop33
280
     0
102
RTVSPost2010PropOp33
 70
     1
102
RTVSPost2010Prop34
280
     0
102
RTVSPost2010PropOp34
 70
     1
102
RTVSPost2010Prop35
280
     0
102
RTVSPost2010PropOp35
 70
     1
102
RTVSPost2010Prop36
280
     0
102
RTVSPost2010PropOp36
 70
     1
102
RTVSPost2010Prop37
 90
       50
102
RTVSPost2010PropOp37
 70
     1
102
RTVSPost2010Prop38
140
0.0
102
RTVSPost2010PropOp38
 70
     1
102
RTVSPost2010Prop39
140
1.0
102
RTVSPost2010PropOp39
 70
     1
102
RTVSPost2010Prop40
 90
        0
102
RTVSPost2010PropOp40
 70
     1
102
RTVSPost2010Prop41ColorIndex
 90
      178
102
RTVSPost2010Prop41ColorRGB
 90
        0
102
RTVSPost2010PropOp41
 70
     1
102
RTVSPost2010Prop42
 90
       50
102
RTVSPost2010PropOp42
 70
     1
102
RTVSPost2010Prop43
 90
        3
102
RTVSPost2010PropOp43
 70
     1
102
RTVSPost2010Prop44ColorIndex
 90
        5
102
RTVSPost2010Prop44ColorRGB
 90
      255
102
RTVSPost2010PropOp44
 70
     1
102
RTVSPost2010Prop45
280
     0
102
RTVSPost2010PropOp45
 70
     1
102
RTVSPost2010Prop46
 90
       50
102
RTVSPost2010PropOp46
 70
     1
102
RTVSPost2010Prop47
 90
       50
102
RTVSPost2010PropOp47
 70
     1
102
RTVSPost2010Prop48
 90
       50
102
RTVSPost2010PropOp48
 70
     1
102
RTVSPost2010Prop49
280
     0
102
RTVSPost2010PropOp49
 70
     1
102
RTVSPost2010Prop50
 90
       50
102
RTVSPost2010PropOp50
 70
     1
102
RTVSPost2010Prop51ColorIndex
 90
      256
102
RTVSPost2010Prop51ColorRGB
 90
-16777216
102
RTVSPost2010PropOp51
 70
     0
102
RTVSPost2010Prop52
140
1.0
102
RTVSPost2010PropOp52
 70
     0
102
RTVSPost2010Prop53
 90
        2
102
RTVSPost2010PropOp53
 70
     1
102
RTVSPost2010Prop54
  1
strokes_ogs.tif
102
RTVSPost2010PropOp54
 70
     1
102
RTVSPost2010Prop55
280
     0
102
RTVSPost2010PropOp55
 70
     1
102
RTVSPost2010Prop56
140
1.0
102
RTVSPost2010PropOp56
 70
     1
102
RTVSPost2010Prop57
140
1.0
102
RTVSPost2010PropOp57
 70
     1
  0
XRECORD
  5
1CD
102
{ACAD_REACTORS
330
1CC
102
}
330
1CC
100
AcDbXrecord
280
     1
102
RTVSPropertyOp0
 70
     1
102
RTVSPropertyOp1
 70
     1
102
RTVSPropertyOp2
 70
     1
102
RTVSPropertyOp3
 70
     1
102
RTVSPropertyOp4
 70
     1
102
RTVSPropertyOp5
 70
     1
102
RTVSPropertyOp6
 70
     1
102
RTVSPropertyOp7
 70
     1
102
RTVSPropertyOp8
 70
     1
102
RTVSPropertyOp9
 70
     1
102
RTVSPropertyOp10
 70
     1
102
RTVSPropertyOp11
 70
     1
102
RTVSPropertyOp12
 70
     1
102
RTVSPropertyOp13
 70
     1
102
RTVSPropertyOp14
 70
     1
102
RTVSPropertyOp15
 70
     1
102
RTVSPropertyOp16
 70
     1
102
RTVSPropertyOp17
 70
     1
102
RTVSPropertyOp18
 70
     1
102
RTVSPropertyOp19
 70
     1
102
RTVSPropertyOp20
 70
     1
102
RTVSPropertyOp21
 70
     1
102
RTVSPropertyOp22
 70
     1
102
RTVSPropertyOp23
 70
     1
102
RTVSPropertyOp24
 70
     1
102
RTVSPropertyOp25
 70
     1
102
RTVSPropertyOp26
 70
     1
102
RTVSPropertyOp27
 70
     1
102
RTVSPropertyOp28
 70
     1
102
RTVSPropertyOp29
 70
     1
102
RTVSPropertyOp30
 70
     1
102
RTVSPropertyOp31
 70
     1
102
RTVSPropertyOp32
 70
     1
102
RTVSPropertyOp33
 70
     1
102
RTVSPropertyOp34
 70
     1
102
RTVSPropertyOp35
 70
     1
102
RTVSPropertyOp36
 70
     1
102
RTVSPropertyOp37
 70
     1
102
RTVSPropertyOp38
 70
     1
102
RTVSPropertyOp39
 70
     1
102
RTVSPropertyOp40
 70
     1
102
RTVSPropertyOp41
 70
     1
102
RTVSPropertyOp42
 70
     1
102
RTVSPropertyOp43
 70
     1
102
RTVSPropertyOp44
 70
     1
102
RTVSPropertyOp45
 70
     1
102
RTVSPropertyOp46
 70
     1
102
RTVSPropertyOp47
 70
     1
102
RTVSPropertyOp48
 70
     1
102
RTVSPropertyOp49
 70
     1
102
RTVSPropertyOp50
 70
     1
102
RTVSPropertyOp51
 70
     0
102
RTVSPropertyOp52
 70
     0
102
RTVSPropertyOp53
 70
     1
102
RTVSPropertyOp54
 70
     1
102
RTVSPropertyOp55
 70
     1
102
RTVSPropertyOp56
 70
     1
102
RTVSPropertyOp57
 70
     1
102
RTVSPost2010Prop28
280
     0
102
RTVSPost2010PropOp28
 70
     1
102
RTVSPost2010Prop29
280
     1
102
RTVSPost2010PropOp29
 70
     1
102
RTVSPost2010Prop30
280
     1
102
RTVSPost2010PropOp30
 70
     1
102
RTVSPost2010Prop31
280
     0
102
RTVSPost2010PropOp31
 70
     1
102
RTVSPost2010Prop32
280
     0
102
RTVSPost2010PropOp32
 70
     1
102
RTVSPost2010Prop33
280
     0
102
RTVSPost2010PropOp33
 70
     1
102
RTVSPost2010Prop34
280
     0
102
RTVSPost2010PropOp34
 70
     1
102
RTVSPost2010Prop35
280
     0
102
RTVSPost2010PropOp35
 70
     1
102
RTVSPost2010Prop36
280
     0
102
RTVSPost2010PropOp36
 70
     1
102
RTVSPost2010Prop37
 90
       50
102
RTVSPost2010PropOp37
 70
     1
102
RTVSPost2010Prop38
140
0.0
102
RTVSPost2010PropOp38
 70
     1
102
RTVSPost2010Prop39
140
1.0
102
RTVSPost2010PropOp39
 70
     1
102
RTVSPost2010Prop40
 90
        0
102
RTVSPost2010PropOp40
 70
     1
102
RTVSPost2010Prop41ColorIndex
 90
      178
102
RTVSPost2010Prop41ColorRGB
 90
        0
102
RTVSPost2010PropOp41
 70
     1
102
RTVSPost2010Prop42
 90
       50
102
RTVSPost2010PropOp42
 70
     1
102
RTVSPost2010Prop43
 90
        3
102
RTVSPost2010PropOp43
 70
     1
102
RTVSPost2010Prop44ColorIndex
 90
        5
102
RTVSPost2010Prop44ColorRGB
 90
      255
102
RTVSPost2010PropOp44
 70
     1
102
RTVSPost2010Prop45
280
     0
102
RTVSPost2010PropOp45
 70
     1
102
RTVSPost2010Prop46
 90
       50
102
RTVSPost2010PropOp46
 70
     1
102
RTVSPost2010Prop47
 90
       50
102
RTVSPost2010PropOp47
 70
     1
102
RTVSPost2010Prop48
 90
       50
102
RTVSPost2010PropOp48
 70
     1
102
RTVSPost2010Prop49
280
     0
102
RTVSPost2010PropOp49
 70
     1
102
RTVSPost2010Prop50
 90
       50
102
RTVSPost2010PropOp50
 70
     1
102
RTVSPost2010Prop51ColorIndex
 90
      256
102
RTVSPost2010Prop51ColorRGB
 90
-16777216
102
RTVSPost2010PropOp51
 70
     0
102
RTVSPost2010Prop52
140
1.0
102
RTVSPost2010PropOp52
 70
     0
102
RTVSPost2010Prop53
 90
        2
102
RTVSPost2010PropOp53
 70
     1
102
RTVSPost2010Prop54
  1
strokes_ogs.tif
102
RTVSPost2010PropOp54
 70
     1
102
RTVSPost2010Prop55
280
     0
102
RTVSPost2010PropOp55
 70
     1
102
RTVSPost2010Prop56
140
1.0
102
RTVSPost2010PropOp56
 70
     1
102
RTVSPost2010Prop57
140
1.0
102
RTVSPost2010PropOp57
 70
     1
  0
XRECORD
  5
1CF
102
{ACAD_REACTORS
330
1CE
102
}
330
1CE
100
AcDbXrecord
280
     1
102
RTVSPropertyOp0
 70
     1
102
RTVSPropertyOp1
 70
     1
102
RTVSPropertyOp2
 70
     1
102
RTVSPropertyOp3
 70
     1
102
RTVSPropertyOp4
 70
     1
102
RTVSPropertyOp5
 70
     1
102
RTVSPropertyOp6
 70
     1
102
RTVSPropertyOp7
 70
     1
102
RTVSPropertyOp8
 70
     1
102
RTVSPropertyOp9
 70
     1
102
RTVSPropertyOp10
 70
     1
102
RTVSPropertyOp11
 70
     1
102
RTVSPropertyOp12
 70
     1
102
RTVSPropertyOp13
 70
     1
102
RTVSPropertyOp14
 70
     1
102
RTVSPropertyOp15
 70
     1
102
RTVSPropertyOp16
 70
     1
102
RTVSPropertyOp17
 70
     1
102
RTVSPropertyOp18
 70
     1
102
RTVSPropertyOp19
 70
     1
102
RTVSPropertyOp20
 70
     1
102
RTVSPropertyOp21
 70
     1
102
RTVSPropertyOp22
 70
     1
102
RTVSPropertyOp23
 70
     1
102
RTVSPropertyOp24
 70
     1
102
RTVSPropertyOp25
 70
     1
102
RTVSPropertyOp26
 70
     1
102
RTVSPropertyOp27
 70
     1
102
RTVSPropertyOp28
 70
     1
102
RTVSPropertyOp29
 70
     1
102
RTVSPropertyOp30
 70
     1
102
RTVSPropertyOp31
 70
     1
102
RTVSPropertyOp32
 70
     1
102
RTVSPropertyOp33
 70
     1
102
RTVSPropertyOp34
 70
     1
102
RTVSPropertyOp35
 70
     1
102
RTVSPropertyOp36
 70
     1
102
RTVSPropertyOp37
 70
     1
102
RTVSPropertyOp38
 70
     1
102
RTVSPropertyOp39
 70
     1
102
RTVSPropertyOp40
 70
     1
102
RTVSPropertyOp41
 70
     1
102
RTVSPropertyOp42
 70
     1
102
RTVSPropertyOp43
 70
     1
102
RTVSPropertyOp44
 70
     1
102
RTVSPropertyOp45
 70
     1
102
RTVSPropertyOp46
 70
     1
102
RTVSPropertyOp47
 70
     1
102
RTVSPropertyOp48
 70
     1
102
RTVSPropertyOp49
 70
     1
102
RTVSPropertyOp50
 70
     1
102
RTVSPropertyOp51
 70
     0
102
RTVSPropertyOp52
 70
     0
102
RTVSPropertyOp53
 70
     1
102
RTVSPropertyOp54
 70
     1
102
RTVSPropertyOp55
 70
     1
102
RTVSPropertyOp56
 70
     1
102
RTVSPropertyOp57
 70
     1
102
RTVSPost2010Prop28
280
     0
102
RTVSPost2010PropOp28
 70
     1
102
RTVSPost2010Prop29
280
     1
102
RTVSPost2010PropOp29
 70
     1
102
RTVSPost2010Prop30
280
     1
102
RTVSPost2010PropOp30
 70
     1
102
RTVSPost2010Prop31
280
     0
102
RTVSPost2010PropOp31
 70
     1
102
RTVSPost2010Prop32
280
     0
102
RTVSPost2010PropOp32
 70
     1
102
RTVSPost2010Prop33
280
     0
102
RTVSPost2010PropOp33
 70
     1
102
RTVSPost2010Prop34
280
     0
102
RTVSPost2010PropOp34
 70
     1
102
RTVSPost2010Prop35
280
     0
102
RTVSPost2010PropOp35
 70
     1
102
RTVSPost2010Prop36
280
     0
102
RTVSPost2010PropOp36
 70
     1
102
RTVSPost2010Prop37
 90
       50
102
RTVSPost2010PropOp37
 70
     1
102
RTVSPost2010Prop38
140
0.0
102
RTVSPost2010PropOp38
 70
     1
102
RTVSPost2010Prop39
140
1.0
102
RTVSPost2010PropOp39
 70
     1
102
RTVSPost2010Prop40
 90
        0
102
RTVSPost2010PropOp40
 70
     1
102
RTVSPost2010Prop41ColorIndex
 90
      178
102
RTVSPost2010Prop41ColorRGB
 90
        0
102
RTVSPost2010PropOp41
 70
     1
102
RTVSPost2010Prop42
 90
       50
102
RTVSPost2010PropOp42
 70
     1
102
RTVSPost2010Prop43
 90
        3
102
RTVSPost2010PropOp43
 70
     1
102
RTVSPost2010Prop44ColorIndex
 90
        5
102
RTVSPost2010Prop44ColorRGB
 90
      255
102
RTVSPost2010PropOp44
 70
     1
102
RTVSPost2010Prop45
280
     0
102
RTVSPost2010PropOp45
 70
     1
102
RTVSPost2010Prop46
 90
       50
102
RTVSPost2010PropOp46
 70
     1
102
RTVSPost2010Prop47
 90
       50
102
RTVSPost2010PropOp47
 70
     1
102
RTVSPost2010Prop48
 90
       50
102
RTVSPost2010PropOp48
 70
     1
102
RTVSPost2010Prop49
280
     0
102
RTVSPost2010PropOp49
 70
     1
102
RTVSPost2010Prop50
 90
       50
102
RTVSPost2010PropOp50
 70
     1
102
RTVSPost2010Prop51ColorIndex
 90
      256
102
RTVSPost2010Prop51ColorRGB
 90
-16777216
102
RTVSPost2010PropOp51
 70
     0
102
RTVSPost2010Prop52
140
1.0
102
RTVSPost2010PropOp52
 70
     0
102
RTVSPost2010Prop53
 90
        2
102
RTVSPost2010PropOp53
 70
     1
102
RTVSPost2010Prop54
  1
strokes_ogs.tif
102
RTVSPost2010PropOp54
 70
     1
102
RTVSPost2010Prop55
280
     0
102
RTVSPost2010PropOp55
 70
     1
102
RTVSPost2010Prop56
140
1.0
102
RTVSPost2010PropOp56
 70
     1
102
RTVSPost2010Prop57
140
1.0
102
RTVSPost2010PropOp57
 70
     1
  0
XRECORD
  5
1DF
102
{ACAD_REACTORS
330
1DE
102
}
330
1DE
100
AcDbXrecord
280
     1
102
RTVSPropertyOp0
 70
     0
102
RTVSPropertyOp1
 70
     0
102
RTVSPropertyOp2
 70
     0
102
RTVSPropertyOp3
 70
     0
102
RTVSPropertyOp4
 70
     0
102
RTVSPropertyOp5
 70
     0
102
RTVSPropertyOp6
 70
     0
102
RTVSPropertyOp7
 70
     0
102
RTVSPropertyOp8
 70
     0
102
RTVSPropertyOp9
 70
     0
102
RTVSPropertyOp10
 70
     0
102
RTVSPropertyOp11
 70
     0
102
RTVSPropertyOp12
 70
     0
102
RTVSPropertyOp13
 70
     0
102
RTVSPropertyOp14
 70
     2
102
RTVSPropertyOp15
 70
     0
102
RTVSPropertyOp16
 70
     0
102
RTVSPropertyOp17
 70
     0
102
RTVSPropertyOp18
 70
     0
102
RTVSPropertyOp19
 70
     0
102
RTVSPropertyOp20
 70
     0
102
RTVSPropertyOp21
 70
     0
102
RTVSPropertyOp22
 70
     0
102
RTVSPropertyOp23
 70
     0
102
RTVSPropertyOp24
 70
     0
102
RTVSPropertyOp25
 70
     0
102
RTVSPropertyOp26
 70
     0
102
RTVSPropertyOp27
 70
     0
102
RTVSPropertyOp28
 70
     0
102
RTVSPropertyOp29
 70
     0
102
RTVSPropertyOp30
 70
     0
102
RTVSPropertyOp31
 70
     0
102
RTVSPropertyOp32
 70
     0
102
RTVSPropertyOp33
 70
     0
102
RTVSPropertyOp34
 70
     0
102
RTVSPropertyOp35
 70
     0
102
RTVSPropertyOp36
 70
     0
102
RTVSPropertyOp37
 70
     0
102
RTVSPropertyOp38
 70
     0
102
RTVSPropertyOp39
 70
     0
102
RTVSPropertyOp40
 70
     0
102
RTVSPropertyOp41
 70
     0
102
RTVSPropertyOp42
 70
     0
102
RTVSPropertyOp43
 70
     0
102
RTVSPropertyOp44
 70
     0
102
RTVSPropertyOp45
 70
     0
102
RTVSPropertyOp46
 70
     0
102
RTVSPropertyOp47
 70
     0
102
RTVSPropertyOp48
 70
     0
102
RTVSPropertyOp49
 70
     0
102
RTVSPropertyOp50
 70
     0
102
RTVSPropertyOp51
 70
     0
102
RTVSPropertyOp52
 70
     0
102
RTVSPropertyOp53
 70
     0
102
RTVSPropertyOp54
 70
     0
102
RTVSPropertyOp55
 70
     0
102
RTVSPropertyOp56
 70
     0
102
RTVSPropertyOp57
 70
     0
102
RTVSPost2010Prop28
280
     0
102
RTVSPost2010PropOp28
 70
     0
102
RTVSPost2010Prop29
280
     1
102
RTVSPost2010PropOp29
 70
     0
102
RTVSPost2010Prop30
280
     1
102
RTVSPost2010PropOp30
 70
     0
102
RTVSPost2010Prop31
280
     0
102
RTVSPost2010PropOp31
 70
     0
102
RTVSPost2010Prop32
280
     0
102
RTVSPost2010PropOp32
 70
     0
102
RTVSPost2010Prop33
280
     0
102
RTVSPost2010PropOp33
 70
     0
102
RTVSPost2010Prop34
280
     0
102
RTVSPost2010PropOp34
 70
     0
102
RTVSPost2010Prop35
280
     0
102
RTVSPost2010PropOp35
 70
     0
102
RTVSPost2010Prop36
280
     0
102
RTVSPost2010PropOp36
 70
     0
102
RTVSPost2010Prop37
 90
       50
102
RTVSPost2010PropOp37
 70
     0
102
RTVSPost2010Prop38
140
0.0
102
RTVSPost2010PropOp38
 70
     0
102
RTVSPost2010Prop39
140
1.0
102
RTVSPost2010PropOp39
 70
     0
102
RTVSPost2010Prop40
 90
        0
102
RTVSPost2010PropOp40
 70
     0
102
RTVSPost2010Prop41ColorIndex
 90
      178
102
RTVSPost2010Prop41ColorRGB
 90
        0
102
RTVSPost2010PropOp41
 70
     0
102
RTVSPost2010Prop42
 90
       50
102
RTVSPost2010PropOp42
 70
     0
102
RTVSPost2010Prop43
 90
        3
102
RTVSPost2010PropOp43
 70
     0
102
RTVSPost2010Prop44ColorIndex
 90
        5
102
RTVSPost2010Prop44ColorRGB
 90
      255
102
RTVSPost2010PropOp44
 70
     0
102
RTVSPost2010Prop45
280
     0
102
RTVSPost2010PropOp45
 70
     0
102
RTVSPost2010Prop46
 90
       50
102
RTVSPost2010PropOp46
 70
     0
102
RTVSPost2010Prop47
 90
       50
102
RTVSPost2010PropOp47
 70
     0
102
RTVSPost2010Prop48
 90
       50
102
RTVSPost2010PropOp48
 70
     0
102
RTVSPost2010Prop49
280
     0
102
RTVSPost2010PropOp49
 70
     0
102
RTVSPost2010Prop50
 90
       50
102
RTVSPost2010PropOp50
 70
     0
102
RTVSPost2010Prop51ColorIndex
 90
      256
102
RTVSPost2010Prop51ColorRGB
 90
-16777216
102
RTVSPost2010PropOp51
 70
     0
102
RTVSPost2010Prop52
140
1.0
102
RTVSPost2010PropOp52
 70
     0
102
RTVSPost2010Prop53
 90
        2
102
RTVSPost2010PropOp53
 70
     0
102
RTVSPost2010Prop54
  1
strokes_ogs.tif
102
RTVSPost2010PropOp54
 70
     0
102
RTVSPost2010Prop55
280
     0
102
RTVSPost2010PropOp55
 70
     0
102
RTVSPost2010Prop56
140
1.0
102
RTVSPost2010PropOp56
 70
     0
102
RTVSPost2010Prop57
140
1.0
102
RTVSPost2010PropOp57
 70
     0
  0
XRECORD
  5
1D7
102
{ACAD_REACTORS
330
1D6
102
}
330
1D6
100
AcDbXrecord
280
     1
102
RTVSPropertyOp0
 70
     1
102
RTVSPropertyOp1
 70
     1
102
RTVSPropertyOp2
 70
     1
102
RTVSPropertyOp3
 70
     1
102
RTVSPropertyOp4
 70
     1
102
RTVSPropertyOp5
 70
     1
102
RTVSPropertyOp6
 70
     1
102
RTVSPropertyOp7
 70
     1
102
RTVSPropertyOp8
 70
     1
102
RTVSPropertyOp9
 70
     1
102
RTVSPropertyOp10
 70
     1
102
RTVSPropertyOp11
 70
     1
102
RTVSPropertyOp12
 70
     1
102
RTVSPropertyOp13
 70
     1
102
RTVSPropertyOp14
 70
     1
102
RTVSPropertyOp15
 70
     1
102
RTVSPropertyOp16
 70
     1
102
RTVSPropertyOp17
 70
     1
102
RTVSPropertyOp18
 70
     1
102
RTVSPropertyOp19
 70
     1
102
RTVSPropertyOp20
 70
     1
102
RTVSPropertyOp21
 70
     1
102
RTVSPropertyOp22
 70
     1
102
RTVSPropertyOp23
 70
     1
102
RTVSPropertyOp24
 70
     1
102
RTVSPropertyOp25
 70
     1
102
RTVSPropertyOp26
 70
     1
102
RTVSPropertyOp27
 70
     1
102
RTVSPropertyOp28
 70
     1
102
RTVSPropertyOp29
 70
     1
102
RTVSPropertyOp30
 70
     1
102
RTVSPropertyOp31
 70
     1
102
RTVSPropertyOp32
 70
     1
102
RTVSPropertyOp33
 70
     1
102
RTVSPropertyOp34
 70
     1
102
RTVSPropertyOp35
 70
     1
102
RTVSPropertyOp36
 70
     1
102
RTVSPropertyOp37
 70
     1
102
RTVSPropertyOp38
 70
     1
102
RTVSPropertyOp39
 70
     1
102
RTVSPropertyOp40
 70
     1
102
RTVSPropertyOp41
 70
     1
102
RTVSPropertyOp42
 70
     1
102
RTVSPropertyOp43
 70
     1
102
RTVSPropertyOp44
 70
     1
102
RTVSPropertyOp45
 70
     1
102
RTVSPropertyOp46
 70
     1
102
RTVSPropertyOp47
 70
     1
102
RTVSPropertyOp48
 70
     1
102
RTVSPropertyOp49
 70
     1
102
RTVSPropertyOp50
 70
     1
102
RTVSPropertyOp51
 70
     0
102
RTVSPropertyOp52
 70
     0
102
RTVSPropertyOp53
 70
     1
102
RTVSPropertyOp54
 70
     1
102
RTVSPropertyOp55
 70
     1
102
RTVSPropertyOp56
 70
     1
102
RTVSPropertyOp57
 70
     1
102
RTVSPost2010Prop28
280
     0
102
RTVSPost2010PropOp28
 70
     1
102
RTVSPost2010Prop29
280
     1
102
RTVSPost2010PropOp29
 70
     1
102
RTVSPost2010Prop30
280
     1
102
RTVSPost2010PropOp30
 70
     1
102
RTVSPost2010Prop31
280
     0
102
RTVSPost2010PropOp31
 70
     1
102
RTVSPost2010Prop32
280
     0
102
RTVSPost2010PropOp32
 70
     1
102
RTVSPost2010Prop33
280
     0
102
RTVSPost2010PropOp33
 70
     1
102
RTVSPost2010Prop34
280
     0
102
RTVSPost2010PropOp34
 70
     1
102
RTVSPost2010Prop35
280
     0
102
RTVSPost2010PropOp35
 70
     1
102
RTVSPost2010Prop36
280
     0
102
RTVSPost2010PropOp36
 70
     1
102
RTVSPost2010Prop37
 90
       50
102
RTVSPost2010PropOp37
 70
     1
102
RTVSPost2010Prop38
140
0.0
102
RTVSPost2010PropOp38
 70
     1
102
RTVSPost2010Prop39
140
1.0
102
RTVSPost2010PropOp39
 70
     1
102
RTVSPost2010Prop40
 90
        0
102
RTVSPost2010PropOp40
 70
     1
102
RTVSPost2010Prop41ColorIndex
 90
      178
102
RTVSPost2010Prop41ColorRGB
 90
        0
102
RTVSPost2010PropOp41
 70
     1
102
RTVSPost2010Prop42
 90
       50
102
RTVSPost2010PropOp42
 70
     1
102
RTVSPost2010Prop43
 90
        3
102
RTVSPost2010PropOp43
 70
     1
102
RTVSPost2010Prop44ColorIndex
 90
        5
102
RTVSPost2010Prop44ColorRGB
 90
      255
102
RTVSPost2010PropOp44
 70
     1
102
RTVSPost2010Prop45
280
     0
102
RTVSPost2010PropOp45
 70
     1
102
RTVSPost2010Prop46
 90
       50
102
RTVSPost2010PropOp46
 70
     1
102
RTVSPost2010Prop47
 90
       50
102
RTVSPost2010PropOp47
 70
     1
102
RTVSPost2010Prop48
 90
       50
102
RTVSPost2010PropOp48
 70
     1
102
RTVSPost2010Prop49
280
     0
102
RTVSPost2010PropOp49
 70
     1
102
RTVSPost2010Prop50
 90
       50
102
RTVSPost2010PropOp50
 70
     1
102
RTVSPost2010Prop51ColorIndex
 90
      256
102
RTVSPost2010Prop51ColorRGB
 90
-16777216
102
RTVSPost2010PropOp51
 70
     0
102
RTVSPost2010Prop52
140
1.0
102
RTVSPost2010PropOp52
 70
     0
102
RTVSPost2010Prop53
 90
        2
102
RTVSPost2010PropOp53
 70
     1
102
RTVSPost2010Prop54
  1
strokes_ogs.tif
102
RTVSPost2010PropOp54
 70
     1
102
RTVSPost2010Prop55
280
     0
102
RTVSPost2010PropOp55
 70
     1
102
RTVSPost2010Prop56
140
1.0
102
RTVSPost2010PropOp56
 70
     1
102
RTVSPost2010Prop57
140
1.0
102
RTVSPost2010PropOp57
 70
     1
  0
XRECORD
  5
1BB
102
{ACAD_REACTORS
330
1BA
102
}
330
1BA
100
AcDbXrecord
280
     1
102
RTVSPropertyOp0
 70
     1
102
RTVSPropertyOp1
 70
     1
102
RTVSPropertyOp2
 70
     1
102
RTVSPropertyOp3
 70
     1
102
RTVSPropertyOp4
 70
     1
102
RTVSPropertyOp5
 70
     1
102
RTVSPropertyOp6
 70
     1
102
RTVSPropertyOp7
 70
     1
102
RTVSPropertyOp8
 70
     1
102
RTVSPropertyOp9
 70
     1
102
RTVSPropertyOp10
 70
     1
102
RTVSPropertyOp11
 70
     1
102
RTVSPropertyOp12
 70
     1
102
RTVSPropertyOp13
 70
     1
102
RTVSPropertyOp14
 70
     1
102
RTVSPropertyOp15
 70
     1
102
RTVSPropertyOp16
 70
     1
102
RTVSPropertyOp17
 70
     1
102
RTVSPropertyOp18
 70
     1
102
RTVSPropertyOp19
 70
     1
102
RTVSPropertyOp20
 70
     1
102
RTVSPropertyOp21
 70
     1
102
RTVSPropertyOp22
 70
     1
102
RTVSPropertyOp23
 70
     1
102
RTVSPropertyOp24
 70
     1
102
RTVSPropertyOp25
 70
     1
102
RTVSPropertyOp26
 70
     1
102
RTVSPropertyOp27
 70
     1
102
RTVSPropertyOp28
 70
     1
102
RTVSPropertyOp29
 70
     1
102
RTVSPropertyOp30
 70
     1
102
RTVSPropertyOp31
 70
     1
102
RTVSPropertyOp32
 70
     1
102
RTVSPropertyOp33
 70
     1
102
RTVSPropertyOp34
 70
     1
102
RTVSPropertyOp35
 70
     1
102
RTVSPropertyOp36
 70
     1
102
RTVSPropertyOp37
 70
     1
102
RTVSPropertyOp38
 70
     1
102
RTVSPropertyOp39
 70
     1
102
RTVSPropertyOp40
 70
     1
102
RTVSPropertyOp41
 70
     1
102
RTVSPropertyOp42
 70
     1
102
RTVSPropertyOp43
 70
     1
102
RTVSPropertyOp44
 70
     1
102
RTVSPropertyOp45
 70
     1
102
RTVSPropertyOp46
 70
     1
102
RTVSPropertyOp47
 70
     1
102
RTVSPropertyOp48
 70
     1
102
RTVSPropertyOp49
 70
     1
102
RTVSPropertyOp50
 70
     1
102
RTVSPropertyOp51
 70
     0
102
RTVSPropertyOp52
 70
     0
102
RTVSPropertyOp53
 70
     1
102
RTVSPropertyOp54
 70
     1
102
RTVSPropertyOp55
 70
     1
102
RTVSPropertyOp56
 70
     1
102
RTVSPropertyOp57
 70
     1
102
RTVSPost2010Prop28
280
     0
102
RTVSPost2010PropOp28
 70
     1
102
RTVSPost2010Prop29
280
     1
102
RTVSPost2010PropOp29
 70
     1
102
RTVSPost2010Prop30
280
     1
102
RTVSPost2010PropOp30
 70
     1
102
RTVSPost2010Prop31
280
     0
102
RTVSPost2010PropOp31
 70
     1
102
RTVSPost2010Prop32
280
     0
102
RTVSPost2010PropOp32
 70
     1
102
RTVSPost2010Prop33
280
     0
102
RTVSPost2010PropOp33
 70
     1
102
RTVSPost2010Prop34
280
     0
102
RTVSPost2010PropOp34
 70
     1
102
RTVSPost2010Prop35
280
     0
102
RTVSPost2010PropOp35
 70
     1
102
RTVSPost2010Prop36
280
     0
102
RTVSPost2010PropOp36
 70
     1
102
RTVSPost2010Prop37
 90
       50
102
RTVSPost2010PropOp37
 70
     1
102
RTVSPost2010Prop38
140
0.0
102
RTVSPost2010PropOp38
 70
     1
102
RTVSPost2010Prop39
140
1.0
102
RTVSPost2010PropOp39
 70
     1
102
RTVSPost2010Prop40
 90
        0
102
RTVSPost2010PropOp40
 70
     1
102
RTVSPost2010Prop41ColorIndex
 90
      178
102
RTVSPost2010Prop41ColorRGB
 90
        0
102
RTVSPost2010PropOp41
 70
     1
102
RTVSPost2010Prop42
 90
       50
102
RTVSPost2010PropOp42
 70
     1
102
RTVSPost2010Prop43
 90
        3
102
RTVSPost2010PropOp43
 70
     1
102
RTVSPost2010Prop44ColorIndex
 90
        5
102
RTVSPost2010Prop44ColorRGB
 90
      255
102
RTVSPost2010PropOp44
 70
     1
102
RTVSPost2010Prop45
280
     0
102
RTVSPost2010PropOp45
 70
     1
102
RTVSPost2010Prop46
 90
       50
102
RTVSPost2010PropOp46
 70
     1
102
RTVSPost2010Prop47
 90
       50
102
RTVSPost2010PropOp47
 70
     1
102
RTVSPost2010Prop48
 90
       50
102
RTVSPost2010PropOp48
 70
     1
102
RTVSPost2010Prop49
280
     0
102
RTVSPost2010PropOp49
 70
     1
102
RTVSPost2010Prop50
 90
       50
102
RTVSPost2010PropOp50
 70
     1
102
RTVSPost2010Prop51ColorIndex
 90
      256
102
RTVSPost2010Prop51ColorRGB
 90
-16777216
102
RTVSPost2010PropOp51
 70
     0
102
RTVSPost2010Prop52
140
1.0
102
RTVSPost2010PropOp52
 70
     0
102
RTVSPost2010Prop53
 90
        2
102
RTVSPost2010PropOp53
 70
     1
102
RTVSPost2010Prop54
  1
strokes_ogs.tif
102
RTVSPost2010PropOp54
 70
     1
102
RTVSPost2010Prop55
280
     0
102
RTVSPost2010PropOp55
 70
     1
102
RTVSPost2010Prop56
140
1.0
102
RTVSPost2010PropOp56
 70
     1
102
RTVSPost2010Prop57
140
1.0
102
RTVSPost2010PropOp57
 70
     1
  0
XRECORD
  5
1BD
102
{ACAD_REACTORS
330
1BC
102
}
330
1BC
100
AcDbXrecord
280
     1
102
RTVSPropertyOp0
 70
     1
102
RTVSPropertyOp1
 70
     1
102
RTVSPropertyOp2
 70
     1
102
RTVSPropertyOp3
 70
     1
102
RTVSPropertyOp4
 70
     1
102
RTVSPropertyOp5
 70
     1
102
RTVSPropertyOp6
 70
     1
102
RTVSPropertyOp7
 70
     1
102
RTVSPropertyOp8
 70
     1
102
RTVSPropertyOp9
 70
     1
102
RTVSPropertyOp10
 70
     1
102
RTVSPropertyOp11
 70
     1
102
RTVSPropertyOp12
 70
     1
102
RTVSPropertyOp13
 70
     1
102
RTVSPropertyOp14
 70
     1
102
RTVSPropertyOp15
 70
     1
102
RTVSPropertyOp16
 70
     1
102
RTVSPropertyOp17
 70
     1
102
RTVSPropertyOp18
 70
     1
102
RTVSPropertyOp19
 70
     1
102
RTVSPropertyOp20
 70
     1
102
RTVSPropertyOp21
 70
     1
102
RTVSPropertyOp22
 70
     1
102
RTVSPropertyOp23
 70
     1
102
RTVSPropertyOp24
 70
     1
102
RTVSPropertyOp25
 70
     1
102
RTVSPropertyOp26
 70
     1
102
RTVSPropertyOp27
 70
     1
102
RTVSPropertyOp28
 70
     1
102
RTVSPropertyOp29
 70
     1
102
RTVSPropertyOp30
 70
     1
102
RTVSPropertyOp31
 70
     1
102
RTVSPropertyOp32
 70
     1
102
RTVSPropertyOp33
 70
     1
102
RTVSPropertyOp34
 70
     1
102
RTVSPropertyOp35
 70
     1
102
RTVSPropertyOp36
 70
     1
102
RTVSPropertyOp37
 70
     1
102
RTVSPropertyOp38
 70
     1
102
RTVSPropertyOp39
 70
     1
102
RTVSPropertyOp40
 70
     1
102
RTVSPropertyOp41
 70
     1
102
RTVSPropertyOp42
 70
     1
102
RTVSPropertyOp43
 70
     1
102
RTVSPropertyOp44
 70
     1
102
RTVSPropertyOp45
 70
     1
102
RTVSPropertyOp46
 70
     1
102
RTVSPropertyOp47
 70
     1
102
RTVSPropertyOp48
 70
     1
102
RTVSPropertyOp49
 70
     1
102
RTVSPropertyOp50
 70
     1
102
RTVSPropertyOp51
 70
     0
102
RTVSPropertyOp52
 70
     0
102
RTVSPropertyOp53
 70
     1
102
RTVSPropertyOp54
 70
     1
102
RTVSPropertyOp55
 70
     1
102
RTVSPropertyOp56
 70
     1
102
RTVSPropertyOp57
 70
     1
102
RTVSPost2010Prop28
280
     0
102
RTVSPost2010PropOp28
 70
     1
102
RTVSPost2010Prop29
280
     1
102
RTVSPost2010PropOp29
 70
     1
102
RTVSPost2010Prop30
280
     1
102
RTVSPost2010PropOp30
 70
     1
102
RTVSPost2010Prop31
280
     0
102
RTVSPost2010PropOp31
 70
     1
102
RTVSPost2010Prop32
280
     0
102
RTVSPost2010PropOp32
 70
     1
102
RTVSPost2010Prop33
280
     0
102
RTVSPost2010PropOp33
 70
     1
102
RTVSPost2010Prop34
280
     0
102
RTVSPost2010PropOp34
 70
     1
102
RTVSPost2010Prop35
280
     0
102
RTVSPost2010PropOp35
 70
     1
102
RTVSPost2010Prop36
280
     0
102
RTVSPost2010PropOp36
 70
     1
102
RTVSPost2010Prop37
 90
       50
102
RTVSPost2010PropOp37
 70
     1
102
RTVSPost2010Prop38
140
0.0
102
RTVSPost2010PropOp38
 70
     1
102
RTVSPost2010Prop39
140
1.0
102
RTVSPost2010PropOp39
 70
     1
102
RTVSPost2010Prop40
 90
        0
102
RTVSPost2010PropOp40
 70
     1
102
RTVSPost2010Prop41ColorIndex
 90
      178
102
RTVSPost2010Prop41ColorRGB
 90
        0
102
RTVSPost2010PropOp41
 70
     1
102
RTVSPost2010Prop42
 90
       50
102
RTVSPost2010PropOp42
 70
     1
102
RTVSPost2010Prop43
 90
        3
102
RTVSPost2010PropOp43
 70
     1
102
RTVSPost2010Prop44ColorIndex
 90
        5
102
RTVSPost2010Prop44ColorRGB
 90
      255
102
RTVSPost2010PropOp44
 70
     1
102
RTVSPost2010Prop45
280
     0
102
RTVSPost2010PropOp45
 70
     1
102
RTVSPost2010Prop46
 90
       50
102
RTVSPost2010PropOp46
 70
     1
102
RTVSPost2010Prop47
 90
       50
102
RTVSPost2010PropOp47
 70
     1
102
RTVSPost2010Prop48
 90
       50
102
RTVSPost2010PropOp48
 70
     1
102
RTVSPost2010Prop49
280
     0
102
RTVSPost2010PropOp49
 70
     1
102
RTVSPost2010Prop50
 90
       50
102
RTVSPost2010PropOp50
 70
     1
102
RTVSPost2010Prop51ColorIndex
 90
      256
102
RTVSPost2010Prop51ColorRGB
 90
-16777216
102
RTVSPost2010PropOp51
 70
     0
102
RTVSPost2010Prop52
140
1.0
102
RTVSPost2010PropOp52
 70
     0
102
RTVSPost2010Prop53
 90
        2
102
RTVSPost2010PropOp53
 70
     1
102
RTVSPost2010Prop54
  1
strokes_ogs.tif
102
RTVSPost2010PropOp54
 70
     1
102
RTVSPost2010Prop55
280
     0
102
RTVSPost2010PropOp55
 70
     1
102
RTVSPost2010Prop56
140
1.0
102
RTVSPost2010PropOp56
 70
     1
102
RTVSPost2010Prop57
140
1.0
102
RTVSPost2010PropOp57
 70
     1
  0
XRECORD
  5
1BF
102
{ACAD_REACTORS
330
1BE
102
}
330
1BE
100
AcDbXrecord
280
     1
102
RTVSPropertyOp0
 70
     1
102
RTVSPropertyOp1
 70
     1
102
RTVSPropertyOp2
 70
     1
102
RTVSPropertyOp3
 70
     1
102
RTVSPropertyOp4
 70
     1
102
RTVSPropertyOp5
 70
     1
102
RTVSPropertyOp6
 70
     1
102
RTVSPropertyOp7
 70
     1
102
RTVSPropertyOp8
 70
     1
102
RTVSPropertyOp9
 70
     1
102
RTVSPropertyOp10
 70
     1
102
RTVSPropertyOp11
 70
     1
102
RTVSPropertyOp12
 70
     1
102
RTVSPropertyOp13
 70
     1
102
RTVSPropertyOp14
 70
     1
102
RTVSPropertyOp15
 70
     1
102
RTVSPropertyOp16
 70
     1
102
RTVSPropertyOp17
 70
     1
102
RTVSPropertyOp18
 70
     1
102
RTVSPropertyOp19
 70
     1
102
RTVSPropertyOp20
 70
     1
102
RTVSPropertyOp21
 70
     1
102
RTVSPropertyOp22
 70
     1
102
RTVSPropertyOp23
 70
     1
102
RTVSPropertyOp24
 70
     1
102
RTVSPropertyOp25
 70
     1
102
RTVSPropertyOp26
 70
     1
102
RTVSPropertyOp27
 70
     1
102
RTVSPropertyOp28
 70
     1
102
RTVSPropertyOp29
 70
     1
102
RTVSPropertyOp30
 70
     1
102
RTVSPropertyOp31
 70
     1
102
RTVSPropertyOp32
 70
     1
102
RTVSPropertyOp33
 70
     1
102
RTVSPropertyOp34
 70
     1
102
RTVSPropertyOp35
 70
     1
102
RTVSPropertyOp36
 70
     1
102
RTVSPropertyOp37
 70
     1
102
RTVSPropertyOp38
 70
     1
102
RTVSPropertyOp39
 70
     1
102
RTVSPropertyOp40
 70
     1
102
RTVSPropertyOp41
 70
     1
102
RTVSPropertyOp42
 70
     1
102
RTVSPropertyOp43
 70
     1
102
RTVSPropertyOp44
 70
     1
102
RTVSPropertyOp45
 70
     1
102
RTVSPropertyOp46
 70
     1
102
RTVSPropertyOp47
 70
     1
102
RTVSPropertyOp48
 70
     1
102
RTVSPropertyOp49
 70
     1
102
RTVSPropertyOp50
 70
     1
102
RTVSPropertyOp51
 70
     0
102
RTVSPropertyOp52
 70
     0
102
RTVSPropertyOp53
 70
     1
102
RTVSPropertyOp54
 70
     1
102
RTVSPropertyOp55
 70
     1
102
RTVSPropertyOp56
 70
     1
102
RTVSPropertyOp57
 70
     1
102
RTVSPost2010Prop28
280
     0
102
RTVSPost2010PropOp28
 70
     1
102
RTVSPost2010Prop29
280
     1
102
RTVSPost2010PropOp29
 70
     1
102
RTVSPost2010Prop30
280
     1
102
RTVSPost2010PropOp30
 70
     1
102
RTVSPost2010Prop31
280
     0
102
RTVSPost2010PropOp31
 70
     1
102
RTVSPost2010Prop32
280
     0
102
RTVSPost2010PropOp32
 70
     1
102
RTVSPost2010Prop33
280
     0
102
RTVSPost2010PropOp33
 70
     1
102
RTVSPost2010Prop34
280
     0
102
RTVSPost2010PropOp34
 70
     1
102
RTVSPost2010Prop35
280
     0
102
RTVSPost2010PropOp35
 70
     1
102
RTVSPost2010Prop36
280
     0
102
RTVSPost2010PropOp36
 70
     1
102
RTVSPost2010Prop37
 90
       50
102
RTVSPost2010PropOp37
 70
     1
102
RTVSPost2010Prop38
140
0.0
102
RTVSPost2010PropOp38
 70
     1
102
RTVSPost2010Prop39
140
1.0
102
RTVSPost2010PropOp39
 70
     1
102
RTVSPost2010Prop40
 90
        0
102
RTVSPost2010PropOp40
 70
     1
102
RTVSPost2010Prop41ColorIndex
 90
      178
102
RTVSPost2010Prop41ColorRGB
 90
        0
102
RTVSPost2010PropOp41
 70
     1
102
RTVSPost2010Prop42
 90
       50
102
RTVSPost2010PropOp42
 70
     1
102
RTVSPost2010Prop43
 90
        3
102
RTVSPost2010PropOp43
 70
     1
102
RTVSPost2010Prop44ColorIndex
 90
        5
102
RTVSPost2010Prop44ColorRGB
 90
      255
102
RTVSPost2010PropOp44
 70
     1
102
RTVSPost2010Prop45
280
     0
102
RTVSPost2010PropOp45
 70
     1
102
RTVSPost2010Prop46
 90
       50
102
RTVSPost2010PropOp46
 70
     1
102
RTVSPost2010Prop47
 90
       50
102
RTVSPost2010PropOp47
 70
     1
102
RTVSPost2010Prop48
 90
       50
102
RTVSPost2010PropOp48
 70
     1
102
RTVSPost2010Prop49
280
     0
102
RTVSPost2010PropOp49
 70
     1
102
RTVSPost2010Prop50
 90
       50
102
RTVSPost2010PropOp50
 70
     1
102
RTVSPost2010Prop51ColorIndex
 90
      256
102
RTVSPost2010Prop51ColorRGB
 90
-16777216
102
RTVSPost2010PropOp51
 70
     0
102
RTVSPost2010Prop52
140
1.0
102
RTVSPost2010PropOp52
 70
     0
102
RTVSPost2010Prop53
 90
        2
102
RTVSPost2010PropOp53
 70
     1
102
RTVSPost2010Prop54
  1
strokes_ogs.tif
102
RTVSPost2010PropOp54
 70
     1
102
RTVSPost2010Prop55
280
     0
102
RTVSPost2010PropOp55
 70
     1
102
RTVSPost2010Prop56
140
1.0
102
RTVSPost2010PropOp56
 70
     1
102
RTVSPost2010Prop57
140
1.0
102
RTVSPost2010PropOp57
 70
     1
  0
XRECORD
  5
1C1
102
{ACAD_REACTORS
330
1C0
102
}
330
1C0
100
AcDbXrecord
280
     1
102
RTVSPropertyOp0
 70
     1
102
RTVSPropertyOp1
 70
     1
102
RTVSPropertyOp2
 70
     1
102
RTVSPropertyOp3
 70
     1
102
RTVSPropertyOp4
 70
     1
102
RTVSPropertyOp5
 70
     1
102
RTVSPropertyOp6
 70
     1
102
RTVSPropertyOp7
 70
     1
102
RTVSPropertyOp8
 70
     1
102
RTVSPropertyOp9
 70
     1
102
RTVSPropertyOp10
 70
     1
102
RTVSPropertyOp11
 70
     1
102
RTVSPropertyOp12
 70
     1
102
RTVSPropertyOp13
 70
     1
102
RTVSPropertyOp14
 70
     1
102
RTVSPropertyOp15
 70
     1
102
RTVSPropertyOp16
 70
     1
102
RTVSPropertyOp17
 70
     1
102
RTVSPropertyOp18
 70
     1
102
RTVSPropertyOp19
 70
     1
102
RTVSPropertyOp20
 70
     1
102
RTVSPropertyOp21
 70
     1
102
RTVSPropertyOp22
 70
     1
102
RTVSPropertyOp23
 70
     1
102
RTVSPropertyOp24
 70
     1
102
RTVSPropertyOp25
 70
     1
102
RTVSPropertyOp26
 70
     1
102
RTVSPropertyOp27
 70
     1
102
RTVSPropertyOp28
 70
     1
102
RTVSPropertyOp29
 70
     1
102
RTVSPropertyOp30
 70
     1
102
RTVSPropertyOp31
 70
     1
102
RTVSPropertyOp32
 70
     1
102
RTVSPropertyOp33
 70
     1
102
RTVSPropertyOp34
 70
     1
102
RTVSPropertyOp35
 70
     1
102
RTVSPropertyOp36
 70
     1
102
RTVSPropertyOp37
 70
     1
102
RTVSPropertyOp38
 70
     1
102
RTVSPropertyOp39
 70
     1
102
RTVSPropertyOp40
 70
     1
102
RTVSPropertyOp41
 70
     1
102
RTVSPropertyOp42
 70
     1
102
RTVSPropertyOp43
 70
     1
102
RTVSPropertyOp44
 70
     1
102
RTVSPropertyOp45
 70
     1
102
RTVSPropertyOp46
 70
     1
102
RTVSPropertyOp47
 70
     1
102
RTVSPropertyOp48
 70
     1
102
RTVSPropertyOp49
 70
     1
102
RTVSPropertyOp50
 70
     1
102
RTVSPropertyOp51
 70
     0
102
RTVSPropertyOp52
 70
     0
102
RTVSPropertyOp53
 70
     1
102
RTVSPropertyOp54
 70
     1
102
RTVSPropertyOp55
 70
     1
102
RTVSPropertyOp56
 70
     1
102
RTVSPropertyOp57
 70
     1
102
RTVSPost2010Prop28
280
     0
102
RTVSPost2010PropOp28
 70
     1
102
RTVSPost2010Prop29
280
     1
102
RTVSPost2010PropOp29
 70
     1
102
RTVSPost2010Prop30
280
     1
102
RTVSPost2010PropOp30
 70
     1
102
RTVSPost2010Prop31
280
     0
102
RTVSPost2010PropOp31
 70
     1
102
RTVSPost2010Prop32
280
     0
102
RTVSPost2010PropOp32
 70
     1
102
RTVSPost2010Prop33
280
     0
102
RTVSPost2010PropOp33
 70
     1
102
RTVSPost2010Prop34
280
     0
102
RTVSPost2010PropOp34
 70
     1
102
RTVSPost2010Prop35
280
     0
102
RTVSPost2010PropOp35
 70
     1
102
RTVSPost2010Prop36
280
     0
102
RTVSPost2010PropOp36
 70
     1
102
RTVSPost2010Prop37
 90
       50
102
RTVSPost2010PropOp37
 70
     1
102
RTVSPost2010Prop38
140
0.0
102
RTVSPost2010PropOp38
 70
     1
102
RTVSPost2010Prop39
140
1.0
102
RTVSPost2010PropOp39
 70
     1
102
RTVSPost2010Prop40
 90
        0
102
RTVSPost2010PropOp40
 70
     1
102
RTVSPost2010Prop41ColorIndex
 90
      178
102
RTVSPost2010Prop41ColorRGB
 90
        0
102
RTVSPost2010PropOp41
 70
     1
102
RTVSPost2010Prop42
 90
       50
102
RTVSPost2010PropOp42
 70
     1
102
RTVSPost2010Prop43
 90
        3
102
RTVSPost2010PropOp43
 70
     1
102
RTVSPost2010Prop44ColorIndex
 90
        5
102
RTVSPost2010Prop44ColorRGB
 90
      255
102
RTVSPost2010PropOp44
 70
     1
102
RTVSPost2010Prop45
280
     0
102
RTVSPost2010PropOp45
 70
     1
102
RTVSPost2010Prop46
 90
       50
102
RTVSPost2010PropOp46
 70
     1
102
RTVSPost2010Prop47
 90
       50
102
RTVSPost2010PropOp47
 70
     1
102
RTVSPost2010Prop48
 90
       50
102
RTVSPost2010PropOp48
 70
     1
102
RTVSPost2010Prop49
280
     0
102
RTVSPost2010PropOp49
 70
     1
102
RTVSPost2010Prop50
 90
       50
102
RTVSPost2010PropOp50
 70
     1
102
RTVSPost2010Prop51ColorIndex
 90
      256
102
RTVSPost2010Prop51ColorRGB
 90
-16777216
102
RTVSPost2010PropOp51
 70
     0
102
RTVSPost2010Prop52
140
1.0
102
RTVSPost2010PropOp52
 70
     0
102
RTVSPost2010Prop53
 90
        2
102
RTVSPost2010PropOp53
 70
     1
102
RTVSPost2010Prop54
  1
strokes_ogs.tif
102
RTVSPost2010PropOp54
 70
     1
102
RTVSPost2010Prop55
280
     0
102
RTVSPost2010PropOp55
 70
     1
102
RTVSPost2010Prop56
140
1.0
102
RTVSPost2010PropOp56
 70
     1
102
RTVSPost2010Prop57
140
1.0
102
RTVSPost2010PropOp57
 70
     1
  0
XRECORD
  5
1C7
102
{ACAD_REACTORS
330
1C6
102
}
330
1C6
100
AcDbXrecord
280
     1
102
RTVSPropertyOp0
 70
     1
102
RTVSPropertyOp1
 70
     1
102
RTVSPropertyOp2
 70
     1
102
RTVSPropertyOp3
 70
     1
102
RTVSPropertyOp4
 70
     1
102
RTVSPropertyOp5
 70
     1
102
RTVSPropertyOp6
 70
     1
102
RTVSPropertyOp7
 70
     1
102
RTVSPropertyOp8
 70
     1
102
RTVSPropertyOp9
 70
     1
102
RTVSPropertyOp10
 70
     1
102
RTVSPropertyOp11
 70
     1
102
RTVSPropertyOp12
 70
     1
102
RTVSPropertyOp13
 70
     1
102
RTVSPropertyOp14
 70
     1
102
RTVSPropertyOp15
 70
     1
102
RTVSPropertyOp16
 70
     1
102
RTVSPropertyOp17
 70
     1
102
RTVSPropertyOp18
 70
     1
102
RTVSPropertyOp19
 70
     1
102
RTVSPropertyOp20
 70
     1
102
RTVSPropertyOp21
 70
     1
102
RTVSPropertyOp22
 70
     1
102
RTVSPropertyOp23
 70
     1
102
RTVSPropertyOp24
 70
     1
102
RTVSPropertyOp25
 70
     1
102
RTVSPropertyOp26
 70
     1
102
RTVSPropertyOp27
 70
     1
102
RTVSPropertyOp28
 70
     1
102
RTVSPropertyOp29
 70
     1
102
RTVSPropertyOp30
 70
     1
102
RTVSPropertyOp31
 70
     1
102
RTVSPropertyOp32
 70
     1
102
RTVSPropertyOp33
 70
     1
102
RTVSPropertyOp34
 70
     1
102
RTVSPropertyOp35
 70
     1
102
RTVSPropertyOp36
 70
     1
102
RTVSPropertyOp37
 70
     1
102
RTVSPropertyOp38
 70
     1
102
RTVSPropertyOp39
 70
     1
102
RTVSPropertyOp40
 70
     1
102
RTVSPropertyOp41
 70
     1
102
RTVSPropertyOp42
 70
     1
102
RTVSPropertyOp43
 70
     1
102
RTVSPropertyOp44
 70
     1
102
RTVSPropertyOp45
 70
     1
102
RTVSPropertyOp46
 70
     1
102
RTVSPropertyOp47
 70
     1
102
RTVSPropertyOp48
 70
     1
102
RTVSPropertyOp49
 70
     1
102
RTVSPropertyOp50
 70
     1
102
RTVSPropertyOp51
 70
     0
102
RTVSPropertyOp52
 70
     0
102
RTVSPropertyOp53
 70
     1
102
RTVSPropertyOp54
 70
     1
102
RTVSPropertyOp55
 70
     1
102
RTVSPropertyOp56
 70
     1
102
RTVSPropertyOp57
 70
     1
102
RTVSPost2010Prop28
280
     0
102
RTVSPost2010PropOp28
 70
     1
102
RTVSPost2010Prop29
280
     1
102
RTVSPost2010PropOp29
 70
     1
102
RTVSPost2010Prop30
280
     1
102
RTVSPost2010PropOp30
 70
     1
102
RTVSPost2010Prop31
280
     0
102
RTVSPost2010PropOp31
 70
     1
102
RTVSPost2010Prop32
280
     0
102
RTVSPost2010PropOp32
 70
     1
102
RTVSPost2010Prop33
280
     0
102
RTVSPost2010PropOp33
 70
     1
102
RTVSPost2010Prop34
280
     0
102
RTVSPost2010PropOp34
 70
     1
102
RTVSPost2010Prop35
280
     0
102
RTVSPost2010PropOp35
 70
     1
102
RTVSPost2010Prop36
280
     0
102
RTVSPost2010PropOp36
 70
     1
102
RTVSPost2010Prop37
 90
       50
102
RTVSPost2010PropOp37
 70
     1
102
RTVSPost2010Prop38
140
0.0
102
RTVSPost2010PropOp38
 70
     1
102
RTVSPost2010Prop39
140
1.0
102
RTVSPost2010PropOp39
 70
     1
102
RTVSPost2010Prop40
 90
        0
102
RTVSPost2010PropOp40
 70
     1
102
RTVSPost2010Prop41ColorIndex
 90
      178
102
RTVSPost2010Prop41ColorRGB
 90
        0
102
RTVSPost2010PropOp41
 70
     1
102
RTVSPost2010Prop42
 90
       50
102
RTVSPost2010PropOp42
 70
     1
102
RTVSPost2010Prop43
 90
        3
102
RTVSPost2010PropOp43
 70
     1
102
RTVSPost2010Prop44ColorIndex
 90
        5
102
RTVSPost2010Prop44ColorRGB
 90
      255
102
RTVSPost2010PropOp44
 70
     1
102
RTVSPost2010Prop45
280
     0
102
RTVSPost2010PropOp45
 70
     1
102
RTVSPost2010Prop46
 90
       50
102
RTVSPost2010PropOp46
 70
     1
102
RTVSPost2010Prop47
 90
       50
102
RTVSPost2010PropOp47
 70
     1
102
RTVSPost2010Prop48
 90
       50
102
RTVSPost2010PropOp48
 70
     1
102
RTVSPost2010Prop49
280
     0
102
RTVSPost2010PropOp49
 70
     1
102
RTVSPost2010Prop50
 90
       50
102
RTVSPost2010PropOp50
 70
     1
102
RTVSPost2010Prop51ColorIndex
 90
      256
102
RTVSPost2010Prop51ColorRGB
 90
-16777216
102
RTVSPost2010PropOp51
 70
     0
102
RTVSPost2010Prop52
140
1.0
102
RTVSPost2010PropOp52
 70
     0
102
RTVSPost2010Prop53
 90
        2
102
RTVSPost2010PropOp53
 70
     1
102
RTVSPost2010Prop54
  1
strokes_ogs.tif
102
RTVSPost2010PropOp54
 70
     1
102
RTVSPost2010Prop55
280
     0
102
RTVSPost2010PropOp55
 70
     1
102
RTVSPost2010Prop56
140
1.0
102
RTVSPost2010PropOp56
 70
     1
102
RTVSPost2010Prop57
140
1.0
102
RTVSPost2010PropOp57
 70
     1
  0
XRECORD
  5
1DB
102
{ACAD_REACTORS
330
1DA
102
}
330
1DA
100
AcDbXrecord
280
     1
102
RTVSPropertyOp0
 70
     0
102
RTVSPropertyOp1
 70
     0
102
RTVSPropertyOp2
 70
     0
102
RTVSPropertyOp3
 70
     0
102
RTVSPropertyOp4
 70
     0
102
RTVSPropertyOp5
 70
     0
102
RTVSPropertyOp6
 70
     0
102
RTVSPropertyOp7
 70
     0
102
RTVSPropertyOp8
 70
     0
102
RTVSPropertyOp9
 70
     0
102
RTVSPropertyOp10
 70
     0
102
RTVSPropertyOp11
 70
     0
102
RTVSPropertyOp12
 70
     0
102
RTVSPropertyOp13
 70
     0
102
RTVSPropertyOp14
 70
     2
102
RTVSPropertyOp15
 70
     0
102
RTVSPropertyOp16
 70
     0
102
RTVSPropertyOp17
 70
     0
102
RTVSPropertyOp18
 70
     0
102
RTVSPropertyOp19
 70
     0
102
RTVSPropertyOp20
 70
     0
102
RTVSPropertyOp21
 70
     0
102
RTVSPropertyOp22
 70
     0
102
RTVSPropertyOp23
 70
     0
102
RTVSPropertyOp24
 70
     0
102
RTVSPropertyOp25
 70
     0
102
RTVSPropertyOp26
 70
     0
102
RTVSPropertyOp27
 70
     0
102
RTVSPropertyOp28
 70
     0
102
RTVSPropertyOp29
 70
     0
102
RTVSPropertyOp30
 70
     0
102
RTVSPropertyOp31
 70
     0
102
RTVSPropertyOp32
 70
     0
102
RTVSPropertyOp33
 70
     0
102
RTVSPropertyOp34
 70
     0
102
RTVSPropertyOp35
 70
     0
102
RTVSPropertyOp36
 70
     0
102
RTVSPropertyOp37
 70
     0
102
RTVSPropertyOp38
 70
     0
102
RTVSPropertyOp39
 70
     0
102
RTVSPropertyOp40
 70
     0
102
RTVSPropertyOp41
 70
     0
102
RTVSPropertyOp42
 70
     0
102
RTVSPropertyOp43
 70
     0
102
RTVSPropertyOp44
 70
     0
102
RTVSPropertyOp45
 70
     0
102
RTVSPropertyOp46
 70
     0
102
RTVSPropertyOp47
 70
     0
102
RTVSPropertyOp48
 70
     0
102
RTVSPropertyOp49
 70
     0
102
RTVSPropertyOp50
 70
     0
102
RTVSPropertyOp51
 70
     0
102
RTVSPropertyOp52
 70
     0
102
RTVSPropertyOp53
 70
     0
102
RTVSPropertyOp54
 70
     0
102
RTVSPropertyOp55
 70
     0
102
RTVSPropertyOp56
 70
     0
102
RTVSPropertyOp57
 70
     0
102
RTVSPost2010Prop28
280
     0
102
RTVSPost2010PropOp28
 70
     0
102
RTVSPost2010Prop29
280
     1
102
RTVSPost2010PropOp29
 70
     0
102
RTVSPost2010Prop30
280
     1
102
RTVSPost2010PropOp30
 70
     0
102
RTVSPost2010Prop31
280
     0
102
RTVSPost2010PropOp31
 70
     0
102
RTVSPost2010Prop32
280
     0
102
RTVSPost2010PropOp32
 70
     0
102
RTVSPost2010Prop33
280
     0
102
RTVSPost2010PropOp33
 70
     0
102
RTVSPost2010Prop34
280
     0
102
RTVSPost2010PropOp34
 70
     0
102
RTVSPost2010Prop35
280
     0
102
RTVSPost2010PropOp35
 70
     0
102
RTVSPost2010Prop36
280
     0
102
RTVSPost2010PropOp36
 70
     0
102
RTVSPost2010Prop37
 90
       50
102
RTVSPost2010PropOp37
 70
     0
102
RTVSPost2010Prop38
140
0.0
102
RTVSPost2010PropOp38
 70
     0
102
RTVSPost2010Prop39
140
1.0
102
RTVSPost2010PropOp39
 70
     0
102
RTVSPost2010Prop40
 90
        0
102
RTVSPost2010PropOp40
 70
     0
102
RTVSPost2010Prop41ColorIndex
 90
      178
102
RTVSPost2010Prop41ColorRGB
 90
        0
102
RTVSPost2010PropOp41
 70
     0
102
RTVSPost2010Prop42
 90
       50
102
RTVSPost2010PropOp42
 70
     0
102
RTVSPost2010Prop43
 90
        3
102
RTVSPost2010PropOp43
 70
     0
102
RTVSPost2010Prop44ColorIndex
 90
        5
102
RTVSPost2010Prop44ColorRGB
 90
      255
102
RTVSPost2010PropOp44
 70
     0
102
RTVSPost2010Prop45
280
     0
102
RTVSPost2010PropOp45
 70
     0
102
RTVSPost2010Prop46
 90
       50
102
RTVSPost2010PropOp46
 70
     0
102
RTVSPost2010Prop47
 90
       50
102
RTVSPost2010PropOp47
 70
     0
102
RTVSPost2010Prop48
 90
       50
102
RTVSPost2010PropOp48
 70
     0
102
RTVSPost2010Prop49
280
     0
102
RTVSPost2010PropOp49
 70
     0
102
RTVSPost2010Prop50
 90
       50
102
RTVSPost2010PropOp50
 70
     0
102
RTVSPost2010Prop51ColorIndex
 90
      256
102
RTVSPost2010Prop51ColorRGB
 90
-16777216
102
RTVSPost2010PropOp51
 70
     0
102
RTVSPost2010Prop52
140
1.0
102
RTVSPost2010PropOp52
 70
     0
102
RTVSPost2010Prop53
 90
        2
102
RTVSPost2010PropOp53
 70
     0
102
RTVSPost2010Prop54
  1
strokes_ogs.tif
102
RTVSPost2010PropOp54
 70
     0
102
RTVSPost2010Prop55
280
     0
102
RTVSPost2010PropOp55
 70
     0
102
RTVSPost2010Prop56
140
1.0
102
RTVSPost2010PropOp56
 70
     0
102
RTVSPost2010Prop57
140
1.0
102
RTVSPost2010PropOp57
 70
     0
  0
XRECORD
  5
1D5
102
{ACAD_REACTORS
330
1D4
102
}
330
1D4
100
AcDbXrecord
280
     1
102
RTVSPropertyOp0
 70
     1
102
RTVSPropertyOp1
 70
     1
102
RTVSPropertyOp2
 70
     1
102
RTVSPropertyOp3
 70
     1
102
RTVSPropertyOp4
 70
     1
102
RTVSPropertyOp5
 70
     1
102
RTVSPropertyOp6
 70
     1
102
RTVSPropertyOp7
 70
     1
102
RTVSPropertyOp8
 70
     1
102
RTVSPropertyOp9
 70
     1
102
RTVSPropertyOp10
 70
     1
102
RTVSPropertyOp11
 70
     1
102
RTVSPropertyOp12
 70
     1
102
RTVSPropertyOp13
 70
     1
102
RTVSPropertyOp14
 70
     1
102
RTVSPropertyOp15
 70
     1
102
RTVSPropertyOp16
 70
     1
102
RTVSPropertyOp17
 70
     1
102
RTVSPropertyOp18
 70
     1
102
RTVSPropertyOp19
 70
     1
102
RTVSPropertyOp20
 70
     1
102
RTVSPropertyOp21
 70
     1
102
RTVSPropertyOp22
 70
     1
102
RTVSPropertyOp23
 70
     1
102
RTVSPropertyOp24
 70
     1
102
RTVSPropertyOp25
 70
     1
102
RTVSPropertyOp26
 70
     1
102
RTVSPropertyOp27
 70
     1
102
RTVSPropertyOp28
 70
     1
102
RTVSPropertyOp29
 70
     1
102
RTVSPropertyOp30
 70
     1
102
RTVSPropertyOp31
 70
     1
102
RTVSPropertyOp32
 70
     1
102
RTVSPropertyOp33
 70
     1
102
RTVSPropertyOp34
 70
     1
102
RTVSPropertyOp35
 70
     1
102
RTVSPropertyOp36
 70
     1
102
RTVSPropertyOp37
 70
     1
102
RTVSPropertyOp38
 70
     1
102
RTVSPropertyOp39
 70
     1
102
RTVSPropertyOp40
 70
     1
102
RTVSPropertyOp41
 70
     1
102
RTVSPropertyOp42
 70
     1
102
RTVSPropertyOp43
 70
     1
102
RTVSPropertyOp44
 70
     1
102
RTVSPropertyOp45
 70
     1
102
RTVSPropertyOp46
 70
     1
102
RTVSPropertyOp47
 70
     1
102
RTVSPropertyOp48
 70
     1
102
RTVSPropertyOp49
 70
     1
102
RTVSPropertyOp50
 70
     1
102
RTVSPropertyOp51
 70
     0
102
RTVSPropertyOp52
 70
     0
102
RTVSPropertyOp53
 70
     1
102
RTVSPropertyOp54
 70
     1
102
RTVSPropertyOp55
 70
     1
102
RTVSPropertyOp56
 70
     1
102
RTVSPropertyOp57
 70
     1
102
RTVSPost2010Prop28
280
     0
102
RTVSPost2010PropOp28
 70
     1
102
RTVSPost2010Prop29
280
     1
102
RTVSPost2010PropOp29
 70
     1
102
RTVSPost2010Prop30
280
     1
102
RTVSPost2010PropOp30
 70
     1
102
RTVSPost2010Prop31
280
     0
102
RTVSPost2010PropOp31
 70
     1
102
RTVSPost2010Prop32
280
     0
102
RTVSPost2010PropOp32
 70
     1
102
RTVSPost2010Prop33
280
     0
102
RTVSPost2010PropOp33
 70
     1
102
RTVSPost2010Prop34
280
     0
102
RTVSPost2010PropOp34
 70
     1
102
RTVSPost2010Prop35
280
     0
102
RTVSPost2010PropOp35
 70
     1
102
RTVSPost2010Prop36
280
     0
102
RTVSPost2010PropOp36
 70
     1
102
RTVSPost2010Prop37
 90
       50
102
RTVSPost2010PropOp37
 70
     1
102
RTVSPost2010Prop38
140
0.0
102
RTVSPost2010PropOp38
 70
     1
102
RTVSPost2010Prop39
140
1.0
102
RTVSPost2010PropOp39
 70
     1
102
RTVSPost2010Prop40
 90
        0
102
RTVSPost2010PropOp40
 70
     1
102
RTVSPost2010Prop41ColorIndex
 90
      178
102
RTVSPost2010Prop41ColorRGB
 90
        0
102
RTVSPost2010PropOp41
 70
     1
102
RTVSPost2010Prop42
 90
       50
102
RTVSPost2010PropOp42
 70
     1
102
RTVSPost2010Prop43
 90
        3
102
RTVSPost2010PropOp43
 70
     1
102
RTVSPost2010Prop44ColorIndex
 90
        5
102
RTVSPost2010Prop44ColorRGB
 90
      255
102
RTVSPost2010PropOp44
 70
     1
102
RTVSPost2010Prop45
280
     0
102
RTVSPost2010PropOp45
 70
     1
102
RTVSPost2010Prop46
 90
       50
102
RTVSPost2010PropOp46
 70
     1
102
RTVSPost2010Prop47
 90
       50
102
RTVSPost2010PropOp47
 70
     1
102
RTVSPost2010Prop48
 90
       50
102
RTVSPost2010PropOp48
 70
     1
102
RTVSPost2010Prop49
280
     0
102
RTVSPost2010PropOp49
 70
     1
102
RTVSPost2010Prop50
 90
       50
102
RTVSPost2010PropOp50
 70
     1
102
RTVSPost2010Prop51ColorIndex
 90
      256
102
RTVSPost2010Prop51ColorRGB
 90
-16777216
102
RTVSPost2010PropOp51
 70
     0
102
RTVSPost2010Prop52
140
1.0
102
RTVSPost2010PropOp52
 70
     0
102
RTVSPost2010Prop53
 90
        2
102
RTVSPost2010PropOp53
 70
     1
102
RTVSPost2010Prop54
  1
strokes_ogs.tif
102
RTVSPost2010PropOp54
 70
     1
102
RTVSPost2010Prop55
280
     0
102
RTVSPost2010PropOp55
 70
     1
102
RTVSPost2010Prop56
140
1.0
102
RTVSPost2010PropOp56
 70
     1
102
RTVSPost2010Prop57
140
1.0
102
RTVSPost2010PropOp57
 70
     1
  0
XRECORD
  5
1DD
102
{ACAD_REACTORS
330
1DC
102
}
330
1DC
100
AcDbXrecord
280
     1
102
RTVSPropertyOp0
 70
     0
102
RTVSPropertyOp1
 70
     0
102
RTVSPropertyOp2
 70
     0
102
RTVSPropertyOp3
 70
     0
102
RTVSPropertyOp4
 70
     0
102
RTVSPropertyOp5
 70
     0
102
RTVSPropertyOp6
 70
     0
102
RTVSPropertyOp7
 70
     0
102
RTVSPropertyOp8
 70
     0
102
RTVSPropertyOp9
 70
     0
102
RTVSPropertyOp10
 70
     0
102
RTVSPropertyOp11
 70
     0
102
RTVSPropertyOp12
 70
     0
102
RTVSPropertyOp13
 70
     0
102
RTVSPropertyOp14
 70
     2
102
RTVSPropertyOp15
 70
     0
102
RTVSPropertyOp16
 70
     0
102
RTVSPropertyOp17
 70
     0
102
RTVSPropertyOp18
 70
     0
102
RTVSPropertyOp19
 70
     0
102
RTVSPropertyOp20
 70
     0
102
RTVSPropertyOp21
 70
     0
102
RTVSPropertyOp22
 70
     0
102
RTVSPropertyOp23
 70
     0
102
RTVSPropertyOp24
 70
     0
102
RTVSPropertyOp25
 70
     0
102
RTVSPropertyOp26
 70
     0
102
RTVSPropertyOp27
 70
     0
102
RTVSPropertyOp28
 70
     0
102
RTVSPropertyOp29
 70
     0
102
RTVSPropertyOp30
 70
     0
102
RTVSPropertyOp31
 70
     0
102
RTVSPropertyOp32
 70
     0
102
RTVSPropertyOp33
 70
     0
102
RTVSPropertyOp34
 70
     0
102
RTVSPropertyOp35
 70
     0
102
RTVSPropertyOp36
 70
     0
102
RTVSPropertyOp37
 70
     0
102
RTVSPropertyOp38
 70
     0
102
RTVSPropertyOp39
 70
     0
102
RTVSPropertyOp40
 70
     0
102
RTVSPropertyOp41
 70
     0
102
RTVSPropertyOp42
 70
     0
102
RTVSPropertyOp43
 70
     0
102
RTVSPropertyOp44
 70
     0
102
RTVSPropertyOp45
 70
     0
102
RTVSPropertyOp46
 70
     0
102
RTVSPropertyOp47
 70
     0
102
RTVSPropertyOp48
 70
     0
102
RTVSPropertyOp49
 70
     0
102
RTVSPropertyOp50
 70
     0
102
RTVSPropertyOp51
 70
     0
102
RTVSPropertyOp52
 70
     0
102
RTVSPropertyOp53
 70
     0
102
RTVSPropertyOp54
 70
     0
102
RTVSPropertyOp55
 70
     0
102
RTVSPropertyOp56
 70
     0
102
RTVSPropertyOp57
 70
     0
102
RTVSPost2010Prop28
280
     0
102
RTVSPost2010PropOp28
 70
     0
102
RTVSPost2010Prop29
280
     1
102
RTVSPost2010PropOp29
 70
     0
102
RTVSPost2010Prop30
280
     1
102
RTVSPost2010PropOp30
 70
     0
102
RTVSPost2010Prop31
280
     0
102
RTVSPost2010PropOp31
 70
     0
102
RTVSPost2010Prop32
280
     0
102
RTVSPost2010PropOp32
 70
     0
102
RTVSPost2010Prop33
280
     0
102
RTVSPost2010PropOp33
 70
     0
102
RTVSPost2010Prop34
280
     0
102
RTVSPost2010PropOp34
 70
     0
102
RTVSPost2010Prop35
280
     0
102
RTVSPost2010PropOp35
 70
     0
102
RTVSPost2010Prop36
280
     0
102
RTVSPost2010PropOp36
 70
     0
102
RTVSPost2010Prop37
 90
       50
102
RTVSPost2010PropOp37
 70
     0
102
RTVSPost2010Prop38
140
0.0
102
RTVSPost2010PropOp38
 70
     0
102
RTVSPost2010Prop39
140
1.0
102
RTVSPost2010PropOp39
 70
     0
102
RTVSPost2010Prop40
 90
        0
102
RTVSPost2010PropOp40
 70
     0
102
RTVSPost2010Prop41ColorIndex
 90
      178
102
RTVSPost2010Prop41ColorRGB
 90
        0
102
RTVSPost2010PropOp41
 70
     0
102
RTVSPost2010Prop42
 90
       50
102
RTVSPost2010PropOp42
 70
     0
102
RTVSPost2010Prop43
 90
        3
102
RTVSPost2010PropOp43
 70
     0
102
RTVSPost2010Prop44ColorIndex
 90
        5
102
RTVSPost2010Prop44ColorRGB
 90
      255
102
RTVSPost2010PropOp44
 70
     0
102
RTVSPost2010Prop45
280
     0
102
RTVSPost2010PropOp45
 70
     0
102
RTVSPost2010Prop46
 90
       50
102
RTVSPost2010PropOp46
 70
     0
102
RTVSPost2010Prop47
 90
       50
102
RTVSPost2010PropOp47
 70
     0
102
RTVSPost2010Prop48
 90
       50
102
RTVSPost2010PropOp48
 70
     0
102
RTVSPost2010Prop49
280
     0
102
RTVSPost2010PropOp49
 70
     0
102
RTVSPost2010Prop50
 90
       50
102
RTVSPost2010PropOp50
 70
     0
102
RTVSPost2010Prop51ColorIndex
 90
      256
102
RTVSPost2010Prop51ColorRGB
 90
-16777216
102
RTVSPost2010PropOp51
 70
     0
102
RTVSPost2010Prop52
140
1.0
102
RTVSPost2010PropOp52
 70
     0
102
RTVSPost2010Prop53
 90
        2
102
RTVSPost2010PropOp53
 70
     0
102
RTVSPost2010Prop54
  1
strokes_ogs.tif
102
RTVSPost2010PropOp54
 70
     0
102
RTVSPost2010Prop55
280
     0
102
RTVSPost2010PropOp55
 70
     0
102
RTVSPost2010Prop56
140
1.0
102
RTVSPost2010PropOp56
 70
     0
102
RTVSPost2010Prop57
140
1.0
102
RTVSPost2010PropOp57
 70
     0
  0
XRECORD
  5
1CB
102
{ACAD_REACTORS
330
1CA
102
}
330
1CA
100
AcDbXrecord
280
     1
102
RTVSPropertyOp0
 70
     1
102
RTVSPropertyOp1
 70
     1
102
RTVSPropertyOp2
 70
     1
102
RTVSPropertyOp3
 70
     1
102
RTVSPropertyOp4
 70
     1
102
RTVSPropertyOp5
 70
     1
102
RTVSPropertyOp6
 70
     1
102
RTVSPropertyOp7
 70
     1
102
RTVSPropertyOp8
 70
     1
102
RTVSPropertyOp9
 70
     1
102
RTVSPropertyOp10
 70
     1
102
RTVSPropertyOp11
 70
     1
102
RTVSPropertyOp12
 70
     1
102
RTVSPropertyOp13
 70
     1
102
RTVSPropertyOp14
 70
     1
102
RTVSPropertyOp15
 70
     1
102
RTVSPropertyOp16
 70
     1
102
RTVSPropertyOp17
 70
     1
102
RTVSPropertyOp18
 70
     1
102
RTVSPropertyOp19
 70
     1
102
RTVSPropertyOp20
 70
     1
102
RTVSPropertyOp21
 70
     1
102
RTVSPropertyOp22
 70
     1
102
RTVSPropertyOp23
 70
     1
102
RTVSPropertyOp24
 70
     1
102
RTVSPropertyOp25
 70
     1
102
RTVSPropertyOp26
 70
     1
102
RTVSPropertyOp27
 70
     1
102
RTVSPropertyOp28
 70
     1
102
RTVSPropertyOp29
 70
     1
102
RTVSPropertyOp30
 70
     1
102
RTVSPropertyOp31
 70
     1
102
RTVSPropertyOp32
 70
     1
102
RTVSPropertyOp33
 70
     1
102
RTVSPropertyOp34
 70
     1
102
RTVSPropertyOp35
 70
     1
102
RTVSPropertyOp36
 70
     1
102
RTVSPropertyOp37
 70
     1
102
RTVSPropertyOp38
 70
     1
102
RTVSPropertyOp39
 70
     1
102
RTVSPropertyOp40
 70
     1
102
RTVSPropertyOp41
 70
     1
102
RTVSPropertyOp42
 70
     1
102
RTVSPropertyOp43
 70
     1
102
RTVSPropertyOp44
 70
     1
102
RTVSPropertyOp45
 70
     1
102
RTVSPropertyOp46
 70
     1
102
RTVSPropertyOp47
 70
     1
102
RTVSPropertyOp48
 70
     1
102
RTVSPropertyOp49
 70
     1
102
RTVSPropertyOp50
 70
     1
102
RTVSPropertyOp51
 70
     0
102
RTVSPropertyOp52
 70
     0
102
RTVSPropertyOp53
 70
     1
102
RTVSPropertyOp54
 70
     1
102
RTVSPropertyOp55
 70
     1
102
RTVSPropertyOp56
 70
     1
102
RTVSPropertyOp57
 70
     1
102
RTVSPost2010Prop28
280
     0
102
RTVSPost2010PropOp28
 70
     1
102
RTVSPost2010Prop29
280
     1
102
RTVSPost2010PropOp29
 70
     1
102
RTVSPost2010Prop30
280
     1
102
RTVSPost2010PropOp30
 70
     1
102
RTVSPost2010Prop31
280
     0
102
RTVSPost2010PropOp31
 70
     1
102
RTVSPost2010Prop32
280
     0
102
RTVSPost2010PropOp32
 70
     1
102
RTVSPost2010Prop33
280
     0
102
RTVSPost2010PropOp33
 70
     1
102
RTVSPost2010Prop34
280
     0
102
RTVSPost2010PropOp34
 70
     1
102
RTVSPost2010Prop35
280
     0
102
RTVSPost2010PropOp35
 70
     1
102
RTVSPost2010Prop36
280
     0
102
RTVSPost2010PropOp36
 70
     1
102
RTVSPost2010Prop37
 90
       50
102
RTVSPost2010PropOp37
 70
     1
102
RTVSPost2010Prop38
140
0.0
102
RTVSPost2010PropOp38
 70
     1
102
RTVSPost2010Prop39
140
1.0
102
RTVSPost2010PropOp39
 70
     1
102
RTVSPost2010Prop40
 90
        0
102
RTVSPost2010PropOp40
 70
     1
102
RTVSPost2010Prop41ColorIndex
 90
      178
102
RTVSPost2010Prop41ColorRGB
 90
        0
102
RTVSPost2010PropOp41
 70
     1
102
RTVSPost2010Prop42
 90
       50
102
RTVSPost2010PropOp42
 70
     1
102
RTVSPost2010Prop43
 90
        3
102
RTVSPost2010PropOp43
 70
     1
102
RTVSPost2010Prop44ColorIndex
 90
        5
102
RTVSPost2010Prop44ColorRGB
 90
      255
102
RTVSPost2010PropOp44
 70
     1
102
RTVSPost2010Prop45
280
     0
102
RTVSPost2010PropOp45
 70
     1
102
RTVSPost2010Prop46
 90
       50
102
RTVSPost2010PropOp46
 70
     1
102
RTVSPost2010Prop47
 90
       50
102
RTVSPost2010PropOp47
 70
     1
102
RTVSPost2010Prop48
 90
       50
102
RTVSPost2010PropOp48
 70
     1
102
RTVSPost2010Prop49
280
     0
102
RTVSPost2010PropOp49
 70
     1
102
RTVSPost2010Prop50
 90
       50
102
RTVSPost2010PropOp50
 70
     1
102
RTVSPost2010Prop51ColorIndex
 90
      256
102
RTVSPost2010Prop51ColorRGB
 90
-16777216
102
RTVSPost2010PropOp51
 70
     0
102
RTVSPost2010Prop52
140
1.0
102
RTVSPost2010PropOp52
 70
     0
102
RTVSPost2010Prop53
 90
        2
102
RTVSPost2010PropOp53
 70
     1
102
RTVSPost2010Prop54
  1
strokes_ogs.tif
102
RTVSPost2010PropOp54
 70
     1
102
RTVSPost2010Prop55
280
     0
102
RTVSPost2010PropOp55
 70
     1
102
RTVSPost2010Prop56
140
1.0
102
RTVSPost2010PropOp56
 70
     1
102
RTVSPost2010Prop57
140
1.0
102
RTVSPost2010PropOp57
 70
     1
  0
XRECORD
  5
1E9
102
{ACAD_REACTORS
330
1E8
102
}
330
1E8
100
AcDbXrecord
280
     1
102
RTVSPropertyOp0
 70
     1
102
RTVSPropertyOp1
 70
     1
102
RTVSPropertyOp2
 70
     1
102
RTVSPropertyOp3
 70
     1
102
RTVSPropertyOp4
 70
     1
102
RTVSPropertyOp5
 70
     1
102
RTVSPropertyOp6
 70
     1
102
RTVSPropertyOp7
 70
     1
102
RTVSPropertyOp8
 70
     1
102
RTVSPropertyOp9
 70
     1
102
RTVSPropertyOp10
 70
     1
102
RTVSPropertyOp11
 70
     1
102
RTVSPropertyOp12
 70
     1
102
RTVSPropertyOp13
 70
     1
102
RTVSPropertyOp14
 70
     1
102
RTVSPropertyOp15
 70
     1
102
RTVSPropertyOp16
 70
     1
102
RTVSPropertyOp17
 70
     1
102
RTVSPropertyOp18
 70
     1
102
RTVSPropertyOp19
 70
     1
102
RTVSPropertyOp20
 70
     1
102
RTVSPropertyOp21
 70
     1
102
RTVSPropertyOp22
 70
     1
102
RTVSPropertyOp23
 70
     1
102
RTVSPropertyOp24
 70
     1
102
RTVSPropertyOp25
 70
     1
102
RTVSPropertyOp26
 70
     1
102
RTVSPropertyOp27
 70
     1
102
RTVSPropertyOp28
 70
     1
102
RTVSPropertyOp29
 70
     1
102
RTVSPropertyOp30
 70
     1
102
RTVSPropertyOp31
 70
     1
102
RTVSPropertyOp32
 70
     1
102
RTVSPropertyOp33
 70
     1
102
RTVSPropertyOp34
 70
     1
102
RTVSPropertyOp35
 70
     1
102
RTVSPropertyOp36
 70
     1
102
RTVSPropertyOp37
 70
     1
102
RTVSPropertyOp38
 70
     1
102
RTVSPropertyOp39
 70
     1
102
RTVSPropertyOp40
 70
     1
102
RTVSPropertyOp41
 70
     1
102
RTVSPropertyOp42
 70
     1
102
RTVSPropertyOp43
 70
     1
102
RTVSPropertyOp44
 70
     1
102
RTVSPropertyOp45
 70
     1
102
RTVSPropertyOp46
 70
     1
102
RTVSPropertyOp47
 70
     1
102
RTVSPropertyOp48
 70
     1
102
RTVSPropertyOp49
 70
     1
102
RTVSPropertyOp50
 70
     1
102
RTVSPropertyOp51
 70
     0
102
RTVSPropertyOp52
 70
     0
102
RTVSPropertyOp53
 70
     1
102
RTVSPropertyOp54
 70
     1
102
RTVSPropertyOp55
 70
     1
102
RTVSPropertyOp56
 70
     1
102
RTVSPropertyOp57
 70
     1
102
RTVSPost2010Prop28
280
     0
102
RTVSPost2010PropOp28
 70
     1
102
RTVSPost2010Prop29
280
     1
102
RTVSPost2010PropOp29
 70
     1
102
RTVSPost2010Prop30
280
     1
102
RTVSPost2010PropOp30
 70
     1
102
RTVSPost2010Prop31
280
     0
102
RTVSPost2010PropOp31
 70
     1
102
RTVSPost2010Prop32
280
     0
102
RTVSPost2010PropOp32
 70
     1
102
RTVSPost2010Prop33
280
     0
102
RTVSPost2010PropOp33
 70
     1
102
RTVSPost2010Prop34
280
     0
102
RTVSPost2010PropOp34
 70
     1
102
RTVSPost2010Prop35
280
     0
102
RTVSPost2010PropOp35
 70
     1
102
RTVSPost2010Prop36
280
     0
102
RTVSPost2010PropOp36
 70
     1
102
RTVSPost2010Prop37
 90
       50
102
RTVSPost2010PropOp37
 70
     1
102
RTVSPost2010Prop38
140
0.0
102
RTVSPost2010PropOp38
 70
     1
102
RTVSPost2010Prop39
140
1.0
102
RTVSPost2010PropOp39
 70
     1
102
RTVSPost2010Prop40
 90
        0
102
RTVSPost2010PropOp40
 70
     1
102
RTVSPost2010Prop41ColorIndex
 90
      178
102
RTVSPost2010Prop41ColorRGB
 90
        0
102
RTVSPost2010PropOp41
 70
     1
102
RTVSPost2010Prop42
 90
       50
102
RTVSPost2010PropOp42
 70
     1
102
RTVSPost2010Prop43
 90
        3
102
RTVSPost2010PropOp43
 70
     1
102
RTVSPost2010Prop44ColorIndex
 90
        5
102
RTVSPost2010Prop44ColorRGB
 90
      255
102
RTVSPost2010PropOp44
 70
     1
102
RTVSPost2010Prop45
280
     0
102
RTVSPost2010PropOp45
 70
     1
102
RTVSPost2010Prop46
 90
       50
102
RTVSPost2010PropOp46
 70
     1
102
RTVSPost2010Prop47
 90
       50
102
RTVSPost2010PropOp47
 70
     1
102
RTVSPost2010Prop48
 90
       50
102
RTVSPost2010PropOp48
 70
     1
102
RTVSPost2010Prop49
280
     0
102
RTVSPost2010PropOp49
 70
     1
102
RTVSPost2010Prop50
 90
       50
102
RTVSPost2010PropOp50
 70
     1
102
RTVSPost2010Prop51ColorIndex
 90
      256
102
RTVSPost2010Prop51ColorRGB
 90
-16777216
102
RTVSPost2010PropOp51
 70
     0
102
RTVSPost2010Prop52
140
1.0
102
RTVSPost2010PropOp52
 70
     0
102
RTVSPost2010Prop53
 90
        2
102
RTVSPost2010PropOp53
 70
     1
102
RTVSPost2010Prop54
  1
strokes_ogs.tif
102
RTVSPost2010PropOp54
 70
     1
102
RTVSPost2010Prop55
280
     0
102
RTVSPost2010PropOp55
 70
     1
102
RTVSPost2010Prop56
140
1.0
102
RTVSPost2010PropOp56
 70
     1
102
RTVSPost2010Prop57
140
1.0
102
RTVSPost2010PropOp57
 70
     1
  0
XRECORD
  5
1E7
102
{ACAD_REACTORS
330
1E6
102
}
330
1E6
100
AcDbXrecord
280
     1
102
RTVSPropertyOp0
 70
     1
102
RTVSPropertyOp1
 70
     1
102
RTVSPropertyOp2
 70
     1
102
RTVSPropertyOp3
 70
     1
102
RTVSPropertyOp4
 70
     1
102
RTVSPropertyOp5
 70
     1
102
RTVSPropertyOp6
 70
     1
102
RTVSPropertyOp7
 70
     1
102
RTVSPropertyOp8
 70
     1
102
RTVSPropertyOp9
 70
     1
102
RTVSPropertyOp10
 70
     1
102
RTVSPropertyOp11
 70
     1
102
RTVSPropertyOp12
 70
     1
102
RTVSPropertyOp13
 70
     1
102
RTVSPropertyOp14
 70
     1
102
RTVSPropertyOp15
 70
     1
102
RTVSPropertyOp16
 70
     1
102
RTVSPropertyOp17
 70
     1
102
RTVSPropertyOp18
 70
     1
102
RTVSPropertyOp19
 70
     1
102
RTVSPropertyOp20
 70
     1
102
RTVSPropertyOp21
 70
     1
102
RTVSPropertyOp22
 70
     1
102
RTVSPropertyOp23
 70
     1
102
RTVSPropertyOp24
 70
     1
102
RTVSPropertyOp25
 70
     1
102
RTVSPropertyOp26
 70
     1
102
RTVSPropertyOp27
 70
     1
102
RTVSPropertyOp28
 70
     1
102
RTVSPropertyOp29
 70
     1
102
RTVSPropertyOp30
 70
     1
102
RTVSPropertyOp31
 70
     1
102
RTVSPropertyOp32
 70
     1
102
RTVSPropertyOp33
 70
     1
102
RTVSPropertyOp34
 70
     1
102
RTVSPropertyOp35
 70
     1
102
RTVSPropertyOp36
 70
     1
102
RTVSPropertyOp37
 70
     1
102
RTVSPropertyOp38
 70
     1
102
RTVSPropertyOp39
 70
     1
102
RTVSPropertyOp40
 70
     1
102
RTVSPropertyOp41
 70
     1
102
RTVSPropertyOp42
 70
     1
102
RTVSPropertyOp43
 70
     1
102
RTVSPropertyOp44
 70
     1
102
RTVSPropertyOp45
 70
     1
102
RTVSPropertyOp46
 70
     1
102
RTVSPropertyOp47
 70
     1
102
RTVSPropertyOp48
 70
     1
102
RTVSPropertyOp49
 70
     1
102
RTVSPropertyOp50
 70
     1
102
RTVSPropertyOp51
 70
     0
102
RTVSPropertyOp52
 70
     0
102
RTVSPropertyOp53
 70
     1
102
RTVSPropertyOp54
 70
     1
102
RTVSPropertyOp55
 70
     1
102
RTVSPropertyOp56
 70
     1
102
RTVSPropertyOp57
 70
     1
102
RTVSPost2010Prop28
280
     0
102
RTVSPost2010PropOp28
 70
     1
102
RTVSPost2010Prop29
280
     1
102
RTVSPost2010PropOp29
 70
     1
102
RTVSPost2010Prop30
280
     1
102
RTVSPost2010PropOp30
 70
     1
102
RTVSPost2010Prop31
280
     0
102
RTVSPost2010PropOp31
 70
     1
102
RTVSPost2010Prop32
280
     0
102
RTVSPost2010PropOp32
 70
     1
102
RTVSPost2010Prop33
280
     0
102
RTVSPost2010PropOp33
 70
     1
102
RTVSPost2010Prop34
280
     0
102
RTVSPost2010PropOp34
 70
     1
102
RTVSPost2010Prop35
280
     0
102
RTVSPost2010PropOp35
 70
     1
102
RTVSPost2010Prop36
280
     0
102
RTVSPost2010PropOp36
 70
     1
102
RTVSPost2010Prop37
 90
       50
102
RTVSPost2010PropOp37
 70
     1
102
RTVSPost2010Prop38
140
0.0
102
RTVSPost2010PropOp38
 70
     1
102
RTVSPost2010Prop39
140
1.0
102
RTVSPost2010PropOp39
 70
     1
102
RTVSPost2010Prop40
 90
        0
102
RTVSPost2010PropOp40
 70
     1
102
RTVSPost2010Prop41ColorIndex
 90
      178
102
RTVSPost2010Prop41ColorRGB
 90
        0
102
RTVSPost2010PropOp41
 70
     1
102
RTVSPost2010Prop42
 90
       50
102
RTVSPost2010PropOp42
 70
     1
102
RTVSPost2010Prop43
 90
        3
102
RTVSPost2010PropOp43
 70
     1
102
RTVSPost2010Prop44ColorIndex
 90
        5
102
RTVSPost2010Prop44ColorRGB
 90
      255
102
RTVSPost2010PropOp44
 70
     1
102
RTVSPost2010Prop45
280
     0
102
RTVSPost2010PropOp45
 70
     1
102
RTVSPost2010Prop46
 90
       50
102
RTVSPost2010PropOp46
 70
     1
102
RTVSPost2010Prop47
 90
       50
102
RTVSPost2010PropOp47
 70
     1
102
RTVSPost2010Prop48
 90
       50
102
RTVSPost2010PropOp48
 70
     1
102
RTVSPost2010Prop49
280
     0
102
RTVSPost2010PropOp49
 70
     1
102
RTVSPost2010Prop50
 90
       50
102
RTVSPost2010PropOp50
 70
     1
102
RTVSPost2010Prop51ColorIndex
 90
      256
102
RTVSPost2010Prop51ColorRGB
 90
-16777216
102
RTVSPost2010PropOp51
 70
     0
102
RTVSPost2010Prop52
140
1.0
102
RTVSPost2010PropOp52
 70
     0
102
RTVSPost2010Prop53
 90
        2
102
RTVSPost2010PropOp53
 70
     1
102
RTVSPost2010Prop54
  1
strokes_ogs.tif
102
RTVSPost2010PropOp54
 70
     1
102
RTVSPost2010Prop55
280
     0
102
RTVSPost2010PropOp55
 70
     1
102
RTVSPost2010Prop56
140
1.0
102
RTVSPost2010PropOp56
 70
     1
102
RTVSPost2010Prop57
140
1.0
102
RTVSPost2010PropOp57
 70
     1
  0
XRECORD
  5
1E1
102
{ACAD_REACTORS
330
1E0
102
}
330
1E0
100
AcDbXrecord
280
     1
102
RTVSPropertyOp0
 70
     1
102
RTVSPropertyOp1
 70
     1
102
RTVSPropertyOp2
 70
     1
102
RTVSPropertyOp3
 70
     1
102
RTVSPropertyOp4
 70
     1
102
RTVSPropertyOp5
 70
     1
102
RTVSPropertyOp6
 70
     1
102
RTVSPropertyOp7
 70
     1
102
RTVSPropertyOp8
 70
     1
102
RTVSPropertyOp9
 70
     1
102
RTVSPropertyOp10
 70
     1
102
RTVSPropertyOp11
 70
     1
102
RTVSPropertyOp12
 70
     1
102
RTVSPropertyOp13
 70
     1
102
RTVSPropertyOp14
 70
     1
102
RTVSPropertyOp15
 70
     1
102
RTVSPropertyOp16
 70
     1
102
RTVSPropertyOp17
 70
     1
102
RTVSPropertyOp18
 70
     1
102
RTVSPropertyOp19
 70
     1
102
RTVSPropertyOp20
 70
     1
102
RTVSPropertyOp21
 70
     1
102
RTVSPropertyOp22
 70
     1
102
RTVSPropertyOp23
 70
     1
102
RTVSPropertyOp24
 70
     1
102
RTVSPropertyOp25
 70
     1
102
RTVSPropertyOp26
 70
     1
102
RTVSPropertyOp27
 70
     1
102
RTVSPropertyOp28
 70
     1
102
RTVSPropertyOp29
 70
     1
102
RTVSPropertyOp30
 70
     1
102
RTVSPropertyOp31
 70
     1
102
RTVSPropertyOp32
 70
     1
102
RTVSPropertyOp33
 70
     1
102
RTVSPropertyOp34
 70
     1
102
RTVSPropertyOp35
 70
     1
102
RTVSPropertyOp36
 70
     1
102
RTVSPropertyOp37
 70
     1
102
RTVSPropertyOp38
 70
     1
102
RTVSPropertyOp39
 70
     1
102
RTVSPropertyOp40
 70
     1
102
RTVSPropertyOp41
 70
     1
102
RTVSPropertyOp42
 70
     1
102
RTVSPropertyOp43
 70
     1
102
RTVSPropertyOp44
 70
     1
102
RTVSPropertyOp45
 70
     1
102
RTVSPropertyOp46
 70
     1
102
RTVSPropertyOp47
 70
     1
102
RTVSPropertyOp48
 70
     1
102
RTVSPropertyOp49
 70
     1
102
RTVSPropertyOp50
 70
     1
102
RTVSPropertyOp51
 70
     0
102
RTVSPropertyOp52
 70
     0
102
RTVSPropertyOp53
 70
     1
102
RTVSPropertyOp54
 70
     1
102
RTVSPropertyOp55
 70
     1
102
RTVSPropertyOp56
 70
     1
102
RTVSPropertyOp57
 70
     1
102
RTVSPost2010Prop28
280
     0
102
RTVSPost2010PropOp28
 70
     1
102
RTVSPost2010Prop29
280
     1
102
RTVSPost2010PropOp29
 70
     1
102
RTVSPost2010Prop30
280
     1
102
RTVSPost2010PropOp30
 70
     1
102
RTVSPost2010Prop31
280
     0
102
RTVSPost2010PropOp31
 70
     1
102
RTVSPost2010Prop32
280
     0
102
RTVSPost2010PropOp32
 70
     1
102
RTVSPost2010Prop33
280
     0
102
RTVSPost2010PropOp33
 70
     1
102
RTVSPost2010Prop34
280
     0
102
RTVSPost2010PropOp34
 70
     1
102
RTVSPost2010Prop35
280
     0
102
RTVSPost2010PropOp35
 70
     1
102
RTVSPost2010Prop36
280
     0
102
RTVSPost2010PropOp36
 70
     1
102
RTVSPost2010Prop37
 90
       50
102
RTVSPost2010PropOp37
 70
     1
102
RTVSPost2010Prop38
140
0.0
102
RTVSPost2010PropOp38
 70
     1
102
RTVSPost2010Prop39
140
1.0
102
RTVSPost2010PropOp39
 70
     1
102
RTVSPost2010Prop40
 90
        0
102
RTVSPost2010PropOp40
 70
     1
102
RTVSPost2010Prop41ColorIndex
 90
      178
102
RTVSPost2010Prop41ColorRGB
 90
        0
102
RTVSPost2010PropOp41
 70
     1
102
RTVSPost2010Prop42
 90
       50
102
RTVSPost2010PropOp42
 70
     1
102
RTVSPost2010Prop43
 90
        3
102
RTVSPost2010PropOp43
 70
     1
102
RTVSPost2010Prop44ColorIndex
 90
        5
102
RTVSPost2010Prop44ColorRGB
 90
      255
102
RTVSPost2010PropOp44
 70
     1
102
RTVSPost2010Prop45
280
     0
102
RTVSPost2010PropOp45
 70
     1
102
RTVSPost2010Prop46
 90
       50
102
RTVSPost2010PropOp46
 70
     1
102
RTVSPost2010Prop47
 90
       50
102
RTVSPost2010PropOp47
 70
     1
102
RTVSPost2010Prop48
 90
       50
102
RTVSPost2010PropOp48
 70
     1
102
RTVSPost2010Prop49
280
     0
102
RTVSPost2010PropOp49
 70
     1
102
RTVSPost2010Prop50
 90
       50
102
RTVSPost2010PropOp50
 70
     1
102
RTVSPost2010Prop51ColorIndex
 90
      256
102
RTVSPost2010Prop51ColorRGB
 90
-16777216
102
RTVSPost2010PropOp51
 70
     0
102
RTVSPost2010Prop52
140
1.0
102
RTVSPost2010PropOp52
 70
     0
102
RTVSPost2010Prop53
 90
        2
102
RTVSPost2010PropOp53
 70
     1
102
RTVSPost2010Prop54
  1
strokes_ogs.tif
102
RTVSPost2010PropOp54
 70
     1
102
RTVSPost2010Prop55
280
     0
102
RTVSPost2010PropOp55
 70
     1
102
RTVSPost2010Prop56
140
1.0
102
RTVSPost2010PropOp56
 70
     1
102
RTVSPost2010Prop57
140
1.0
102
RTVSPost2010PropOp57
 70
     1
  0
XRECORD
  5
1E3
102
{ACAD_REACTORS
330
1E2
102
}
330
1E2
100
AcDbXrecord
280
     1
102
RTVSPropertyOp0
 70
     1
102
RTVSPropertyOp1
 70
     1
102
RTVSPropertyOp2
 70
     1
102
RTVSPropertyOp3
 70
     1
102
RTVSPropertyOp4
 70
     1
102
RTVSPropertyOp5
 70
     1
102
RTVSPropertyOp6
 70
     1
102
RTVSPropertyOp7
 70
     1
102
RTVSPropertyOp8
 70
     1
102
RTVSPropertyOp9
 70
     1
102
RTVSPropertyOp10
 70
     1
102
RTVSPropertyOp11
 70
     1
102
RTVSPropertyOp12
 70
     1
102
RTVSPropertyOp13
 70
     1
102
RTVSPropertyOp14
 70
     1
102
RTVSPropertyOp15
 70
     1
102
RTVSPropertyOp16
 70
     1
102
RTVSPropertyOp17
 70
     1
102
RTVSPropertyOp18
 70
     1
102
RTVSPropertyOp19
 70
     1
102
RTVSPropertyOp20
 70
     1
102
RTVSPropertyOp21
 70
     1
102
RTVSPropertyOp22
 70
     1
102
RTVSPropertyOp23
 70
     1
102
RTVSPropertyOp24
 70
     1
102
RTVSPropertyOp25
 70
     1
102
RTVSPropertyOp26
 70
     1
102
RTVSPropertyOp27
 70
     1
102
RTVSPropertyOp28
 70
     1
102
RTVSPropertyOp29
 70
     1
102
RTVSPropertyOp30
 70
     1
102
RTVSPropertyOp31
 70
     1
102
RTVSPropertyOp32
 70
     1
102
RTVSPropertyOp33
 70
     1
102
RTVSPropertyOp34
 70
     1
102
RTVSPropertyOp35
 70
     1
102
RTVSPropertyOp36
 70
     1
102
RTVSPropertyOp37
 70
     1
102
RTVSPropertyOp38
 70
     1
102
RTVSPropertyOp39
 70
     1
102
RTVSPropertyOp40
 70
     1
102
RTVSPropertyOp41
 70
     1
102
RTVSPropertyOp42
 70
     1
102
RTVSPropertyOp43
 70
     1
102
RTVSPropertyOp44
 70
     1
102
RTVSPropertyOp45
 70
     1
102
RTVSPropertyOp46
 70
     1
102
RTVSPropertyOp47
 70
     1
102
RTVSPropertyOp48
 70
     1
102
RTVSPropertyOp49
 70
     1
102
RTVSPropertyOp50
 70
     1
102
RTVSPropertyOp51
 70
     0
102
RTVSPropertyOp52
 70
     0
102
RTVSPropertyOp53
 70
     1
102
RTVSPropertyOp54
 70
     1
102
RTVSPropertyOp55
 70
     1
102
RTVSPropertyOp56
 70
     1
102
RTVSPropertyOp57
 70
     1
102
RTVSPost2010Prop28
280
     0
102
RTVSPost2010PropOp28
 70
     1
102
RTVSPost2010Prop29
280
     1
102
RTVSPost2010PropOp29
 70
     1
102
RTVSPost2010Prop30
280
     1
102
RTVSPost2010PropOp30
 70
     1
102
RTVSPost2010Prop31
280
     0
102
RTVSPost2010PropOp31
 70
     1
102
RTVSPost2010Prop32
280
     0
102
RTVSPost2010PropOp32
 70
     1
102
RTVSPost2010Prop33
280
     0
102
RTVSPost2010PropOp33
 70
     1
102
RTVSPost2010Prop34
280
     0
102
RTVSPost2010PropOp34
 70
     1
102
RTVSPost2010Prop35
280
     0
102
RTVSPost2010PropOp35
 70
     1
102
RTVSPost2010Prop36
280
     0
102
RTVSPost2010PropOp36
 70
     1
102
RTVSPost2010Prop37
 90
       50
102
RTVSPost2010PropOp37
 70
     1
102
RTVSPost2010Prop38
140
0.0
102
RTVSPost2010PropOp38
 70
     1
102
RTVSPost2010Prop39
140
1.0
102
RTVSPost2010PropOp39
 70
     1
102
RTVSPost2010Prop40
 90
        0
102
RTVSPost2010PropOp40
 70
     1
102
RTVSPost2010Prop41ColorIndex
 90
      178
102
RTVSPost2010Prop41ColorRGB
 90
        0
102
RTVSPost2010PropOp41
 70
     1
102
RTVSPost2010Prop42
 90
       50
102
RTVSPost2010PropOp42
 70
     1
102
RTVSPost2010Prop43
 90
        3
102
RTVSPost2010PropOp43
 70
     1
102
RTVSPost2010Prop44ColorIndex
 90
        5
102
RTVSPost2010Prop44ColorRGB
 90
      255
102
RTVSPost2010PropOp44
 70
     1
102
RTVSPost2010Prop45
280
     0
102
RTVSPost2010PropOp45
 70
     1
102
RTVSPost2010Prop46
 90
       50
102
RTVSPost2010PropOp46
 70
     1
102
RTVSPost2010Prop47
 90
       50
102
RTVSPost2010PropOp47
 70
     1
102
RTVSPost2010Prop48
 90
       50
102
RTVSPost2010PropOp48
 70
     1
102
RTVSPost2010Prop49
280
     0
102
RTVSPost2010PropOp49
 70
     1
102
RTVSPost2010Prop50
 90
       50
102
RTVSPost2010PropOp50
 70
     1
102
RTVSPost2010Prop51ColorIndex
 90
      256
102
RTVSPost2010Prop51ColorRGB
 90
-16777216
102
RTVSPost2010PropOp51
 70
     0
102
RTVSPost2010Prop52
140
1.0
102
RTVSPost2010PropOp52
 70
     0
102
RTVSPost2010Prop53
 90
        2
102
RTVSPost2010PropOp53
 70
     1
102
RTVSPost2010Prop54
  1
strokes_ogs.tif
102
RTVSPost2010PropOp54
 70
     1
102
RTVSPost2010Prop55
280
     0
102
RTVSPost2010PropOp55
 70
     1
102
RTVSPost2010Prop56
140
1.0
102
RTVSPost2010PropOp56
 70
     1
102
RTVSPost2010Prop57
140
1.0
102
RTVSPost2010PropOp57
 70
     1
  0
XRECORD
  5
1D3
102
{ACAD_REACTORS
330
1D2
102
}
330
1D2
100
AcDbXrecord
280
     1
102
RTVSPropertyOp0
 70
     1
102
RTVSPropertyOp1
 70
     1
102
RTVSPropertyOp2
 70
     1
102
RTVSPropertyOp3
 70
     1
102
RTVSPropertyOp4
 70
     1
102
RTVSPropertyOp5
 70
     1
102
RTVSPropertyOp6
 70
     1
102
RTVSPropertyOp7
 70
     1
102
RTVSPropertyOp8
 70
     1
102
RTVSPropertyOp9
 70
     1
102
RTVSPropertyOp10
 70
     1
102
RTVSPropertyOp11
 70
     1
102
RTVSPropertyOp12
 70
     1
102
RTVSPropertyOp13
 70
     1
102
RTVSPropertyOp14
 70
     1
102
RTVSPropertyOp15
 70
     1
102
RTVSPropertyOp16
 70
     1
102
RTVSPropertyOp17
 70
     1
102
RTVSPropertyOp18
 70
     1
102
RTVSPropertyOp19
 70
     1
102
RTVSPropertyOp20
 70
     1
102
RTVSPropertyOp21
 70
     1
102
RTVSPropertyOp22
 70
     1
102
RTVSPropertyOp23
 70
     1
102
RTVSPropertyOp24
 70
     1
102
RTVSPropertyOp25
 70
     1
102
RTVSPropertyOp26
 70
     1
102
RTVSPropertyOp27
 70
     1
102
RTVSPropertyOp28
 70
     1
102
RTVSPropertyOp29
 70
     1
102
RTVSPropertyOp30
 70
     1
102
RTVSPropertyOp31
 70
     1
102
RTVSPropertyOp32
 70
     1
102
RTVSPropertyOp33
 70
     1
102
RTVSPropertyOp34
 70
     1
102
RTVSPropertyOp35
 70
     1
102
RTVSPropertyOp36
 70
     1
102
RTVSPropertyOp37
 70
     1
102
RTVSPropertyOp38
 70
     1
102
RTVSPropertyOp39
 70
     1
102
RTVSPropertyOp40
 70
     1
102
RTVSPropertyOp41
 70
     1
102
RTVSPropertyOp42
 70
     1
102
RTVSPropertyOp43
 70
     1
102
RTVSPropertyOp44
 70
     1
102
RTVSPropertyOp45
 70
     1
102
RTVSPropertyOp46
 70
     1
102
RTVSPropertyOp47
 70
     1
102
RTVSPropertyOp48
 70
     1
102
RTVSPropertyOp49
 70
     1
102
RTVSPropertyOp50
 70
     1
102
RTVSPropertyOp51
 70
     0
102
RTVSPropertyOp52
 70
     0
102
RTVSPropertyOp53
 70
     1
102
RTVSPropertyOp54
 70
     1
102
RTVSPropertyOp55
 70
     1
102
RTVSPropertyOp56
 70
     1
102
RTVSPropertyOp57
 70
     1
102
RTVSPost2010Prop28
280
     0
102
RTVSPost2010PropOp28
 70
     1
102
RTVSPost2010Prop29
280
     1
102
RTVSPost2010PropOp29
 70
     1
102
RTVSPost2010Prop30
280
     1
102
RTVSPost2010PropOp30
 70
     1
102
RTVSPost2010Prop31
280
     0
102
RTVSPost2010PropOp31
 70
     1
102
RTVSPost2010Prop32
280
     0
102
RTVSPost2010PropOp32
 70
     1
102
RTVSPost2010Prop33
280
     0
102
RTVSPost2010PropOp33
 70
     1
102
RTVSPost2010Prop34
280
     0
102
RTVSPost2010PropOp34
 70
     1
102
RTVSPost2010Prop35
280
     0
102
RTVSPost2010PropOp35
 70
     1
102
RTVSPost2010Prop36
280
     0
102
RTVSPost2010PropOp36
 70
     1
102
RTVSPost2010Prop37
 90
       50
102
RTVSPost2010PropOp37
 70
     1
102
RTVSPost2010Prop38
140
0.0
102
RTVSPost2010PropOp38
 70
     1
102
RTVSPost2010Prop39
140
1.0
102
RTVSPost2010PropOp39
 70
     1
102
RTVSPost2010Prop40
 90
        0
102
RTVSPost2010PropOp40
 70
     1
102
RTVSPost2010Prop41ColorIndex
 90
      178
102
RTVSPost2010Prop41ColorRGB
 90
        0
102
RTVSPost2010PropOp41
 70
     1
102
RTVSPost2010Prop42
 90
       50
102
RTVSPost2010PropOp42
 70
     1
102
RTVSPost2010Prop43
 90
        3
102
RTVSPost2010PropOp43
 70
     1
102
RTVSPost2010Prop44ColorIndex
 90
        5
102
RTVSPost2010Prop44ColorRGB
 90
      255
102
RTVSPost2010PropOp44
 70
     1
102
RTVSPost2010Prop45
280
     0
102
RTVSPost2010PropOp45
 70
     1
102
RTVSPost2010Prop46
 90
       50
102
RTVSPost2010PropOp46
 70
     1
102
RTVSPost2010Prop47
 90
       50
102
RTVSPost2010PropOp47
 70
     1
102
RTVSPost2010Prop48
 90
       50
102
RTVSPost2010PropOp48
 70
     1
102
RTVSPost2010Prop49
280
     0
102
RTVSPost2010PropOp49
 70
     1
102
RTVSPost2010Prop50
 90
       50
102
RTVSPost2010PropOp50
 70
     1
102
RTVSPost2010Prop51ColorIndex
 90
      256
102
RTVSPost2010Prop51ColorRGB
 90
-16777216
102
RTVSPost2010PropOp51
 70
     0
102
RTVSPost2010Prop52
140
1.0
102
RTVSPost2010PropOp52
 70
     0
102
RTVSPost2010Prop53
 90
        2
102
RTVSPost2010PropOp53
 70
     1
102
RTVSPost2010Prop54
  1
strokes_ogs.tif
102
RTVSPost2010PropOp54
 70
     1
102
RTVSPost2010Prop55
280
     0
102
RTVSPost2010PropOp55
 70
     1
102
RTVSPost2010Prop56
140
1.0
102
RTVSPost2010PropOp56
 70
     1
102
RTVSPost2010Prop57
140
1.0
102
RTVSPost2010PropOp57
 70
     1
  0
XRECORD
  5
1C5
102
{ACAD_REACTORS
330
1C4
102
}
330
1C4
100
AcDbXrecord
280
     1
102
RTVSPropertyOp0
 70
     1
102
RTVSPropertyOp1
 70
     1
102
RTVSPropertyOp2
 70
     1
102
RTVSPropertyOp3
 70
     1
102
RTVSPropertyOp4
 70
     1
102
RTVSPropertyOp5
 70
     1
102
RTVSPropertyOp6
 70
     1
102
RTVSPropertyOp7
 70
     1
102
RTVSPropertyOp8
 70
     1
102
RTVSPropertyOp9
 70
     1
102
RTVSPropertyOp10
 70
     1
102
RTVSPropertyOp11
 70
     1
102
RTVSPropertyOp12
 70
     1
102
RTVSPropertyOp13
 70
     1
102
RTVSPropertyOp14
 70
     1
102
RTVSPropertyOp15
 70
     1
102
RTVSPropertyOp16
 70
     1
102
RTVSPropertyOp17
 70
     1
102
RTVSPropertyOp18
 70
     1
102
RTVSPropertyOp19
 70
     1
102
RTVSPropertyOp20
 70
     1
102
RTVSPropertyOp21
 70
     1
102
RTVSPropertyOp22
 70
     1
102
RTVSPropertyOp23
 70
     1
102
RTVSPropertyOp24
 70
     1
102
RTVSPropertyOp25
 70
     1
102
RTVSPropertyOp26
 70
     1
102
RTVSPropertyOp27
 70
     1
102
RTVSPropertyOp28
 70
     1
102
RTVSPropertyOp29
 70
     1
102
RTVSPropertyOp30
 70
     1
102
RTVSPropertyOp31
 70
     1
102
RTVSPropertyOp32
 70
     1
102
RTVSPropertyOp33
 70
     1
102
RTVSPropertyOp34
 70
     1
102
RTVSPropertyOp35
 70
     1
102
RTVSPropertyOp36
 70
     1
102
RTVSPropertyOp37
 70
     1
102
RTVSPropertyOp38
 70
     1
102
RTVSPropertyOp39
 70
     1
102
RTVSPropertyOp40
 70
     1
102
RTVSPropertyOp41
 70
     1
102
RTVSPropertyOp42
 70
     1
102
RTVSPropertyOp43
 70
     1
102
RTVSPropertyOp44
 70
     1
102
RTVSPropertyOp45
 70
     1
102
RTVSPropertyOp46
 70
     1
102
RTVSPropertyOp47
 70
     1
102
RTVSPropertyOp48
 70
     1
102
RTVSPropertyOp49
 70
     1
102
RTVSPropertyOp50
 70
     1
102
RTVSPropertyOp51
 70
     0
102
RTVSPropertyOp52
 70
     0
102
RTVSPropertyOp53
 70
     1
102
RTVSPropertyOp54
 70
     1
102
RTVSPropertyOp55
 70
     1
102
RTVSPropertyOp56
 70
     1
102
RTVSPropertyOp57
 70
     1
102
RTVSPost2010Prop28
280
     0
102
RTVSPost2010PropOp28
 70
     1
102
RTVSPost2010Prop29
280
     1
102
RTVSPost2010PropOp29
 70
     1
102
RTVSPost2010Prop30
280
     1
102
RTVSPost2010PropOp30
 70
     1
102
RTVSPost2010Prop31
280
     0
102
RTVSPost2010PropOp31
 70
     1
102
RTVSPost2010Prop32
280
     0
102
RTVSPost2010PropOp32
 70
     1
102
RTVSPost2010Prop33
280
     0
102
RTVSPost2010PropOp33
 70
     1
102
RTVSPost2010Prop34
280
     0
102
RTVSPost2010PropOp34
 70
     1
102
RTVSPost2010Prop35
280
     0
102
RTVSPost2010PropOp35
 70
     1
102
RTVSPost2010Prop36
280
     0
102
RTVSPost2010PropOp36
 70
     1
102
RTVSPost2010Prop37
 90
       50
102
RTVSPost2010PropOp37
 70
     1
102
RTVSPost2010Prop38
140
0.0
102
RTVSPost2010PropOp38
 70
     1
102
RTVSPost2010Prop39
140
1.0
102
RTVSPost2010PropOp39
 70
     1
102
RTVSPost2010Prop40
 90
        0
102
RTVSPost2010PropOp40
 70
     1
102
RTVSPost2010Prop41ColorIndex
 90
      178
102
RTVSPost2010Prop41ColorRGB
 90
        0
102
RTVSPost2010PropOp41
 70
     1
102
RTVSPost2010Prop42
 90
       50
102
RTVSPost2010PropOp42
 70
     1
102
RTVSPost2010Prop43
 90
        3
102
RTVSPost2010PropOp43
 70
     1
102
RTVSPost2010Prop44ColorIndex
 90
        5
102
RTVSPost2010Prop44ColorRGB
 90
      255
102
RTVSPost2010PropOp44
 70
     1
102
RTVSPost2010Prop45
280
     0
102
RTVSPost2010PropOp45
 70
     1
102
RTVSPost2010Prop46
 90
       50
102
RTVSPost2010PropOp46
 70
     1
102
RTVSPost2010Prop47
 90
       50
102
RTVSPost2010PropOp47
 70
     1
102
RTVSPost2010Prop48
 90
       50
102
RTVSPost2010PropOp48
 70
     1
102
RTVSPost2010Prop49
280
     0
102
RTVSPost2010PropOp49
 70
     1
102
RTVSPost2010Prop50
 90
       50
102
RTVSPost2010PropOp50
 70
     1
102
RTVSPost2010Prop51ColorIndex
 90
      256
102
RTVSPost2010Prop51ColorRGB
 90
-16777216
102
RTVSPost2010PropOp51
 70
     0
102
RTVSPost2010Prop52
140
1.0
102
RTVSPost2010PropOp52
 70
     0
102
RTVSPost2010Prop53
 90
        2
102
RTVSPost2010PropOp53
 70
     1
102
RTVSPost2010Prop54
  1
strokes_ogs.tif
102
RTVSPost2010PropOp54
 70
     1
102
RTVSPost2010Prop55
280
     0
102
RTVSPost2010PropOp55
 70
     1
102
RTVSPost2010Prop56
140
1.0
102
RTVSPost2010PropOp56
 70
     1
102
RTVSPost2010Prop57
140
1.0
102
RTVSPost2010PropOp57
 70
     1
  0
XRECORD
  5
1E5
102
{ACAD_REACTORS
330
1E4
102
}
330
1E4
100
AcDbXrecord
280
     1
102
RTVSPropertyOp0
 70
     1
102
RTVSPropertyOp1
 70
     1
102
RTVSPropertyOp2
 70
     1
102
RTVSPropertyOp3
 70
     1
102
RTVSPropertyOp4
 70
     1
102
RTVSPropertyOp5
 70
     1
102
RTVSPropertyOp6
 70
     1
102
RTVSPropertyOp7
 70
     1
102
RTVSPropertyOp8
 70
     1
102
RTVSPropertyOp9
 70
     1
102
RTVSPropertyOp10
 70
     1
102
RTVSPropertyOp11
 70
     1
102
RTVSPropertyOp12
 70
     1
102
RTVSPropertyOp13
 70
     1
102
RTVSPropertyOp14
 70
     1
102
RTVSPropertyOp15
 70
     1
102
RTVSPropertyOp16
 70
     1
102
RTVSPropertyOp17
 70
     1
102
RTVSPropertyOp18
 70
     1
102
RTVSPropertyOp19
 70
     1
102
RTVSPropertyOp20
 70
     1
102
RTVSPropertyOp21
 70
     1
102
RTVSPropertyOp22
 70
     1
102
RTVSPropertyOp23
 70
     1
102
RTVSPropertyOp24
 70
     1
102
RTVSPropertyOp25
 70
     1
102
RTVSPropertyOp26
 70
     1
102
RTVSPropertyOp27
 70
     1
102
RTVSPropertyOp28
 70
     1
102
RTVSPropertyOp29
 70
     1
102
RTVSPropertyOp30
 70
     1
102
RTVSPropertyOp31
 70
     1
102
RTVSPropertyOp32
 70
     1
102
RTVSPropertyOp33
 70
     1
102
RTVSPropertyOp34
 70
     1
102
RTVSPropertyOp35
 70
     1
102
RTVSPropertyOp36
 70
     1
102
RTVSPropertyOp37
 70
     1
102
RTVSPropertyOp38
 70
     1
102
RTVSPropertyOp39
 70
     1
102
RTVSPropertyOp40
 70
     1
102
RTVSPropertyOp41
 70
     1
102
RTVSPropertyOp42
 70
     1
102
RTVSPropertyOp43
 70
     1
102
RTVSPropertyOp44
 70
     1
102
RTVSPropertyOp45
 70
     1
102
RTVSPropertyOp46
 70
     1
102
RTVSPropertyOp47
 70
     1
102
RTVSPropertyOp48
 70
     1
102
RTVSPropertyOp49
 70
     1
102
RTVSPropertyOp50
 70
     1
102
RTVSPropertyOp51
 70
     0
102
RTVSPropertyOp52
 70
     0
102
RTVSPropertyOp53
 70
     1
102
RTVSPropertyOp54
 70
     1
102
RTVSPropertyOp55
 70
     1
102
RTVSPropertyOp56
 70
     1
102
RTVSPropertyOp57
 70
     1
102
RTVSPost2010Prop28
280
     0
102
RTVSPost2010PropOp28
 70
     1
102
RTVSPost2010Prop29
280
     1
102
RTVSPost2010PropOp29
 70
     1
102
RTVSPost2010Prop30
280
     1
102
RTVSPost2010PropOp30
 70
     1
102
RTVSPost2010Prop31
280
     0
102
RTVSPost2010PropOp31
 70
     1
102
RTVSPost2010Prop32
280
     0
102
RTVSPost2010PropOp32
 70
     1
102
RTVSPost2010Prop33
280
     0
102
RTVSPost2010PropOp33
 70
     1
102
RTVSPost2010Prop34
280
     0
102
RTVSPost2010PropOp34
 70
     1
102
RTVSPost2010Prop35
280
     0
102
RTVSPost2010PropOp35
 70
     1
102
RTVSPost2010Prop36
280
     0
102
RTVSPost2010PropOp36
 70
     1
102
RTVSPost2010Prop37
 90
       50
102
RTVSPost2010PropOp37
 70
     1
102
RTVSPost2010Prop38
140
0.0
102
RTVSPost2010PropOp38
 70
     1
102
RTVSPost2010Prop39
140
1.0
102
RTVSPost2010PropOp39
 70
     1
102
RTVSPost2010Prop40
 90
        0
102
RTVSPost2010PropOp40
 70
     1
102
RTVSPost2010Prop41ColorIndex
 90
      178
102
RTVSPost2010Prop41ColorRGB
 90
        0
102
RTVSPost2010PropOp41
 70
     1
102
RTVSPost2010Prop42
 90
       50
102
RTVSPost2010PropOp42
 70
     1
102
RTVSPost2010Prop43
 90
        3
102
RTVSPost2010PropOp43
 70
     1
102
RTVSPost2010Prop44ColorIndex
 90
        5
102
RTVSPost2010Prop44ColorRGB
 90
      255
102
RTVSPost2010PropOp44
 70
     1
102
RTVSPost2010Prop45
280
     0
102
RTVSPost2010PropOp45
 70
     1
102
RTVSPost2010Prop46
 90
       50
102
RTVSPost2010PropOp46
 70
     1
102
RTVSPost2010Prop47
 90
       50
102
RTVSPost2010PropOp47
 70
     1
102
RTVSPost2010Prop48
 90
       50
102
RTVSPost2010PropOp48
 70
     1
102
RTVSPost2010Prop49
280
     0
102
RTVSPost2010PropOp49
 70
     1
102
RTVSPost2010Prop50
 90
       50
102
RTVSPost2010PropOp50
 70
     1
102
RTVSPost2010Prop51ColorIndex
 90
      256
102
RTVSPost2010Prop51ColorRGB
 90
-16777216
102
RTVSPost2010PropOp51
 70
     0
102
RTVSPost2010Prop52
140
1.0
102
RTVSPost2010PropOp52
 70
     0
102
RTVSPost2010Prop53
 90
        2
102
RTVSPost2010PropOp53
 70
     1
102
RTVSPost2010Prop54
  1
strokes_ogs.tif
102
RTVSPost2010PropOp54
 70
     1
102
RTVSPost2010Prop55
280
     0
102
RTVSPost2010PropOp55
 70
     1
102
RTVSPost2010Prop56
140
1.0
102
RTVSPost2010PropOp56
 70
     1
102
RTVSPost2010Prop57
140
1.0
102
RTVSPost2010PropOp57
 70
     1
  0
ENDSEC
  0
EOF
