  0
SECTION
  2
HEADER
  9
$ACADVER
  1
AC1018
  9
$ACADMAINTVER
 70
     0
  9
$DWGCODEPAGE
  3
ANSI_1252
  9
$INSBASE
 10
0.0
 20
0.0
 30
0.0
  9
$EXTMIN
 10
0.0004737378641838
 20
0.044662342732955
 30
0.0
  9
$EXTMAX
 10
597.2111955699711
 20
2443.103217863909
 30
0.0
  9
$LIMMIN
 10
0.0
 20
0.0
  9
$LIMMAX
 10
12.0
 20
9.0
  9
$ORTHOMODE
 70
     0
  9
$REGENMODE
 70
     1
  9
$FILLMODE
 70
     1
  9
$QTEXTMODE
 70
     0
  9
$MIRRTEXT
 70
     1
  9
$LTSCALE
 40
1.0
  9
$ATTMODE
 70
     1
  9
$TEXTSIZE
 40
0.2
  9
$TRACEWID
 40
0.05
  9
$TEXTSTYLE
  7
Standard
  9
$CLAYER
  8
0
  9
$CELTYPE
  6
ByLayer
  9
$CECOLOR
 62
   256
  9
$CELTSCALE
 40
1.0
  9
$DISPSILH
 70
     0
  9
$DIMSCALE
 40
1.0
  9
$DIMASZ
 40
0.18
  9
$DIMEXO
 40
0.0625
  9
$DIMDLI
 40
0.38
  9
$DIMRND
 40
0.0
  9
$DIMDLE
 40
0.0
  9
$DIMEXE
 40
0.18
  9
$DIMTP
 40
0.0
  9
$DIMTM
 40
0.0
  9
$DIMTXT
 40
0.18
  9
$DIMCEN
 40
0.09
  9
$DIMTSZ
 40
0.0
  9
$DIMTOL
 70
     0
  9
$DIMLIM
 70
     0
  9
$DIMTIH
 70
     1
  9
$DIMTOH
 70
     1
  9
$DIMSE1
 70
     0
  9
$DIMSE2
 70
     0
  9
$DIMTAD
 70
     0
  9
$DIMZIN
 70
     0
  9
$DIMBLK
  1

  9
$DIMASO
 70
     1
  9
$DIMSHO
 70
     1
  9
$DIMPOST
  1

  9
$DIMAPOST
  1

  9
$DIMALT
 70
     0
  9
$DIMALTD
 70
     2
  9
$DIMALTF
 40
25.4
  9
$DIMLFAC
 40
1.0
  9
$DIMTOFL
 70
     0
  9
$DIMTVP
 40
0.0
  9
$DIMTIX
 70
     0
  9
$DIMSOXD
 70
     0
  9
$DIMSAH
 70
     0
  9
$DIMBLK1
  1

  9
$DIMBLK2
  1

  9
$DIMSTYLE
  2
Standard
  9
$DIMCLRD
 70
     0
  9
$DIMCLRE
 70
     0
  9
$DIMCLRT
 70
     0
  9
$DIMTFAC
 40
1.0
  9
$DIMGAP
 40
0.09
  9
$DIMJUST
 70
     0
  9
$DIMSD1
 70
     0
  9
$DIMSD2
 70
     0
  9
$DIMTOLJ
 70
     1
  9
$DIMTZIN
 70
     0
  9
$DIMALTZ
 70
     0
  9
$DIMALTTZ
 70
     0
  9
$DIMUPT
 70
     0
  9
$DIMDEC
 70
     4
  9
$DIMTDEC
 70
     4
  9
$DIMALTU
 70
     2
  9
$DIMALTTD
 70
     2
  9
$DIMTXSTY
  7
Standard
  9
$DIMAUNIT
 70
     0
  9
$DIMADEC
 70
     0
  9
$DIMALTRND
 40
0.0
  9
$DIMAZIN
 70
     0
  9
$DIMDSEP
 70
    46
  9
$DIMATFIT
 70
     3
  9
$DIMFRAC
 70
     0
  9
$DIMLDRBLK
  1

  9
$DIMLUNIT
 70
     2
  9
$DIMLWD
 70
    -2
  9
$DIMLWE
 70
    -2
  9
$DIMTMOVE
 70
     0
  9
$LUNITS
 70
     2
  9
$LUPREC
 70
     3
  9
$SKETCHINC
 40
0.1
  9
$FILLETRAD
 40
0.5
  9
$AUNITS
 70
     0
  9
$AUPREC
 70
     0
  9
$MENU
  1
.
  9
$ELEVATION
 40
0.0
  9
$PELEVATION
 40
0.0
  9
$THICKNESS
 40
0.0
  9
$LIMCHECK
 70
     0
  9
$CHAMFERA
 40
0.5
  9
$CHAMFERB
 40
0.5
  9
$CHAMFERC
 40
1.0
  9
$CHAMFERD
 40
0.0
  9
$SKPOLY
 70
     0
  9
$TDCREATE
 40
2455861.626449734
  9
$TDUCREATE
 40
2455861.5431164
  9
$TDUPDATE
 40
2455861.626449745
  9
$TDUUPDATE
 40
2455861.543116412
  9
$TDINDWG
 40
0.0000000116
  9
$TDUSRTIMER
 40
0.0000000116
  9
$USRTIMER
 70
     1
  9
$ANGBASE
 50
0.0
  9
$ANGDIR
 70
     0
  9
$PDMODE
 70
     0
  9
$PDSIZE
 40
0.0
  9
$PLINEWID
 40
0.0
  9
$SPLFRAME
 70
     0
  9
$SPLINETYPE
 70
     6
  9
$SPLINESEGS
 70
     8
  9
$HANDSEED
  5
129
  9
$SURFTAB1
 70
     6
  9
$SURFTAB2
 70
     6
  9
$SURFTYPE
 70
     6
  9
$SURFU
 70
     6
  9
$SURFV
 70
     6
  9
$UCSBASE
  2

  9
$UCSNAME
  2

  9
$UCSORG
 10
0.0
 20
0.0
 30
0.0
  9
$UCSXDIR
 10
1.0
 20
0.0
 30
0.0
  9
$UCSYDIR
 10
0.0
 20
1.0
 30
0.0
  9
$UCSORTHOREF
  2

  9
$UCSORTHOVIEW
 70
     0
  9
$UCSORGTOP
 10
0.0
 20
0.0
 30
0.0
  9
$UCSORGBOTTOM
 10
0.0
 20
0.0
 30
0.0
  9
$UCSORGLEFT
 10
0.0
 20
0.0
 30
0.0
  9
$UCSORGRIGHT
 10
0.0
 20
0.0
 30
0.0
  9
$UCSORGFRONT
 10
0.0
 20
0.0
 30
0.0
  9
$UCSORGBACK
 10
0.0
 20
0.0
 30
0.0
  9
$PUCSBASE
  2

  9
$PUCSNAME
  2

  9
$PUCSORG
 10
0.0
 20
0.0
 30
0.0
  9
$PUCSXDIR
 10
1.0
 20
0.0
 30
0.0
  9
$PUCSYDIR
 10
0.0
 20
1.0
 30
0.0
  9
$PUCSORTHOREF
  2

  9
$PUCSORTHOVIEW
 70
     0
  9
$PUCSORGTOP
 10
0.0
 20
0.0
 30
0.0
  9
$PUCSORGBOTTOM
 10
0.0
 20
0.0
 30
0.0
  9
$PUCSORGLEFT
 10
0.0
 20
0.0
 30
0.0
  9
$PUCSORGRIGHT
 10
0.0
 20
0.0
 30
0.0
  9
$PUCSORGFRONT
 10
0.0
 20
0.0
 30
0.0
  9
$PUCSORGBACK
 10
0.0
 20
0.0
 30
0.0
  9
$USERI1
 70
     0
  9
$USERI2
 70
     0
  9
$USERI3
 70
     0
  9
$USERI4
 70
     0
  9
$USERI5
 70
     0
  9
$USERR1
 40
0.0
  9
$USERR2
 40
0.0
  9
$USERR3
 40
0.0
  9
$USERR4
 40
0.0
  9
$USERR5
 40
0.0
  9
$WORLDVIEW
 70
     1
  9
$SHADEDGE
 70
     3
  9
$SHADEDIF
 70
    70
  9
$TILEMODE
 70
     1
  9
$MAXACTVP
 70
    64
  9
$PINSBASE
 10
0.0
 20
0.0
 30
0.0
  9
$PLIMCHECK
 70
     0
  9
$PEXTMIN
 10
1.000000000000000E+20
 20
1.000000000000000E+20
 30
1.000000000000000E+20
  9
$PEXTMAX
 10
-1.000000000000000E+20
 20
-1.000000000000000E+20
 30
-1.000000000000000E+20
  9
$PLIMMIN
 10
0.0
 20
0.0
  9
$PLIMMAX
 10
12.0
 20
9.0
  9
$UNITMODE
 70
     0
  9
$VISRETAIN
 70
     1
  9
$PLINEGEN
 70
     0
  9
$PSLTSCALE
 70
     1
  9
$TREEDEPTH
 70
  3020
  9
$CMLSTYLE
  2
Standard
  9
$CMLJUST
 70
     0
  9
$CMLSCALE
 40
1.0
  9
$PROXYGRAPHICS
 70
     1
  9
$MEASUREMENT
 70
     0
  9
$CELWEIGHT
370
    -1
  9
$ENDCAPS
280
     0
  9
$JOINSTYLE
280
     0
  9
$LWDISPLAY
290
     0
  9
$INSUNITS
 70
     4
  9
$HYPERLINKBASE
  1

  9
$STYLESHEET
  1

  9
$XEDIT
290
     1
  9
$CEPSNTYPE
380
     0
  9
$PSTYLEMODE
290
     1
  9
$FINGERPRINTGUID
  2
{67BB335F-940E-4A4A-8711-7BF80B4DF5FF}
  9
$VERSIONGUID
  2
{FAEB1C32-E019-11D5-929B-00C0DF256EC4}
  9
$EXTNAMES
290
     1
  9
$PSVPSCALE
 40
0.0
  9
$OLESTARTUP
290
     0
  9
$SORTENTS
280
   127
  9
$INDEXCTL
280
     0
  9
$HIDETEXT
280
     1
  9
$XCLIPFRAME
290
     0
  9
$HALOGAP
280
     0
  9
$OBSCOLOR
 70
   257
  9
$OBSLTYPE
280
     0
  9
$INTERSECTIONDISPLAY
280
     0
  9
$INTERSECTIONCOLOR
 70
   257
  9
$DIMASSOC
280
     2
  9
$PROJECTNAME
  1

  0
ENDSEC
  0
SECTION
  2
CLASSES
  0
CLASS
  1
ACDBDICTIONARYWDFLT
  2
AcDbDictionaryWithDefault
  3
ObjectDBX Classes
 90
        0
 91
        3
280
     0
281
     0
  0
CLASS
  1
VISUALSTYLE
  2
AcDbVisualStyle
  3
ObjectDBX Classes
 90
     4095
 91
        3
280
     0
281
     0
  0
CLASS
  1
SCALE
  2
AcDbScale
  3
ObjectDBX Classes
 90
     1153
 91
        3
280
     0
281
     0
  0
ENDSEC
  0
SECTION
  2
TABLES
  0
TABLE
  2
VPORT
  5
8
330
0
100
AcDbSymbolTable
 70
     1
  0
VPORT
  5
29
330
8
100
AcDbSymbolTableRecord
100
AcDbViewportTableRecord
  2
*Active
 70
     0
 10
0.0
 20
0.0
 11
1.0
 21
1.0
 12
0.0
 22
0.0
 13
0.0
 23
0.0
 14
0.5
 24
0.5
 15
0.5
 25
0.5
 16
0.0
 26
0.0
 36
1.0
 17
298.6058346539177
 27
1221.573940103321
 37
0.0
 40
2491.9197266316
 41
0.2444520703289914
 42
50.0
 43
0.0
 44
0.0
 50
0.0
 51
0.0
 71
     0
 72
   100
 73
     1
 74
     3
 75
     0
 76
     0
 77
     0
 78
     0
281
     0
 65
     1
110
0.0
120
0.0
130
0.0
111
1.0
121
0.0
131
0.0
112
0.0
122
1.0
132
0.0
 79
     0
146
0.0
  0
ENDTAB
  0
TABLE
  2
LTYPE
  5
5
330
0
100
AcDbSymbolTable
 70
     1
  0
LTYPE
  5
14
330
5
100
AcDbSymbolTableRecord
100
AcDbLinetypeTableRecord
  2
ByBlock
 70
     0
  3

 72
    65
 73
     0
 40
0.0
  0
LTYPE
  5
15
330
5
100
AcDbSymbolTableRecord
100
AcDbLinetypeTableRecord
  2
ByLayer
 70
     0
  3

 72
    65
 73
     0
 40
0.0
  0
LTYPE
  5
16
330
5
100
AcDbSymbolTableRecord
100
AcDbLinetypeTableRecord
  2
Continuous
 70
     0
  3
Solid line
 72
    65
 73
     0
 40
0.0
  0
ENDTAB
  0
TABLE
  2
LAYER
  5
2
330
0
100
AcDbSymbolTable
 70
     2
  0
LAYER
  5
10
330
2
100
AcDbSymbolTableRecord
100
AcDbLayerTableRecord
  2
0
 70
     0
 62
     7
  6
Continuous
370
    -3
390
F
  0
LAYER
  5
5D
330
2
100
AcDbSymbolTableRecord
100
AcDbLayerTableRecord
  2
LINEE VISIBILI 2D
 70
     0
 62
     7
  6
Continuous
370
    -3
390
F
  0
ENDTAB
  0
TABLE
  2
STYLE
  5
3
330
0
100
AcDbSymbolTable
 70
     1
  0
STYLE
  5
11
330
3
100
AcDbSymbolTableRecord
100
AcDbTextStyleTableRecord
  2
Standard
 70
     0
 40
0.0
 41
1.0
 50
0.0
 71
     0
 42
0.2
  3
txt
  4

  0
ENDTAB
  0
TABLE
  2
VIEW
  5
6
330
0
100
AcDbSymbolTable
 70
     0
  0
ENDTAB
  0
TABLE
  2
UCS
  5
7
330
0
100
AcDbSymbolTable
 70
     0
  0
ENDTAB
  0
TABLE
  2
APPID
  5
9
330
0
100
AcDbSymbolTable
 70
     1
  0
APPID
  5
12
330
9
100
AcDbSymbolTableRecord
100
AcDbRegAppTableRecord
  2
ACAD
 70
     0
  0
ENDTAB
  0
TABLE
  2
DIMSTYLE
  5
A
330
0
100
AcDbSymbolTable
 70
     1
100
AcDbDimStyleTable
  0
DIMSTYLE
105
27
330
A
100
AcDbSymbolTableRecord
100
AcDbDimStyleTableRecord
  2
Standard
 70
     0
340
11
  0
ENDTAB
  0
TABLE
  2
BLOCK_RECORD
  5
1
330
0
100
AcDbSymbolTable
 70
     1
  0
BLOCK_RECORD
  5
1F
330
1
100
AcDbSymbolTableRecord
100
AcDbBlockTableRecord
  2
*Model_Space
340
22
  0
BLOCK_RECORD
  5
1B
330
1
100
AcDbSymbolTableRecord
100
AcDbBlockTableRecord
  2
*Paper_Space
340
1E
  0
BLOCK_RECORD
  5
23
330
1
100
AcDbSymbolTableRecord
100
AcDbBlockTableRecord
  2
*Paper_Space0
340
26
  0
ENDTAB
  0
ENDSEC
  0
SECTION
  2
BLOCKS
  0
BLOCK
  5
20
330
1F
100
AcDbEntity
  8
0
100
AcDbBlockBegin
  2
*Model_Space
 70
     0
 10
0.0
 20
0.0
 30
0.0
  3
*Model_Space
  1

  0
ENDBLK
  5
21
330
1F
100
AcDbEntity
  8
0
100
AcDbBlockEnd
  0
BLOCK
  5
1C
330
1B
100
AcDbEntity
 67
     1
  8
0
100
AcDbBlockBegin
  2
*Paper_Space
 70
     0
 10
0.0
 20
0.0
 30
0.0
  3
*Paper_Space
  1

  0
ENDBLK
  5
1D
330
1B
100
AcDbEntity
 67
     1
  8
0
100
AcDbBlockEnd
  0
BLOCK
  5
24
330
23
100
AcDbEntity
  8
0
100
AcDbBlockBegin
  2
*Paper_Space0
 70
     0
 10
0.0
 20
0.0
 30
0.0
  3
*Paper_Space0
  1

  0
ENDBLK
  5
25
330
23
100
AcDbEntity
  8
0
100
AcDbBlockEnd
  0
ENDSEC
  0
SECTION
  2
ENTITIES
  0
SPLINE
  5
5E
330
1F
100
AcDbEntity
  8
LINEE VISIBILI 2D
100
AcDbSpline
210
0.0
220
0.0
230
1.0
 70
    12
 71
     2
 72
     6
 73
     3
 74
     0
 42
0.0000000001
 43
0.0000000001
 40
0.0
 40
0.0
 40
0.0
 40
3.141588394289701
 40
3.141588394289701
 40
3.141588394289701
 10
388.9589799117842
 20
165.8530306263118
 30
0.0
 41
1.0
 10
387.2269399439338
 20
166.853032672467
 30
0.0
 41
0.7071095311796453
 10
388.2269288110863
 20
168.585080926166
 30
0.0
 41
1.0
  0
SPLINE
  5
5F
330
1F
100
AcDbEntity
  8
LINEE VISIBILI 2D
100
AcDbSpline
210
0.0
220
0.0
230
1.0
 70
    24
 71
     2
 72
     6
 73
     3
 74
     0
 42
0.0000000001
 43
0.0000000001
 40
0.0
 40
0.0
 40
0.0
 40
2.899999999999031
 40
2.899999999999031
 40
2.899999999999031
 10
388.2269288110863
 20
168.585080926166
 30
0.0
 10
388.9519289576507
 20
169.8408180155105
 30
0.0
 10
389.676929104215
 20
171.0965551048549
 30
0.0
  0
SPLINE
  5
60
330
1F
100
AcDbEntity
  8
LINEE VISIBILI 2D
100
AcDbSpline
210
0.0
220
0.0
230
1.0
 70
    24
 71
     2
 72
     6
 73
     3
 74
     0
 42
0.0000000001
 43
0.0000000001
 40
0.0
 40
0.0
 40
0.0
 40
2.900000000000202
 40
2.900000000000202
 40
2.900000000000202
 10
389.676929104215
 20
171.0965551048549
 30
0.0
 10
390.4019292507797
 20
172.3522921941998
 30
0.0
 10
391.1269293973444
 20
173.6080292835447
 30
0.0
  0
SPLINE
  5
61
330
1F
100
AcDbEntity
  8
LINEE VISIBILI 2D
100
AcDbSpline
210
0.0
220
0.0
230
1.0
 70
    12
 71
     2
 72
     6
 73
     3
 74
     0
 42
0.0000000001
 43
0.0000000001
 40
0.0
 40
0.0
 40
0.0
 40
3.141579620927232
 40
3.141579620927232
 40
3.141579620927232
 10
391.1269293973444
 20
173.6080292835447
 30
0.0
 41
1.0
 10
392.1269402339549
 20
175.3400412499753
 30
0.0
 41
0.7071167582179585
 10
393.8589799117842
 20
174.3400795833991
 30
0.0
 41
1.0
  0
SPLINE
  5
62
330
1F
100
AcDbEntity
  8
LINEE VISIBILI 2D
100
AcDbSpline
210
0.0
220
0.0
230
1.0
 70
    24
 71
     2
 72
     6
 73
     3
 74
     0
 42
0.0000000001
 43
0.0000000001
 40
-2.99999773649639
 40
-2.99999773649639
 40
-2.99999773649639
 40
0.0
 40
0.0
 40
0.0
 10
568.0201248726469
 20
161.398545574762
 30
0.0
 10
567.2701251555848
 20
162.6975831903759
 30
0.0
 10
566.5201254385225
 20
163.9966208059898
 30
0.0
  0
SPLINE
  5
63
330
1F
100
AcDbEntity
  8
LINEE VISIBILI 2D
100
AcDbSpline
210
0.0
220
0.0
230
1.0
 70
    24
 71
     2
 72
     6
 73
     3
 74
     0
 42
0.0000000001
 43
0.0000000001
 40
-2.999999999999951
 40
-2.999999999999951
 40
-2.999999999999951
 40
0.0
 40
0.0
 40
0.0
 10
566.5201254385225
 20
163.9966208059898
 30
0.0
 10
565.7701251555845
 20
165.2956594017295
 30
0.0
 10
565.0201248726464
 20
166.5946979974692
 30
0.0
  0
SPLINE
  5
64
330
1F
100
AcDbEntity
  8
LINEE VISIBILI 2D
100
AcDbSpline
210
0.0
220
0.0
230
1.0
 70
     8
 71
     3
 72
    19
 73
    15
 74
     0
 42
0.0000000001
 43
0.0000000001
 40
0.0
 40
0.0
 40
0.0
 40
0.0
 40
0.1564975452677501
 40
0.3468638740662892
 40
0.5225242170549886
 40
0.6982744954979306
 40
1.007647680088384
 40
1.149409373725062
 40
1.217047648339576
 40
1.406044674422182
 40
1.532009603763927
 40
2.399969601529999
 40
5.72733117135295
 40
12.7918307574226
 40
12.7918307574226
 40
12.7918307574226
 40
12.7918307574226
 10
565.0201248726464
 20
166.5946979974692
 30
0.0
 10
564.9947692813043
 20
166.6402913788646
 30
0.0
 10
564.9465410697801
 20
166.7457552137451
 30
0.0
 10
564.9022947325868
 20
166.9150456075888
 30
0.0
 10
564.8891627873423
 20
167.095848830382
 30
0.0
 10
564.911893774318
 20
167.3158099262413
 30
0.0
 10
564.9835658580886
 20
167.5147502203238
 30
0.0
 10
565.0773576535211
 20
167.6605770250201
 30
0.0
 10
565.1603714512559
 20
167.7642729612231
 30
0.0
 10
565.2528808831294
 20
167.853101189679
 30
0.0
 10
565.5764949186578
 20
168.0784989895623
 30
0.0
 10
566.756653378325
 20
168.9043100069524
 30
0.0
 10
569.8379143866597
 20
171.0474807211152
 30
0.0
 10
572.6916505011876
 20
173.0109257736675
 30
0.0
 10
574.6355193034908
 20
174.3400795834017
 30
0.0
  0
SPLINE
  5
65
330
1F
100
AcDbEntity
  8
LINEE VISIBILI 2D
100
AcDbSpline
210
0.0
220
0.0
230
1.0
 70
    12
 71
     2
 72
     6
 73
     3
 74
     0
 42
0.0000000001
 43
0.0000000001
 40
0.0
 40
0.0
 40
0.0
 40
3.141588394289609
 40
3.141588394289609
 40
3.141588394289609
 10
574.6355193034908
 20
174.3400795834017
 30
0.0
 41
1.0
 10
576.3675664632228
 20
175.3400691728516
 30
0.0
 41
0.7071095311798681
 10
577.3675698179305
 20
173.6080292835472
 30
0.0
 41
1.0
  0
SPLINE
  5
66
330
1F
100
AcDbEntity
  8
LINEE VISIBILI 2D
100
AcDbSpline
210
0.0
220
0.0
230
1.0
 70
    24
 71
     2
 72
     6
 73
     3
 74
     0
 42
0.0000000001
 43
0.0000000001
 40
0.0
 40
0.0
 40
0.0
 40
2.899999999999186
 40
2.899999999999186
 40
2.899999999999186
 10
577.3675698179305
 20
173.6080292835472
 30
0.0
 10
578.0925699644949
 20
172.3522921942028
 30
0.0
 10
578.8175701110595
 20
171.0965551048585
 30
0.0
  0
SPLINE
  5
67
330
1F
100
AcDbEntity
  8
LINEE VISIBILI 2D
100
AcDbSpline
210
0.0
220
0.0
230
1.0
 70
    24
 71
     2
 72
     6
 73
     3
 74
     0
 42
0.0000000001
 43
0.0000000001
 40
0.0
 40
0.0
 40
0.0
 40
2.900000000000103
 40
2.900000000000103
 40
2.900000000000103
 10
578.8175701110595
 20
171.0965551048585
 30
0.0
 10
579.542570257624
 20
169.8408180155135
 30
0.0
 10
580.2675704041886
 20
168.5850809261686
 30
0.0
  0
SPLINE
  5
68
330
1F
100
AcDbEntity
  8
LINEE VISIBILI 2D
100
AcDbSpline
210
0.0
220
0.0
230
1.0
 70
    12
 71
     2
 72
     6
 73
     3
 74
     0
 42
0.0000000001
 43
0.0000000001
 40
0.0
 40
0.0
 40
0.0
 40
3.14157962092724
 40
3.14157962092724
 40
3.14157962092724
 10
580.2675704041886
 20
168.5850809261686
 30
0.0
 41
1.0
 10
581.267531348471
 20
166.853040154389
 30
0.0
 41
0.7071167582179687
 10
579.5355193034907
 20
165.8530306263143
 30
0.0
 41
1.0
  0
SPLINE
  5
69
330
1F
100
AcDbEntity
  8
LINEE VISIBILI 2D
100
AcDbSpline
210
0.0
220
0.0
230
1.0
 70
    24
 71
     2
 72
     6
 73
     3
 74
     0
 42
0.0000000001
 43
0.0000000001
 40
-31.12571841453274
 40
-31.12571841453274
 40
-31.12571841453274
 40
0.0
 40
0.0
 40
0.0
 10
517.5832379955991
 20
126.5052926673166
 30
0.0
 10
531.0610694246124
 20
134.2867222709497
 30
0.0
 10
544.5389008536256
 20
142.0681518745829
 30
0.0
  0
SPLINE
  5
6A
330
1F
100
AcDbEntity
  8
LINEE VISIBILI 2D
100
AcDbSpline
210
0.0
220
0.0
230
1.0
 70
    12
 71
     3
 72
    12
 73
     8
 74
     0
 42
0.0000000001
 43
0.0000000001
 40
45.7000000000003
 40
45.7000000000003
 40
45.7000000000003
 40
45.7000000000003
 40
47.91070030646524
 40
47.91070030646524
 40
50.15792022076153
 40
50.15792022076153
 40
54.5539816339748
 40
54.5539816339748
 40
54.5539816339748
 40
54.5539816339748
 10
544.5389008536256
 20
142.0681518745829
 30
0.0
 41
1.0
 10
544.9080282098798
 20
141.4288045390869
 30
0.0
 41
1.0
 10
545.2476040102176
 20
140.7757223429032
 30
0.0
 41
1.0
 10
546.2952674292746
 20
139.6835449414529
 30
0.0
 41
1.0
 10
546.8805860612451
 20
139.2979195846677
 30
0.0
 41
1.0
 10
549.003634905285
 20
138.4940778194091
 30
0.0
 41
1.0
 10
550.5672065612227
 20
138.620392567346
 30
0.0
 41
1.0
 10
551.8690278725478
 20
139.3719994518763
 30
0.0
 41
1.0
  0
SPLINE
  5
6B
330
1F
100
AcDbEntity
  8
LINEE VISIBILI 2D
100
AcDbSpline
210
0.0
220
0.0
230
1.0
 70
    24
 71
     2
 72
     6
 73
     3
 74
     0
 42
0.0000000001
 43
0.0000000001
 40
0.0
 40
0.0
 40
0.0
 40
1.500000000000123
 40
1.500000000000123
 40
1.500000000000123
 10
551.8690278725478
 20
139.3719994518763
 30
0.0
 10
552.5185469253862
 20
139.7469994518763
 30
0.0
 10
553.1680659782246
 20
140.1219994518763
 30
0.0
  0
SPLINE
  5
6C
330
1F
100
AcDbEntity
  8
LINEE VISIBILI 2D
100
AcDbSpline
210
0.0
220
0.0
230
1.0
 70
    12
 71
     2
 72
     6
 73
     3
 74
     0
 42
0.0000000001
 43
0.0000000001
 40
0.0
 40
0.0
 40
0.0
 40
17.84867224600976
 40
17.84867224600976
 40
17.84867224600976
 10
553.1680659782246
 20
140.1219994518763
 30
0.0
 41
1.0
 10
562.7272256556997
 20
145.6413522299268
 30
0.0
 41
0.7360184617895896
 10
558.024799889338
 20
155.6277420050106
 30
0.0
 41
1.0
  0
SPLINE
  5
6D
330
1F
100
AcDbEntity
  8
LINEE VISIBILI 2D
100
AcDbSpline
210
0.0
220
0.0
230
1.0
 70
    12
 71
     2
 72
     6
 73
     3
 74
     0
 42
0.0000000001
 43
0.0000000001
 40
0.0
 40
0.0
 40
0.0
 40
2.196460745707742
 40
2.196460745707742
 40
2.196460745707742
 10
477.650376185007
 20
125.8095721606582
 30
0.0
 41
1.0
 10
477.8286653205961
 20
126.8956956467067
 30
0.0
 41
0.9966928808223153
 10
477.8286653205962
 20
127.9963551048568
 30
0.0
 41
1.0
  0
SPLINE
  5
6E
330
1F
100
AcDbEntity
  8
LINEE VISIBILI 2D
100
AcDbSpline
210
0.0
220
0.0
230
1.0
 70
    12
 71
     2
 72
     6
 73
     3
 74
     0
 42
0.0000000001
 43
0.0000000001
 40
0.0
 40
0.0
 40
0.0
 40
21.20575041173106
 40
21.20575041173106
 40
21.20575041173106
 10
477.8286653205962
 20
127.9963551048568
 30
0.0
 41
1.0
 10
477.828665320596
 20
141.4963551048566
 30
0.0
 41
0.7071067811865557
 10
464.3286653205962
 20
141.4963551048568
 30
0.0
 41
1.0
  0
SPLINE
  5
6F
330
1F
100
AcDbEntity
  8
LINEE VISIBILI 2D
100
AcDbSpline
210
0.0
220
0.0
230
1.0
 70
    12
 71
     2
 72
     6
 73
     3
 74
     0
 42
0.0000000001
 43
0.0000000001
 40
0.0
 40
0.0
 40
0.0
 40
21.20575041173116
 40
21.20575041173116
 40
21.20575041173116
 10
464.3286653205962
 20
141.4963551048568
 30
0.0
 41
1.0
 10
450.828665320596
 20
141.4963551048569
 30
0.0
 41
0.707106781186542
 10
450.8286653205962
 20
127.9963551048568
 30
0.0
 41
1.0
  0
SPLINE
  5
70
330
1F
100
AcDbEntity
  8
LINEE VISIBILI 2D
100
AcDbSpline
210
0.0
220
0.0
230
1.0
 70
    12
 71
     2
 72
     6
 73
     3
 74
     0
 42
0.0000000001
 43
0.0000000001
 40
0.0
 40
0.0
 40
0.0
 40
21.20575041173117
 40
21.20575041173117
 40
21.20575041173117
 10
450.8286653205962
 20
127.9963551048568
 30
0.0
 41
1.0
 10
450.828665320596
 20
114.4963551048566
 30
0.0
 41
0.7071067811865411
 10
464.3286653205962
 20
114.4963551048568
 30
0.0
 41
1.0
  0
SPLINE
  5
71
330
1F
100
AcDbEntity
  8
LINEE VISIBILI 2D
100
AcDbSpline
210
0.0
220
0.0
230
1.0
 70
    12
 71
     2
 72
     6
 73
     3
 74
     0
 42
0.0000000001
 43
0.0000000001
 40
0.0
 40
0.0
 40
0.0
 40
6.945086362499817
 40
6.945086362499817
 40
6.945086362499817
 10
464.3286653205962
 20
114.4963551048568
 30
0.0
 41
1.0
 10
467.879878069891
 20
114.4963551048568
 30
0.0
 41
0.967099547790214
 10
470.9714327455269
 20
116.2437536507838
 30
0.0
 41
1.0
  0
SPLINE
  5
72
330
1F
100
AcDbEntity
  8
LINEE VISIBILI 2D
100
AcDbSpline
210
0.0
220
0.0
230
1.0
 70
    12
 71
     2
 72
     6
 73
     3
 74
     0
 42
0.0000000001
 43
0.0000000001
 40
0.0
 40
0.0
 40
0.0
 40
17.84867224601172
 40
17.84867224601172
 40
17.84867224601172
 10
555.0247998893379
 20
160.823894427718
 30
0.0
 41
1.0
 10
548.7275455352034
 20
169.8895094883421
 30
0.0
 41
0.7360184617895267
 10
539.1680659782244
 20
164.3707107578409
 30
0.0
 41
1.0
  0
SPLINE
  5
73
330
1F
100
AcDbEntity
  8
LINEE VISIBILI 2D
100
AcDbSpline
210
0.0
220
0.0
230
1.0
 70
    24
 71
     2
 72
     6
 73
     3
 74
     0
 42
0.0000000001
 43
0.0000000001
 40
0.0
 40
0.0
 40
0.0
 40
1.499999999999926
 40
1.499999999999926
 40
1.499999999999926
 10
539.1680659782244
 20
164.3707107578409
 30
0.0
 10
538.5185469253861
 20
163.9957107578409
 30
0.0
 10
537.8690278725478
 20
163.6207107578409
 30
0.0
  0
SPLINE
  5
74
330
1F
100
AcDbEntity
  8
LINEE VISIBILI 2D
100
AcDbSpline
210
0.0
220
0.0
230
1.0
 70
    12
 71
     3
 72
    12
 73
     8
 74
     0
 42
0.0000000001
 43
0.0000000001
 40
99.2530934770528
 40
99.2530934770528
 40
99.2530934770528
 40
99.2530934770528
 40
103.6483481428634
 40
103.6483481428634
 40
105.896051300727
 40
105.896051300727
 40
108.107075111027
 40
108.107075111027
 40
108.107075111027
 40
108.107075111027
 10
537.8690278725478
 20
163.6207107578409
 30
0.0
 41
1.0
 10
536.5674454662021
 20
162.8692418051648
 30
0.0
 41
1.0
 10
535.6763560571151
 20
161.5786422689187
 30
0.0
 41
1.0
 10
535.3106366558272
 20
159.338322596829
 30
0.0
 41
1.0
 10
535.3518657495003
 20
158.638383620274
 30
0.0
 41
1.0
 10
535.7738657875634
 20
157.1847490219818
 30
0.0
 41
1.0
 10
536.1697194809515
 20
156.5639992298136
 30
0.0
 41
1.0
 10
536.5389008536254
 20
155.9245583351343
 30
0.0
 41
1.0
  0
SPLINE
  5
75
330
1F
100
AcDbEntity
  8
LINEE VISIBILI 2D
100
AcDbSpline
210
0.0
220
0.0
230
1.0
 70
    24
 71
     2
 72
     6
 73
     3
 74
     0
 42
0.0000000001
 43
0.0000000001
 40
-31.1257184145361
 40
-31.1257184145361
 40
-31.1257184145361
 40
0.0
 40
0.0
 40
0.0
 10
536.5389008536254
 20
155.9245583351343
 30
0.0
 10
523.0610694246107
 20
148.1431287315003
 30
0.0
 10
509.5832379955959
 20
140.3616991278664
 30
0.0
  0
SPLINE
  5
76
330
1F
100
AcDbEntity
  8
LINEE VISIBILI 2D
100
AcDbSpline
210
0.0
220
0.0
230
1.0
 70
    24
 71
     2
 72
     6
 73
     3
 74
     0
 42
0.0000000001
 43
0.0000000001
 40
-31.12571841453257
 40
-31.12571841453257
 40
-31.12571841453257
 40
0.0
 40
0.0
 40
0.0
 10
476.2472496076402
 20
82.62207351938946
 30
0.0
 10
476.2472496076402
 20
67.05921431212317
 30
0.0
 10
476.2472496076402
 20
51.49635510485689
 30
0.0
  0
SPLINE
  5
77
330
1F
100
AcDbEntity
  8
LINEE VISIBILI 2D
100
AcDbSpline
210
0.0
220
0.0
230
1.0
 70
    12
 71
     3
 72
    12
 73
     8
 74
     0
 42
0.0000000001
 43
0.0000000001
 40
45.7000000000003
 40
45.7000000000003
 40
45.7000000000003
 40
45.7000000000003
 40
47.91070030646533
 40
47.91070030646533
 40
50.1579202207616
 40
50.1579202207616
 40
54.5539816339748
 40
54.5539816339748
 40
54.5539816339748
 40
54.5539816339748
 10
476.2472496076402
 20
51.49635510485689
 30
0.0
 41
1.0
 10
475.5089948951315
 20
51.49635510485689
 30
0.0
 41
1.0
 10
474.7736212223083
 20
51.52881493334598
 30
0.0
 41
1.0
 10
473.3039361376843
 20
51.16760049855191
 30
0.0
 41
1.0
 10
472.6773154663799
 20
50.85351237234977
 30
0.0
 41
1.0
 10
470.919643655023
 20
49.41681902256528
 30
0.0
 41
1.0
 10
470.2472496076402
 20
47.99956887391738
 30
0.0
 41
1.0
 10
470.2472496076402
 20
46.49635510485689
 30
0.0
 41
1.0
  0
SPLINE
  5
78
330
1F
100
AcDbEntity
  8
LINEE VISIBILI 2D
100
AcDbSpline
210
0.0
220
0.0
230
1.0
 70
    24
 71
     2
 72
     6
 73
     3
 74
     0
 42
0.0000000001
 43
0.0000000001
 40
0.0
 40
0.0
 40
0.0
 40
1.5
 40
1.5
 40
1.5
 10
470.2472496076402
 20
46.49635510485689
 30
0.0
 10
470.2472496076402
 20
45.74635510485689
 30
0.0
 10
470.2472496076402
 20
44.99635510485689
 30
0.0
  0
SPLINE
  5
79
330
1F
100
AcDbEntity
  8
LINEE VISIBILI 2D
100
AcDbSpline
210
0.0
220
0.0
230
1.0
 70
    12
 71
     2
 72
     6
 73
     3
 74
     0
 42
0.0000000001
 43
0.0000000001
 40
0.0
 40
0.0
 40
0.0
 40
17.84867224601009
 40
17.84867224601009
 40
17.84867224601009
 10
470.2472496076402
 20
44.99635510485689
 30
0.0
 41
1.0
 10
470.2475694871424
 20
33.95820359630584
 30
0.0
 41
0.736018461789565
 10
481.2472496076394
 20
33.03742888184411
 30
0.0
 41
1.0
  0
SPLINE
  5
7A
330
1F
100
AcDbEntity
  8
LINEE VISIBILI 2D
100
AcDbSpline
210
0.0
220
0.0
230
1.0
 70
    24
 71
     2
 72
     6
 73
     3
 74
     0
 42
0.0000000001
 43
0.0000000001
 40
-58.83808661090831
 40
-58.83808661090831
 40
-58.83808661090831
 40
0.0
 40
0.0
 40
0.0
 10
454.429652057744
 20
137.1756546920123
 30
0.0
 10
428.9520132001862
 20
151.8851763447394
 30
0.0
 10
403.4743743426284
 20
166.5946979974665
 30
0.0
  0
SPLINE
  5
7B
330
1F
100
AcDbEntity
  8
LINEE VISIBILI 2D
100
AcDbSpline
210
0.0
220
0.0
230
1.0
 70
    24
 71
     2
 72
     6
 73
     3
 74
     0
 42
0.0000000001
 43
0.0000000001
 40
0.0
 40
0.0
 40
0.0
 40
3.000000000000614
 40
3.000000000000614
 40
3.000000000000614
 10
403.4743743426284
 20
166.5946979974665
 30
0.0
 10
402.7243743426282
 20
165.2956598917896
 30
0.0
 10
401.974374342628
 20
163.9966217861127
 30
0.0
  0
SPLINE
  5
7C
330
1F
100
AcDbEntity
  8
LINEE VISIBILI 2D
100
AcDbSpline
210
0.0
220
0.0
230
1.0
 70
    24
 71
     2
 72
     6
 73
     3
 74
     0
 42
0.0000000001
 43
0.0000000001
 40
0.0
 40
0.0
 40
0.0
 40
2.999999999999796
 40
2.999999999999796
 40
2.999999999999796
 10
401.974374342628
 20
163.9966217861127
 30
0.0
 10
401.2243743426281
 20
162.6975836804361
 30
0.0
 10
400.4743743426282
 20
161.3985455747595
 30
0.0
  0
SPLINE
  5
7D
330
1F
100
AcDbEntity
  8
LINEE VISIBILI 2D
100
AcDbSpline
210
0.0
220
0.0
230
1.0
 70
     8
 71
     3
 72
    19
 73
    15
 74
     0
 42
0.0000000001
 43
0.0000000001
 40
0.0
 40
0.0
 40
0.0
 40
0.0
 40
0.1564975452678473
 40
0.3468638740662539
 40
0.5225242170549368
 40
0.6982744954981143
 40
1.007647680088439
 40
1.149409373725214
 40
1.217047648339797
 40
1.406044674422395
 40
1.532009603764179
 40
2.399969601530274
 40
5.727331171353183
 40
12.79183075742287
 40
12.79183075742287
 40
12.79183075742287
 40
12.79183075742287
 10
400.4743743426282
 20
161.3985455747595
 30
0.0
 10
400.4475671117666
 20
161.3537902978305
 30
0.0
 10
400.3803468573416
 20
161.2592915240322
 30
0.0
 10
400.2558602442538
 20
161.1363278750758
 30
0.0
 10
400.1058460328493
 20
161.0345536654971
 30
0.0
 10
399.9039886425049
 20
160.9442587297409
 30
0.0
 10
399.6958652521066
 20
160.906858427987
 30
0.0
 10
399.5226796369696
 20
160.9151711031504
 30
0.0
 10
399.3913694230825
 20
160.9352151927521
 30
0.0
 10
399.2681872047294
 20
160.9709165966169
 30
0.0
 10
398.9111799663097
 20
161.1384756724632
 30
0.0
 10
397.6059274166909
 20
161.7476173703309
 30
0.0
 10
394.2092566294118
 20
163.3444823221577
 30
0.0
 10
391.081995277702
 20
164.8341677667599
 30
0.0
 10
388.9589799117842
 20
165.8530306263118
 30
0.0
  0
SPLINE
  5
7E
330
1F
100
AcDbEntity
  8
LINEE VISIBILI 2D
100
AcDbSpline
210
0.0
220
0.0
230
1.0
 70
    24
 71
     2
 72
     6
 73
     3
 74
     0
 42
0.0000000001
 43
0.0000000001
 40
0.0
 40
0.0
 40
0.0
 40
4.899999999999097
 40
4.899999999999097
 40
4.899999999999097
 10
388.9589799117842
 20
165.8530306263118
 30
0.0
 10
390.183979911784
 20
167.9747928655833
 30
0.0
 10
391.4089799117837
 20
170.0965551048548
 30
0.0
  0
SPLINE
  5
7F
330
1F
100
AcDbEntity
  8
LINEE VISIBILI 2D
100
AcDbSpline
210
0.0
220
0.0
230
1.0
 70
    24
 71
     2
 72
     6
 73
     3
 74
     0
 42
0.0000000001
 43
0.0000000001
 40
0.0
 40
0.0
 40
0.0
 40
4.900000000000635
 40
4.900000000000635
 40
4.900000000000635
 10
391.4089799117837
 20
170.0965551048548
 30
0.0
 10
392.6339799117839
 20
172.2183173441269
 30
0.0
 10
393.8589799117841
 20
174.3400795833991
 30
0.0
  0
SPLINE
  5
80
330
1F
100
AcDbEntity
  8
LINEE VISIBILI 2D
100
AcDbSpline
210
0.0
220
0.0
230
1.0
 70
     8
 71
     3
 72
    18
 73
    14
 74
     0
 42
0.0000000001
 43
0.0000000001
 40
0.0
 40
0.0
 40
0.0
 40
0.0
 40
2.941873872547633
 40
6.09001022597224
 40
10.74095020869318
 40
11.22398732282431
 40
11.38889917937034
 40
11.53067429127393
 40
11.70675159466905
 40
11.88295398448491
 40
12.09747014483462
 40
12.69360648380985
 40
12.79181743851756
 40
12.79181743851756
 40
12.79181743851756
 40
12.79181743851756
 10
393.8589799117841
 20
174.3400795833991
 30
0.0
 10
394.6684114833091
 20
173.7865181981136
 30
0.0
 10
396.3428798824073
 20
172.6388396508043
 30
0.0
 10
399.2902566958919
 20
170.6062557834807
 30
0.0
 10
401.5574635570391
 20
169.0309530566595
 30
0.0
 10
403.0043533011121
 20
168.0179670634772
 30
0.0
 10
403.2209759115298
 20
167.8682137960163
 30
0.0
 10
403.3405964847764
 20
167.7599934768966
 30
0.0
 10
403.442129670923
 20
167.6292163016154
 30
0.0
 10
403.5314997968686
 20
167.4622444404237
 30
0.0
 10
403.6278997901011
 20
167.1453489741537
 30
0.0
 10
403.5935636641138
 20
166.8310980592203
 30
0.0
 10
403.4901086773555
 20
166.623318418875
 30
0.0
 10
403.4743743426284
 20
166.5946979974665
 30
0.0
  0
SPLINE
  5
81
330
1F
100
AcDbEntity
  8
LINEE VISIBILI 2D
100
AcDbSpline
210
0.0
220
0.0
230
1.0
 70
    24
 71
     2
 72
     6
 73
     3
 74
     0
 42
0.0000000001
 43
0.0000000001
 40
0.0
 40
0.0
 40
0.0
 40
4.899999999999154
 40
4.899999999999154
 40
4.899999999999154
 10
574.6355193034908
 20
174.3400795834017
 30
0.0
 10
575.8605193034906
 20
172.2183173441302
 30
0.0
 10
577.0855193034904
 20
170.0965551048587
 30
0.0
  0
SPLINE
  5
82
330
1F
100
AcDbEntity
  8
LINEE VISIBILI 2D
100
AcDbSpline
210
0.0
220
0.0
230
1.0
 70
    24
 71
     2
 72
     6
 73
     3
 74
     0
 42
0.0000000001
 43
0.0000000001
 40
0.0
 40
0.0
 40
0.0
 40
4.900000000000578
 40
4.900000000000578
 40
4.900000000000578
 10
577.0855193034904
 20
170.0965551048587
 30
0.0
 10
578.3105193034905
 20
167.9747928655866
 30
0.0
 10
579.5355193034907
 20
165.8530306263144
 30
0.0
  0
SPLINE
  5
83
330
1F
100
AcDbEntity
  8
LINEE VISIBILI 2D
100
AcDbSpline
210
0.0
220
0.0
230
1.0
 70
     8
 71
     3
 72
    18
 73
    14
 74
     0
 42
0.0000000001
 43
0.0000000001
 40
0.0
 40
0.0
 40
0.0
 40
0.0
 40
2.941873872547651
 40
6.090010225972186
 40
10.74095020869323
 40
11.22398732282434
 40
11.38889917937008
 40
11.5306742912737
 40
11.70675159466903
 40
11.88295398448485
 40
12.09747014483461
 40
12.69360648380986
 40
12.79181743851749
 40
12.79181743851749
 40
12.79181743851749
 40
12.79181743851749
 10
579.5355193034907
 20
165.8530306263144
 30
0.0
 10
578.6514052955172
 20
165.428823015391
 30
0.0
 10
576.8202523186188
 20
164.5525301175922
 30
0.0
 10
573.586294647453
 20
163.0163188562514
 30
0.0
 10
571.0884390368003
 20
161.8405114822746
 30
0.0
 10
569.4877225609906
 20
161.0939612040236
 30
0.0
 10
569.2497211218606
 20
160.9812371540984
 30
0.0
 10
569.0961892896745
 20
160.9317528584106
 30
0.0
 10
568.9321663405728
 20
160.9092111275208
 30
0.0
 10
568.7428794040914
 20
160.9153002587091
 30
0.0
 10
568.4202398833402
 20
160.9902631487794
 30
0.0
 10
568.1652586708404
 20
161.1771245636194
 30
0.0
 10
568.0370437172905
 20
161.3706090304728
 30
0.0
 10
568.0201248726469
 20
161.398545574762
 30
0.0
  0
SPLINE
  5
84
330
1F
100
AcDbEntity
  8
LINEE VISIBILI 2D
100
AcDbSpline
210
0.0
220
0.0
230
1.0
 70
    24
 71
     2
 72
     6
 73
     3
 74
     0
 42
0.0000000001
 43
0.0000000001
 40
0.0
 40
0.0
 40
0.0
 40
58.8380866109089
 40
58.8380866109089
 40
58.8380866109089
 10
568.0201248726469
 20
161.398545574762
 30
0.0
 10
542.5424860150888
 20
146.6890239220349
 30
0.0
 10
517.0648471575306
 20
131.9795022693078
 30
0.0
  0
SPLINE
  5
85
330
1F
100
AcDbEntity
  8
LINEE VISIBILI 2D
100
AcDbSpline
210
0.0
220
0.0
230
1.0
 70
    12
 71
     2
 72
     6
 73
     3
 74
     0
 42
0.0000000001
 43
0.0000000001
 40
0.0
 40
0.0
 40
0.0
 40
17.8486722460115
 40
17.8486722460115
 40
17.8486722460115
 10
487.2472496076401
 20
33.03742888184397
 30
0.0
 41
1.0
 10
498.2469297281384
 20
33.95820359630462
 30
0.0
 41
0.7360184617895338
 10
498.2472496076407
 20
44.99635510485689
 30
0.0
 41
1.0
  0
SPLINE
  5
86
330
1F
100
AcDbEntity
  8
LINEE VISIBILI 2D
100
AcDbSpline
210
0.0
220
0.0
230
1.0
 70
    24
 71
     2
 72
     6
 73
     3
 74
     0
 42
0.0000000001
 43
0.0000000001
 40
0.0
 40
0.0
 40
0.0
 40
1.5
 40
1.5
 40
1.5
 10
498.2472496076407
 20
44.99635510485689
 30
0.0
 10
498.2472496076407
 20
45.74635510485689
 30
0.0
 10
498.2472496076407
 20
46.49635510485689
 30
0.0
  0
SPLINE
  5
87
330
1F
100
AcDbEntity
  8
LINEE VISIBILI 2D
100
AcDbSpline
210
0.0
220
0.0
230
1.0
 70
    12
 71
     3
 72
    12
 73
     8
 74
     0
 42
0.0000000001
 43
0.0000000001
 40
99.2530934770528
 40
99.2530934770528
 40
99.2530934770528
 40
99.2530934770528
 40
103.6483481428632
 40
103.6483481428632
 40
105.8960513007269
 40
105.8960513007269
 40
108.107075111027
 40
108.107075111027
 40
108.107075111027
 40
108.107075111027
 10
498.2472496076407
 20
46.49635510485689
 30
0.0
 41
1.0
 10
498.2472496076407
 20
47.99929301020904
 30
0.0
 41
1.0
 10
497.5751023276825
 20
49.41629884364488
 30
0.0
 41
1.0
 10
495.8177882796988
 20
50.85318097186178
 30
0.0
 41
1.0
 10
495.1910087980668
 20
51.16744501764333
 30
0.0
 41
1.0
 10
493.7211242890942
 20
51.52879956342872
 30
0.0
 41
1.0
 10
492.9856123529885
 20
51.49635510485689
 30
0.0
 41
1.0
 10
492.2472496076407
 20
51.49635510485689
 30
0.0
 41
1.0
  0
SPLINE
  5
88
330
1F
100
AcDbEntity
  8
LINEE VISIBILI 2D
100
AcDbSpline
210
0.0
220
0.0
230
1.0
 70
    24
 71
     2
 72
     6
 73
     3
 74
     0
 42
0.0000000001
 43
0.0000000001
 40
-31.1257184145361
 40
-31.1257184145361
 40
-31.1257184145361
 40
0.0
 40
0.0
 40
0.0
 10
492.2472496076407
 20
51.49635510485689
 30
0.0
 10
492.2472496076407
 20
67.05921431212494
 30
0.0
 10
492.2472496076407
 20
82.62207351939298
 30
0.0
  0
SPLINE
  5
89
330
1F
100
AcDbEntity
  8
LINEE VISIBILI 2D
100
AcDbSpline
210
0.0
220
0.0
230
1.0
 70
    12
 71
     2
 72
     6
 73
     3
 74
     0
 42
0.0000000001
 43
0.0000000001
 40
0.0
 40
0.0
 40
0.0
 40
151.551038177107
 40
151.551038177107
 40
151.551038177107
 10
401.8092834607854
 20
193.7294616079279
 30
0.0
 41
1.0
 10
463.0970844401406
 20
259.1475305531539
 30
0.0
 41
0.7833289864141179
 10
540.7293321574975
 20
214.3261917985127
 30
0.0
 41
1.0
  0
SPLINE
  5
8A
330
1F
100
AcDbEntity
  8
LINEE VISIBILI 2D
100
AcDbSpline
210
0.0
220
0.0
230
1.0
 70
    12
 71
     2
 72
     6
 73
     3
 74
     0
 42
0.0000000001
 43
0.0000000001
 40
0.0
 40
0.0
 40
0.0
 40
33.25541191744314
 40
33.25541191744314
 40
33.25541191744314
 10
540.7293321574975
 20
214.3261917985127
 30
0.0
 41
1.0
 10
555.234277914751
 20
205.9518106783217
 30
0.0
 41
0.989186465296555
 10
566.6853501195556
 20
193.7290182016646
 30
0.0
 41
1.0
  0
SPLINE
  5
8B
330
1F
100
AcDbEntity
  8
LINEE VISIBILI 2D
100
AcDbSpline
210
0.0
220
0.0
230
1.0
 70
    12
 71
     2
 72
     6
 73
     3
 74
     0
 42
0.0000000001
 43
0.0000000001
 40
-19.72197640144584
 40
-19.72197640144584
 40
-19.72197640144584
 40
0.0
 40
0.0
 40
0.0
 10
566.6853501195556
 20
193.7290182016646
 30
0.0
 41
1.0
 10
575.1787837887609
 20
188.5030384386789
 30
0.0
 41
0.9833220931352573
 10
581.2411094897152
 20
180.5848639601846
 30
0.0
 41
1.0
  0
SPLINE
  5
8C
330
1F
100
AcDbEntity
  8
LINEE VISIBILI 2D
100
AcDbSpline
210
0.0
220
0.0
230
1.0
 70
    24
 71
     2
 72
     6
 73
     3
 74
     0
 42
0.0000000001
 43
0.0000000001
 40
0.0
 40
0.0
 40
0.0
 40
6.270926449238402
 40
6.270926449238402
 40
6.270926449238402
 10
480.7555192362556
 20
148.362506612379
 30
0.0
 10
477.6200560116364
 20
148.362506612379
 30
0.0
 10
474.4845927870172
 20
148.362506612379
 30
0.0
  0
SPLINE
  5
8D
330
1F
100
AcDbEntity
  8
LINEE VISIBILI 2D
100
AcDbSpline
210
0.0
220
0.0
230
1.0
 70
    12
 71
     2
 72
     6
 73
     3
 74
     0
 42
0.0000000001
 43
0.0000000001
 40
-24.23418092463248
 40
-24.23418092463248
 40
-24.23418092463248
 40
0.0
 40
0.0
 40
0.0
 10
474.4845927870172
 20
148.362506612379
 30
0.0
 41
1.0
 10
462.3642278447222
 20
150.2038083441523
 30
0.0
 41
0.9826746531184886
 10
451.7472495174682
 20
156.333523639373
 30
0.0
 41
1.0
  0
SPLINE
  5
8E
330
1F
100
AcDbEntity
  8
LINEE VISIBILI 2D
100
AcDbSpline
210
0.0
220
0.0
230
1.0
 70
     8
 71
     3
 72
    17
 73
    13
 74
     0
 42
0.0000000001
 43
0.0000000001
 40
0.0
 40
0.0
 40
0.0
 40
0.0
 40
50.36397468073415
 40
50.92269874778688
 40
51.17387964602114
 40
51.68640807108805
 40
53.46835188854808
 40
54.36103769640228
 40
55.15503849251132
 40
55.89485902769429
 40
56.44069090148808
 40
66.40502565994773
 40
66.40502565994773
 40
66.40502565994773
 40
66.40502565994773
 10
451.7472495174682
 20
156.333523639373
 30
0.0
 10
437.2088524159922
 20
164.7283175316333
 30
0.0
 10
422.5075192210676
 20
173.2131874760814
 30
0.0
 10
407.7362026024028
 20
181.744567796228
 30
0.0
 10
407.3496574227584
 20
181.9564260340086
 30
0.0
 10
406.5516204828272
 20
182.2576012710924
 30
0.0
 10
405.442962974335
 20
182.2283508906597
 30
0.0
 10
404.4017424126334
 20
181.6978828631375
 30
0.0
 10
403.8011193496349
 20
181.1423155899118
 30
0.0
 10
403.4430576414665
 20
180.5453987548274
 30
0.0
 10
401.5753764589919
 20
177.2947454190989
 30
0.0
 10
399.8165213624863
 20
174.2636777606724
 30
0.0
 10
398.1584294289562
 20
171.3861441274109
 30
0.0
  0
SPLINE
  5
8F
330
1F
100
AcDbEntity
  8
LINEE VISIBILI 2D
100
AcDbSpline
210
0.0
220
0.0
230
1.0
 70
    24
 71
     2
 72
     6
 73
     3
 74
     0
 42
0.0000000001
 43
0.0000000001
 40
0.0
 40
0.0
 40
0.0
 40
58.838086613017
 40
58.838086613017
 40
58.838086613017
 10
487.24724960764
 20
80.33390835535872
 30
0.0
 10
487.24724960764
 20
50.91486504885022
 30
0.0
 10
487.24724960764
 20
21.49582174234172
 30
0.0
  0
SPLINE
  5
90
330
1F
100
AcDbEntity
  8
LINEE VISIBILI 2D
100
AcDbSpline
210
0.0
220
0.0
230
1.0
 70
    24
 71
     2
 72
     6
 73
     3
 74
     0
 42
0.0000000001
 43
0.0000000001
 40
0.0
 40
0.0
 40
0.0
 40
2.999997736495345
 40
2.999997736495345
 40
2.999997736495345
 10
487.24724960764
 20
21.49582174234172
 30
0.0
 10
485.7472501735162
 20
21.49582174234172
 30
0.0
 10
484.2472507393925
 20
21.49582174234172
 30
0.0
  0
SPLINE
  5
91
330
1F
100
AcDbEntity
  8
LINEE VISIBILI 2D
100
AcDbSpline
210
0.0
220
0.0
230
1.0
 70
    24
 71
     2
 72
     6
 73
     3
 74
     0
 42
0.0000000001
 43
0.0000000001
 40
0.0
 40
0.0
 40
0.0
 40
3.000000000000682
 40
3.000000000000682
 40
3.000000000000682
 10
484.2472507393925
 20
21.49582174234172
 30
0.0
 10
482.747250173516
 20
21.49582174234172
 30
0.0
 10
481.2472496076396
 20
21.49582174234172
 30
0.0
  0
SPLINE
  5
92
330
1F
100
AcDbEntity
  8
LINEE VISIBILI 2D
100
AcDbSpline
210
0.0
220
0.0
230
1.0
 70
    24
 71
     2
 72
     6
 73
     3
 74
     0
 42
0.0000000001
 43
0.0000000001
 40
0.0
 40
0.0
 40
0.0
 40
58.83808661090862
 40
58.83808661090862
 40
58.83808661090862
 10
481.2472496076396
 20
21.49582174234172
 30
0.0
 10
481.2472496076396
 20
50.91486504779603
 30
0.0
 10
481.2472496076396
 20
80.33390835325034
 30
0.0
  0
SPLINE
  5
93
330
1F
100
AcDbEntity
  8
LINEE VISIBILI 2D
100
AcDbSpline
210
0.0
220
0.0
230
1.0
 70
    24
 71
     2
 72
     6
 73
     3
 74
     0
 42
0.0000000001
 43
0.0000000001
 40
0.0
 40
0.0
 40
0.0
 40
10.75845839825547
 40
10.75845839825547
 40
10.75845839825547
 10
488.7387912202009
 20
14.49635533701075
 30
0.0
 10
494.1180204193287
 20
14.49635533701075
 30
0.0
 10
499.4972496184564
 20
14.49635533701075
 30
0.0
  0
SPLINE
  5
94
330
1F
100
AcDbEntity
  8
LINEE VISIBILI 2D
100
AcDbSpline
210
0.0
220
0.0
230
1.0
 70
     8
 71
     3
 72
    19
 73
    15
 74
     0
 42
0.0000000001
 43
0.0000000001
 40
0.0
 40
0.0
 40
0.0
 40
0.0
 40
1.11805803693462
 40
2.312574437905388
 40
4.589405017040911
 40
4.929109301524538
 40
5.552488229674834
 40
37.10560048947701
 40
47.99251021906927
 40
54.34304316443816
 40
55.93094618278425
 40
63.39941309010528
 40
74.53338430139574
 40
86.29973706963507
 40
86.29973706963507
 40
86.29973706963507
 40
86.29973706963507
 10
499.4972496184564
 20
14.49635533701075
 30
0.0
 10
499.8715924597081
 20
14.49539764925252
 30
0.0
 10
500.6377927893918
 20
14.64188912852032
 30
0.0
 10
501.9589134401994
 20
15.48383182831741
 30
0.0
 10
502.5122362388307
 20
16.72563648060164
 30
0.0
 10
502.4981505101695
 20
17.8079001752507
 30
0.0
 10
502.4947027027652
 20
28.64627136552394
 30
0.0
 10
502.5012183527669
 20
43.00113082423046
 30
0.0
 10
502.4935630332202
 20
59.26444917928139
 30
0.0
 10
502.5053903489078
 20
65.53952782271017
 30
0.0
 10
502.482924309549
 20
70.67539759255237
 30
0.0
 10
502.8857801101
 20
77.40394633674572
 30
0.0
 10
504.9647948575534
 20
87.35136875337427
 30
0.0
 10
507.8068404067263
 20
94.4667051462811
 30
0.0
 10
509.5915513114213
 20
97.96057341873816
 30
0.0
  0
SPLINE
  5
95
330
1F
100
AcDbEntity
  8
LINEE VISIBILI 2D
100
AcDbSpline
210
0.0
220
0.0
230
1.0
 70
    12
 71
     2
 72
     6
 73
     3
 74
     0
 42
0.0000000001
 43
0.0000000001
 40
0.0
 40
0.0
 40
0.0
 40
1.253045660489684
 40
1.253045660489684
 40
1.253045660489684
 10
478.6099169818743
 20
105.7629960821781
 30
0.0
 41
1.0
 10
478.0402241710052
 20
105.5011845662698
 30
0.0
 41
0.9989232910590277
 10
477.4972496076382
 20
105.1876980559467
 30
0.0
 41
1.0
  0
SPLINE
  5
96
330
1F
100
AcDbEntity
  8
LINEE VISIBILI 2D
100
AcDbSpline
210
0.0
220
0.0
230
1.0
 70
    12
 71
     2
 72
     8
 73
     5
 74
     0
 42
0.0000000001
 43
0.0000000001
 40
0.0
 40
0.0
 40
0.0
 40
21.2057504117311
 40
21.2057504117311
 40
42.41150082346216
 40
42.41150082346216
 40
42.41150082346216
 10
477.4972496076382
 20
105.1876980559467
 30
0.0
 41
1.0
 10
465.8059066565484
 20
98.43769805594664
 30
0.0
 41
0.7071067811865497
 10
472.5559066565484
 20
86.74635510485678
 30
0.0
 41
1.0
 10
479.3059066565483
 20
75.0550121537668
 30
0.0
 41
0.7071067811865429
 10
490.9972496076382
 20
81.80501215376691
 30
0.0
 41
1.0
  0
SPLINE
  5
97
330
1F
100
AcDbEntity
  8
LINEE VISIBILI 2D
100
AcDbSpline
210
0.0
220
0.0
230
1.0
 70
    12
 71
     2
 72
     8
 73
     5
 74
     0
 42
0.0000000001
 43
0.0000000001
 40
0.0
 40
0.0
 40
0.0
 40
21.20575041173108
 40
21.20575041173108
 40
31.48887457140417
 40
31.48887457140417
 40
31.48887457140417
 10
490.9972496076382
 20
81.80501215376691
 30
0.0
 41
1.0
 10
502.6885925587283
 20
88.55501215376687
 30
0.0
 41
0.7071067811865367
 10
495.938592558728
 20
100.2463551048568
 30
0.0
 41
1.0
 10
493.2358511012162
 20
104.9276406289898
 30
0.0
 41
0.9283466200553482
 10
488.049153610598
 20
106.4499463425127
 30
0.0
 41
1.0
  0
SPLINE
  5
98
330
1F
100
AcDbEntity
  8
LINEE VISIBILI 2D
100
AcDbSpline
210
0.0
220
0.0
230
1.0
 70
    12
 71
     2
 72
     6
 73
     3
 74
     0
 42
0.0000000001
 43
0.0000000001
 40
0.0
 40
0.0
 40
0.0
 40
17.84867224601135
 40
17.84867224601135
 40
17.84867224601135
 10
410.4696993259368
 20
155.6277420050082
 30
0.0
 41
1.0
 10
405.7672735595731
 20
145.6413522299236
 30
0.0
 41
0.7360184617895321
 10
415.3264332370497
 20
140.1219994518725
 30
0.0
 41
1.0
  0
SPLINE
  5
99
330
1F
100
AcDbEntity
  8
LINEE VISIBILI 2D
100
AcDbSpline
210
0.0
220
0.0
230
1.0
 70
    24
 71
     2
 72
     6
 73
     3
 74
     0
 42
0.0000000001
 43
0.0000000001
 40
0.0
 40
0.0
 40
0.0
 40
1.499999999999926
 40
1.499999999999926
 40
1.499999999999926
 10
415.3264332370497
 20
140.1219994518725
 30
0.0
 10
415.975952289888
 20
139.7469994518725
 30
0.0
 10
416.6254713427263
 20
139.3719994518725
 30
0.0
  0
SPLINE
  5
9A
330
1F
100
AcDbEntity
  8
LINEE VISIBILI 2D
100
AcDbSpline
210
0.0
220
0.0
230
1.0
 70
    12
 71
     3
 72
    12
 73
     8
 74
     0
 42
0.0000000001
 43
0.0000000001
 40
99.2530934770528
 40
99.2530934770528
 40
99.2530934770528
 40
99.2530934770528
 40
103.6483481428632
 40
103.6483481428632
 40
105.8960513007269
 40
105.8960513007269
 40
108.107075111027
 40
108.107075111027
 40
108.107075111027
 40
108.107075111027
 10
416.6254713427263
 20
139.3719994518725
 30
0.0
 41
1.0
 10
417.9270537490718
 20
138.6205304991964
 30
0.0
 41
1.0
 10
419.4902904381172
 20
138.4941242020068
 30
0.0
 41
1.0
 10
421.6133238873886
 20
139.2975617458794
 30
0.0
 41
1.0
 10
422.1988742753474
 20
139.6832366766529
 30
0.0
 41
1.0
 10
423.246758746257
 20
140.7755167291597
 30
0.0
 41
1.0
 10
423.5864169889746
 20
141.4287109798997
 30
0.0
 41
1.0
 10
423.9555983616485
 20
142.068151874579
 30
0.0
 41
1.0
  0
SPLINE
  5
9B
330
1F
100
AcDbEntity
  8
LINEE VISIBILI 2D
100
AcDbSpline
210
0.0
220
0.0
230
1.0
 70
    24
 71
     2
 72
     6
 73
     3
 74
     0
 42
0.0000000001
 43
0.0000000001
 40
0.0
 40
0.0
 40
0.0
 40
31.1257184145361
 40
31.1257184145361
 40
31.1257184145361
 10
423.9555983616485
 20
142.068151874579
 30
0.0
 10
437.4334297906632
 20
134.2867222709451
 30
0.0
 10
450.911261219678
 20
126.5052926673111
 30
0.0
  0
SPLINE
  5
9C
330
1F
100
AcDbEntity
  8
LINEE VISIBILI 2D
100
AcDbSpline
210
0.0
220
0.0
230
1.0
 70
    24
 71
     2
 72
     6
 73
     3
 74
     0
 42
0.0000000001
 43
0.0000000001
 40
0.0
 40
0.0
 40
0.0
 40
31.12571841453249
 40
31.12571841453249
 40
31.12571841453249
 10
458.911261219675
 20
140.3616991278642
 30
0.0
 10
445.4334297906619
 20
148.1431287314973
 30
0.0
 10
431.9555983616488
 20
155.9245583351304
 30
0.0
  0
SPLINE
  5
9D
330
1F
100
AcDbEntity
  8
LINEE VISIBILI 2D
100
AcDbSpline
210
0.0
220
0.0
230
1.0
 70
    12
 71
     3
 72
    12
 73
     8
 74
     0
 42
0.0000000001
 43
0.0000000001
 40
45.7000000000003
 40
45.7000000000003
 40
45.7000000000003
 40
45.7000000000003
 40
47.91070030646529
 40
47.91070030646529
 40
50.15792022076158
 40
50.15792022076158
 40
54.5539816339748
 40
54.5539816339748
 40
54.5539816339748
 40
54.5539816339748
 10
431.9555983616488
 20
155.9245583351304
 30
0.0
 41
1.0
 10
432.3247257179032
 20
156.5639056706265
 30
0.0
 41
1.0
 10
432.7205235903887
 20
157.1845280383212
 30
0.0
 41
1.0
 10
433.1425452559554
 20
158.6379198745656
 30
0.0
 41
1.0
 10
433.1838472952895
 20
159.3376333575527
 30
0.0
 41
1.0
 10
432.8184702626063
 20
161.578168472596
 30
0.0
 41
1.0
 10
431.9272926540516
 20
162.8691038733069
 30
0.0
 41
1.0
 10
430.6254713427265
 20
163.6207107578372
 30
0.0
 41
1.0
  0
SPLINE
  5
9E
330
1F
100
AcDbEntity
  8
LINEE VISIBILI 2D
100
AcDbSpline
210
0.0
220
0.0
230
1.0
 70
    24
 71
     2
 72
     6
 73
     3
 74
     0
 42
0.0000000001
 43
0.0000000001
 40
0.0
 40
0.0
 40
0.0
 40
1.499999999999926
 40
1.499999999999926
 40
1.499999999999926
 10
430.6254713427265
 20
163.6207107578372
 30
0.0
 10
429.9759522898883
 20
163.9957107578372
 30
0.0
 10
429.32643323705
 20
164.3707107578372
 30
0.0
  0
SPLINE
  5
9F
330
1F
100
AcDbEntity
  8
LINEE VISIBILI 2D
100
AcDbSpline
210
0.0
220
0.0
230
1.0
 70
    12
 71
     2
 72
     6
 73
     3
 74
     0
 42
0.0000000001
 43
0.0000000001
 40
0.0
 40
0.0
 40
0.0
 40
17.84867224600943
 40
17.84867224600943
 40
17.84867224600943
 10
429.32643323705
 20
164.3707107578372
 30
0.0
 41
1.0
 10
419.7669536800727
 20
169.8895094883372
 30
0.0
 41
0.7360184617895983
 10
413.4696993259377
 20
160.8238944277159
 30
0.0
 41
1.0
  0
SPLINE
  5
A0
330
1F
100
AcDbEntity
  8
LINEE VISIBILI 2D
100
AcDbSpline
210
0.0
220
0.0
230
1.0
 70
    12
 71
     2
 72
     6
 73
     3
 74
     0
 42
0.0000000001
 43
0.0000000001
 40
0.0
 40
0.0
 40
0.0
 40
33.25277493701454
 40
33.25277493701454
 40
33.25277493701454
 10
458.5782836152064
 20
6.487133454508452
 30
0.0
 41
1.0
 10
442.2688997841748
 20
10.29273120446625
 30
0.0
 41
0.9891881770472567
 10
427.7651670577789
 20
18.66651841120085
 30
0.0
 41
1.0
  0
SPLINE
  5
A1
330
1F
100
AcDbEntity
  8
LINEE VISIBILI 2D
100
AcDbSpline
210
0.0
220
0.0
230
1.0
 70
    12
 71
     2
 72
     6
 73
     3
 74
     0
 42
0.0000000001
 43
0.0000000001
 40
0.0
 40
0.0
 40
0.0
 40
151.5173654624899
 40
151.5173654624899
 40
151.5173654624899
 10
427.7651670577789
 20
18.66651841120085
 30
0.0
 41
1.0
 10
350.1563848467451
 20
63.47363018299211
 30
0.0
 41
0.7834216231178978
 10
376.1326689082556
 20
149.2409491801788
 30
0.0
 41
1.0
  0
SPLINE
  5
A2
330
1F
100
AcDbEntity
  8
LINEE VISIBILI 2D
100
AcDbSpline
210
0.0
220
0.0
230
1.0
 70
    12
 71
     2
 72
     6
 73
     3
 74
     0
 42
0.0000000001
 43
0.0000000001
 40
-18.53473764080356
 40
-18.53473764080356
 40
-18.53473764080356
 40
0.0
 40
0.0
 40
0.0
 10
588.6910279647014
 20
167.3463186236463
 30
0.0
 41
1.0
 10
592.091803412198
 20
158.626171160772
 30
0.0
 41
0.9852493375566359
 10
592.3529575833727
 20
149.2699943819033
 30
0.0
 41
1.0
  0
SPLINE
  5
A3
330
1F
100
AcDbEntity
  8
LINEE VISIBILI 2D
100
AcDbSpline
210
0.0
220
0.0
230
1.0
 70
    12
 71
     2
 72
     8
 73
     5
 74
     0
 42
0.0000000001
 43
0.0000000001
 40
0.0
 40
0.0
 40
0.0
 40
92.3998122345631
 40
92.3998122345631
 40
184.8032912581622
 40
184.8032912581622
 40
184.8032912581622
 10
592.3529575833727
 20
149.2699943819033
 30
0.0
 41
1.0
 10
606.5576701433318
 20
102.4152447150108
 30
0.0
 41
0.9175275436805597
 10
582.0773500809323
 20
60.01412026175228
 30
0.0
 41
1.0
 10
557.5959702809527
 20
17.61109292491065
 30
0.0
 41
0.9175210893760455
 10
509.9137285306922
 20
6.486412888634362
 30
0.0
 41
1.0
  0
SPLINE
  5
A4
330
1F
100
AcDbEntity
  8
LINEE VISIBILI 2D
100
AcDbSpline
210
0.0
220
0.0
230
1.0
 70
     8
 71
     3
 72
    18
 73
    14
 74
     0
 42
0.0000000001
 43
0.0000000001
 40
0.0
 40
0.0
 40
0.0
 40
0.0
 40
5.490437384279228
 40
11.29490792173107
 40
23.19953013860137
 40
30.65057659843317
 40
31.90116659057934
 40
36.03082874898099
 40
81.767569211025
 40
82.2325819843778
 40
83.05063728574427
 40
84.4663250338152
 40
86.77854886039852
 40
86.77854886039852
 40
86.77854886039852
 40
86.77854886039852
 10
458.6826213732651
 20
98.3865399242119
 30
0.0
 10
459.5268257665506
 20
96.76277712226293
 30
0.0
 10
461.1211597192124
 20
93.34813362605945
 30
0.0
 10
463.7738898336167
 20
86.07618107740353
 30
0.0
 10
465.5605931775231
 20
77.84561657222172
 30
0.0
 10
466.0029288704851
 20
70.97985159712228
 30
0.0
 10
465.9972873425041
 20
66.70271070086501
 30
0.0
 10
465.9966113265936
 20
49.66343819818924
 30
0.0
 10
465.9983536778181
 20
32.88692111437401
 30
0.0
 10
465.9966902380687
 20
17.21309687851381
 30
0.0
 10
466.1548788256335
 20
16.32069276825124
 30
0.0
 10
466.996909216188
 20
15.00124515080452
 30
0.0
 10
468.2217694437562
 20
14.48993627383096
 30
0.0
 10
468.9972496869904
 20
14.49635533701075
 30
0.0
  0
SPLINE
  5
A5
330
1F
100
AcDbEntity
  8
LINEE VISIBILI 2D
100
AcDbSpline
210
0.0
220
0.0
230
1.0
 70
    24
 71
     2
 72
     6
 73
     3
 74
     0
 42
0.0000000001
 43
0.0000000001
 40
0.0
 40
0.0
 40
0.0
 40
10.75845830808862
 40
10.75845830808862
 40
10.75845830808862
 10
468.9972496869904
 20
14.49635533701075
 30
0.0
 10
474.3764788410347
 20
14.49635533701075
 30
0.0
 10
479.7557079950789
 20
14.49635533701075
 30
0.0
  0
SPLINE
  5
A6
330
1F
100
AcDbEntity
  8
LINEE VISIBILI 2D
100
AcDbSpline
210
0.0
220
0.0
230
1.0
 70
     8
 71
     3
 72
    24
 73
    20
 74
     0
 42
0.0000000001
 43
0.0000000001
 40
0.0
 40
0.0
 40
0.0
 40
0.0
 40
10.27987110554412
 40
10.61858567344755
 40
10.95602940371881
 40
11.29497148667104
 40
12.094943954088
 40
13.00278694349949
 40
14.01919747370496
 40
14.74658092785204
 40
15.25143754556241
 40
15.75777021971603
 40
38.11555477940603
 40
65.02189611382609
 40
65.93190051708108
 40
70.37249108972982
 40
75.40545588005389
 40
80.48742976721248
 40
90.63839376041464
 40
90.63839376041464
 40
90.63839376041464
 40
90.63839376041464
 10
570.3360697863186
 20
171.3861441274137
 30
0.0
 10
568.623053211008
 20
174.3538574756465
 30
0.0
 10
566.8524941825146
 20
177.4187210940078
 30
0.0
 10
565.0275759827925
 20
180.5820774348883
 30
0.0
 10
564.8539560590176
 20
180.8725495687839
 30
0.0
 10
564.5620133706317
 20
181.2700763619233
 30
0.0
 10
564.0479079228663
 20
181.7285446645091
 30
0.0
 10
563.2216588213381
 20
182.1279043652496
 30
0.0
 10
562.3328749227072
 20
182.2477936198798
 30
0.0
 10
561.5870207981816
 20
182.1263784739039
 30
0.0
 10
561.0470230332685
 20
181.9090787625771
 30
0.0
 10
554.2996067928416
 20
178.0161179501083
 30
0.0
 10
539.9339585868389
 20
169.7184939530924
 30
0.0
 10
525.448550007984
 20
161.3580941439561
 30
0.0
 10
516.1380704266618
 20
155.9800699886503
 30
0.0
 10
513.105142204996
 20
154.3085775572176
 30
0.0
 10
508.673944371059
 20
152.3217484271485
 30
0.0
 10
502.315928633252
 20
150.0252629338793
 30
0.0
 10
497.3550084171042
 20
148.8710187088036
 30
0.0
 10
494.0099062479197
 20
148.3625066123791
 30
0.0
  0
SPLINE
  5
A7
330
1F
100
AcDbEntity
  8
LINEE VISIBILI 2D
100
AcDbSpline
210
0.0
220
0.0
230
1.0
 70
    24
 71
     2
 72
     6
 73
     3
 74
     0
 42
0.0000000001
 43
0.0000000001
 40
0.0
 40
0.0
 40
0.0
 40
6.673560122689594
 40
6.673560122689594
 40
6.673560122689594
 10
494.0099062479197
 20
148.3625066123791
 30
0.0
 10
490.6731261865746
 20
148.362506612379
 30
0.0
 10
487.3363461252296
 20
148.362506612379
 30
0.0
  0
SPLINE
  5
A8
330
1F
100
AcDbEntity
  8
LINEE VISIBILI 2D
100
AcDbSpline
210
0.0
220
0.0
230
1.0
 70
    24
 71
     2
 72
     6
 73
     3
 74
     0
 42
0.0000000001
 43
0.0000000001
 40
0.0
 40
0.0
 40
0.0
 40
58.83808661304285
 40
58.83808661304285
 40
58.83808661304285
 10
451.4296520595923
 20
131.9795022682381
 30
0.0
 10
425.9520132011103
 20
146.6890239214988
 30
0.0
 10
400.4743743426282
 20
161.3985455747595
 30
0.0
  0
SPLINE
  5
A9
330
1F
100
AcDbEntity
  8
LINEE VISIBILI 2D
100
AcDbSpline
210
0.0
220
0.0
230
1.0
 70
    24
 71
     2
 72
     6
 73
     3
 74
     0
 42
0.0000000001
 43
0.0000000001
 40
0.0
 40
0.0
 40
0.0
 40
58.83808661301718
 40
58.83808661301718
 40
58.83808661301718
 10
514.0648471557045
 20
137.1756546909606
 30
0.0
 10
539.5424860141754
 20
151.8851763442149
 30
0.0
 10
565.0201248726464
 20
166.5946979974692
 30
0.0
  0
SPLINE
  5
AA
330
1F
100
AcDbEntity
  8
LINEE VISIBILI 2D
100
AcDbSpline
210
0.0
220
0.0
230
1.0
 70
     8
 71
     3
 72
    19
 73
    15
 74
     0
 42
0.0000000001
 43
0.0000000001
 40
0.0
 40
0.0
 40
0.0
 40
0.0
 40
0.1564975452675332
 40
0.3468638740661452
 40
0.5225242170548192
 40
0.6982744954977911
 40
1.007647680088124
 40
1.149409373724944
 40
1.217047648339535
 40
1.406044674422085
 40
1.532009603763842
 40
2.399969601530021
 40
5.727331171352935
 40
12.79183075742272
 40
12.79183075742272
 40
12.79183075742272
 40
12.79183075742272
 10
487.24724960764
 20
21.49582174234172
 30
0.0
 10
487.2994124298436
 20
21.49498363787529
 30
0.0
 10
487.4148608957929
 20
21.48401857679298
 30
0.0
 10
487.5835938460749
 20
21.43769183190605
 30
0.0
 10
487.7467400027229
 20
21.35866281869099
 30
0.0
 10
487.9258664060922
 20
21.22899665858865
 30
0.0
 10
488.06231771272
 20
21.06745666625924
 30
0.0
 10
488.1417115324223
 20
20.91331718639918
 30
0.0
 10
488.1900079485759
 20
20.78957716059525
 30
0.0
 10
488.2206807350556
 20
20.66504752827458
 30
0.0
 10
488.2540739379475
 20
20.2720906525453
 30
0.0
 10
488.3791680278992
 20
18.83713793728704
 30
0.0
 10
488.6945778068436
 20
15.09710227129754
 30
0.0
 10
488.9681030440245
 20
11.64397177414273
 30
0.0
 10
489.1472496076397
 20
9.29595510485684
 30
0.0
  0
SPLINE
  5
AB
330
1F
100
AcDbEntity
  8
LINEE VISIBILI 2D
100
AcDbSpline
210
0.0
220
0.0
230
1.0
 70
     8
 71
     3
 72
    18
 73
    14
 74
     0
 42
0.0000000001
 43
0.0000000001
 40
0.0
 40
0.0
 40
0.0
 40
0.0
 40
2.941873872547618
 40
6.090010225972309
 40
10.74095020869329
 40
11.22398732282435
 40
11.38889917937038
 40
11.5306742912739
 40
11.70675159466913
 40
11.88295398448495
 40
12.09747014483465
 40
12.69360648380962
 40
12.79181743851754
 40
12.79181743851754
 40
12.79181743851754
 40
12.79181743851754
 10
479.3472496076399
 20
9.29595510485683
 30
0.0
 10
479.4219320440885
 20
10.27372410106555
 30
0.0
 10
479.5786166218878
 20
12.29769554617357
 30
0.0
 10
479.8651974795704
 20
15.86649067483822
 30
0.0
 10
480.0958462290747
 20
18.61760077563619
 30
0.0
 10
480.2496729608113
 20
20.37713704706978
 30
0.0
 10
480.2710517895239
 20
20.63961436445609
 30
0.0
 10
480.3049630484641
 20
20.79731897926313
 30
0.0
 10
480.3674528114186
 20
20.95063788543406
 30
0.0
 10
480.4673696219564
 20
21.11152061543782
 30
0.0
 10
480.6936091494736
 20
21.35345319163686
 30
0.0
 10
480.9829264879625
 20
21.48084269172987
 30
0.0
 10
481.2145964282699
 20
21.49513786522302
 30
0.0
 10
481.2472496076396
 20
21.49582174234172
 30
0.0
  0
SPLINE
  5
AC
330
1F
100
AcDbEntity
  8
LINEE VISIBILI 2D
100
AcDbSpline
210
0.0
220
0.0
230
1.0
 70
    12
 71
     2
 72
     6
 73
     3
 74
     0
 42
0.0000000001
 43
0.0000000001
 40
0.0
 40
0.0
 40
0.0
 40
1.231343997670075
 40
1.231343997670075
 40
1.231343997670075
 10
489.4806094836461
 20
162.249684289994
 30
0.0
 41
1.0
 10
489.3052946993086
 20
161.6594686428529
 30
0.0
 41
0.9999252676734076
 10
489.1444624214668
 20
161.065143174661
 30
0.0
 41
1.0
  0
SPLINE
  5
AD
330
1F
100
AcDbEntity
  8
LINEE VISIBILI 2D
100
AcDbSpline
210
0.0
220
0.0
230
1.0
 70
    12
 71
     2
 72
     6
 73
     3
 74
     0
 42
0.0000000001
 43
0.0000000001
 40
0.0
 40
0.0
 40
0.0
 40
1.062952684862297
 40
1.062952684862297
 40
1.062952684862297
 10
484.1685077540567
 20
146.5836047059909
 30
0.0
 41
1.0
 10
484.2240716586713
 20
147.1121853876313
 30
0.0
 41
0.9999527887214055
 10
484.2693531055536
 20
147.6417460310591
 30
0.0
 41
1.0
  0
SPLINE
  5
AE
330
1F
100
AcDbEntity
  8
LINEE VISIBILI 2D
100
AcDbSpline
210
0.0
220
0.0
230
1.0
 70
    12
 71
     2
 72
     6
 73
     3
 74
     0
 42
0.0000000001
 43
0.0000000001
 40
0.0
 40
0.0
 40
0.0
 40
0.4832956718868635
 40
0.4832956718868635
 40
0.4832956718868635
 10
435.6604387362454
 20
97.35708055571001
 30
0.0
 41
1.0
 10
435.9000044845566
 20
97.38874714903646
 30
0.0
 41
0.999989156333656
 10
436.1392649053382
 20
97.4226436377062
 30
0.0
 41
1.0
  0
SPLINE
  5
AF
330
1F
100
AcDbEntity
  8
LINEE VISIBILI 2D
100
AcDbSpline
210
0.0
220
0.0
230
1.0
 70
    12
 71
     2
 72
     6
 73
     3
 74
     0
 42
0.0000000001
 43
0.0000000001
 40
0.0
 40
0.0
 40
0.0
 40
0.7516496924508764
 40
0.7516496924508764
 40
0.7516496924508764
 10
469.2784070155424
 20
114.3935707948062
 30
0.0
 41
1.0
 10
469.5378085446763
 20
114.6655262439173
 30
0.0
 41
0.999975550707253
 10
469.793381387409
 20
114.9410828473143
 30
0.0
 41
1.0
  0
SPLINE
  5
B0
330
1F
100
AcDbEntity
  8
LINEE VISIBILI 2D
100
AcDbSpline
210
0.0
220
0.0
230
1.0
 70
    12
 71
     2
 72
     6
 73
     3
 74
     0
 42
0.0000000001
 43
0.0000000001
 40
0.0
 40
0.0
 40
0.0
 40
1.122089004272471
 40
1.122089004272471
 40
1.122089004272471
 10
463.3651297221795
 20
109.0307856711171
 30
0.0
 41
1.0
 10
463.8070078795075
 20
109.3765264160367
 30
0.0
 41
0.9999475005368945
 10
464.2417081702356
 20
109.7312497249157
 30
0.0
 41
1.0
  0
SPLINE
  5
B1
330
1F
100
AcDbEntity
  8
LINEE VISIBILI 2D
100
AcDbSpline
210
0.0
220
0.0
230
1.0
 70
    12
 71
     2
 72
     6
 73
     3
 74
     0
 42
0.0000000001
 43
0.0000000001
 40
0.0
 40
0.0
 40
0.0
 40
0.8680348307072276
 40
0.8680348307072276
 40
0.8680348307072276
 10
462.4194338796626
 20
108.3072661228524
 30
0.0
 41
1.0
 10
462.7670286412055
 20
108.5671837235677
 30
0.0
 41
0.9999675099921597
 10
463.1103879991774
 20
108.8326712537961
 30
0.0
 41
1.0
  0
SPLINE
  5
B2
330
1F
100
AcDbEntity
  8
LINEE VISIBILI 2D
100
AcDbSpline
210
0.0
220
0.0
230
1.0
 70
    12
 71
     2
 72
     6
 73
     3
 74
     0
 42
0.0000000001
 43
0.0000000001
 40
0.0
 40
0.0
 40
0.0
 40
19.63268628578022
 40
19.63268628578022
 40
19.63268628578022
 10
494.0962156777098
 20
3.962159220597769
 30
0.0
 41
1.0
 10
484.2925619322032
 20
3.104170255782584
 30
0.0
 41
0.9962267510425842
 10
474.488230158022
 20
3.954376282172928
 30
0.0
 41
1.0
  0
SPLINE
  5
B3
330
1F
100
AcDbEntity
  8
LINEE VISIBILI 2D
100
AcDbSpline
210
0.0
220
0.0
230
1.0
 70
    12
 71
     2
 72
     6
 73
     3
 74
     0
 42
0.0000000001
 43
0.0000000001
 40
0.0
 40
0.0
 40
0.0
 40
19.53344669541947
 40
19.53344669541947
 40
19.53344669541947
 10
576.8395730417805
 20
181.2080009473119
 30
0.0
 41
1.0
 10
582.448449695397
 20
173.1826180827364
 30
0.0
 41
0.996264777083781
 10
586.5928587022445
 20
164.3118716979913
 30
0.0
 41
1.0
  0
SPLINE
  5
B4
330
1F
100
AcDbEntity
  8
LINEE VISIBILI 2D
100
AcDbSpline
210
0.0
220
0.0
230
1.0
 70
    24
 71
     2
 72
     6
 73
     3
 74
     0
 42
0.0000000001
 43
0.0000000001
 40
0.0
 40
0.0
 40
0.0
 40
0.5635542960770863
 40
0.5635542960770863
 40
0.5635542960770863
 10
484.3323902591915
 20
148.362506612379
 30
0.0
 10
484.0506131111529
 20
148.362506612379
 30
0.0
 10
483.7688359631144
 20
148.362506612379
 30
0.0
  0
SPLINE
  5
B5
330
1F
100
AcDbEntity
  8
LINEE VISIBILI 2D
100
AcDbSpline
210
0.0
220
0.0
230
1.0
 70
     8
 71
     3
 72
    25
 73
    21
 74
     0
 42
0.0000000001
 43
0.0000000001
 40
0.0
 40
0.0
 40
0.0
 40
0.0
 40
12.74126322746259
 40
25.19929507589804
 40
27.91409295833501
 40
30.85506008383928
 40
31.98625449848048
 40
34.02264456210926
 40
79.36977705978391
 40
80.5052550795745
 40
81.07277489944589
 40
81.69650866295879
 40
82.15230851683764
 40
82.6606636506222
 40
84.40614474844986
 40
86.09783619556195
 40
86.77910388473228
 40
87.58133784564271
 40
88.32512066109788
 40
97.37290686678269
 40
97.37290686678269
 40
97.37290686678269
 40
97.37290686678269
 10
512.8012337070392
 20
103.5503463426248
 30
0.0
 10
515.097946627749
 20
107.1225959550478
 30
0.0
 10
520.3290033785607
 20
113.7466229330919
 30
0.0
 10
527.4289778461182
 20
119.826638109223
 30
0.0
 10
532.4422550554318
 20
123.1942473233579
 30
0.0
 10
534.3772772430019
 20
124.3673720799601
 30
0.0
 10
536.140858520488
 20
125.385060553984
 30
0.0
 10
550.1470161494769
 20
133.4688452739585
 30
0.0
 10
564.1523197479492
 20
141.5569330259034
 30
0.0
 10
577.7346602035558
 20
149.3983883183576
 30
0.0
 10
578.4059621086953
 20
149.7868200478956
 30
0.0
 10
578.8853197058701
 20
150.0544880502251
 30
0.0
 10
579.3382013342394
 20
150.3287585291085
 30
0.0
 10
580.0437477110974
 20
150.8997641313828
 30
0.0
 10
580.7003451278562
 20
152.1044298186839
 30
0.0
 10
580.6076671843056
 20
153.5301251431604
 30
0.0
 10
580.1134432786315
 20
154.473745646708
 30
0.0
 10
579.7310874413456
 20
155.1084875856864
 30
0.0
 10
577.968594759879
 20
158.1687434135335
 30
0.0
 10
576.3349822073169
 20
160.9943515501262
 30
0.0
 10
574.8276113988792
 20
163.6065658501488
 30
0.0
  0
SPLINE
  5
B6
330
1F
100
AcDbEntity
  8
LINEE VISIBILI 2D
100
AcDbSpline
210
0.0
220
0.0
230
1.0
 70
    12
 71
     2
 72
     6
 73
     3
 74
     0
 42
0.0000000001
 43
0.0000000001
 40
0.0
 40
0.0
 40
0.0
 40
0.4150970156454383
 40
0.4150970156454383
 40
0.4150970156454383
 10
511.0232138932138
 20
100.6141256036026
 30
0.0
 41
1.0
 10
511.125973911699
 20
100.794450461935
 30
0.0
 41
0.9999949015509921
 10
511.2298834748532
 20
100.9741153684049
 30
0.0
 41
1.0
  0
SPLINE
  5
B7
330
1F
100
AcDbEntity
  8
LINEE VISIBILI 2D
100
AcDbSpline
210
0.0
220
0.0
230
1.0
 70
    12
 71
     2
 72
     6
 73
     3
 74
     0
 42
0.0000000001
 43
0.0000000001
 40
0.0
 40
0.0
 40
0.0
 40
0.4580548817676666
 40
0.4580548817676666
 40
0.4580548817676666
 10
457.0568572137653
 20
101.3268841736049
 30
0.0
 41
1.0
 10
457.1727918083566
 20
101.1293666645037
 30
0.0
 41
0.9999938811118282
 10
457.287341643396
 20
100.9310428587794
 30
0.0
 41
1.0
  0
SPLINE
  5
B8
330
1F
100
AcDbEntity
  8
LINEE VISIBILI 2D
100
AcDbSpline
210
0.0
220
0.0
230
1.0
 70
     8
 71
     3
 72
    23
 73
    19
 74
     0
 42
0.0000000001
 43
0.0000000001
 40
0.0
 40
0.0
 40
0.0
 40
0.0
 40
9.56679493222452
 40
10.61190669741207
 40
11.25097026089916
 40
12.97403010342524
 40
14.68315028558292
 40
15.32389267118073
 40
15.5913877332206
 40
16.44519431537216
 40
19.87165627771842
 40
59.93470909310783
 40
61.31736388513875
 40
64.34743952191157
 40
66.34735325812407
 40
69.390145280782
 40
72.13206171316021
 40
96.97668195122564
 40
96.97668195122564
 40
96.97668195122564
 40
96.97668195122564
 10
393.6668878163953
 20
163.6065658501457
 30
0.0
 10
392.0714844809378
 20
160.8454349111138
 30
0.0
 10
390.3054147393555
 20
157.7804870407284
 30
0.0
 10
388.4258631006646
 20
154.5355464883043
 30
0.0
 10
387.8781278247678
 20
153.5366235421536
 30
0.0
 10
387.8003047023387
 20
152.1135040310858
 30
0.0
 10
388.4581955732247
 20
150.8789759702128
 30
0.0
 10
389.1574456185502
 20
150.332135096594
 30
0.0
 10
389.6567581656988
 20
150.0312065612216
 30
0.0
 10
390.9720344910553
 20
149.2734685294564
 30
0.0
 10
403.7745878309108
 20
141.8880920064522
 30
0.0
 10
416.7263242496233
 20
134.4039569365888
 30
0.0
 10
429.5658671624196
 20
126.9931955130169
 30
0.0
 10
431.4202655077129
 20
125.9298552988912
 30
0.0
 10
433.7498163827337
 20
124.5830401872587
 30
0.0
 10
435.9734635357174
 20
123.2448730458706
 30
0.0
 10
444.4585887371699
 20
117.560866143464
 30
0.0
 10
450.9663283496943
 20
110.8291283293867
 30
0.0
 10
455.4769075689728
 20
103.882503262031
 30
0.0
  0
SPLINE
  5
B9
330
1F
100
AcDbEntity
  8
LINEE VISIBILI 2D
100
AcDbSpline
210
0.0
220
0.0
230
1.0
 70
    12
 71
     2
 72
     8
 73
     5
 74
     0
 42
0.0000000001
 43
0.0000000001
 40
0.0
 40
0.0
 40
0.0
 40
9.879333449996365
 40
9.879333449996365
 40
19.69296446302834
 40
19.69296446302834
 40
19.69296446302834
 10
381.8576611685877
 20
164.2178761178894
 30
0.0
 41
1.0
 10
383.945740351032
 20
168.6979844193977
 30
0.0
 41
0.9990440995440317
 10
386.4171491343441
 20
172.9785899479613
 30
0.0
 41
1.0
 10
388.8721010265502
 20
177.2306914048097
 30
0.0
 41
0.9990567696957322
 10
391.6867260050983
 20
181.2537551406349
 30
0.0
 41
1.0
  0
SPLINE
  5
BA
330
1F
100
AcDbEntity
  8
LINEE VISIBILI 2D
100
AcDbSpline
210
0.0
220
0.0
230
1.0
 70
    12
 71
     2
 72
     6
 73
     3
 74
     0
 42
0.0000000001
 43
0.0000000001
 40
0.0
 40
0.0
 40
0.0
 40
14.25842488662139
 40
14.25842488662139
 40
14.25842488662139
 10
379.4744304079899
 20
129.0086825163708
 30
0.0
 41
1.0
 10
381.9659007245533
 20
122.2848788645062
 30
0.0
 41
0.9913725395745566
 10
386.1191911308555
 20
116.4396125157364
 30
0.0
 41
1.0
  0
SPLINE
  5
BB
330
1F
100
AcDbEntity
  8
LINEE VISIBILI 2D
100
AcDbSpline
210
0.0
220
0.0
230
1.0
 70
    12
 71
     2
 72
     6
 73
     3
 74
     0
 42
0.0000000001
 43
0.0000000001
 40
0.0
 40
0.0
 40
0.0
 40
7.777123947726975
 40
7.777123947726975
 40
7.777123947726975
 10
387.2528885517618
 20
180.5838093473614
 30
0.0
 41
1.0
 10
384.8831534992613
 20
177.4922640992187
 30
0.0
 41
0.9974105873174085
 10
382.9814522480661
 20
174.0927305148036
 30
0.0
 41
1.0
  0
SPLINE
  5
BC
330
1F
100
AcDbEntity
  8
LINEE VISIBILI 2D
100
AcDbSpline
210
0.0
220
0.0
230
1.0
 70
    12
 71
     2
 72
     6
 73
     3
 74
     0
 42
0.0000000001
 43
0.0000000001
 40
0.0
 40
0.0
 40
0.0
 40
7.577802179587876
 40
7.577802179587876
 40
7.577802179587876
 10
406.3166274516636
 20
102.6416469253853
 30
0.0
 41
1.0
 10
402.9600972360216
 20
104.4142610733802
 30
0.0
 41
0.9972573715285333
 10
399.9020082015709
 20
106.6629378984402
 30
0.0
 41
1.0
  0
SPLINE
  5
BD
330
1F
100
AcDbEntity
  8
LINEE VISIBILI 2D
100
AcDbSpline
210
0.0
220
0.0
230
1.0
 70
    12
 71
     2
 72
     6
 73
     3
 74
     0
 42
0.0000000001
 43
0.0000000001
 40
0.0
 40
0.0
 40
0.0
 40
3.7887647813874
 40
3.7887647813874
 40
3.7887647813874
 10
413.2558538583698
 20
99.61597648596317
 30
0.0
 41
1.0
 10
411.4678820292704
 20
100.2444244465819
 30
0.0
 41
0.9993515365930242
 10
409.7297741770014
 20
100.9999184536658
 30
0.0
 41
1.0
  0
SPLINE
  5
BE
330
1F
100
AcDbEntity
  8
LINEE VISIBILI 2D
100
AcDbSpline
210
0.0
220
0.0
230
1.0
 70
    12
 71
     2
 72
     6
 73
     3
 74
     0
 42
0.0000000001
 43
0.0000000001
 40
0.0
 40
0.0
 40
0.0
 40
1.262940149899914
 40
1.262940149899914
 40
1.262940149899914
 10
452.5328405790523
 20
102.4004801293624
 30
0.0
 41
1.0
 10
451.9613545256686
 20
102.1318098334942
 30
0.0
 41
0.9999518878041853
 10
451.3847077778974
 20
101.8744024416447
 30
0.0
 41
1.0
  0
SPLINE
  5
BF
330
1F
100
AcDbEntity
  8
LINEE VISIBILI 2D
100
AcDbSpline
210
0.0
220
0.0
230
1.0
 70
    12
 71
     2
 72
     6
 73
     3
 74
     0
 42
0.0000000001
 43
0.0000000001
 40
0.0
 40
0.0
 40
0.0
 40
21.41058006301545
 40
21.41058006301545
 40
21.41058006301545
 10
553.2176325026581
 20
199.6657935322815
 30
0.0
 41
1.0
 10
542.7876268896424
 20
202.6467173872642
 30
0.0
 41
0.9804340344232174
 10
532.0153128685221
 20
201.3707178782066
 30
0.0
 41
1.0
  0
SPLINE
  5
C0
330
1F
100
AcDbEntity
  8
LINEE VISIBILI 2D
100
AcDbSpline
210
0.0
220
0.0
230
1.0
 70
    12
 71
     2
 72
     6
 73
     3
 74
     0
 42
0.0000000001
 43
0.0000000001
 40
0.0
 40
0.0
 40
0.0
 40
1.270362678286616
 40
1.270362678286616
 40
1.270362678286616
 10
590.5094432261077
 20
133.6695195804958
 30
0.0
 41
1.0
 10
590.6752073625372
 20
134.2827204780838
 30
0.0
 41
0.9999298199479187
 10
590.8263966097318
 20
134.8996766363817
 30
0.0
 41
1.0
  0
SPLINE
  5
C1
330
1F
100
AcDbEntity
  8
LINEE VISIBILI 2D
100
AcDbSpline
210
0.0
220
0.0
230
1.0
 70
    12
 71
     2
 72
     6
 73
     3
 74
     0
 42
0.0000000001
 43
0.0000000001
 40
0.0
 40
0.0
 40
0.0
 40
1.270356133426493
 40
1.270356133426493
 40
1.270356133426493
 10
580.9134217576707
 20
114.4802936720484
 30
0.0
 41
1.0
 10
581.3049140794012
 20
114.9805160366816
 30
0.0
 41
0.9999303405936527
 10
581.6844897603129
 20
115.4898400538981
 30
0.0
 41
1.0
  0
SPLINE
  5
C2
330
1F
100
AcDbEntity
  8
LINEE VISIBILI 2D
100
AcDbSpline
210
0.0
220
0.0
230
1.0
 70
    12
 71
     2
 72
     6
 73
     3
 74
     0
 42
0.0000000001
 43
0.0000000001
 40
0.0
 40
0.0
 40
0.0
 40
17.61404023361399
 40
17.61404023361399
 40
17.61404023361399
 10
520.386878777839
 20
96.82936476351439
 30
0.0
 41
1.0
 10
528.7653119115163
 20
93.86921351594695
 30
0.0
 41
0.9867243315328242
 10
537.6504982532974
 20
93.75046649156954
 30
0.0
 41
1.0
  0
SPLINE
  5
C3
330
1F
100
AcDbEntity
  8
LINEE VISIBILI 2D
100
AcDbSpline
210
0.0
220
0.0
230
1.0
 70
    12
 71
     2
 72
     6
 73
     3
 74
     0
 42
0.0000000001
 43
0.0000000001
 40
0.0
 40
0.0
 40
0.0
 40
15.43800471599324
 40
15.43800471599324
 40
15.43800471599324
 10
523.6661757771274
 20
17.0896441494142
 30
0.0
 41
1.0
 10
528.9791035950986
 20
22.76226256902166
 30
0.0
 41
0.9897804666813733
 10
532.4746665022477
 20
29.70393684080993
 30
0.0
 41
1.0
  0
SPLINE
  5
C4
330
1F
100
AcDbEntity
  8
LINEE VISIBILI 2D
100
AcDbSpline
210
0.0
220
0.0
230
1.0
 70
    12
 71
     2
 72
     6
 73
     3
 74
     0
 42
0.0000000001
 43
0.0000000001
 40
0.0
 40
0.0
 40
0.0
 40
15.43749056285449
 40
15.43749056285449
 40
15.43749056285449
 10
496.3543658039948
 20
1.371476494578317
 30
0.0
 41
1.0
 10
503.9292498898859
 20
3.110991027151942
 30
0.0
 41
0.9897436811327
 10
510.7030678344564
 20
6.921525133748228
 30
0.0
 41
1.0
  0
SPLINE
  5
C5
330
1F
100
AcDbEntity
  8
LINEE VISIBILI 2D
100
AcDbSpline
210
0.0
220
0.0
230
1.0
 70
    12
 71
     2
 72
     6
 73
     3
 74
     0
 42
0.0000000001
 43
0.0000000001
 40
0.0
 40
0.0
 40
0.0
 40
16.54031401295068
 40
16.54031401295068
 40
16.54031401295068
 10
464.9188108449521
 20
3.57351735644616
 30
0.0
 41
1.0
 10
472.7019166845322
 20
0.5896255744471803
 30
0.0
 41
0.9882849630245943
 10
481.022573779251
 20
0.0926223663133792
 30
0.0
 41
1.0
  0
SPLINE
  5
C6
330
1F
100
AcDbEntity
  8
LINEE VISIBILI 2D
100
AcDbSpline
210
0.0
220
0.0
230
1.0
 70
    12
 71
     2
 72
     6
 73
     3
 74
     0
 42
0.0000000001
 43
0.0000000001
 40
0.0
 40
0.0
 40
0.0
 40
16.53994691313625
 40
16.53994691313625
 40
16.53994691313625
 10
440.707991934879
 20
22.05116536402679
 30
0.0
 41
1.0
 10
445.6410831988709
 20
15.33285310885079
 30
0.0
 41
0.9883504124814138
 10
452.3668096167294
 20
10.40987503363627
 30
0.0
 41
1.0
  0
SPLINE
  5
C7
330
1F
100
AcDbEntity
  8
LINEE VISIBILI 2D
100
AcDbSpline
210
0.0
220
0.0
230
1.0
 70
    12
 71
     2
 72
     6
 73
     3
 74
     0
 42
0.0000000001
 43
0.0000000001
 40
0.0
 40
0.0
 40
0.0
 40
15.43733316667534
 40
15.43733316667534
 40
15.43733316667534
 10
430.291259330791
 20
51.7926925520328
 30
0.0
 41
1.0
 10
430.6101763682299
 20
44.02776752902944
 30
0.0
 41
0.9898390320495201
 10
433.1019868146764
 20
36.66660937364296
 30
0.0
 41
1.0
  0
SPLINE
  5
C8
330
1F
100
AcDbEntity
  8
LINEE VISIBILI 2D
100
AcDbSpline
210
0.0
220
0.0
230
1.0
 70
    12
 71
     2
 72
     6
 73
     3
 74
     0
 42
0.0000000001
 43
0.0000000001
 40
0.0
 40
0.0
 40
0.0
 40
15.43748779155106
 40
15.43748779155106
 40
15.43748779155106
 10
437.6809276416687
 20
81.33891180373064
 30
0.0
 41
1.0
 10
433.7457327804281
 20
74.63709786873552
 30
0.0
 41
0.9898011553666917
 10
431.8602084729228
 20
67.0975443871933
 30
0.0
 41
1.0
  0
SPLINE
  5
C9
330
1F
100
AcDbEntity
  8
LINEE VISIBILI 2D
100
AcDbSpline
210
0.0
220
0.0
230
1.0
 70
    12
 71
     2
 72
     6
 73
     3
 74
     0
 42
0.0000000001
 43
0.0000000001
 40
-1.9184632311005
 40
-1.9184632311005
 40
-1.9184632311005
 40
0.0
 40
0.0
 40
0.0
 10
483.5770672938107
 20
2443.099970092249
 30
0.0
 41
1.0
 10
483.8282468666579
 20
2442.168714038265
 30
0.0
 41
0.9917717959902181
 10
483.8347181714743
 20
2441.204197885838
 30
0.0
 41
1.0
  0
SPLINE
  5
CA
330
1F
100
AcDbEntity
  8
LINEE VISIBILI 2D
100
AcDbSpline
210
0.0
220
0.0
230
1.0
 70
    12
 71
     2
 72
     6
 73
     3
 74
     0
 42
0.0000000001
 43
0.0000000001
 40
0.0
 40
0.0
 40
0.0
 40
128.2013197889374
 40
128.2013197889374
 40
128.2013197889374
 10
483.8347181714743
 20
2441.204197885838
 30
0.0
 41
1.0
 10
483.8345256703296
 20
2377.103535768789
 30
0.0
 41
1.0
 10
483.8343345437842
 20
2313.002875874606
 30
0.0
 41
1.0
  0
SPLINE
  5
CB
330
1F
100
AcDbEntity
  8
LINEE VISIBILI 2D
100
AcDbSpline
210
0.0
220
0.0
230
1.0
 70
     8
 71
     3
 72
    27
 73
    23
 74
     0
 42
0.0000000001
 43
0.0000000001
 40
0.0
 40
0.0
 40
0.0
 40
0.0
 40
8.33070218492605
 40
19.174044042471
 40
30.47745037385508
 40
53.60957882494423
 40
62.83809442008384
 40
79.78908742125994
 40
87.86503021888458
 40
94.82178398299294
 40
100.1285204765129
 40
104.5447857114064
 40
106.8543424984755
 40
108.6571486829713
 40
110.7772304985888
 40
112.9689975200611
 40
117.7403092658926
 40
123.9188853280954
 40
131.8439997369216
 40
141.5697626040959
 40
153.443100101347
 40
169.1049480852772
 40
169.1049480852772
 40
169.1049480852772
 40
169.1049480852772
 10
93.7597612597145
 20
2063.847275022725
 30
0.0
 10
91.36627292367965
 20
2065.255742208516
 30
0.0
 10
85.71823694220816
 20
2068.25450394411
 30
0.0
 10
76.48593966175528
 20
2072.500529030462
 30
0.0
 10
62.56792926675806
 20
2078.341080546511
 30
0.0
 10
49.01291882532716
 20
2083.645210197151
 30
0.0
 10
33.8125197553876
 20
2089.899472342279
 30
0.0
 10
23.3735071706501
 20
2094.540576543566
 30
0.0
 10
13.97383377644005
 20
2099.587169612983
 30
0.0
 10
8.297466167066412
 20
2103.311316188242
 30
0.0
 10
4.072715665149563
 20
2106.950640533723
 30
0.0
 10
1.570658192865492
 20
2110.120528902831
 30
0.0
 10
0.3972198865039442
 20
2112.73228589107
 30
0.0
 10
-0.0352478671562793
 20
2114.773938627683
 30
0.0
 10
0.0081012077514873
 20
2116.828407380558
 30
0.0
 10
0.8159329210544481
 20
2119.772882649068
 30
0.0
 10
3.259921969735776
 20
2123.478540034431
 30
0.0
 10
7.971118581894412
 20
2127.690375200185
 30
0.0
 10
14.6492500924859
 20
2132.016370633184
 30
0.0
 10
23.37104817253611
 20
2136.588082255574
 30
0.0
 10
34.70064876061006
 20
2141.685970967376
 30
0.0
 10
43.2016393319384
 20
2145.148336152374
 30
0.0
 10
48.04502811399223
 20
2147.096685475616
 30
0.0
  0
SPLINE
  5
CC
330
1F
100
AcDbEntity
  8
LINEE VISIBILI 2D
100
AcDbSpline
210
0.0
220
0.0
230
1.0
 70
    12
 71
     2
 72
     6
 73
     3
 74
     0
 42
0.0000000001
 43
0.0000000001
 40
0.0
 40
0.0
 40
0.0
 40
10.61588470723088
 40
10.61588470723088
 40
10.61588470723088
 10
48.04502811399223
 20
2147.096685475616
 30
0.0
 41
0.9999999999999893
 10
52.97090419467247
 20
2149.074321287583
 30
0.0
 41
0.999972141838296
 10
57.86670892825804
 20
2151.125270964584
 30
0.0
 41
1.0
  0
SPLINE
  5
CD
330
1F
100
AcDbEntity
  8
LINEE VISIBILI 2D
100
AcDbSpline
210
0.0
220
0.0
230
1.0
 70
    24
 71
     2
 72
     6
 73
     3
 74
     0
 42
0.0000000001
 43
0.0000000001
 40
0.0
 40
0.0
 40
0.0
 40
129.8271089242699
 40
129.8271089242699
 40
129.8271089242699
 10
483.5770672834342
 20
2313.272861167979
 30
0.0
 10
483.5770672886225
 20
2378.186415630114
 30
0.0
 10
483.5770672938108
 20
2443.099970092249
 30
0.0
  0
SPLINE
  5
CE
330
1F
100
AcDbEntity
  8
LINEE VISIBILI 2D
100
AcDbSpline
210
0.0
220
0.0
230
1.0
 70
    12
 71
     2
 72
     6
 73
     3
 74
     0
 42
0.0000000001
 43
0.0000000001
 40
0.0
 40
0.0
 40
0.0
 40
3.011781382760718
 40
3.011781382760718
 40
3.011781382760718
 10
483.5770672938108
 20
2443.099970092249
 30
0.0
 41
1.0
 10
482.0711777923144
 20
2443.101877224849
 30
0.0
 41
0.9999999823105823
 10
480.5652876799361
 20
2443.103217863909
 30
0.0
 41
1.0
  0
SPLINE
  5
CF
330
1F
100
AcDbEntity
  8
LINEE VISIBILI 2D
100
AcDbSpline
210
0.0
220
0.0
230
1.0
 70
    12
 71
     2
 72
     6
 73
     3
 74
     0
 42
0.0000000001
 43
0.0000000001
 40
0.0
 40
0.0
 40
0.0
 40
1.977158466557704
 40
1.977158466557704
 40
1.977158466557704
 10
480.5652876799361
 20
2443.103217863909
 30
0.0
 41
1.0
 10
480.8166755310576
 20
2442.141796404571
 30
0.0
 41
0.9922223281090587
 10
480.8227166040413
 20
2441.148069391329
 30
0.0
 41
1.0
  0
SPLINE
  5
D0
330
1F
100
AcDbEntity
  8
LINEE VISIBILI 2D
100
AcDbSpline
210
0.0
220
0.0
230
1.0
 70
    12
 71
     2
 72
     6
 73
     3
 74
     0
 42
0.0000000001
 43
0.0000000001
 40
0.0
 40
0.0
 40
0.0
 40
125.3456787981786
 40
125.3456787981786
 40
125.3456787981786
 10
480.8227166040413
 20
2441.148069391329
 30
0.0
 41
1.0
 10
480.8224357147521
 20
2378.475228183618
 30
0.0
 41
1.0
 10
480.8222224274291
 20
2315.802388784898
 30
0.0
 41
1.0
  0
SPLINE
  5
D1
330
1F
100
AcDbEntity
  8
LINEE VISIBILI 2D
100
AcDbSpline
210
0.0
220
0.0
230
1.0
 70
    24
 71
     2
 72
     6
 73
     3
 74
     0
 42
0.0000000001
 43
0.0000000001
 40
0.0
 40
0.0
 40
0.0
 40
135.074303271032
 40
135.074303271032
 40
135.074303271032
 10
145.9987017139787
 20
2308.025666821217
 30
0.0
 10
145.9987018787551
 20
2375.562818456733
 30
0.0
 10
145.9987020435315
 20
2443.099970092249
 30
0.0
  0
SPLINE
  5
D2
330
1F
100
AcDbEntity
  8
LINEE VISIBILI 2D
100
AcDbSpline
210
0.0
220
0.0
230
1.0
 70
    12
 71
     2
 72
     6
 73
     3
 74
     0
 42
0.0000000001
 43
0.0000000001
 40
0.0
 40
0.0
 40
0.0
 40
0.0911041542159612
 40
0.0911041542159612
 40
0.0911041542159612
 10
145.9987020435315
 20
2443.099970092249
 30
0.0
 41
1.0
 10
146.0442147929232
 20
2443.101876576188
 30
0.0
 41
0.999980731964147
 10
146.0897477039377
 20
2443.103217863909
 30
0.0
 41
1.0
  0
SPLINE
  5
D3
330
1F
100
AcDbEntity
  8
LINEE VISIBILI 2D
100
AcDbSpline
210
0.0
220
0.0
230
1.0
 70
    12
 71
     2
 72
     6
 73
     3
 74
     0
 42
0.0000000001
 43
0.0000000001
 40
0.0
 40
0.0
 40
0.0
 40
1.307622032367982
 40
1.307622032367982
 40
1.307622032367982
 10
146.0897477039377
 20
2443.103217863909
 30
0.0
 41
1.0
 10
146.6906061778772
 20
2442.845461897422
 30
0.0
 41
0.999999650710041
 10
147.2918946826437
 20
2442.588710698789
 30
0.0
 41
1.0
  0
SPLINE
  5
D4
330
1F
100
AcDbEntity
  8
LINEE VISIBILI 2D
100
AcDbSpline
210
0.0
220
0.0
230
1.0
 70
    24
 71
     2
 72
     6
 73
     3
 74
     0
 42
0.0000000001
 43
0.0000000001
 40
0.0
 40
0.0
 40
0.0
 40
7.074108349074693
 40
7.074108349074693
 40
7.074108349074693
 10
3.537059839547283
 20
614.5058597411722
 30
0.0
 10
3.660501250048071
 20
618.0407592378745
 30
0.0
 10
3.78394266054886
 20
621.5756587345767
 30
0.0
  0
SPLINE
  5
D5
330
1F
100
AcDbEntity
  8
LINEE VISIBILI 2D
100
AcDbSpline
210
0.0
220
0.0
230
1.0
 70
    12
 71
     2
 72
     6
 73
     3
 74
     0
 42
0.0000000001
 43
0.0000000001
 40
0.0
 40
0.0
 40
0.0
 40
4.607665215590503
 40
4.607665215590503
 40
4.607665215590503
 10
3.78394266054886
 20
621.5756587345767
 30
0.0
 41
1.0
 10
3.88505669514145
 20
624.4709515443036
 30
0.0
 41
0.7193418237189896
 10
6.784037779499468
 20
624.4709602444692
 30
0.0
 41
1.0
  0
SPLINE
  5
D6
330
1F
100
AcDbEntity
  8
LINEE VISIBILI 2D
100
AcDbSpline
210
0.0
220
0.0
230
1.0
 70
    28
 71
     2
 72
     6
 73
     3
 74
     0
 42
0.0000000001
 43
0.0000000001
 40
230.2433457127442
 40
230.2433457127442
 40
230.2433457127442
 40
344.691792412061
 40
344.691792412061
 40
344.691792412061
 10
6.784037779499469
 20
624.4709602444693
 30
0.0
 41
0.8690322927964326
 10
6.406460821252206
 20
624.470960244469
 30
0.0
 41
0.805942123596996
 10
61.64151774719107
 20
624.4709602444692
 30
0.0
 41
1.0
  0
SPLINE
  5
D7
330
1F
100
AcDbEntity
  8
LINEE VISIBILI 2D
100
AcDbSpline
210
0.0
220
0.0
230
1.0
 70
    24
 71
     2
 72
     6
 73
     3
 74
     0
 42
0.0000000001
 43
0.0000000001
 40
0.0
 40
0.0
 40
0.0
 40
164.5743619989943
 40
164.5743619989943
 40
164.5743619989943
 10
61.64151774719107
 20
624.4709602444692
 30
0.0
 10
143.9296603366217
 20
624.4709602444692
 30
0.0
 10
226.2178029260523
 20
624.4709602444692
 30
0.0
  0
SPLINE
  5
D8
330
1F
100
AcDbEntity
  8
LINEE VISIBILI 2D
100
AcDbSpline
210
0.0
220
0.0
230
1.0
 70
    12
 71
     2
 72
     6
 73
     3
 74
     0
 42
0.0000000001
 43
0.0000000001
 40
0.0
 40
0.0
 40
0.0
 40
4.607657713729629
 40
4.607657713729629
 40
4.607657713729629
 10
226.2178029260523
 20
624.4709602444692
 30
0.0
 41
1.0
 10
229.1167669280908
 20
624.470933855047
 30
0.0
 41
0.7193460652711753
 10
229.217898045003
 20
621.5756587345767
 30
0.0
 41
1.0
  0
SPLINE
  5
D9
330
1F
100
AcDbEntity
  8
LINEE VISIBILI 2D
100
AcDbSpline
210
0.0
220
0.0
230
1.0
 70
    24
 71
     2
 72
     6
 73
     3
 74
     0
 42
0.0000000001
 43
0.0000000001
 40
0.0
 40
0.0
 40
0.0
 40
7.074108349074693
 40
7.074108349074693
 40
7.074108349074693
 10
229.217898045003
 20
621.5756587345767
 30
0.0
 10
229.3413394555037
 20
618.0407592378745
 30
0.0
 10
229.4647808660045
 20
614.5058597411722
 30
0.0
  0
SPLINE
  5
DA
330
1F
100
AcDbEntity
  8
LINEE VISIBILI 2D
100
AcDbSpline
210
0.0
220
0.0
230
1.0
 70
    12
 71
     2
 72
     6
 73
     3
 74
     0
 42
0.0000000001
 43
0.0000000001
 40
-1730.749081938427
 40
-1730.749081938427
 40
-1730.749081938427
 40
0.0
 40
0.0
 40
0.0
 10
376.1123061169807
 20
2374.220042164922
 30
0.0
 41
1.0
 10
376.1169812373216
 20
1508.845501208117
 30
0.0
 41
0.9999999999996191
 10
376.1223411686613
 20
643.4709602444692
 30
0.0
 41
1.0
  0
SPLINE
  5
DB
330
1F
100
AcDbEntity
  8
LINEE VISIBILI 2D
100
AcDbSpline
210
0.0
220
0.0
230
1.0
 70
    24
 71
     3
 72
    15
 73
    11
 74
     0
 42
0.0000000001
 43
0.0000000001
 40
0.0
 40
0.0
 40
0.0
 40
0.0
 40
0.1491634206319978
 40
5.300857287050068
 40
10.02155894565301
 40
19.89747030353047
 40
22.35791633180669
 40
34.59952667790164
 40
37.03505614417108
 40
54.12995261136638
 40
54.12995261136638
 40
54.12995261136638
 40
54.12995261136638
 10
376.1223411686613
 20
643.4709602444692
 30
0.0
 10
376.1645668692454
 20
643.470960244471
 30
0.0
 10
377.9335274449604
 20
643.4709602444703
 30
0.0
 10
381.2725583868911
 20
643.4709602444699
 30
0.0
 10
387.8562137036774
 20
643.4709602444694
 30
0.0
 10
393.5413920879938
 20
643.4709602444703
 30
0.0
 10
401.7342827286315
 20
643.4709602444678
 30
0.0
 10
407.4466905133946
 20
643.4709602444676
 30
0.0
 10
418.0374309319826
 20
643.4709602444663
 30
0.0
 10
424.5475320259377
 20
643.4709602444683
 30
0.0
 10
430.2458454986306
 20
643.4709602444692
 30
0.0
  0
SPLINE
  5
DC
330
1F
100
AcDbEntity
  8
LINEE VISIBILI 2D
100
AcDbSpline
210
0.0
220
0.0
230
1.0
 70
    24
 71
     2
 72
     6
 73
     3
 74
     0
 42
0.0000000001
 43
0.0000000001
 40
0.0
 40
0.0
 40
0.0
 40
107.9927898611309
 40
107.9927898611309
 40
107.9927898611309
 10
430.2458454986306
 20
643.4709602444692
 30
0.0
 10
484.2422404284256
 20
643.4709602444692
 30
0.0
 10
538.2386353582206
 20
643.4709602444692
 30
0.0
  0
SPLINE
  5
DD
330
1F
100
AcDbEntity
  8
LINEE VISIBILI 2D
100
AcDbSpline
210
0.0
220
0.0
230
1.0
 70
    24
 71
     2
 72
     6
 73
     3
 74
     0
 42
0.0000000001
 43
0.0000000001
 40
0.0
 40
0.0
 40
0.0
 40
54.12717342740552
 40
54.12717342740552
 40
54.12717342740552
 10
538.2386353582206
 20
643.4709602444692
 30
0.0
 10
565.3045112168984
 20
643.4709602581103
 30
0.0
 10
592.3703870755762
 20
643.4709602717513
 30
0.0
  0
SPLINE
  5
DE
330
1F
100
AcDbEntity
  8
LINEE VISIBILI 2D
100
AcDbSpline
210
0.0
220
0.0
230
1.0
 70
    12
 71
     2
 72
     6
 73
     3
 74
     0
 42
0.0000000001
 43
0.0000000001
 40
-1596.311426930411
 40
-1596.311426930411
 40
-1596.311426930411
 40
0.0
 40
0.0
 40
0.0
 10
592.3703870755762
 20
643.4709602717513
 30
0.0
 41
1.0
 10
592.370207816454
 20
1441.626673750066
 30
0.0
 41
0.9999999999999982
 10
592.3655471801758
 20
2239.782387201664
 30
0.0
 41
1.0
  0
SPLINE
  5
DF
330
1F
100
AcDbEntity
  8
LINEE VISIBILI 2D
100
AcDbSpline
210
0.0
220
0.0
230
1.0
 70
     8
 71
     3
 72
    27
 73
    23
 74
     0
 42
0.0000000001
 43
0.0000000001
 40
0.0
 40
0.0
 40
0.0
 40
0.0
 40
8.881718339070343
 40
19.36043727318484
 40
30.80942523606934
 40
53.92188756979081
 40
62.95868576287439
 40
79.51003452198883
 40
87.34711857086262
 40
93.80848167103017
 40
98.74585317148413
 40
103.1092237705911
 40
105.4241022621601
 40
107.6216160974076
 40
109.4471261360355
 40
111.7362744273573
 40
116.510680116761
 40
122.891169913993
 40
130.6352432058414
 40
140.4446983178784
 40
152.3057226430173
 40
169.26120658102
 40
169.26120658102
 40
169.26120658102
 40
169.26120658102
 10
93.7601445375299
 20
2168.734197405624
 30
0.0
 10
91.2896288951253
 20
2167.102117357113
 30
0.0
 10
85.71810526671351
 20
2163.834820908085
 30
0.0
 10
76.51534959190815
 20
2159.267885841266
 30
0.0
 10
62.80977786163517
 20
2153.136421755878
 30
0.0
 10
49.38017436148609
 20
2147.578637047339
 30
0.0
 10
34.50079225174012
 20
2141.089263019536
 30
0.0
 10
24.42003837696492
 20
2136.327602274609
 30
0.0
 10
15.5180851870733
 20
2131.161487980855
 30
0.0
 10
10.28904452627746
 20
2127.434243697591
 30
0.0
 10
6.455492309592753
 20
2123.816775454518
 30
0.0
 10
4.22573127488471
 20
2120.613214730249
 30
0.0
 10
3.194013430754339
 20
2117.818128510689
 30
0.0
 10
2.927061136762264
 20
2115.708824300748
 30
0.0
 10
3.140021529353938
 20
2113.603201065118
 30
0.0
 10
4.076898540467628
 20
2110.769667080482
 30
0.0
 10
6.663096320481171
 20
2107.04953653075
 30
0.0
 10
11.3786215540918
 20
2102.837034011213
 30
0.0
 10
18.04379742545212
 20
2098.42935467722
 30
0.0
 10
26.68665811801438
 20
2093.787099957413
 30
0.0
 10
38.35357179803949
 20
2088.334425701169
 30
0.0
 10
47.19710287333965
 20
2084.582998294884
 30
0.0
 10
52.40127111692545
 20
2082.378770592437
 30
0.0
  0
SPLINE
  5
E0
330
1F
100
AcDbEntity
  8
LINEE VISIBILI 2D
100
AcDbSpline
210
0.0
220
0.0
230
1.0
 70
    12
 71
     2
 72
     6
 73
     3
 74
     0
 42
0.0000000001
 43
0.0000000001
 40
0.0
 40
0.0
 40
0.0
 40
1.350040907228901
 40
1.350040907228901
 40
1.350040907228901
 10
52.40127111692545
 20
2082.378770592437
 30
0.0
 41
1.0
 10
53.02290551883515
 20
2082.115658448043
 30
0.0
 41
0.9999922377689997
 10
53.64659397987163
 20
2081.857453040941
 30
0.0
 41
1.0
  0
SPLINE
  5
E1
330
1F
100
AcDbEntity
  8
LINEE VISIBILI 2D
100
AcDbSpline
210
0.0
220
0.0
230
1.0
 70
    24
 71
     2
 72
     6
 73
     3
 74
     0
 42
0.0000000001
 43
0.0000000001
 40
0.0
 40
0.0
 40
0.0
 40
7.074108349074691
 40
7.074108349074691
 40
7.074108349074691
 10
371.2834094978101
 20
614.5058597411722
 30
0.0
 10
371.4068509083108
 20
618.0407592378745
 30
0.0
 10
371.5302923188116
 20
621.5756587345767
 30
0.0
  0
SPLINE
  5
E2
330
1F
100
AcDbEntity
  8
LINEE VISIBILI 2D
100
AcDbSpline
210
0.0
220
0.0
230
1.0
 70
    12
 71
     2
 72
     6
 73
     3
 74
     0
 42
0.0000000001
 43
0.0000000001
 40
0.0
 40
0.0
 40
0.0
 40
4.607665215590534
 40
4.607665215590534
 40
4.607665215590534
 10
371.5302923188116
 20
621.5756587345767
 30
0.0
 41
1.0
 10
371.631406353404
 20
624.4709515443041
 30
0.0
 41
0.7193418237189626
 10
374.5303874377621
 20
624.4709602444692
 30
0.0
 41
1.0
  0
SPLINE
  5
E3
330
1F
100
AcDbEntity
  8
LINEE VISIBILI 2D
100
AcDbSpline
210
0.0
220
0.0
230
1.0
 70
    28
 71
     2
 72
     8
 73
     5
 74
     0
 42
0.0000000001
 43
0.0000000001
 40
57.89744950671354
 40
57.89744950671354
 40
57.89744950671354
 40
172.1896272948495
 40
172.1896272948495
 40
344.691792412061
 40
344.691792412061
 40
344.691792412061
 10
374.5303874377621
 20
624.4709602444693
 30
0.0
 41
0.869032292796432
 10
374.1528104795152
 20
624.4709602444691
 30
0.0
 41
0.8059421235969969
 10
429.3878674054538
 20
624.4709602444692
 30
0.0
 41
1.0
 10
524.4071399912034
 20
624.4709602444694
 30
0.0
 41
0.707106781186548
 10
579.2665425967882
 20
624.4709602444692
 30
0.0
 41
1.0
  0
SPLINE
  5
E4
330
1F
100
AcDbEntity
  8
LINEE VISIBILI 2D
100
AcDbSpline
210
0.0
220
0.0
230
1.0
 70
    24
 71
     2
 72
     6
 73
     3
 74
     0
 42
0.0000000001
 43
0.0000000001
 40
0.0
 40
0.0
 40
0.0
 40
14.69568680765985
 40
14.69568680765985
 40
14.69568680765985
 10
579.2665425967882
 20
624.4709602444692
 30
0.0
 10
586.6153475905517
 20
624.4709602444692
 30
0.0
 10
593.9641525843151
 20
624.4709602444692
 30
0.0
  0
SPLINE
  5
E5
330
1F
100
AcDbEntity
  8
LINEE VISIBILI 2D
100
AcDbSpline
210
0.0
220
0.0
230
1.0
 70
    12
 71
     2
 72
     6
 73
     3
 74
     0
 42
0.0000000001
 43
0.0000000001
 40
0.0
 40
0.0
 40
0.0
 40
4.607657713729532
 40
4.607657713729532
 40
4.607657713729532
 10
593.9641525843151
 20
624.4709602444692
 30
0.0
 41
1.0
 10
596.8631165863533
 20
624.4709338550472
 30
0.0
 41
0.7193460652712269
 10
596.9642477032658
 20
621.5756587345767
 30
0.0
 41
1.0
  0
SPLINE
  5
E6
330
1F
100
AcDbEntity
  8
LINEE VISIBILI 2D
100
AcDbSpline
210
0.0
220
0.0
230
1.0
 70
    24
 71
     2
 72
     6
 73
     3
 74
     0
 42
0.0000000001
 43
0.0000000001
 40
0.0
 40
0.0
 40
0.0
 40
7.074108349074693
 40
7.074108349074693
 40
7.074108349074693
 10
596.9642477032658
 20
621.5756587345767
 30
0.0
 10
597.0876891137665
 20
618.0407592378745
 30
0.0
 10
597.2111305242672
 20
614.5058597411722
 30
0.0
  0
SPLINE
  5
E7
330
1F
100
AcDbEntity
  8
LINEE VISIBILI 2D
100
AcDbSpline
210
0.0
220
0.0
230
1.0
 70
    12
 71
     2
 72
     6
 73
     3
 74
     0
 42
0.0000000001
 43
0.0000000001
 40
-1438.218557134175
 40
-1438.218557134175
 40
-1438.218557134175
 40
0.0
 40
0.0
 40
0.0
 10
538.246906757857
 20
643.4709603359726
 30
0.0
 41
1.0
 10
538.2389318945541
 20
1362.580238809773
 30
0.0
 41
1.0
 10
538.2309720342771
 20
2081.68951728374
 30
0.0
 41
1.0
  0
SPLINE
  5
E8
330
1F
100
AcDbEntity
  8
LINEE VISIBILI 2D
100
AcDbSpline
210
0.0
220
0.0
230
1.0
 70
     8
 71
     3
 72
    34
 73
    30
 74
     0
 42
0.0000000001
 43
0.0000000001
 40
0.0
 40
0.0
 40
0.0
 40
0.0
 40
1.93128192291739
 40
4.213485871519017
 40
6.255403595371273
 40
8.948757392835319
 40
11.96704013411286
 40
15.32962904582521
 40
19.03853966826316
 40
23.79167437555304
 40
32.1310383049186
 40
42.25507249664889
 40
53.13940622448619
 40
83.67212376563619
 40
98.82720552711488
 40
106.5441746037098
 40
112.7625370981026
 40
118.2176396417911
 40
122.4000642135944
 40
127.2185052855858
 40
130.9366887452393
 40
132.7022783673717
 40
134.5003896972138
 40
138.4578697913775
 40
143.4438746487605
 40
149.4606183501048
 40
153.0395543390871
 40
156.8847541289474
 40
166.10816194726
 40
166.10816194726
 40
166.10816194726
 40
166.10816194726
 10
538.2309720342771
 20
2081.68951728374
 30
0.0
 10
538.2315438216432
 20
2082.333177978072
 30
0.0
 10
538.0738113167392
 20
2083.737714901093
 30
0.0
 10
537.3801908117198
 20
2085.71766142288
 30
0.0
 10
536.2130306299688
 20
2087.752358339414
 30
0.0
 10
534.5895005373671
 20
2089.773238051413
 30
0.0
 10
532.4155872429977
 20
2091.881404771675
 30
0.0
 10
529.78727811024
 20
2093.985381103952
 30
0.0
 10
526.5399952589258
 20
2096.222173134489
 30
0.0
 10
521.7406175894789
 20
2099.113900031872
 30
0.0
 10
514.8642504050649
 20
2102.6726693831
 30
0.0
 10
505.9565698053514
 20
2106.720783388971
 30
0.0
 10
490.1075458662241
 20
2113.35433124573
 30
0.0
 10
472.5093739786835
 20
2120.137955287573
 30
0.0
 10
456.1872647512159
 20
2127.255973338757
 30
0.0
 10
447.5354081095444
 20
2131.644644256328
 30
0.0
 10
441.9573253133139
 20
2134.916022630612
 30
0.0
 10
437.6225133338363
 20
2137.951372987646
 30
0.0
 10
434.0241779608602
 20
2141.169780437371
 30
0.0
 10
431.4003746470758
 20
2144.546646036719
 30
0.0
 10
430.2540170149509
 20
2147.845735159171
 30
0.0
 10
430.2248344400496
 20
2150.293741715159
 30
0.0
 10
430.7125801147063
 20
2152.765586231909
 30
0.0
 10
432.4320090717784
 20
2155.963660065279
 30
0.0
 10
435.8710357571026
 20
2159.606114600846
 30
0.0
 10
439.7482110243043
 20
2162.555913566968
 30
0.0
 10
443.5216109186189
 20
2164.971875863621
 30
0.0
 10
448.3212082030019
 20
2167.75991732085
 30
0.0
 10
452.2079990524337
 20
2169.732683706218
 30
0.0
 10
454.9792885966612
 20
2171.06327575058
 30
0.0
  0
SPLINE
  5
E9
330
1F
100
AcDbEntity
  8
LINEE VISIBILI 2D
100
AcDbSpline
210
0.0
220
0.0
230
1.0
 70
    12
 71
     2
 72
     6
 73
     3
 74
     0
 42
0.0000000001
 43
0.0000000001
 40
0.0
 40
0.0
 40
0.0
 40
7.542719314545812
 40
7.542719314545812
 40
7.542719314545812
 10
454.9792885966612
 20
2171.06327575058
 30
0.0
 41
1.0
 10
458.4045676456751
 20
2172.641450518453
 30
0.0
 41
0.9999990246342111
 10
461.8342417546969
 20
2174.210051062719
 30
0.0
 41
1.0
  0
SPLINE
  5
EA
330
1F
100
AcDbEntity
  8
LINEE VISIBILI 2D
100
AcDbSpline
210
0.0
220
0.0
230
1.0
 70
    12
 71
     2
 72
     6
 73
     3
 74
     0
 42
0.0000000001
 43
0.0000000001
 40
0.0
 40
0.0
 40
0.0
 40
16.99203608353724
 40
16.99203608353724
 40
16.99203608353724
 10
461.8342417546969
 20
2174.210051062719
 30
0.0
 41
1.0
 10
469.6191034128039
 20
2177.615141101611
 30
0.0
 41
0.9998297746320083
 10
477.524294786179
 20
2180.7306921862
 30
0.0
 41
1.0
  0
SPLINE
  5
EB
330
1F
100
AcDbEntity
  8
LINEE VISIBILI 2D
100
AcDbSpline
210
0.0
220
0.0
230
1.0
 70
    12
 71
     2
 72
     6
 73
     3
 74
     0
 42
0.0000000001
 43
0.0000000001
 40
0.0
 40
0.0
 40
0.0
 40
12.19321650194978
 40
12.19321650194978
 40
12.19321650194978
 10
477.524294786179
 20
2180.7306921862
 30
0.0
 41
1.0
 10
483.1907184988684
 20
2182.980259164082
 30
0.0
 41
0.9999944083751541
 10
488.841969860336
 20
2185.267674152254
 30
0.0
 41
1.0
  0
SPLINE
  5
EC
330
1F
100
AcDbEntity
  8
LINEE VISIBILI 2D
100
AcDbSpline
210
0.0
220
0.0
230
1.0
 70
     8
 71
     3
 72
    24
 73
    20
 74
     0
 42
0.0000000001
 43
0.0000000001
 40
0.0
 40
0.0
 40
0.0
 40
0.0
 40
1.895677872939903
 40
4.297222411382305
 40
9.724135914489556
 40
16.06341918618209
 40
24.30997612748057
 40
31.71757918564486
 40
40.74084475984734
 40
50.27859889827985
 40
73.10947640050904
 40
84.5370796368365
 40
94.11233176951175
 40
102.6264319150787
 40
109.8974308724104
 40
115.3335335753786
 40
117.9324916060223
 40
119.8355933789563
 40
123.6064972474655
 40
123.6064972474655
 40
123.6064972474655
 40
123.6064972474655
 10
480.5652876795797
 20
2439.29772581428
 30
0.0
 10
480.3940160610574
 20
2438.688402293712
 30
0.0
 10
479.8103537858077
 20
2437.374092699584
 30
0.0
 10
478.0468186719789
 20
2434.642849959989
 30
0.0
 10
474.7081499045735
 20
2431.261095074563
 30
0.0
 10
469.343761627575
 20
2427.28589919925
 30
0.0
 10
463.0226062434164
 20
2423.551014705656
 30
0.0
 10
455.710377827923
 20
2419.786994203295
 30
0.0
 10
447.8618399500285
 20
2416.128117793536
 30
0.0
 10
435.219982076318
 20
2410.603262711528
 30
0.0
 10
421.7292842346934
 20
2405.01933292353
 30
0.0
 10
408.3787547209498
 20
2399.080045455232
 30
0.0
 10
399.5483992574786
 20
2394.733916804495
 30
0.0
 10
392.1934848018142
 20
2390.556019033262
 30
0.0
 10
386.3986243277208
 20
2386.476694107773
 30
0.0
 10
382.6955150713808
 20
2382.936611535586
 30
0.0
 10
380.7682881319015
 20
2380.22579277546
 30
0.0
 10
379.5258722940168
 20
2377.757643321693
 30
0.0
 10
379.1079709154411
 20
2375.879813578925
 30
0.0
 10
379.1097012253558
 20
2374.620487539957
 30
0.0
  0
SPLINE
  5
ED
330
1F
100
AcDbEntity
  8
LINEE VISIBILI 2D
100
AcDbSpline
210
0.0
220
0.0
230
1.0
 70
     8
 71
     3
 72
    16
 73
    12
 74
     0
 42
0.0000000001
 43
0.0000000001
 40
0.0
 40
0.0
 40
0.0
 40
0.0
 40
1.663838868117592
 40
3.82450982912009
 40
8.188583092857915
 40
13.5606820326442
 40
20.01193790380878
 40
27.48746551564232
 40
36.84480251907921
 40
47.5842323362164
 40
63.27852911665041
 40
63.27852911665041
 40
63.27852911665041
 40
63.27852911665041
 10
379.1097012253558
 20
2374.620487539957
 30
0.0
 10
379.1102272192268
 20
2374.064882985461
 30
0.0
 10
379.2273751828127
 20
2372.792530818747
 30
0.0
 10
380.0309675473233
 20
2370.161425960152
 30
0.0
 10
382.1951466117034
 20
2366.791516244882
 30
0.0
 10
386.087094343982
 20
2363.024126013605
 30
0.0
 10
391.3113697824392
 20
2359.252831638674
 30
0.0
 10
398.0085050535157
 20
2355.319592963253
 30
0.0
 10
406.2141953328932
 20
2351.17324170006
 30
0.0
 10
417.0756938056211
 20
2346.23420195767
 30
0.0
 10
425.1934227048682
 20
2342.806373626296
 30
0.0
 10
430.0102713017789
 20
2340.765571524566
 30
0.0
  0
SPLINE
  5
EE
330
1F
100
AcDbEntity
  8
LINEE VISIBILI 2D
100
AcDbSpline
210
0.0
220
0.0
230
1.0
 70
    24
 71
     2
 72
     6
 73
     3
 74
     0
 42
0.0000000001
 43
0.0000000001
 40
0.0
 40
0.0
 40
0.0
 40
0.0147105996492188
 40
0.0147105996492188
 40
0.0147105996492188
 10
21.32638489998664
 20
614.4729188115524
 30
0.0
 10
21.32664159624861
 20
614.4802696307271
 30
0.0
 10
21.3268982925106
 20
614.4876204499018
 30
0.0
  0
SPLINE
  5
EF
330
1F
100
AcDbEntity
  8
LINEE VISIBILI 2D
100
AcDbSpline
210
0.0
220
0.0
230
1.0
 70
    12
 71
     2
 72
     6
 73
     3
 74
     0
 42
0.0000000001
 43
0.0000000001
 40
0.0
 40
0.0
 40
0.0
 40
6.645671736575283
 40
6.645671736575283
 40
6.645671736575283
 10
535.951744512595
 20
2274.809062592216
 30
0.0
 41
1.0
 10
539.0164453598785
 20
2273.524805592873
 30
0.0
 41
0.9999681355920644
 10
542.1012593259717
 20
2272.289641539603
 30
0.0
 41
1.0
  0
SPLINE
  5
F0
330
1F
100
AcDbEntity
  8
LINEE VISIBILI 2D
100
AcDbSpline
210
0.0
220
0.0
230
1.0
 70
     8
 71
     3
 72
    34
 73
    30
 74
     0
 42
0.0000000001
 43
0.0000000001
 40
0.0
 40
0.0
 40
0.0
 40
0.0
 40
17.66781481740021
 40
30.354245068945
 40
40.59048830347405
 40
44.71635014984272
 40
48.45172446840479
 40
52.07300172921635
 40
54.75120977685703
 40
57.1606526891525
 40
59.56978512770365
 40
61.83267235481302
 40
63.87821158202946
 40
66.25225620765765
 40
68.87381080533157
 40
73.87915700495437
 40
80.25560136652369
 40
87.77588044194327
 40
97.28709382647037
 40
110.3864304420655
 40
117.8518016544954
 40
144.1540152412284
 40
150.6521446721392
 40
153.4311592063785
 40
156.9036939066083
 40
159.1671460002095
 40
165.3675181578468
 40
190.8219453123004
 40
201.5251734803648
 40
201.5251734803648
 40
201.5251734803648
 40
201.5251734803648
 10
542.1012593259717
 20
2272.289641539603
 30
0.0
 10
547.5674849078921
 20
2270.09807481037
 30
0.0
 10
556.951556952086
 20
2266.312136366424
 30
0.0
 10
569.2930537053988
 20
2260.757074116032
 30
0.0
 10
577.2684964939217
 20
2256.536551006101
 30
0.0
 10
582.3603735057419
 20
2253.294245986706
 30
0.0
 10
585.4394725318051
 20
2251.016740831771
 30
0.0
 10
587.9372870102746
 20
2248.783753122705
 30
0.0
 10
589.8479759816952
 20
2246.589861149642
 30
0.0
 10
591.2136081663655
 20
2244.488414547935
 30
0.0
 10
592.1170297325633
 20
2242.29196815721
 30
0.0
 10
592.4540789418564
 20
2240.059857967291
 30
0.0
 10
592.2216378856535
 20
2237.827396577245
 30
0.0
 10
591.4095875217165
 20
2235.607577769635
 30
0.0
 10
589.6267270844937
 20
2232.773266157015
 30
0.0
 10
586.3478408386184
 20
2229.414298409808
 30
0.0
 10
581.2726267026574
 20
2225.663216284516
 30
0.0
 10
574.5342294088906
 20
2221.712983927871
 30
0.0
 10
565.5240599375078
 20
2217.268027197576
 30
0.0
 10
556.3263626232997
 20
2213.273532162333
 30
0.0
 10
541.8740571044611
 20
2207.342717110723
 30
0.0
 10
529.3688681818563
 20
2202.463148816118
 30
0.0
 10
518.4442860710708
 20
2197.845429187873
 30
0.0
 10
514.550846602393
 20
2196.141737169979
 30
0.0
 10
511.9650889638032
 20
2194.971071240242
 30
0.0
 10
508.3249005507653
 20
2193.364968179371
 30
0.0
 10
497.9297026263412
 20
2188.917614160752
 30
0.0
 10
484.818397217391
 20
2183.675441497906
 30
0.0
 10
473.7193750484952
 20
2178.976127384217
 30
0.0
 10
470.4520113228366
 20
2177.543082955389
 30
0.0
  0
SPLINE
  5
F1
330
1F
100
AcDbEntity
  8
LINEE VISIBILI 2D
100
AcDbSpline
210
0.0
220
0.0
230
1.0
 70
    12
 71
     2
 72
     6
 73
     3
 74
     0
 42
0.0000000001
 43
0.0000000001
 40
0.0
 40
0.0
 40
0.0
 40
7.829638035097649
 40
7.829638035097649
 40
7.829638035097649
 10
470.4520113228366
 20
2177.543082955389
 30
0.0
 41
1.0
 10
466.8657364734389
 20
2175.972786676805
 30
0.0
 41
0.9999319953503835
 10
463.3170605512787
 20
2174.319276199839
 30
0.0
 41
1.0
  0
SPLINE
  5
F2
330
1F
100
AcDbEntity
  8
LINEE VISIBILI 2D
100
AcDbSpline
210
0.0
220
0.0
230
1.0
 70
     8
 71
     3
 72
    23
 73
    19
 74
     0
 42
0.0000000001
 43
0.0000000001
 40
0.0
 40
0.0
 40
0.0
 40
0.0
 40
9.016373657043946
 40
16.50072543729893
 40
23.17411638725856
 40
28.38395738037573
 40
32.84377980831671
 40
36.65102625800108
 40
40.02426371326867
 40
43.32911980558981
 40
46.94950496703941
 40
51.16081159436387
 40
56.11466766035016
 40
61.84187386878188
 40
68.66893892977828
 40
77.03858059263507
 40
87.02913806588188
 40
99.96720831344284
 40
99.96720831344284
 40
99.96720831344284
 40
99.96720831344284
 10
463.3170605512787
 20
2174.319276199839
 30
0.0
 10
460.5940452519384
 20
2173.047379419519
 30
0.0
 10
455.646701152184
 20
2170.641236756961
 30
0.0
 10
448.868414187722
 20
2166.930797665078
 30
0.0
 10
443.416208561457
 20
2163.463649370086
 30
0.0
 10
439.1281187121781
 20
2160.089250857378
 30
0.0
 10
436.0124061315171
 20
2156.831500690417
 30
0.0
 10
433.9380529462321
 20
2153.516914547449
 30
0.0
 10
433.0510161258255
 20
2150.079613678442
 30
0.0
 10
433.5080434451007
 20
2146.613164597608
 30
0.0
 10
435.1778492054419
 20
2143.25997792889
 30
0.0
 10
437.934399791336
 20
2139.981383792108
 30
0.0
 10
441.7151623327038
 20
2136.749331270829
 30
0.0
 10
446.5412879271746
 20
2133.457202234943
 30
0.0
 10
452.5830059404637
 20
2129.96611792809
 30
0.0
 10
460.0771581559429
 20
2126.175673178482
 30
0.0
 10
469.5677259658714
 20
2121.840036149142
 30
0.0
 10
476.5951044311638
 20
2118.834632927208
 30
0.0
 10
480.5652876517791
 20
2117.150285586318
 30
0.0
  0
SPLINE
  5
F3
330
1F
100
AcDbEntity
  8
LINEE VISIBILI 2D
100
AcDbSpline
210
0.0
220
0.0
230
1.0
 70
     8
 71
     3
 72
    17
 73
    13
 74
     0
 42
0.0000000001
 43
0.0000000001
 40
-67.83011479566605
 40
-67.83011479566605
 40
-67.83011479566605
 40
-67.83011479566605
 40
-56.41649160820868
 40
-50.40156807654276
 40
-38.62313335614818
 40
-29.03481586606856
 40
-20.5503204828197
 40
-13.34294031212784
 40
-7.997932621991485
 40
-5.455987189887525
 40
-3.600965040508785
 40
0.0
 40
0.0
 40
0.0
 40
0.0
 10
145.9987020435313
 20
2443.09997009225
 30
0.0
 10
149.5254066470989
 20
2441.672836176599
 30
0.0
 10
154.926642975125
 20
2439.532973346369
 30
0.0
 10
163.9379026772609
 20
2435.847871819953
 30
0.0
 10
172.3336622358151
 20
2432.265371387226
 30
0.0
 10
181.3314892246308
 20
2428.010499268603
 30
0.0
 10
188.7241162795622
 20
2423.953978689114
 30
0.0
 10
194.5275037919296
 20
2419.995724546103
 30
0.0
 10
198.2176256933358
 20
2416.542851235388
 30
0.0
 10
200.1277683184261
 20
2413.900161474312
 30
0.0
 10
201.340011724147
 20
2411.51972505563
 30
0.0
 10
201.7442575812161
 20
2409.713818302203
 30
0.0
 10
201.7407465649913
 20
2408.511411840506
 30
0.0
  0
SPLINE
  5
F4
330
1F
100
AcDbEntity
  8
LINEE VISIBILI 2D
100
AcDbSpline
210
0.0
220
0.0
230
1.0
 70
    12
 71
     2
 72
     6
 73
     3
 74
     0
 42
0.0000000001
 43
0.0000000001
 40
0.0
 40
0.0
 40
0.0
 40
1765.040451638431
 40
1765.040451638431
 40
1765.040451638431
 10
201.7407465649913
 20
2408.511411840506
 30
0.0
 41
1.0
 10
201.7461128783951
 20
1525.991186041222
 30
0.0
 41
0.9999999999999742
 10
201.7518796780656
 20
643.4709602444672
 30
0.0
 41
1.0
  0
SPLINE
  5
F5
330
1F
100
AcDbEntity
  8
LINEE VISIBILI 2D
100
AcDbSpline
210
0.0
220
0.0
230
1.0
 70
    12
 71
     2
 72
     6
 73
     3
 74
     0
 42
0.0000000001
 43
0.0000000001
 40
-1472.086769482083
 40
-1472.086769482083
 40
-1472.086769482083
 40
0.0
 40
0.0
 40
0.0
 10
0.0044548225861838
 20
2115.557729750142
 30
0.0
 41
1.0
 10
0.0022495021238329
 20
1379.514345012407
 30
0.0
 41
0.9999999999999996
 10
0.0049589180860081
 20
643.4709602596316
 30
0.0
 41
1.0
  0
SPLINE
  5
F6
330
1F
100
AcDbEntity
  8
LINEE VISIBILI 2D
100
AcDbSpline
210
0.0
220
0.0
230
1.0
 70
     8
 71
     3
 72
     9
 73
     5
 74
     0
 42
0.0000000001
 43
0.0000000001
 40
0.0
 40
0.0
 40
0.0
 40
0.0
 40
0.0087181680524153
 40
93.76491749674014
 40
93.76491749674014
 40
93.76491749674014
 40
93.76491749674014
 10
0.0049589180860081
 20
643.4709602596316
 30
0.0
 10
-0.0053379175853965
 20
643.4709602444701
 30
0.0
 10
31.24717915855515
 20
643.4709602444701
 30
0.0
 10
62.50202514957282
 20
643.4709602444694
 30
0.0
 10
93.75244090200248
 20
643.4709602706256
 30
0.0
  0
SPLINE
  5
F7
330
1F
100
AcDbEntity
  8
LINEE VISIBILI 2D
100
AcDbSpline
210
0.0
220
0.0
230
1.0
 70
    12
 71
     2
 72
     6
 73
     3
 74
     0
 42
0.0000000001
 43
0.0000000001
 40
0.0
 40
0.0
 40
0.0
 40
1562.560947410333
 40
1562.560947410333
 40
1562.560947410333
 10
93.75244090200248
 20
643.4709602706256
 30
0.0
 41
1.0
 10
93.75772804645746
 20
1424.751433965268
 30
0.0
 41
0.9999999999941679
 10
93.76026357697305
 20
2206.031908010263
 30
0.0
 41
1.0
  0
SPLINE
  5
F8
330
1F
100
AcDbEntity
  8
LINEE VISIBILI 2D
100
AcDbSpline
210
0.0
220
0.0
230
1.0
 70
     8
 71
     3
 72
    54
 73
    50
 74
     0
 42
0.0000000001
 43
0.0000000001
 40
-322.1179839584921
 40
-322.1179839584921
 40
-322.1179839584921
 40
-322.1179839584921
 40
-318.3032941336194
 40
-316.2257841034848
 40
-313.6784526427859
 40
-308.0246252631675
 40
-300.8413298661377
 40
-292.4238898066606
 40
-281.4604587741349
 40
-269.5172800533479
 40
-245.0619822968591
 40
-235.5447688207571
 40
-226.0469066455433
 40
-217.7979218195746
 40
-209.3006495852599
 40
-202.4720363609564
 40
-196.9228948631215
 40
-192.823199394936
 40
-190.757887795165
 40
-188.5137368953888
 40
-186.1601030879859
 40
-183.8175584040289
 40
-180.9353483579578
 40
-177.6890423746212
 40
-170.0500486196074
 40
-160.4751790566632
 40
-148.0011515023555
 40
-133.5285162623925
 40
-128.3611228882869
 40
-115.8849469678152
 40
-109.5589711003437
 40
-101.4525468536615
 40
-93.39391448853317
 40
-84.8233211829224
 40
-77.74322211144336
 40
-74.44951256725732
 40
-71.27192349497838
 40
-66.360006915846
 40
-64.02578877833201
 40
-61.83781803304326
 40
-59.69771948212721
 40
-57.7090479350636
 40
-55.56963623081479
 40
-52.94499307891973
 40
-46.7820709739143
 40
-39.31264803184682
 40
-29.68604808376079
 40
-17.04100587883715
 40
0.0
 40
0.0
 40
0.0
 40
0.0
 10
93.76026357697305
 20
2206.031908010263
 30
0.0
 10
93.7561045438662
 20
2207.306329208534
 30
0.0
 10
94.21535672305245
 20
2209.254847115899
 30
0.0
 10
95.57731944888104
 20
2211.72557685595
 30
0.0
 10
97.67701859821494
 20
2214.448117398772
 30
0.0
 10
101.509965764173
 20
2217.884973451193
 30
0.0
 10
107.4096425820024
 20
2221.828330052928
 30
0.0
 10
115.2047058210923
 20
2226.040518857827
 30
0.0
 10
124.6795166649484
 20
2230.435316061228
 30
0.0
 10
139.2324586480568
 20
2236.557492162285
 30
0.0
 10
153.4902051256253
 20
2242.126407957031
 30
0.0
 10
166.8798084157956
 20
2247.664894849427
 30
0.0
 10
175.1993132078804
 20
2251.328022043606
 30
0.0
 10
183.0569646901575
 20
2255.174854293667
 30
0.0
 10
189.8965861633952
 20
2259.061321150477
 30
0.0
 10
195.5628828715137
 20
2263.119725877691
 30
0.0
 10
199.439202935592
 20
2267.061760484366
 30
0.0
 10
201.3008222034016
 20
2270.555452270786
 30
0.0
 10
201.8076837223001
 20
2273.335381684495
 30
0.0
 10
201.6508021743124
 20
2275.56979477
 30
0.0
 10
200.9143180398248
 20
2277.780011199848
 30
0.0
 10
199.6289587776822
 20
2279.96693968497
 30
0.0
 10
197.8232830187636
 20
2282.145353081586
 30
0.0
 10
194.4565398294221
 20
2285.280396714087
 30
0.0
 10
188.8461811527207
 20
2289.182668216009
 30
0.0
 10
180.154721130528
 20
2293.936864640021
 30
0.0
 10
169.0747466366961
 20
2298.985440015
 30
0.0
 10
159.1960227313641
 20
2303.11416886384
 30
0.0
 10
149.1855641269929
 20
2306.910512535275
 30
0.0
 10
141.6482467341284
 20
2309.561510244259
 30
0.0
 10
133.2808048267229
 20
2312.79859706735
 30
0.0
 10
126.418909310607
 20
2315.821025052004
 30
0.0
 10
119.0052599170523
 20
2319.435714575529
 30
0.0
 10
112.0998724864383
 20
2323.287156642679
 30
0.0
 10
106.8674161233767
 20
2326.84025781391
 30
0.0
 10
103.4277618780126
 20
2329.777519410115
 30
0.0
 10
100.7348596532602
 20
2332.448641318108
 30
0.0
 10
98.61080531040197
 20
2335.233697154028
 30
0.0
 10
97.34633339696356
 20
2338.128946084925
 30
0.0
 10
96.87938310173563
 20
2340.314871116545
 30
0.0
 10
96.93195734150392
 20
2342.434471312502
 30
0.0
 10
97.47084129350695
 20
2344.46782595246
 30
0.0
 10
98.482443625374
 20
2346.48662336683
 30
0.0
 10
100.6424829322733
 20
2349.438412851339
 30
0.0
 10
104.652321037012
 20
2353.119709665268
 30
0.0
 10
111.0854746360824
 20
2357.468608788834
 30
0.0
 10
119.7945793255811
 20
2362.219127487736
 30
0.0
 10
131.6631059604943
 20
2367.782435187877
 30
0.0
 10
140.7690355086069
 20
2371.656774639041
 30
0.0
 10
145.9987018746376
 20
2373.874133331762
 30
0.0
  0
SPLINE
  5
F9
330
1F
100
AcDbEntity
  8
LINEE VISIBILI 2D
100
AcDbSpline
210
0.0
220
0.0
230
1.0
 70
    12
 71
     2
 72
     6
 73
     3
 74
     0
 42
0.0000000001
 43
0.0000000001
 40
0.0
 40
0.0
 40
0.0
 40
1630.317843669263
 40
1630.317843669263
 40
1630.317843669263
 10
201.7298278808594
 20
2273.788803782013
 30
0.0
 41
1.0
 10
201.7401152536878
 20
1458.629882014571
 30
0.0
 41
0.9999999999999957
 10
201.7501968362654
 20
643.4709602444719
 30
0.0
 41
1.0
  0
SPLINE
  5
FA
330
1F
100
AcDbEntity
  8
LINEE VISIBILI 2D
100
AcDbSpline
210
0.0
220
0.0
230
1.0
 70
    24
 71
     2
 72
     6
 73
     3
 74
     0
 42
0.0000000001
 43
0.0000000001
 40
-107.8633231394324
 40
-107.8633231394324
 40
-107.8633231394324
 40
0.0
 40
0.0
 40
0.0
 10
201.7501968362654
 20
643.4709602444719
 30
0.0
 10
147.8183571605959
 20
643.4709602444707
 30
0.0
 10
93.88651748492634
 20
643.4709602444694
 30
0.0
  0
SPLINE
  5
FB
330
1F
100
AcDbEntity
  8
LINEE VISIBILI 2D
100
AcDbSpline
210
0.0
220
0.0
230
1.0
 70
    24
 71
     2
 72
     6
 73
     3
 74
     0
 42
0.0000000001
 43
0.0000000001
 40
0.0
 40
0.0
 40
0.0
 40
19.0
 40
19.0
 40
19.0
 10
182.2078076537803
 20
643.4709602444692
 30
0.0
 10
182.2078076537803
 20
633.9709602444692
 30
0.0
 10
182.2078076537803
 20
624.4709602444692
 30
0.0
  0
SPLINE
  5
FC
330
1F
100
AcDbEntity
  8
LINEE VISIBILI 2D
100
AcDbSpline
210
0.0
220
0.0
230
1.0
 70
    24
 71
     2
 72
     6
 73
     3
 74
     0
 42
0.0000000001
 43
0.0000000001
 40
0.0
 40
0.0
 40
0.0
 40
19.0
 40
19.0
 40
19.0
 10
14.50092058492987
 20
624.4709602444692
 30
0.0
 10
14.50092058492987
 20
633.9709602444692
 30
0.0
 10
14.50092058492987
 20
643.4709602444692
 30
0.0
  0
SPLINE
  5
FD
330
1F
100
AcDbEntity
  8
LINEE VISIBILI 2D
100
AcDbSpline
210
0.0
220
0.0
230
1.0
 70
    24
 71
     2
 72
     6
 73
     3
 74
     0
 42
0.0000000001
 43
0.0000000001
 40
0.0
 40
0.0
 40
0.0
 40
0.0147105996492191
 40
0.0147105996492191
 40
0.0147105996492191
 10
211.6749424130412
 20
614.4876204499011
 30
0.0
 10
211.6751991093032
 20
614.4802696307264
 30
0.0
 10
211.6754558055652
 20
614.4729188115517
 30
0.0
  0
SPLINE
  5
FE
330
1F
100
AcDbEntity
  8
LINEE VISIBILI 2D
100
AcDbSpline
210
0.0
220
0.0
230
1.0
 70
    24
 71
     2
 72
     6
 73
     3
 74
     0
 42
0.0000000001
 43
0.0000000001
 40
0.0
 40
0.0
 40
0.0
 40
0.0296141427164557
 40
0.0296141427164557
 40
0.0296141427164557
 10
198.7312289416081
 20
2273.81296141537
 30
0.0
 10
198.7312290492842
 20
2273.798154344012
 30
0.0
 10
198.7312291569604
 20
2273.783347272654
 30
0.0
  0
SPLINE
  5
FF
330
1F
100
AcDbEntity
  8
LINEE VISIBILI 2D
100
AcDbSpline
210
0.0
220
0.0
230
1.0
 70
    12
 71
     2
 72
     6
 73
     3
 74
     0
 42
0.0000000001
 43
0.0000000001
 40
0.0
 40
0.0
 40
0.0
 40
133.5789256752857
 40
133.5789256752857
 40
133.5789256752857
 10
93.8836190700531
 20
2207.492111692164
 30
0.0
 41
1.0
 10
93.88345749994458
 20
2274.281574529612
 30
0.0
 41
0.9999999999999896
 10
93.88327663603388
 20
2341.07103736701
 30
0.0
 41
1.0
  0
SPLINE
  5
100
330
1F
100
AcDbEntity
  8
LINEE VISIBILI 2D
100
AcDbSpline
210
0.0
220
0.0
230
1.0
 70
    12
 71
     2
 72
     6
 73
     3
 74
     0
 42
0.0000000001
 43
0.0000000001
 40
0.0
 40
0.0
 40
0.0
 40
0.4118881939075119
 40
0.4118881939075119
 40
0.4118881939075119
 10
147.3423346951824
 20
2442.567172372699
 30
0.0
 41
1.0
 10
147.5317369217064
 20
2442.486303534625
 30
0.0
 41
0.9999999767750375
 10
147.7211739887335
 20
2442.405516344925
 30
0.0
 41
1.0
  0
SPLINE
  5
101
330
1F
100
AcDbEntity
  8
LINEE VISIBILI 2D
100
AcDbSpline
210
0.0
220
0.0
230
1.0
 70
    24
 71
     2
 72
     6
 73
     3
 74
     0
 42
0.0000000001
 43
0.0000000001
 40
0.0
 40
0.0
 40
0.0
 40
19.0
 40
19.0
 40
19.0
 10
580.608784744971
 20
643.4709602444692
 30
0.0
 10
580.608784744971
 20
633.9709602444692
 30
0.0
 10
580.608784744971
 20
624.4709602444692
 30
0.0
  0
SPLINE
  5
102
330
1F
100
AcDbEntity
  8
LINEE VISIBILI 2D
100
AcDbSpline
210
0.0
220
0.0
230
1.0
 70
    24
 71
     2
 72
     6
 73
     3
 74
     0
 42
0.0000000001
 43
0.0000000001
 40
0.0
 40
0.0
 40
0.0
 40
19.0
 40
19.0
 40
19.0
 10
502.4972700218568
 20
643.4709602444692
 30
0.0
 10
502.4972700218568
 20
633.9709602444692
 30
0.0
 10
502.4972700218568
 20
624.4709602444692
 30
0.0
  0
SPLINE
  5
103
330
1F
100
AcDbEntity
  8
LINEE VISIBILI 2D
100
AcDbSpline
210
0.0
220
0.0
230
1.0
 70
    24
 71
     2
 72
     6
 73
     3
 74
     0
 42
0.0000000001
 43
0.0000000001
 40
0.0
 40
0.0
 40
0.0
 40
19.0
 40
19.0
 40
19.0
 10
465.9972700903907
 20
624.4709602444692
 30
0.0
 10
465.9972700903907
 20
633.9709602444692
 30
0.0
 10
465.9972700903907
 20
643.4709602444692
 30
0.0
  0
SPLINE
  5
104
330
1F
100
AcDbEntity
  8
LINEE VISIBILI 2D
100
AcDbSpline
210
0.0
220
0.0
230
1.0
 70
    24
 71
     2
 72
     6
 73
     3
 74
     0
 42
0.0000000001
 43
0.0000000001
 40
0.0
 40
0.0
 40
0.0
 40
19.0
 40
19.0
 40
19.0
 10
387.8857552320214
 20
624.4709602444692
 30
0.0
 10
387.8857552320214
 20
633.9709602444692
 30
0.0
 10
387.8857552320214
 20
643.4709602444692
 30
0.0
  0
SPLINE
  5
105
330
1F
100
AcDbEntity
  8
LINEE VISIBILI 2D
100
AcDbSpline
210
0.0
220
0.0
230
1.0
 70
    12
 71
     2
 72
     6
 73
     3
 74
     0
 42
0.0000000001
 43
0.0000000001
 40
0.0
 40
0.0
 40
0.0
 40
1506.011075711273
 40
1506.011075711273
 40
1506.011075711273
 10
430.2458457946777
 20
643.4709602444678
 30
0.0
 41
1.0
 10
430.2482470107457
 20
1396.476498096276
 30
0.0
 41
0.9999999999999983
 10
430.2505640380618
 20
2149.482035948351
 30
0.0
 41
1.0
  0
SPLINE
  5
106
330
1F
100
AcDbEntity
  8
LINEE VISIBILI 2D
100
AcDbSpline
210
0.0
220
0.0
230
1.0
 70
    24
 71
     2
 72
     6
 73
     3
 74
     0
 42
0.0000000001
 43
0.0000000001
 40
0.0
 40
0.0
 40
0.0
 40
0.000172678040147
 40
0.000172678040147
 40
0.000172678040147
 10
379.1125845117293
 20
2374.620399600478
 30
0.0
 10
379.1125845112252
 20
2374.620485939498
 30
0.0
 10
379.1125845107213
 20
2374.620572278518
 30
0.0
  0
SPLINE
  5
107
330
1F
100
AcDbEntity
  8
LINEE VISIBILI 2D
100
AcDbSpline
210
0.0
220
0.0
230
1.0
 70
    24
 71
     2
 72
     6
 73
     3
 74
     0
 42
0.0000000001
 43
0.0000000001
 40
0.0
 40
0.0
 40
0.0
 40
127.0899353619702
 40
127.0899353619702
 40
127.0899353619702
 10
480.5652876799361
 20
2443.103217863909
 30
0.0
 10
480.565287674443
 20
2379.558250182924
 30
0.0
 10
480.5652876689498
 20
2316.013282501939
 30
0.0
  0
SPLINE
  5
108
330
1F
100
AcDbEntity
  8
LINEE VISIBILI 2D
100
AcDbSpline
210
0.0
220
0.0
230
1.0
 70
    12
 71
     3
 72
    12
 73
     8
 74
     0
 42
0.0000000001
 43
0.0000000001
 40
994.670574906647
 40
994.670574906647
 40
994.670574906647
 40
994.670574906647
 40
1000.16188732645
 40
1000.16188732645
 40
1005.68848377294
 40
1005.68848377294
 40
1006.914934671958
 40
1006.914934671958
 40
1006.914934671958
 40
1006.914934671958
 10
480.8226287514103
 20
2434.817025081994
 30
0.0
 41
1.0
 10
481.4131143136657
 20
2435.503434247841
 30
0.0
 41
1.0
 10
481.9291479632437
 20
2436.190310098436
 30
0.0
 41
1.0
 10
482.7982477329297
 20
2437.566939131309
 30
0.0
 41
1.0
 10
483.1674508060967
 20
2438.258284339679
 30
0.0
 41
1.0
 10
483.4814509448055
 20
2439.101428802053
 30
0.0
 41
1.0
 10
483.5322797112466
 20
2439.254644673973
 30
0.0
 41
1.0
 10
483.5770672934917
 20
2439.407925529902
 30
0.0
 41
1.0
  0
SPLINE
  5
109
330
1F
100
AcDbEntity
  8
LINEE VISIBILI 2D
100
AcDbSpline
210
0.0
220
0.0
230
1.0
 70
     8
 71
     3
 72
    47
 73
    43
 74
     0
 42
0.0000000001
 43
0.0000000001
 40
0.0
 40
0.0
 40
0.0
 40
0.0
 40
17.58460153230852
 40
29.83252768900287
 40
39.79908188142144
 40
47.91642717922833
 40
51.25789277656074
 40
54.25894679862118
 40
59.14039011488142
 40
61.40593890824019
 40
63.58883820396569
 40
65.80618803461253
 40
68.17363108689516
 40
72.78839167587354
 40
78.67695113410721
 40
86.07018808112363
 40
94.60524364699724
 40
105.1228679233727
 40
116.1470831810786
 40
122.9399121028237
 40
126.4232914574575
 40
135.7967442436584
 40
140.6482202282333
 40
149.9970741471808
 40
160.0888299369407
 40
168.6629681298915
 40
172.8804755947183
 40
176.3905977054617
 40
179.9099914377648
 40
182.9772812029904
 40
187.9046755030803
 40
190.113437730521
 40
192.2075937279201
 40
195.8461467744272
 40
197.7381829555077
 40
200.0681099919443
 40
205.4847459738272
 40
211.9849892734173
 40
219.5289654907856
 40
228.9828515521894
 40
240.3837851846004
 40
255.8058287011838
 40
255.8058287011838
 40
255.8058287011838
 40
255.8058287011838
 10
148.1580192800722
 20
2240.061766904782
 30
0.0
 10
153.555604776419
 20
2242.347271672945
 30
0.0
 10
162.7131605642937
 20
2246.22462411554
 30
0.0
 10
174.7516997396126
 20
2251.806182386281
 30
0.0
 10
183.663854232722
 20
2256.594411955185
 30
0.0
 10
189.6308844863717
 20
2260.539602131152
 30
0.0
 10
193.3179675667957
 20
2263.655409109284
 30
0.0
 10
195.9123940434059
 20
2266.355688885841
 30
0.0
 10
197.7990380999314
 20
2269.206771129438
 30
0.0
 10
198.6851239097964
 20
2272.220248672923
 30
0.0
 10
198.7958978759393
 20
2274.450345779641
 30
0.0
 10
198.3747380211679
 20
2276.68500597332
 30
0.0
 10
197.1394696438192
 20
2279.510787779197
 30
0.0
 10
194.4720385992482
 20
2282.916114922513
 30
0.0
 10
189.9383905707958
 20
2286.81470610196
 30
0.0
 10
183.858086831453
 20
2290.825484636412
 30
0.0
 10
176.1128616831422
 20
2295.04227064149
 30
0.0
 10
167.0564694982608
 20
2299.349233732823
 30
0.0
 10
158.415760711325
 20
2303.164436551949
 30
0.0
 10
151.8073261119749
 20
2305.765637317095
 30
0.0
 10
145.6531552996379
 20
2308.007254870853
 30
0.0
 10
140.0932742976174
 20
2309.990446887201
 30
0.0
 10
132.7261814724057
 20
2312.724422535488
 30
0.0
 10
125.2272592223056
 20
2315.784759206387
 30
0.0
 10
116.7524799519474
 20
2319.713948828438
 30
0.0
 10
110.0234611702175
 20
2323.31547160657
 30
0.0
 10
105.436569166945
 20
2326.236119825005
 30
0.0
 10
102.4030776151886
 20
2328.441228122904
 30
0.0
 10
99.84319785004156
 20
2330.631831451295
 30
0.0
 10
97.12989973541076
 20
2333.348937765779
 30
0.0
 10
95.12718241483513
 20
2336.133543989263
 30
0.0
 10
94.05197744653763
 20
2339.043402465457
 30
0.0
 10
93.73006918864095
 20
2341.691012199933
 30
0.0
 10
94.32217006881879
 20
2344.221337391585
 30
0.0
 10
95.62334123001045
 20
2346.504184477906
 30
0.0
 10
97.5605372016731
 20
2349.075938880594
 30
0.0
 10
101.0890527704435
 20
2352.291837212016
 30
0.0
 10
106.4457012672435
 20
2355.956707001755
 30
0.0
 10
113.2926152317843
 20
2359.778495740783
 30
0.0
 10
121.8250187438486
 20
2363.881118736233
 30
0.0
 10
132.9292473022919
 20
2368.67341212663
 30
0.0
 10
141.2263571160809
 20
2372.005941726628
 30
0.0
 10
145.9987018747525
 20
2373.916677649036
 30
0.0
  0
SPLINE
  5
10A
330
1F
100
AcDbEntity
  8
LINEE VISIBILI 2D
100
AcDbSpline
210
0.0
220
0.0
230
1.0
 70
     8
 71
     3
 72
    64
 73
    60
 74
     0
 42
0.0000000001
 43
0.0000000001
 40
0.0
 40
0.0
 40
0.0
 40
0.0
 40
20.10278354940399
 40
34.03324154153206
 40
44.28866631304343
 40
48.70169579550406
 40
52.62727253431553
 40
56.08667957054464
 40
58.89418272207066
 40
61.43610395657108
 40
64.06308060902133
 40
66.28219147707688
 40
69.14619371489269
 40
72.36430831175167
 40
76.0293744435974
 40
80.19166036458994
 40
85.25853927457409
 40
91.3139146946508
 40
97.92542611462724
 40
111.3781635733462
 40
137.9385759109823
 40
147.6128676234551
 40
157.2001270737445
 40
165.4667696013973
 40
173.4787833222438
 40
180.1360856017596
 40
182.9783559303403
 40
185.5104985901156
 40
187.5250577983228
 40
188.3993456082753
 40
189.4769378860131
 40
189.9143262461199
 40
191.1994719693996
 40
194.5858810968786
 40
197.4156458273019
 40
200.3497103731791
 40
207.9771131566989
 40
217.9949576671316
 40
230.5355654291543
 40
245.3341181631447
 40
277.2791792121305
 40
286.5228464433685
 40
294.1300935046154
 40
302.6347224189717
 40
309.1961149301845
 40
314.6852837912371
 40
318.7419678542145
 40
320.97394696371
 40
323.0766169596764
 40
325.1613521458847
 40
327.3446914854652
 40
329.7249365071423
 40
332.3707008173763
 40
335.3253044264206
 40
339.3103831553845
 40
347.8522128717016
 40
357.8558998361342
 40
370.0838120005744
 40
389.0298744830188
 40
389.0298744830188
 40
389.0298744830188
 40
389.0298744830188
 10
538.3087204080848
 20
2205.969819091151
 30
0.0
 10
544.4805887999718
 20
2208.579486092859
 30
0.0
 10
554.9315287530792
 20
2212.994585992185
 30
0.0
 10
568.2671409973506
 20
2219.341581524974
 30
0.0
 10
576.5469715918817
 20
2224.087718453023
 30
0.0
 10
581.5749490340926
 20
2227.726406710459
 30
0.0
 10
584.5326601695424
 20
2230.324401027497
 30
0.0
 10
586.7962402744611
 20
2232.870896168245
 30
0.0
 10
588.3614991680336
 20
2235.369834922687
 30
0.0
 10
589.2767737154462
 20
2237.886326746738
 30
0.0
 10
589.4598053830058
 20
2240.369838953767
 30
0.0
 10
588.9620832427789
 20
2242.908901083596
 30
0.0
 10
587.7968688366536
 20
2245.439886882852
 30
0.0
 10
585.8618900380242
 20
2248.064886767146
 30
0.0
 10
583.2500402342353
 20
2250.671077678624
 30
0.0
 10
579.8784432659742
 20
2253.344662857858
 30
0.0
 10
575.6331020949623
 20
2256.16738201244
 30
0.0
 10
570.5092113469811
 20
2259.119604303123
 30
0.0
 10
562.7686897690455
 20
2263.109927053899
 30
0.0
 10
548.6214266984751
 20
2269.553530244562
 30
0.0
 10
533.3005268372398
 20
2275.848665282947
 30
0.0
 10
519.3173457362163
 20
2281.996285746833
 30
0.0
 10
511.0225101387407
 20
2285.923303144213
 30
0.0
 10
503.4035902031214
 20
2289.966024586328
 30
0.0
 10
496.9299723687088
 20
2294.050150609523
 30
0.0
 10
492.4229896461564
 20
2297.791240110216
 30
0.0
 10
489.8137676165753
 20
2300.853769786803
 30
0.0
 10
488.4908478957807
 20
2302.938042450662
 30
0.0
 10
487.7976618918097
 20
2304.616052468234
 30
0.0
 10
487.4810346550437
 20
2305.9019563321
 30
0.0
 10
487.3976099159678
 20
2306.695612926664
 30
0.0
 10
487.2206458268045
 20
2307.611761417477
 30
0.0
 10
486.7002344966834
 20
2309.243124989995
 30
0.0
 10
485.3412962952523
 20
2311.371704980427
 30
0.0
 10
483.2904733501194
 20
2313.629111333451
 30
0.0
 10
479.9784936039168
 20
2316.632833505431
 30
0.0
 10
474.3466858583444
 20
2320.57486874892
 30
0.0
 10
465.5355828486962
 20
2325.449970499619
 30
0.0
 10
454.2529741021086
 20
2330.728543327183
 30
0.0
 10
436.076001433458
 20
2338.484767380956
 30
0.0
 10
418.6424499323872
 20
2345.160481786507
 30
0.0
 10
403.7390285978931
 20
2351.682846246405
 30
0.0
 10
396.1194639801309
 20
2355.342524033215
 30
0.0
 10
389.4833670528338
 20
2358.970348761131
 30
0.0
 10
383.7915697617446
 20
2362.802128150822
 30
0.0
 10
379.7747292898163
 20
2366.393820554503
 30
0.0
 10
377.4260207750603
 20
2369.574711783787
 30
0.0
 10
376.3709619560037
 20
2372.188074641848
 30
0.0
 10
376.0315776651017
 20
2374.313242683236
 30
0.0
 10
376.2187681305716
 20
2376.447118820534
 30
0.0
 10
376.9336166368849
 20
2378.558151805377
 30
0.0
 10
378.1408773286734
 20
2380.647257929767
 30
0.0
 10
379.8180152663369
 20
2382.719915265156
 30
0.0
 10
382.1148244076084
 20
2384.947759997851
 30
0.0
 10
386.1798100963408
 20
2388.138105914962
 30
0.0
 10
392.5932058555893
 20
2392.069454951448
 30
0.0
 10
401.7594783952173
 20
2396.683237744362
 30
0.0
 10
414.330380641391
 20
2402.20193948015
 30
0.0
 10
423.9848646769236
 20
2406.04765359695
 30
0.0
 10
429.848751188112
 20
2408.392175999015
 30
0.0
  0
SPLINE
  5
10B
330
1F
100
AcDbEntity
  8
LINEE VISIBILI 2D
100
AcDbSpline
210
0.0
220
0.0
230
1.0
 70
    12
 71
     2
 72
     6
 73
     3
 74
     0
 42
0.0000000001
 43
0.0000000001
 40
-1.570786640944618
 40
-1.570786640944618
 40
-1.570786640944618
 40
0.0
 40
0.0
 40
0.0
 10
3.537049874958464
 20
614.4752898738953
 30
0.0
 41
1.0
 10
3.536469633860464
 20
613.4709807567284
 30
0.0
 41
0.7071207394644577
 10
4.538412159996009
 20
613.4709602444699
 30
0.0
 41
1.0
  0
SPLINE
  5
10C
330
1F
100
AcDbEntity
  8
LINEE VISIBILI 2D
100
AcDbSpline
210
0.0
220
0.0
230
1.0
 70
    28
 71
     2
 72
     8
 73
     5
 74
     0
 42
0.0000000001
 43
0.0000000001
 40
410.8292182552815
 40
410.8292182552815
 40
410.8292182552815
 40
527.4606171188615
 40
527.4606171188615
 40
703.493510858543
 40
703.493510858543
 40
703.493510858543
 10
4.538412159996009
 20
613.4709602444701
 30
0.0
 41
0.8690322052241014
 10
4.153156197561219
 20
613.4709602444694
 30
0.0
 41
0.8059422582782377
 10
60.51868550967129
 20
613.4709602444692
 30
0.0
 41
1.0
 10
157.4827605791809
 20
613.4709602444694
 30
0.0
 41
0.707106781186548
 10
213.4649954222855
 20
613.4709602444692
 30
0.0
 41
1.0
  0
SPLINE
  5
10D
330
1F
100
AcDbEntity
  8
LINEE VISIBILI 2D
100
AcDbSpline
210
0.0
220
0.0
230
1.0
 70
    24
 71
     2
 72
     6
 73
     3
 74
     0
 42
0.0000000001
 43
0.0000000001
 40
0.0
 40
0.0
 40
0.0
 40
14.99647008484487
 40
14.99647008484487
 40
14.99647008484487
 10
213.4649954222855
 20
613.4709602444692
 30
0.0
 10
220.9642119839206
 20
613.4709602444696
 30
0.0
 10
228.4634285455557
 20
613.4709602444699
 30
0.0
  0
SPLINE
  5
10E
330
1F
100
AcDbEntity
  8
LINEE VISIBILI 2D
100
AcDbSpline
210
0.0
220
0.0
230
1.0
 70
    12
 71
     2
 72
     6
 73
     3
 74
     0
 42
0.0000000001
 43
0.0000000001
 40
-1.570793103207244
 40
-1.570793103207244
 40
-1.570793103207244
 40
0.0
 40
0.0
 40
0.0
 10
228.4634285455557
 20
613.4709602444699
 30
0.0
 41
1.0
 10
229.4653861280413
 20
613.4709657004021
 30
0.0
 41
0.7071100928873431
 10
229.4641916222014
 20
614.4796195033256
 30
0.0
 41
1.0
  0
SPLINE
  5
10F
330
1F
100
AcDbEntity
  8
LINEE VISIBILI 2D
100
AcDbSpline
210
0.0
220
0.0
230
1.0
 70
    12
 71
     2
 72
     6
 73
     3
 74
     0
 42
0.0000000001
 43
0.0000000001
 40
0.0
 40
0.0
 40
0.0
 40
15.13343831310091
 40
15.13343831310091
 40
15.13343831310091
 10
229.4641916222014
 20
614.4796195033256
 30
0.0
 41
1.0
 10
221.8974773460614
 20
614.4891996746877
 30
0.0
 41
0.9999997652313711
 10
214.3307570464317
 20
614.4884099927916
 30
0.0
 41
1.0
  0
SPLINE
  5
110
330
1F
100
AcDbEntity
  8
LINEE VISIBILI 2D
100
AcDbSpline
210
0.0
220
0.0
230
1.0
 70
    12
 71
     2
 72
     8
 73
     5
 74
     0
 42
0.0000000001
 43
0.0000000001
 40
0.0
 40
0.0
 40
0.0
 40
154.3120728953465
 40
154.3120728953465
 40
210.7931110996816
 40
210.7931110996816
 40
210.7931110996816
 10
214.3307570464317
 20
614.4884099927916
 30
0.0
 41
1.0
 10
137.1747223273244
 20
614.4704061610483
 30
0.0
 41
0.9999999927684972
 10
60.01868550967123
 20
614.4709602444067
 30
0.0
 41
1.0
 10
31.77816580693747
 20
614.4655739562576
 30
0.0
 41
0.9999999408176383
 10
3.537049874958464
 20
614.4752898738953
 30
0.0
 41
1.0
  0
SPLINE
  5
111
330
1F
100
AcDbEntity
  8
LINEE VISIBILI 2D
100
AcDbSpline
210
0.0
220
0.0
230
1.0
 70
    12
 71
     2
 72
     6
 73
     3
 74
     0
 42
0.0000000001
 43
0.0000000001
 40
-1.570793103207033
 40
-1.570793103207033
 40
-1.570793103207033
 40
0.0
 40
0.0
 40
0.0
 10
596.2117412422438
 20
613.4709602444708
 30
0.0
 41
1.0
 10
597.211735786304
 20
613.4709657004017
 30
0.0
 41
0.7071100928872124
 10
597.2111955699711
 20
614.4721481926803
 30
0.0
 41
1.0
  0
SPLINE
  5
112
330
1F
100
AcDbEntity
  8
LINEE VISIBILI 2D
100
AcDbSpline
210
0.0
220
0.0
230
1.0
 70
    12
 71
     2
 72
     8
 73
     5
 74
     0
 42
0.0000000001
 43
0.0000000001
 40
0.0
 40
0.0
 40
0.0
 40
15.13328153964639
 40
15.13328153964639
 40
169.4454656734053
 40
169.4454656734053
 40
169.4454656734053
 10
597.2111955699711
 20
614.4721481926803
 30
0.0
 41
1.0
 10
589.6440114334982
 20
614.4691546231514
 30
0.0
 41
0.9999999217395296
 10
582.0773704843327
 20
614.4709602444669
 30
0.0
 41
1.0
 10
504.9212783669591
 20
614.4743279153832
 30
0.0
 41
0.9999999975895073
 10
427.7651874611792
 20
614.4884099927662
 30
0.0
 41
1.0
  0
SPLINE
  5
113
330
1F
100
AcDbEntity
  8
LINEE VISIBILI 2D
100
AcDbSpline
210
0.0
220
0.0
230
1.0
 70
    12
 71
     2
 72
     6
 73
     3
 74
     0
 42
0.0000000001
 43
0.0000000001
 40
0.0
 40
0.0
 40
0.0
 40
56.48130126466913
 40
56.48130126466913
 40
56.48130126466913
 10
427.7651874611792
 20
614.4884099927662
 30
0.0
 41
1.0
 10
399.5245365232203
 20
614.4864825117111
 30
0.0
 41
0.9999999802730294
 10
371.2833444521063
 20
614.472148192685
 30
0.0
 41
1.0
  0
SPLINE
  5
114
330
1F
100
AcDbEntity
  8
LINEE VISIBILI 2D
100
AcDbSpline
210
0.0
220
0.0
230
1.0
 70
    12
 71
     2
 72
     6
 73
     3
 74
     0
 42
0.0000000001
 43
0.0000000001
 40
-1.570786640944499
 40
-1.570786640944499
 40
-1.570786640944499
 40
0.0
 40
0.0
 40
0.0
 10
371.2833444521063
 20
614.472148192685
 30
0.0
 41
1.0
 10
371.2828192921231
 20
613.4709807567285
 30
0.0
 41
0.7071207394642474
 10
372.2847618182587
 20
613.4709602444701
 30
0.0
 41
1.0
  0
SPLINE
  5
115
330
1F
100
AcDbEntity
  8
LINEE VISIBILI 2D
100
AcDbSpline
210
0.0
220
0.0
230
1.0
 70
    28
 71
     2
 72
     6
 73
     3
 74
     0
 42
0.0000000001
 43
0.0000000001
 40
234.9558405406462
 40
234.9558405406462
 40
234.9558405406462
 40
351.746755429271
 40
351.746755429271
 40
351.746755429271
 10
372.2847618182587
 20
613.4709602444701
 30
0.0
 41
0.8690322052240892
 10
371.8995058558307
 20
613.4709602444691
 30
0.0
 41
0.8059422582782565
 10
428.265035167934
 20
613.4709602444692
 30
0.0
 41
1.0
  0
SPLINE
  5
116
330
1F
100
AcDbEntity
  8
LINEE VISIBILI 2D
100
AcDbSpline
210
0.0
220
0.0
230
1.0
 70
    24
 71
     2
 72
     6
 73
     3
 74
     0
 42
0.0000000001
 43
0.0000000001
 40
0.0
 40
0.0
 40
0.0
 40
167.9427799974591
 40
167.9427799974591
 40
167.9427799974591
 10
428.265035167934
 20
613.4709602444692
 30
0.0
 10
512.2383882050889
 20
613.47096024447
 30
0.0
 10
596.2117412422438
 20
613.4709602444708
 30
0.0
  0
SPLINE
  5
117
330
1F
100
AcDbEntity
  8
LINEE VISIBILI 2D
100
AcDbSpline
210
0.0
220
0.0
230
1.0
 70
     8
 71
     3
 72
    72
 73
    68
 74
     0
 42
0.0000000001
 43
0.0000000001
 40
0.0
 40
0.0
 40
0.0
 40
0.0
 40
8.308910443208621
 40
12.3395021582962
 40
14.60700575064175
 40
16.87370410633183
 40
35.26405267491066
 40
53.40315571946698
 40
61.4642383486073
 40
70.53222688049114
 40
81.6163614796594
 40
93.70926434862264
 40
104.7947976195278
 40
116.8853621300967
 40
140.061871656821
 40
163.2394720308038
 40
186.414894584302
 40
198.5083006250016
 40
209.594382240223
 40
220.6765654741782
 40
232.7675097651787
 40
243.8502938233859
 40
255.9283117357379
 40
260.9603949834838
 40
266.2449815418671
 40
271.5312192356741
 40
276.5678748040818
 40
286.1489421826469
 40
296.2503769422432
 40
304.3506299672143
 40
313.0246245063105
 40
320.2233654207489
 40
323.0543447853071
 40
327.1668394589934
 40
328.7039425115274
 40
333.429223373808
 40
337.1204386502088
 40
343.7258943997804
 40
355.4099146939001
 40
367.0938406211901
 40
380.3027792300644
 40
394.0188104266895
 40
403.1635491575306
 40
420.4354765132862
 40
427.5476255291426
 40
432.6264835654547
 40
445.3283482482966
 40
458.0277877567103
 40
470.220133633286
 40
495.6204357580947
 40
501.2080259393084
 40
507.8126138375939
 40
510.8605025342384
 40
513.9083219241405
 40
521.0201655449048
 40
533.2127350418585
 40
545.4047337132836
 40
569.789827300291
 40
589.5997067979965
 40
597.9820192632928
 40
601.537259279569
 40
602.8087144667559
 40
605.6036353994007
 40
607.8892329734625
 40
612.9662897705972
 40
624.1221169911298
 40
647.8936605793602
 40
647.8936605793602
 40
647.8936605793602
 40
647.8936605793602
 10
480.5652672765352
 20
146.0851824560044
 30
0.0
 10
480.8662873647683
 20
148.836700144282
 30
0.0
 10
480.945016798127
 20
152.9748745137894
 30
0.0
 10
480.1646307308518
 20
157.7911722841553
 30
0.0
 10
479.4947877583923
 20
160.5659797244082
 30
0.0
 10
477.4163991294569
 20
167.9224707191628
 30
0.0
 10
471.3420373812791
 20
179.5784009891728
 30
0.0
 10
460.1411237074424
 20
189.6988579144586
 30
0.0
 10
449.6586352838254
 20
195.1110619357197
 30
0.0
 10
440.6638803311261
 20
197.9738535077793
 30
0.0
 10
429.9177098454606
 20
199.1795171282306
 30
0.0
 10
418.494737479134
 20
197.8421468311048
 30
0.0
 10
407.354304425573
 20
193.8792776331172
 30
0.0
 10
394.2539209882275
 20
185.4720198311041
 30
0.0
 10
382.092473432946
 20
169.6170928433459
 30
0.0
 10
377.3275795349045
 20
146.3103095892757
 30
0.0
 10
382.4039400460795
 20
126.9659601064174
 30
0.0
 10
391.1909301427088
 20
114.1316532136483
 30
0.0
 10
399.6351460671764
 20
106.3395907018356
 30
0.0
 10
409.5744448656486
 20
100.5828142486444
 30
0.0
 10
420.5653296706076
 20
97.17867522942284
 30
0.0
 10
432.3863927989079
 20
96.58598387529007
 30
0.0
 10
441.6919811823342
 20
98.25013523650018
 30
0.0
 10
448.7641762344265
 20
100.6634227070952
 30
0.0
 10
453.5134825956586
 20
102.7959616056312
 30
0.0
 10
458.0895805370459
 20
105.2784934931919
 30
0.0
 10
463.5979691175407
 20
108.992262198473
 30
0.0
 10
469.784374060215
 20
114.4810032157174
 30
0.0
 10
475.5108670690413
 20
121.8105668312074
 30
0.0
 10
479.8334965285807
 20
129.6825133965002
 30
0.0
 10
482.5462288127383
 20
137.2289030143445
 30
0.0
 10
483.8175219238719
 20
143.3419697255965
 30
0.0
 10
484.3548457489302
 20
148.0300332171435
 30
0.0
 10
484.438966000256
 20
150.8569083545963
 30
0.0
 10
484.7311656394124
 20
154.3032540933617
 30
0.0
 10
485.2104626406833
 20
157.5898540958124
 30
0.0
 10
486.3227779606079
 20
162.4749799691587
 30
0.0
 10
488.6421843861514
 20
169.4401415452246
 30
0.0
 10
493.3463849004553
 20
178.3181632543915
 30
0.0
 10
501.29888966563
 20
187.6588928473628
 30
0.0
 10
511.7514659527041
 20
195.327963776808
 30
0.0
 10
522.9580305788594
 20
199.9360379870747
 30
0.0
 10
536.1911485282606
 20
202.2417716500736
 30
0.0
 10
547.4753422912073
 20
201.4366274876209
 30
0.0
 10
556.8987486495581
 20
198.5926947385478
 30
0.0
 10
564.5214083485993
 20
195.2887464271416
 30
0.0
 10
573.0957125197629
 20
189.7093123862888
 30
0.0
 10
581.8242379679248
 20
180.6013704644316
 30
0.0
 10
590.3852589858412
 20
166.0580050581775
 30
0.0
 10
593.0646754938055
 20
151.508927080251
 30
0.0
 10
591.7890632488312
 20
139.0303356760769
 30
0.0
 10
590.6763868501051
 20
134.0603162706581
 30
0.0
 10
589.396204230894
 20
130.0258898191398
 30
0.0
 10
587.8264124960555
 20
125.9094425779853
 30
0.0
 10
584.5364863718676
 20
119.2088154967823
 30
0.0
 10
578.293938061249
 20
110.6802728405611
 30
0.0
 10
565.8526894806134
 20
100.0565378499595
 30
0.0
 10
547.9140093641516
 20
93.01050564596602
 30
0.0
 10
530.0857603956238
 20
93.75924849665586
 30
0.0
 10
519.9524878699546
 20
96.87131465411505
 30
0.0
 10
515.9045327380867
 20
98.62306519533425
 30
0.0
 10
513.6223188308039
 20
99.73502600475935
 30
0.0
 10
511.7596270090189
 20
100.745585140523
 30
0.0
 10
508.6854791363443
 20
102.1667160843581
 30
0.0
 10
502.9268364691544
 20
104.4060591584815
 30
0.0
 10
489.8537469459467
 20
107.3686012654001
 30
0.0
 10
477.990299870208
 20
106.2485280931302
 30
0.0
 10
470.4519911067889
 20
103.8020008818889
 30
0.0
  0
SPLINE
  5
118
330
1F
100
AcDbEntity
  8
LINEE VISIBILI 2D
100
AcDbSpline
210
0.0
220
0.0
230
1.0
 70
    12
 71
     2
 72
     6
 73
     3
 74
     0
 42
0.0000000001
 43
0.0000000001
 40
0.0
 40
0.0
 40
0.0
 40
7.699970715029166
 40
7.699970715029166
 40
7.699970715029166
 10
470.4519911067889
 20
103.8020008818889
 30
0.0
 41
1.0
 10
466.7836497503553
 20
102.6128103787177
 30
0.0
 41
0.9975531319855276
 10
463.3170401478783
 20
100.9235746621926
 30
0.0
 41
1.0
  0
SPLINE
  5
119
330
1F
100
AcDbEntity
  8
LINEE VISIBILI 2D
100
AcDbSpline
210
0.0
220
0.0
230
1.0
 70
     8
 71
     3
 72
    31
 73
    27
 74
     0
 42
0.0000000001
 43
0.0000000001
 40
0.0
 40
0.0
 40
0.0
 40
0.0
 40
17.15508030150472
 40
25.727572941212
 40
34.29989566713297
 40
51.44502566748258
 40
68.58979556664535
 40
85.73403863600258
 40
102.8796122083277
 40
111.4521304541143
 40
119.5959767238986
 40
136.3123437435518
 40
144.8843143214114
 40
153.4569464982737
 40
162.0297110080567
 40
170.6023482498352
 40
187.7470124253238
 40
204.8917154070981
 40
213.4646944617337
 40
222.0372175454303
 40
226.752165313332
 40
231.0383461212559
 40
239.6109179475848
 40
257.6124798917714
 40
266.1851424386603
 40
274.3252108410107
 40
274.3252108410107
 40
274.3252108410107
 40
274.3252108410107
 10
463.3170401478783
 20
100.9235746621926
 30
0.0
 10
458.1746840722125
 20
98.42096699847254
 30
0.0
 10
451.0516328760383
 20
93.46578052542417
 30
0.0
 10
443.3955892656702
 20
84.92372489015317
 30
0.0
 10
437.2774187964829
 20
75.22235701386755
 30
0.0
 10
432.8026703233193
 20
61.43725417682556
 30
0.0
 10
433.2616544014679
 20
44.05439478572814
 30
0.0
 10
439.3628637835176
 20
27.77316074915366
 30
0.0
 10
448.6994509567904
 20
16.68153370154436
 30
0.0
 10
457.8852890538441
 20
10.06614147231046
 30
0.0
 10
467.9247924053076
 20
5.133467779943142
 30
0.0
 10
478.9574112825192
 20
2.743016380831171
 30
0.0
 10
490.2795355021781
 20
3.10355236694414
 30
0.0
 10
498.7046076720257
 20
4.855599385503633
 30
0.0
 10
506.7215560850849
 20
7.965958950347422
 30
0.0
 10
516.5897763144123
 20
13.82281742118026
 30
0.0
 10
526.7528008691867
 20
24.14858252847077
 30
0.0
 10
533.0148985834743
 20
37.21107651713457
 30
0.0
 10
535.1722201540896
 20
48.48432106903507
 30
0.0
 10
535.3489099582406
 20
55.78966525030499
 30
0.0
 10
534.7337125432657
 20
61.62384946176488
 30
0.0
 10
533.6090032961622
 20
67.37657304097212
 30
0.0
 10
530.3395907284314
 20
77.17447574622946
 30
0.0
 10
523.8015840442997
 20
87.10127931401183
 30
0.0
 10
515.1659067504299
 20
94.87793215173181
 30
0.0
 10
510.3086110036953
 20
97.67583583251772
 30
0.0
 10
507.8471549313813
 20
98.81106541635364
 30
0.0
  0
SPLINE
  5
11A
330
1F
100
AcDbEntity
  8
LINEE VISIBILI 2D
100
AcDbSpline
210
0.0
220
0.0
230
1.0
 70
    12
 71
     2
 72
     6
 73
     3
 74
     0
 42
0.0000000001
 43
0.0000000001
 40
0.0
 40
0.0
 40
0.0
 40
3.023491850870144
 40
3.023491850870144
 40
3.023491850870144
 10
507.8471549313813
 20
98.81106541635364
 30
0.0
 41
1.0
 10
508.5607461950983
 20
100.1437931647879
 30
0.0
 41
0.9999999999866256
 10
509.2743512531048
 20
101.4765135483975
 30
0.0
 41
1.0
  0
SPLINE
  5
11B
330
1F
100
AcDbEntity
  8
LINEE VISIBILI 2D
100
AcDbSpline
210
0.0
220
0.0
230
1.0
 70
     8
 71
     3
 72
    34
 73
    30
 74
     0
 42
0.0000000001
 43
0.0000000001
 40
0.0
 40
0.0
 40
0.0
 40
0.0
 40
8.817787190680768
 40
17.1968380266721
 40
35.27783822480119
 40
44.09778261582613
 40
52.91766916218825
 40
70.55812673557999
 40
79.3776316889692
 40
88.19759998644363
 40
97.01780699248685
 40
105.8378619411639
 40
123.4777901885046
 40
141.118374263745
 40
149.9383424394471
 40
158.7588555322066
 40
163.1685634074031
 40
167.5786018470952
 40
176.3986139726995
 40
194.0386750561289
 40
202.8587011798365
 40
211.6789087865483
 40
220.4991114143647
 40
229.3197840131661
 40
238.1394063620775
 40
246.9593574159118
 40
264.158509052723
 40
272.9786904218296
 40
282.2427525493709
 40
282.2427525493709
 40
282.2427525493709
 40
282.2427525493709
 10
509.2743512531048
 20
101.4765135483975
 30
0.0
 10
511.9341725690294
 20
100.2309600637618
 30
0.0
 10
516.9088431329058
 20
97.31518604930369
 30
0.0
 10
525.7040967193756
 20
89.44487588408248
 30
0.0
 10
532.4294727458285
 20
79.61030980222954
 30
0.0
 10
536.5471794237786
 20
68.38905685250768
 30
0.0
 10
538.7193887417835
 20
56.79373645417326
 30
0.0
 10
538.0359584236012
 20
44.89625081806984
 30
0.0
 10
534.5245450434985
 20
33.63195468923136
 30
0.0
 10
530.5205155104992
 20
25.7374262825614
 30
0.0
 10
525.3145042900675
 20
18.58586822232411
 30
0.0
 10
516.9221066962342
 20
10.28482907777356
 30
0.0
 10
504.066666655146
 20
2.760930916570315
 30
0.0
 10
489.4985927792649
 20
-0.3276171138679672
 30
0.0
 10
477.7010567835415
 20
0.1718409156718513
 30
0.0
 10
470.4824020457153
 20
1.651257291905327
 30
0.0
 10
464.9009340337999
 20
3.525848927518056
 30
0.0
 10
459.492702948553
 20
5.84277481360575
 30
0.0
 10
450.5856780178717
 20
11.0682400627705
 30
0.0
 10
442.0740150950805
 20
19.40517801783349
 30
0.0
 10
435.8737969410474
 20
29.44366475887317
 30
0.0
 10
432.5433617337409
 20
37.64573558244753
 30
0.0
 10
430.5793150453529
 20
46.2718956437338
 30
0.0
 10
430.0156100734384
 20
55.10468289165414
 30
0.0
 10
430.9220362409599
 20
63.90826639864449
 30
0.0
 10
433.9958618121188
 20
75.14774677540507
 30
0.0
 10
439.6829664225504
 20
85.43831051713711
 30
0.0
 10
447.6926065482791
 20
94.10460719934267
 30
0.0
 10
452.4129238429031
 20
97.8779437979622
 30
0.0
 10
454.9793144240975
 20
99.59853504225612
 30
0.0
  0
SPLINE
  5
11C
330
1F
100
AcDbEntity
  8
LINEE VISIBILI 2D
100
AcDbSpline
210
0.0
220
0.0
230
1.0
 70
    12
 71
     2
 72
     6
 73
     3
 74
     0
 42
0.0000000001
 43
0.0000000001
 40
0.0
 40
0.0
 40
0.0
 40
7.915315737719864
 40
7.915315737719864
 40
7.915315737719864
 10
454.9793144240975
 20
99.59853504225612
 30
0.0
 41
1.0
 10
458.4067673961711
 20
101.5773280906804
 30
0.0
 41
0.9999999999999691
 10
461.8342269483639
 20
103.5561221779598
 30
0.0
 41
1.0
  0
SPLINE
  5
11D
330
1F
100
AcDbEntity
  8
LINEE VISIBILI 2D
100
AcDbSpline
210
0.0
220
0.0
230
1.0
 70
     8
 71
     3
 72
    74
 73
    70
 74
     0
 42
0.0000000001
 43
0.0000000001
 40
0.0
 40
0.0
 40
0.0
 40
0.0
 40
28.58296787033375
 40
42.89941576465814
 40
49.39683125631448
 40
52.50958526347728
 40
54.32386899657012
 40
56.13673067972572
 40
57.68732244756414
 40
62.07374137855867
 40
72.10745869800256
 40
84.44756601704336
 40
96.7856011390966
 40
113.2370770331684
 40
121.4629281187201
 40
129.1753515877318
 40
145.112403809053
 40
153.3379529845941
 40
161.0489843043116
 40
184.6974756828269
 40
208.8622903958161
 40
220.6852940094538
 40
233.0237828477697
 40
245.3616348193958
 40
256.6733652805959
 40
274.6672495590361
 40
283.4073335482208
 40
292.1473033769983
 40
299.3442928773765
 40
307.0597588871034
 40
313.009121185384
 40
315.611625425441
 40
316.6564151112231
 40
319.2760228730699
 40
321.1131611660605
 40
325.5824993873594
 40
335.82614016689
 40
341.0516257729975
 40
346.7798212987636
 40
358.2104935216507
 40
370.6600932140271
 40
376.8781884335116
 40
382.834888661015
 40
388.0143231193574
 40
395.5200305382702
 40
400.7021426852996
 40
406.9205929206626
 40
413.6578033972029
 40
417.2866338852771
 40
419.8786114766958
 40
422.9886951723479
 40
425.5797560648469
 40
428.1713557123529
 40
439.0568912113223
 40
449.4259569319912
 40
459.7959695122988
 40
471.2000608247612
 40
491.9334537906951
 40
513.7087892450216
 40
534.4437923343131
 40
555.177412263286
 40
576.9519673907533
 40
598.7239330007295
 40
619.4594823200242
 40
641.2318410504854
 40
646.6744650370408
 40
649.2671766388714
 40
652.1176363056524
 40
661.9637795869735
 40
661.9637795869735
 40
661.9637795869735
 40
661.9637795869735
 10
461.8342269483639
 20
103.5561221779598
 30
0.0
 10
470.3886989304355
 20
107.7448824534115
 30
0.0
 10
484.8110827871927
 20
110.8112445442444
 30
0.0
 10
501.1814240452398
 20
108.0689584248271
 30
0.0
 10
508.7106889138652
 20
105.4177656182116
 30
0.0
 10
512.191292158201
 20
103.8628097621452
 30
0.0
 10
514.1946277666696
 20
102.8484443721643
 30
0.0
 10
515.7168640394807
 20
102.0328306806231
 30
0.0
 10
518.0553575277359
 20
100.9349263720996
 30
0.0
 10
522.9903131263547
 20
98.92506216284238
 30
0.0
 10
531.6926419839442
 20
96.77383095630326
 30
0.0
 10
543.3435038613824
 20
96.48128979725993
 30
0.0
 10
556.8262913375933
 20
99.48126188921604
 30
0.0
 10
567.7900674623884
 20
105.4802949910158
 30
0.0
 10
575.7946069705764
 20
112.7747150576161
 30
0.0
 10
582.4082273319049
 20
121.1347424359375
 30
0.0
 10
586.9976610054804
 20
130.853311390164
 30
0.0
 10
589.180614462095
 20
141.2899161704495
 30
0.0
 10
589.7746842213239
 20
154.5057176610681
 30
0.0
 10
584.9433679879862
 20
172.8994584634819
 30
0.0
 10
571.2738733141063
 20
188.1134862278368
 30
0.0
 10
556.980761240649
 20
195.7541483192475
 30
0.0
 10
545.092587450663
 20
198.7731525459861
 30
0.0
 10
533.0183804415315
 20
198.9209393297048
 30
0.0
 10
519.3855542821755
 20
195.8518883939632
 30
0.0
 10
508.1590966852947
 20
189.5414955864277
 30
0.0
 10
499.6247116819572
 20
181.3017142600822
 30
0.0
 10
494.7830319735387
 20
174.607275392837
 30
0.0
 10
491.1922710617948
 20
167.5722008264634
 30
0.0
 10
488.941744114408
 20
160.9678259664086
 30
0.0
 10
487.9036450010508
 20
155.6381065878289
 30
0.0
 10
487.5776857935959
 20
152.4531819484376
 30
0.0
 10
487.4313437826146
 20
150.3699616846974
 30
0.0
 10
487.3690348739639
 20
148.536157822156
 30
0.0
 10
487.1041851607962
 20
145.5721445905235
 30
0.0
 10
486.3424613189239
 20
140.1041748985311
 30
0.0
 10
484.563169864836
 20
133.6724960785812
 30
0.0
 10
481.8246214948779
 20
127.1534914257069
 30
0.0
 10
478.2569396375563
 20
120.5881681591407
 30
0.0
 10
472.3303987485118
 20
112.6394198673784
 30
0.0
 10
464.7514461421739
 20
105.9713644233748
 30
0.0
 10
457.7859959792827
 20
101.610604132498
 30
0.0
 10
452.5976308097175
 20
99.03622373475703
 30
0.0
 10
446.8314635034051
 20
96.71145221612255
 30
0.0
 10
441.077374843147
 20
95.11393327556033
 30
0.0
 10
434.8555811598235
 20
94.09094071940463
 30
0.0
 10
428.8063743990581
 20
93.74693185579586
 30
0.0
 10
423.2800238680721
 20
94.11320262894985
 30
0.0
 10
419.0218828637285
 20
94.86609332911962
 30
0.0
 10
415.9981626243421
 20
95.59473599586974
 30
0.0
 10
413.347265879135
 20
96.3848159410634
 30
0.0
 10
410.741324712791
 20
97.30811076809809
 30
0.0
 10
405.7863100283943
 20
99.34650445166642
 30
0.0
 10
398.8359471146886
 20
103.2866518250918
 30
0.0
 10
390.8313323481628
 20
110.2221790381733
 30
0.0
 10
384.1839855675748
 20
118.6858789687207
 30
0.0
 10
377.7918974069395
 20
131.4220149055126
 30
0.0
 10
374.7092896287799
 20
149.4641436263523
 30
0.0
 10
379.5795380616333
 20
170.4309575446331
 30
0.0
 10
392.0457455581605
 20
187.9033168226852
 30
0.0
 10
410.1599689762655
 20
199.4463501879559
 30
0.0
 10
431.7060766898871
 20
203.1892231944077
 30
0.0
 10
452.9971513155481
 20
198.2222387522761
 30
0.0
 10
470.7060656585192
 20
185.450093675997
 30
0.0
 10
479.282237069148
 20
171.5846045592619
 30
0.0
 10
482.2323860515215
 20
162.0797131329755
 30
0.0
 10
483.0536549001072
 20
158.5462642119982
 30
0.0
 10
483.9430384664402
 20
153.5208056669016
 30
0.0
 10
483.9257720803429
 20
149.2555446483431
 30
0.0
 10
483.5770468848738
 20
145.9941367957397
 30
0.0
  0
SPLINE
  5
11E
330
1F
100
AcDbEntity
  8
LINEE VISIBILI 2D
100
AcDbSpline
210
0.0
220
0.0
230
1.0
 70
    12
 71
     2
 72
     6
 73
     3
 74
     0
 42
0.0000000001
 43
0.0000000001
 40
0.0
 40
0.0
 40
0.0
 40
3.013155437105585
 40
3.013155437105585
 40
3.013155437105585
 10
483.5770468848738
 20
145.9941367957397
 30
0.0
 41
1.0
 10
482.0711573252148
 20
146.0396678058795
 30
0.0
 41
0.9999999999852467
 10
480.5652672765352
 20
146.0851824560044
 30
0.0
 41
1.0
  0
SPLINE
  5
11F
330
1F
100
AcDbEntity
  8
LINEE VISIBILI 2D
100
AcDbSpline
210
0.0
220
0.0
230
1.0
 70
    12
 71
     2
 72
     6
 73
     3
 74
     0
 42
0.0000000001
 43
0.0000000001
 40
0.0
 40
0.0
 40
0.0
 40
3.141588394289762
 40
3.141588394289762
 40
3.141588394289762
 10
489.1472496076399
 20
9.29595510485683
 30
0.0
 41
1.0
 10
489.1472424157575
 20
7.295963469251053
 30
0.0
 41
0.7071095311798079
 10
487.1472501938979
 20
7.295955104856969
 30
0.0
 41
1.0
  0
SPLINE
  5
120
330
1F
100
AcDbEntity
  8
LINEE VISIBILI 2D
100
AcDbSpline
210
0.0
220
0.0
230
1.0
 70
    24
 71
     2
 72
     6
 73
     3
 74
     0
 42
0.0000000001
 43
0.0000000001
 40
0.0
 40
0.0
 40
0.0
 40
2.899999999999181
 40
2.899999999999181
 40
2.899999999999181
 10
487.1472501938979
 20
7.295955104856969
 30
0.0
 10
485.6972499007691
 20
7.295955104856899
 30
0.0
 10
484.2472496076402
 20
7.29595510485683
 30
0.0
  0
SPLINE
  5
121
330
1F
100
AcDbEntity
  8
LINEE VISIBILI 2D
100
AcDbSpline
210
0.0
220
0.0
230
1.0
 70
    24
 71
     2
 72
     6
 73
     3
 74
     0
 42
0.0000000001
 43
0.0000000001
 40
0.0
 40
0.0
 40
0.0
 40
2.900000000000091
 40
2.900000000000091
 40
2.900000000000091
 10
484.2472496076402
 20
7.29595510485683
 30
0.0
 10
482.7972496076402
 20
7.29595510485683
 30
0.0
 10
481.3472496076402
 20
7.29595510485683
 30
0.0
  0
SPLINE
  5
122
330
1F
100
AcDbEntity
  8
LINEE VISIBILI 2D
100
AcDbSpline
210
0.0
220
0.0
230
1.0
 70
    12
 71
     2
 72
     6
 73
     3
 74
     0
 42
0.0000000001
 43
0.0000000001
 40
0.0
 40
0.0
 40
0.0
 40
3.141579620927331
 40
3.141579620927331
 40
3.141579620927331
 10
481.347248435123
 20
7.295955104857057
 30
0.0
 41
1.0
 10
479.3472772404886
 20
7.295983910205939
 30
0.0
 41
0.7071167582179644
 10
479.3472496076397
 20
9.29595510485683
 30
0.0
 41
1.0
  0
SPLINE
  5
123
330
1F
100
AcDbEntity
  8
LINEE VISIBILI 2D
100
AcDbSpline
210
0.0
220
0.0
230
1.0
 70
    24
 71
     2
 72
     6
 73
     3
 74
     0
 42
0.0000000001
 43
0.0000000001
 40
-4.900000000000773
 40
-4.900000000000773
 40
-4.900000000000773
 40
0.0
 40
0.0
 40
0.0
 10
479.3472496076397
 20
9.29595510485683
 30
0.0
 10
481.7972496076401
 20
9.29595510485683
 30
0.0
 10
484.2472496076405
 20
9.29595510485683
 30
0.0
  0
SPLINE
  5
124
330
1F
100
AcDbEntity
  8
LINEE VISIBILI 2D
100
AcDbSpline
210
0.0
220
0.0
230
1.0
 70
    24
 71
     2
 72
     6
 73
     3
 74
     0
 42
0.0000000001
 43
0.0000000001
 40
-4.899999999999409
 40
-4.899999999999409
 40
-4.899999999999409
 40
0.0
 40
0.0
 40
0.0
 10
484.2472496076405
 20
9.29595510485683
 30
0.0
 10
486.6972496076402
 20
9.29595510485683
 30
0.0
 10
489.1472496076399
 20
9.29595510485683
 30
0.0
  0
SPLINE
  5
125
330
1F
100
AcDbEntity
  8
LINEE VISIBILI 2D
100
AcDbSpline
210
0.0
220
0.0
230
1.0
 70
    12
 71
     2
 72
     8
 73
     5
 74
     0
 42
0.0000000001
 43
0.0000000001
 40
0.0
 40
0.0
 40
0.0
 40
21.20575041173127
 40
21.20575041173127
 40
42.4115008234625
 40
42.4115008234625
 40
42.4115008234625
 10
497.4158338946802
 20
116.3050121537668
 30
0.0
 41
1.0
 10
509.1071768457702
 20
109.5550121537669
 30
0.0
 41
0.7071067811865516
 10
515.8571768457703
 20
121.2463551048568
 30
0.0
 41
1.0
 10
522.6071768457704
 20
132.9376980559468
 30
0.0
 41
0.7071067811865429
 10
510.9158338946802
 20
139.6876980559468
 30
0.0
 41
1.0
  0
SPLINE
  5
126
330
1F
100
AcDbEntity
  8
LINEE VISIBILI 2D
100
AcDbSpline
210
0.0
220
0.0
230
1.0
 70
    12
 71
     2
 72
     8
 73
     5
 74
     0
 42
0.0000000001
 43
0.0000000001
 40
0.0
 40
0.0
 40
0.0
 40
21.20575041173095
 40
21.20575041173095
 40
42.41150082346205
 40
42.41150082346205
 40
42.41150082346205
 10
510.9158338946802
 20
139.6876980559467
 30
0.0
 41
1.0
 10
499.2244909435903
 20
146.4376980559466
 30
0.0
 41
0.7071067811865491
 10
492.4744909435905
 20
134.7463551048567
 30
0.0
 41
1.0
 10
485.7244909435903
 20
123.0550121537669
 30
0.0
 41
0.7071067811865497
 10
497.4158338946802
 20
116.3050121537668
 30
0.0
 41
1.0
  0
ENDSEC
  0
SECTION
  2
OBJECTS
  0
DICTIONARY
  5
C
330
0
100
AcDbDictionary
281
     1
  3
ACAD_GROUP
350
D
  3
ACAD_LAYOUT
350
1A
  3
ACAD_MLEADERSTYLE
350
128
  3
ACAD_MLINESTYLE
350
17
  3
ACAD_PLOTSETTINGS
350
19
  3
ACAD_PLOTSTYLENAME
350
E
  3
ACAD_SCALELIST
350
3B
  3
ACAD_TABLESTYLE
350
127
  3
ACAD_VISUALSTYLE
350
2A
  0
DICTIONARY
  5
D
102
{ACAD_REACTORS
330
C
102
}
330
C
100
AcDbDictionary
281
     1
  0
DICTIONARY
  5
1A
102
{ACAD_REACTORS
330
C
102
}
330
C
100
AcDbDictionary
281
     1
  3
Layout1
350
1E
  3
Layout2
350
26
  3
Model
350
22
  0
DICTIONARY
  5
128
102
{ACAD_REACTORS
330
C
102
}
330
C
100
AcDbDictionary
281
     1
  0
DICTIONARY
  5
17
102
{ACAD_REACTORS
330
C
102
}
330
C
100
AcDbDictionary
281
     1
  3
Standard
350
18
  0
DICTIONARY
  5
19
102
{ACAD_REACTORS
330
C
102
}
330
C
100
AcDbDictionary
281
     1
  0
ACDBDICTIONARYWDFLT
  5
E
102
{ACAD_REACTORS
330
C
102
}
330
C
100
AcDbDictionary
281
     1
  3
Normal
350
F
100
AcDbDictionaryWithDefault
340
F
  0
DICTIONARY
  5
3B
102
{ACAD_REACTORS
330
C
102
}
330
C
100
AcDbDictionary
281
     1
  3
A0
350
3C
  3
A1
350
3D
  3
A2
350
3E
  3
A3
350
3F
  3
A4
350
40
  3
A5
350
41
  3
A6
350
42
  3
A7
350
43
  3
A8
350
44
  3
A9
350
45
  3
B0
350
46
  3
B1
350
47
  3
B2
350
48
  3
B3
350
49
  3
B4
350
4A
  3
B5
350
4B
  3
B6
350
4C
  3
B7
350
4D
  3
B8
350
4E
  3
B9
350
4F
  3
C0
350
50
  3
C1
350
51
  3
C2
350
52
  3
C3
350
53
  3
C4
350
54
  3
C5
350
55
  3
C6
350
56
  3
C7
350
57
  3
C8
350
58
  3
C9
350
59
  3
D0
350
5A
  3
D1
350
5B
  3
D2
350
5C
  0
DICTIONARY
  5
127
102
{ACAD_REACTORS
330
C
102
}
330
C
100
AcDbDictionary
281
     1
  0
DICTIONARY
  5
2A
102
{ACAD_REACTORS
330
C
102
}
330
C
100
AcDbDictionary
281
     1
  3
2dWireframe
350
2F
  3
3D Hidden
350
31
  3
3dWireframe
350
30
  3
Basic
350
32
  3
Brighten
350
36
  3
ColorChange
350
3A
  3
Conceptual
350
34
  3
Dim
350
35
  3
Facepattern
350
39
  3
Flat
350
2B
  3
FlatWithEdges
350
2C
  3
Gouraud
350
2D
  3
GouraudWithEdges
350
2E
  3
Linepattern
350
38
  3
Realistic
350
33
  3
Thicken
350
37
  0
LAYOUT
  5
1E
102
{ACAD_REACTORS
330
1A
102
}
330
1A
100
AcDbPlotSettings
  1

  2
none_device
  4

  6

 40
0.0
 41
0.0
 42
0.0
 43
0.0
 44
0.0
 45
0.0
 46
0.0
 47
0.0
 48
0.0
 49
0.0
140
0.0
141
0.0
142
1.0
143
1.0
 70
   688
 72
     0
 73
     0
 74
     5
  7

 75
    16
 76
     0
 77
     2
 78
   300
147
1.0
148
0.0
149
0.0
100
AcDbLayout
  1
Layout1
 70
     1
 71
     1
 10
0.0
 20
0.0
 11
12.0
 21
9.0
 12
0.0
 22
0.0
 32
0.0
 14
1.000000000000000E+20
 24
1.000000000000000E+20
 34
1.000000000000000E+20
 15
-1.000000000000000E+20
 25
-1.000000000000000E+20
 35
-1.000000000000000E+20
146
0.0
 13
0.0
 23
0.0
 33
0.0
 16
1.0
 26
0.0
 36
0.0
 17
0.0
 27
1.0
 37
0.0
 76
     0
330
1B
  0
LAYOUT
  5
26
102
{ACAD_REACTORS
330
1A
102
}
330
1A
100
AcDbPlotSettings
  1

  2
none_device
  4

  6

 40
0.0
 41
0.0
 42
0.0
 43
0.0
 44
0.0
 45
0.0
 46
0.0
 47
0.0
 48
0.0
 49
0.0
140
0.0
141
0.0
142
1.0
143
1.0
 70
   688
 72
     0
 73
     0
 74
     5
  7

 75
    16
 76
     0
 77
     2
 78
   300
147
1.0
148
0.0
149
0.0
100
AcDbLayout
  1
Layout2
 70
     1
 71
     2
 10
0.0
 20
0.0
 11
0.0
 21
0.0
 12
0.0
 22
0.0
 32
0.0
 14
0.0
 24
0.0
 34
0.0
 15
0.0
 25
0.0
 35
0.0
146
0.0
 13
0.0
 23
0.0
 33
0.0
 16
1.0
 26
0.0
 36
0.0
 17
0.0
 27
1.0
 37
0.0
 76
     0
330
23
  0
LAYOUT
  5
22
102
{ACAD_REACTORS
330
1A
102
}
330
1A
100
AcDbPlotSettings
  1

  2
none_device
  4

  6

 40
0.0
 41
0.0
 42
0.0
 43
0.0
 44
0.0
 45
0.0
 46
0.0
 47
0.0
 48
0.0
 49
0.0
140
0.0
141
0.0
142
1.0
143
1.0
 70
  1712
 72
     0
 73
     0
 74
     0
  7

 75
     0
 76
     0
 77
     2
 78
   300
147
1.0
148
0.0
149
0.0
100
AcDbLayout
  1
Model
 70
     1
 71
     0
 10
0.0
 20
0.0
 11
12.0
 21
9.0
 12
0.0
 22
0.0
 32
0.0
 14
0.0004737378641838
 24
0.044662342732955
 34
0.0
 15
597.2111955699711
 25
2443.103217863909
 35
0.0
146
0.0
 13
0.0
 23
0.0
 33
0.0
 16
1.0
 26
0.0
 36
0.0
 17
0.0
 27
1.0
 37
0.0
 76
     0
330
1F
331
29
  0
MLINESTYLE
  5
18
102
{ACAD_REACTORS
330
17
102
}
330
17
100
AcDbMlineStyle
  2
Standard
 70
     0
  3

 62
   256
 51
90.0
 52
90.0
 71
     2
 49
0.5
 62
   256
  6
BYLAYER
 49
-0.5
 62
   256
  6
BYLAYER
  0
ACDBPLACEHOLDER
  5
F
102
{ACAD_REACTORS
330
E
102
}
330
E
  0
SCALE
  5
3C
102
{ACAD_REACTORS
330
3B
102
}
330
3B
100
AcDbScale
 70
     0
300
1:1
140
1.0
141
1.0
290
     1
  0
SCALE
  5
3D
102
{ACAD_REACTORS
330
3B
102
}
330
3B
100
AcDbScale
 70
     0
300
1:2
140
1.0
141
2.0
290
     0
  0
SCALE
  5
3E
102
{ACAD_REACTORS
330
3B
102
}
330
3B
100
AcDbScale
 70
     0
300
1:4
140
1.0
141
4.0
290
     0
  0
SCALE
  5
3F
102
{ACAD_REACTORS
330
3B
102
}
330
3B
100
AcDbScale
 70
     0
300
1:5
140
1.0
141
5.0
290
     0
  0
SCALE
  5
40
102
{ACAD_REACTORS
330
3B
102
}
330
3B
100
AcDbScale
 70
     0
300
1:8
140
1.0
141
8.0
290
     0
  0
SCALE
  5
41
102
{ACAD_REACTORS
330
3B
102
}
330
3B
100
AcDbScale
 70
     0
300
1:10
140
1.0
141
10.0
290
     0
  0
SCALE
  5
42
102
{ACAD_REACTORS
330
3B
102
}
330
3B
100
AcDbScale
 70
     0
300
1:16
140
1.0
141
16.0
290
     0
  0
SCALE
  5
43
102
{ACAD_REACTORS
330
3B
102
}
330
3B
100
AcDbScale
 70
     0
300
1:20
140
1.0
141
20.0
290
     0
  0
SCALE
  5
44
102
{ACAD_REACTORS
330
3B
102
}
330
3B
100
AcDbScale
 70
     0
300
1:30
140
1.0
141
30.0
290
     0
  0
SCALE
  5
45
102
{ACAD_REACTORS
330
3B
102
}
330
3B
100
AcDbScale
 70
     0
300
1:40
140
1.0
141
40.0
290
     0
  0
SCALE
  5
46
102
{ACAD_REACTORS
330
3B
102
}
330
3B
100
AcDbScale
 70
     0
300
1:50
140
1.0
141
50.0
290
     0
  0
SCALE
  5
47
102
{ACAD_REACTORS
330
3B
102
}
330
3B
100
AcDbScale
 70
     0
300
1:100
140
1.0
141
100.0
290
     0
  0
SCALE
  5
48
102
{ACAD_REACTORS
330
3B
102
}
330
3B
100
AcDbScale
 70
     0
300
2:1
140
2.0
141
1.0
290
     0
  0
SCALE
  5
49
102
{ACAD_REACTORS
330
3B
102
}
330
3B
100
AcDbScale
 70
     0
300
4:1
140
4.0
141
1.0
290
     0
  0
SCALE
  5
4A
102
{ACAD_REACTORS
330
3B
102
}
330
3B
100
AcDbScale
 70
     0
300
8:1
140
8.0
141
1.0
290
     0
  0
SCALE
  5
4B
102
{ACAD_REACTORS
330
3B
102
}
330
3B
100
AcDbScale
 70
     0
300
10:1
140
10.0
141
1.0
290
     0
  0
SCALE
  5
4C
102
{ACAD_REACTORS
330
3B
102
}
330
3B
100
AcDbScale
 70
     0
300
100:1
140
100.0
141
1.0
290
     0
  0
SCALE
  5
4D
102
{ACAD_REACTORS
330
3B
102
}
330
3B
100
AcDbScale
 70
     0
300
1/128" = 1'-0"
140
0.0078125
141
12.0
290
     0
  0
SCALE
  5
4E
102
{ACAD_REACTORS
330
3B
102
}
330
3B
100
AcDbScale
 70
     0
300
1/64" = 1'-0"
140
0.015625
141
12.0
290
     0
  0
SCALE
  5
4F
102
{ACAD_REACTORS
330
3B
102
}
330
3B
100
AcDbScale
 70
     0
300
1/32" = 1'-0"
140
0.03125
141
12.0
290
     0
  0
SCALE
  5
50
102
{ACAD_REACTORS
330
3B
102
}
330
3B
100
AcDbScale
 70
     0
300
1/16" = 1'-0"
140
0.0625
141
12.0
290
     0
  0
SCALE
  5
51
102
{ACAD_REACTORS
330
3B
102
}
330
3B
100
AcDbScale
 70
     0
300
3/32" = 1'-0"
140
0.09375
141
12.0
290
     0
  0
SCALE
  5
52
102
{ACAD_REACTORS
330
3B
102
}
330
3B
100
AcDbScale
 70
     0
300
1/8" = 1'-0"
140
0.125
141
12.0
290
     0
  0
SCALE
  5
53
102
{ACAD_REACTORS
330
3B
102
}
330
3B
100
AcDbScale
 70
     0
300
3/16" = 1'-0"
140
0.1875
141
12.0
290
     0
  0
SCALE
  5
54
102
{ACAD_REACTORS
330
3B
102
}
330
3B
100
AcDbScale
 70
     0
300
1/4" = 1'-0"
140
0.25
141
12.0
290
     0
  0
SCALE
  5
55
102
{ACAD_REACTORS
330
3B
102
}
330
3B
100
AcDbScale
 70
     0
300
3/8" = 1'-0"
140
0.375
141
12.0
290
     0
  0
SCALE
  5
56
102
{ACAD_REACTORS
330
3B
102
}
330
3B
100
AcDbScale
 70
     0
300
1/2" = 1'-0"
140
0.5
141
12.0
290
     0
  0
SCALE
  5
57
102
{ACAD_REACTORS
330
3B
102
}
330
3B
100
AcDbScale
 70
     0
300
3/4" = 1'-0"
140
0.75
141
12.0
290
     0
  0
SCALE
  5
58
102
{ACAD_REACTORS
330
3B
102
}
330
3B
100
AcDbScale
 70
     0
300
1" = 1'-0"
140
1.0
141
12.0
290
     0
  0
SCALE
  5
59
102
{ACAD_REACTORS
330
3B
102
}
330
3B
100
AcDbScale
 70
     0
300
1-1/2" = 1'-0"
140
1.5
141
12.0
290
     0
  0
SCALE
  5
5A
102
{ACAD_REACTORS
330
3B
102
}
330
3B
100
AcDbScale
 70
     0
300
3" = 1'-0"
140
3.0
141
12.0
290
     0
  0
SCALE
  5
5B
102
{ACAD_REACTORS
330
3B
102
}
330
3B
100
AcDbScale
 70
     0
300
6" = 1'-0"
140
6.0
141
12.0
290
     0
  0
SCALE
  5
5C
102
{ACAD_REACTORS
330
3B
102
}
330
3B
100
AcDbScale
 70
     0
300
1'-0" = 1'-0"
140
12.0
141
12.0
290
     0
  0
VISUALSTYLE
  5
2F
102
{ACAD_REACTORS
330
2A
102
}
330
2A
100
AcDbVisualStyle
  2
2dWireframe
 70
     4
 71
     0
 72
     2
 73
     0
 90
        0
 40
-0.6
 41
-30.0
 62
     5
 63
     7
421
 16777215
 74
     1
 91
        4
 64
     7
 65
   257
 75
     1
175
     1
 42
1.0
 92
        0
 66
   257
 43
1.0
 76
     1
 77
     6
 78
     2
 67
     7
 79
     5
170
     0
171
     0
290
     0
174
     0
 93
        1
 44
0.0
173
     0
291
     0
 45
0.0
1001
ACAD
1000
AcDbSavedByObjectVersion
1070
     0
  0
VISUALSTYLE
  5
31
102
{ACAD_REACTORS
330
2A
102
}
330
2A
100
AcDbVisualStyle
  2
3D Hidden
 70
     6
 71
     1
 72
     2
 73
     2
 90
        0
 40
-0.6
 41
-30.0
 62
     5
 63
     7
421
 16777215
 74
     2
 91
        2
 64
     7
 65
   257
 75
     2
175
     1
 42
40.0
 92
        0
 66
   257
 43
1.0
 76
     1
 77
     6
 78
     2
 67
     7
 79
     3
170
     0
171
     0
290
     0
174
     0
 93
        1
 44
0.0
173
     0
291
     0
 45
0.0
1001
ACAD
1000
AcDbSavedByObjectVersion
1070
     0
  0
VISUALSTYLE
  5
30
102
{ACAD_REACTORS
330
2A
102
}
330
2A
100
AcDbVisualStyle
  2
3dWireframe
 70
     5
 71
     0
 72
     2
 73
     0
 90
        0
 40
-0.6
 41
-30.0
 62
     5
 63
     7
421
 16777215
 74
     1
 91
        4
 64
     7
 65
   257
 75
     1
175
     1
 42
1.0
 92
        0
 66
   257
 43
1.0
 76
     1
 77
     6
 78
     2
 67
     7
 79
     5
170
     0
171
     0
290
     0
174
     0
 93
        1
 44
0.0
173
     0
291
     0
 45
0.0
1001
ACAD
1000
AcDbSavedByObjectVersion
1070
     0
  0
VISUALSTYLE
  5
32
102
{ACAD_REACTORS
330
2A
102
}
330
2A
100
AcDbVisualStyle
  2
Basic
 70
     7
 71
     1
 72
     0
 73
     1
 90
        0
 40
-0.6
 41
-30.0
 62
     5
 63
     7
421
 16777215
 74
     0
 91
        4
 64
     7
 65
   257
 75
     1
175
     1
 42
1.0
 92
        8
 66
     7
 43
1.0
 76
     1
 77
     6
 78
     2
 67
     7
 79
     5
170
     0
171
     0
290
     0
174
     0
 93
        1
 44
0.0
173
     0
291
     1
 45
0.0
1001
ACAD
1000
AcDbSavedByObjectVersion
1070
     0
  0
VISUALSTYLE
  5
36
102
{ACAD_REACTORS
330
2A
102
}
330
2A
100
AcDbVisualStyle
  2
Brighten
 70
    12
 71
     2
 72
     2
 73
     0
 90
        0
 40
-0.6
 41
-30.0
 62
     5
 63
     7
421
 16777215
 74
     1
 91
        4
 64
     7
 65
   257
 75
     1
175
     1
 42
1.0
 92
        8
 66
     7
 43
1.0
 76
     1
 77
     6
 78
     2
 67
     7
 79
     5
170
     0
171
     0
290
     0
174
     0
 93
        1
 44
50.0
173
     0
291
     1
 45
0.0
1001
ACAD
1000
AcDbSavedByObjectVersion
1070
     0
  0
VISUALSTYLE
  5
3A
102
{ACAD_REACTORS
330
2A
102
}
330
2A
100
AcDbVisualStyle
  2
ColorChange
 70
    16
 71
     2
 72
     2
 73
     3
 90
        0
 40
-0.6
 41
-30.0
 62
     5
 63
     8
421
  8421504
 74
     1
 91
        4
 64
     7
 65
   257
 75
     1
175
     1
 42
1.0
 92
        8
 66
     8
424
  8421504
 43
1.0
 76
     1
 77
     6
 78
     2
 67
     7
 79
     5
170
     0
171
     0
290
     0
174
     0
 93
        1
 44
0.0
173
     0
291
     1
 45
0.0
1001
ACAD
1000
AcDbSavedByObjectVersion
1070
     0
  0
VISUALSTYLE
  5
34
102
{ACAD_REACTORS
330
2A
102
}
330
2A
100
AcDbVisualStyle
  2
Conceptual
 70
     9
 71
     3
 72
     2
 73
     0
 90
        0
 40
-0.6
 41
-30.0
 62
     5
 63
     7
421
 16777215
 74
     2
 91
        2
 64
     7
 65
   257
 75
     1
175
     1
 42
40.0
 92
        8
 66
     7
 43
1.0
 76
     1
 77
     6
 78
     2
 67
     7
 79
     3
170
     0
171
     0
290
     0
174
     0
 93
        1
 44
0.0
173
     0
291
     0
 45
0.0
1001
ACAD
1000
AcDbSavedByObjectVersion
1070
     0
  0
VISUALSTYLE
  5
35
102
{ACAD_REACTORS
330
2A
102
}
330
2A
100
AcDbVisualStyle
  2
Dim
 70
    11
 71
     2
 72
     2
 73
     0
 90
        0
 40
-0.6
 41
-30.0
 62
     5
 63
     7
421
 16777215
 74
     1
 91
        4
 64
     7
 65
   257
 75
     1
175
     1
 42
1.0
 92
        8
 66
     7
 43
1.0
 76
     1
 77
     6
 78
     2
 67
     7
 79
     5
170
     0
171
     0
290
     0
174
     0
 93
        1
 44
-50.0
173
     0
291
     1
 45
0.0
1001
ACAD
1000
AcDbSavedByObjectVersion
1070
     0
  0
VISUALSTYLE
  5
39
102
{ACAD_REACTORS
330
2A
102
}
330
2A
100
AcDbVisualStyle
  2
Facepattern
 70
    15
 71
     2
 72
     2
 73
     0
 90
        0
 40
-0.6
 41
-30.0
 62
     5
 63
     7
421
 16777215
 74
     1
 91
        4
 64
     7
 65
   257
 75
     1
175
     1
 42
1.0
 92
        8
 66
     7
 43
1.0
 76
     1
 77
     6
 78
     2
 67
     7
 79
     5
170
     0
171
     0
290
     0
174
     0
 93
        1
 44
0.0
173
     0
291
     1
 45
0.0
1001
ACAD
1000
AcDbSavedByObjectVersion
1070
     0
  0
VISUALSTYLE
  5
2B
102
{ACAD_REACTORS
330
2A
102
}
330
2A
100
AcDbVisualStyle
  2
Flat
 70
     0
 71
     2
 72
     1
 73
     1
 90
        2
 40
-0.6
 41
30.0
 62
     5
 63
     7
421
 16777215
 74
     0
 91
        4
 64
     7
 65
   257
 75
     1
175
     1
 42
1.0
 92
        8
 66
     7
 43
1.0
 76
     1
 77
     6
 78
     2
 67
     7
 79
     5
170
     0
171
     0
290
     0
174
     0
 93
       13
 44
0.0
173
     0
291
     1
 45
0.0
1001
ACAD
1000
AcDbSavedByObjectVersion
1070
     0
  0
VISUALSTYLE
  5
2C
102
{ACAD_REACTORS
330
2A
102
}
330
2A
100
AcDbVisualStyle
  2
FlatWithEdges
 70
     1
 71
     2
 72
     1
 73
     1
 90
        2
 40
-0.6
 41
30.0
 62
     5
 63
     7
421
 16777215
 74
     1
 91
        4
 64
     7
 65
   257
 75
     1
175
     1
 42
1.0
 92
        0
 66
   257
 43
1.0
 76
     1
 77
     6
 78
     2
 67
     7
 79
     5
170
     0
171
     0
290
     0
174
     0
 93
       13
 44
0.0
173
     0
291
     1
 45
0.0
1001
ACAD
1000
AcDbSavedByObjectVersion
1070
     0
  0
VISUALSTYLE
  5
2D
102
{ACAD_REACTORS
330
2A
102
}
330
2A
100
AcDbVisualStyle
  2
Gouraud
 70
     2
 71
     2
 72
     2
 73
     1
 90
        2
 40
-0.6
 41
30.0
 62
     5
 63
     7
421
 16777215
 74
     0
 91
        4
 64
     7
 65
   257
 75
     1
175
     1
 42
1.0
 92
        0
 66
     7
 43
1.0
 76
     1
 77
     6
 78
     2
 67
     7
 79
     5
170
     0
171
     0
290
     0
174
     0
 93
       13
 44
0.0
173
     0
291
     1
 45
0.0
1001
ACAD
1000
AcDbSavedByObjectVersion
1070
     0
  0
VISUALSTYLE
  5
2E
102
{ACAD_REACTORS
330
2A
102
}
330
2A
100
AcDbVisualStyle
  2
GouraudWithEdges
 70
     3
 71
     2
 72
     2
 73
     1
 90
        2
 40
-0.6
 41
30.0
 62
     5
 63
     7
421
 16777215
 74
     1
 91
        4
 64
     7
 65
   257
 75
     1
175
     1
 42
1.0
 92
        0
 66
   257
 43
1.0
 76
     1
 77
     6
 78
     2
 67
     7
 79
     5
170
     0
171
     0
290
     0
174
     0
 93
       13
 44
0.0
173
     0
291
     1
 45
0.0
1001
ACAD
1000
AcDbSavedByObjectVersion
1070
     0
  0
VISUALSTYLE
  5
38
102
{ACAD_REACTORS
330
2A
102
}
330
2A
100
AcDbVisualStyle
  2
Linepattern
 70
    14
 71
     2
 72
     2
 73
     0
 90
        0
 40
-0.6
 41
-30.0
 62
     5
 63
     7
421
 16777215
 74
     1
 91
        4
 64
     7
 65
   257
 75
     7
175
     7
 42
1.0
 92
        8
 66
     7
 43
1.0
 76
     1
 77
     6
 78
     2
 67
     7
 79
     5
170
     0
171
     0
290
     0
174
     0
 93
        1
 44
0.0
173
     0
291
     1
 45
0.0
1001
ACAD
1000
AcDbSavedByObjectVersion
1070
     0
  0
VISUALSTYLE
  5
33
102
{ACAD_REACTORS
330
2A
102
}
330
2A
100
AcDbVisualStyle
  2
Realistic
 70
     8
 71
     2
 72
     2
 73
     0
 90
        0
 40
-0.6
 41
-30.0
 62
     5
 63
     7
421
 16777215
 74
     1
 91
        0
 64
     7
 65
   257
 75
     1
175
     1
 42
1.0
 92
        8
 66
     8
424
  7895160
 43
1.0
 76
     1
 77
     6
 78
     2
 67
     7
 79
     5
170
     0
171
     0
290
     0
174
     0
 93
       13
 44
0.0
173
     0
291
     0
 45
0.0
1001
ACAD
1000
AcDbSavedByObjectVersion
1070
     0
  0
VISUALSTYLE
  5
37
102
{ACAD_REACTORS
330
2A
102
}
330
2A
100
AcDbVisualStyle
  2
Thicken
 70
    13
 71
     2
 72
     2
 73
     0
 90
        0
 40
-0.6
 41
-30.0
 62
     5
 63
     7
421
 16777215
 74
     1
 91
        4
 64
     7
 65
   257
 75
     1
175
     1
 42
1.0
 92
       12
 66
     7
 43
1.0
 76
     1
 77
     6
 78
     2
 67
     7
 79
     5
170
     0
171
     0
290
     0
174
     0
 93
        1
 44
0.0
173
     0
291
     1
 45
0.0
1001
ACAD
1000
AcDbSavedByObjectVersion
1070
     0
  0
ENDSEC
  0
EOF
