  0
SECTION
  2
HEADER
  9
$ACADVER
  1
AC1018
  9
$ACADMAINTVER
 70
     0
  9
$DWGCODEPAGE
  3
ASCII
  9
$INSBASE
 10
0.0
 20
0.0
 30
0.0
  9
$EXTMIN
 10
81.09999999999999
 20
331.541666
 30
0.0
  9
$EXTMAX
 10
1355.891532
 20
1090.000012
 30
0.0
  9
$LIMMIN
 10
81.09999999999999
 20
331.541666
  9
$LIMMAX
 10
1355.891532
 20
1090.000012
  9
$ORTHOMODE
 70
     0
  9
$REGENMODE
 70
     1
  9
$FILLMODE
 70
     1
  9
$QTEXTMODE
 70
     0
  9
$MIRRTEXT
 70
     1
  9
$LTSCALE
 40
10.0
  9
$ATTMODE
 70
     1
  9
$TEXTSIZE
 40
0.2
  9
$TRACEWID
 40
0.05
  9
$TEXTSTYLE
  7
Standard
  9
$CLAYER
  8
0
  9
$CELTYPE
  6
Continuous
  9
$CECOLOR
 62
   256
  9
$CELTSCALE
 40
1.0
  9
$DISPSILH
 70
     0
  9
$DIMSCALE
 40
1.0
  9
$DIMASZ
 40
1.25
  9
$DIMEXO
 40
1.0
  9
$DIMDLI
 40
0.38
  9
$DIMRND
 40
0.0
  9
$DIMDLE
 40
0.0
  9
$DIMEXE
 40
0.75
  9
$DIMTP
 40
0.0
  9
$DIMTM
 40
0.0
  9
$DIMTXT
 40
2.5
  9
$DIMCEN
 40
0.09
  9
$DIMTSZ
 40
0.0
  9
$DIMTOL
 70
     0
  9
$DIMLIM
 70
     0
  9
$DIMTIH
 70
     0
  9
$DIMTOH
 70
     0
  9
$DIMSE1
 70
     0
  9
$DIMSE2
 70
     0
  9
$DIMTAD
 70
     1
  9
$DIMZIN
 70
     0
  9
$DIMBLK
  1

  9
$DIMASO
 70
     1
  9
$DIMSHO
 70
     1
  9
$DIMPOST
  1

  9
$DIMAPOST
  1

  9
$DIMALT
 70
     0
  9
$DIMALTD
 70
     2
  9
$DIMALTF
 40
25.4
  9
$DIMLFAC
 40
1.0
  9
$DIMTOFL
 70
     0
  9
$DIMTVP
 40
0.0
  9
$DIMTIX
 70
     0
  9
$DIMSOXD
 70
     0
  9
$DIMSAH
 70
     0
  9
$DIMBLK1
  1

  9
$DIMBLK2
  1

  9
$DIMSTYLE
  2
Standard
  9
$DIMCLRD
 70
     7
  9
$DIMCLRE
 70
     7
  9
$DIMCLRT
 70
     7
  9
$DIMTFAC
 40
0.5
  9
$DIMGAP
 40
1.25
  9
$DIMJUST
 70
     0
  9
$DIMSD1
 70
     0
  9
$DIMSD2
 70
     0
  9
$DIMTOLJ
 70
     1
  9
$DIMTZIN
 70
     0
  9
$DIMALTZ
 70
     0
  9
$DIMALTTZ
 70
     0
  9
$DIMUPT
 70
     0
  9
$DIMDEC
 70
     2
  9
$DIMTDEC
 70
     4
  9
$DIMALTU
 70
     2
  9
$DIMALTTD
 70
     2
  9
$DIMTXSTY
  7
Standard
  9
$DIMAUNIT
 70
     0
  9
$DIMADEC
 70
     0
  9
$DIMALTRND
 40
0.0
  9
$DIMAZIN
 70
     0
  9
$DIMDSEP
 70
     0
  9
$DIMATFIT
 70
     3
  9
$DIMFRAC
 70
     0
  9
$DIMLDRBLK
  1

  9
$DIMLUNIT
 70
     2
  9
$DIMLWD
 70
     0
  9
$DIMLWE
 70
     0
  9
$DIMTMOVE
 70
     0
  9
$LUNITS
 70
     2
  9
$LUPREC
 70
     4
  9
$SKETCHINC
 40
0.1
  9
$FILLETRAD
 40
0.0
  9
$AUNITS
 70
     0
  9
$AUPREC
 70
     0
  9
$MENU
  1
acad
  9
$ELEVATION
 40
0.0
  9
$PELEVATION
 40
0.0
  9
$THICKNESS
 40
0.0
  9
$LIMCHECK
 70
     0
  9
$CHAMFERA
 40
0.0
  9
$CHAMFERB
 40
0.0
  9
$CHAMFERC
 40
0.0
  9
$CHAMFERD
 40
0.0
  9
$SKPOLY
 70
     0
  9
$TDCREATE
 40
2447893.083333334
  9
$TDUCREATE
 40
0.0
  9
$TDUPDATE
 40
2447893.083333334
  9
$TDUUPDATE
 40
0.0
  9
$TDINDWG
 40
0.0
  9
$TDUSRTIMER
 40
0.0
  9
$USRTIMER
 70
     1
  9
$ANGBASE
 50
0.0
  9
$ANGDIR
 70
     0
  9
$PDMODE
 70
     0
  9
$PDSIZE
 40
0.0
  9
$PLINEWID
 40
0.0
  9
$SPLFRAME
 70
     0
  9
$SPLINETYPE
 70
     6
  9
$SPLINESEGS
 70
     8
  9
$HANDSEED
  5
7A
  9
$SURFTAB1
 70
     6
  9
$SURFTAB2
 70
     6
  9
$SURFTYPE
 70
     6
  9
$SURFU
 70
     6
  9
$SURFV
 70
     6
  9
$UCSBASE
  2

  9
$UCSNAME
  2

  9
$UCSORG
 10
0.0
 20
0.0
 30
0.0
  9
$UCSXDIR
 10
1.0
 20
0.0
 30
0.0
  9
$UCSYDIR
 10
0.0
 20
1.0
 30
0.0
  9
$UCSORTHOREF
  2

  9
$UCSORTHOVIEW
 70
     0
  9
$UCSORGTOP
 10
0.0
 20
0.0
 30
0.0
  9
$UCSORGBOTTOM
 10
0.0
 20
0.0
 30
0.0
  9
$UCSORGLEFT
 10
0.0
 20
0.0
 30
0.0
  9
$UCSORGRIGHT
 10
0.0
 20
0.0
 30
0.0
  9
$UCSORGFRONT
 10
0.0
 20
0.0
 30
0.0
  9
$UCSORGBACK
 10
0.0
 20
0.0
 30
0.0
  9
$PUCSBASE
  2

  9
$PUCSNAME
  2

  9
$PUCSORG
 10
0.0
 20
0.0
 30
0.0
  9
$PUCSXDIR
 10
1.0
 20
0.0
 30
0.0
  9
$PUCSYDIR
 10
0.0
 20
1.0
 30
0.0
  9
$PUCSORTHOREF
  2

  9
$PUCSORTHOVIEW
 70
     0
  9
$PUCSORGTOP
 10
0.0
 20
0.0
 30
0.0
  9
$PUCSORGBOTTOM
 10
0.0
 20
0.0
 30
0.0
  9
$PUCSORGLEFT
 10
0.0
 20
0.0
 30
0.0
  9
$PUCSORGRIGHT
 10
0.0
 20
0.0
 30
0.0
  9
$PUCSORGFRONT
 10
0.0
 20
0.0
 30
0.0
  9
$PUCSORGBACK
 10
0.0
 20
0.0
 30
0.0
  9
$USERI1
 70
     0
  9
$USERI2
 70
     0
  9
$USERI3
 70
     0
  9
$USERI4
 70
     0
  9
$USERI5
 70
     0
  9
$USERR1
 40
0.0
  9
$USERR2
 40
0.0
  9
$USERR3
 40
0.0
  9
$USERR4
 40
0.0
  9
$USERR5
 40
0.0
  9
$WORLDVIEW
 70
     1
  9
$SHADEDGE
 70
     3
  9
$SHADEDIF
 70
    70
  9
$TILEMODE
 70
     1
  9
$MAXACTVP
 70
    16
  9
$PINSBASE
 10
0.0
 20
0.0
 30
0.0
  9
$PLIMCHECK
 70
     0
  9
$PEXTMIN
 10
1.000000000000000E+20
 20
1.000000000000000E+20
 30
1.000000000000000E+20
  9
$PEXTMAX
 10
-1.000000000000000E+20
 20
-1.000000000000000E+20
 30
-1.000000000000000E+20
  9
$PLIMMIN
 10
0.0
 20
0.0
  9
$PLIMMAX
 10
12.0
 20
9.0
  9
$UNITMODE
 70
     0
  9
$VISRETAIN
 70
     0
  9
$PLINEGEN
 70
     1
  9
$PSLTSCALE
 70
     0
  9
$TREEDEPTH
 70
  3020
  9
$CMLSTYLE
  2
Standard
  9
$CMLJUST
 70
     0
  9
$CMLSCALE
 40
1.0
  9
$PROXYGRAPHICS
 70
     0
  9
$MEASUREMENT
 70
     1
  9
$CELWEIGHT
370
     0
  9
$ENDCAPS
280
     0
  9
$JOINSTYLE
280
     0
  9
$LWDISPLAY
290
     0
  9
$INSUNITS
 70
     0
  9
$HYPERLINKBASE
  1

  9
$STYLESHEET
  1

  9
$XEDIT
290
     1
  9
$CEPSNTYPE
380
     0
  9
$PSTYLEMODE
290
     1
  9
$FINGERPRINTGUID
  2

  9
$VERSIONGUID
  2

  9
$EXTNAMES
290
     1
  9
$PSVPSCALE
 40
0.0
  9
$OLESTARTUP
290
     0
  9
$SORTENTS
280
   127
  9
$INDEXCTL
280
     0
  9
$HIDETEXT
280
     1
  9
$XCLIPFRAME
290
     0
  9
$HALOGAP
280
     0
  9
$OBSCOLOR
 70
   257
  9
$OBSLTYPE
280
     0
  9
$INTERSECTIONDISPLAY
280
     0
  9
$INTERSECTIONCOLOR
 70
   257
  9
$DIMASSOC
280
     2
  9
$PROJECTNAME
  1

  0
ENDSEC
  0
SECTION
  2
CLASSES
  0
CLASS
  1
LWPOLYLINE
  2
AcDbPolyline
  3
AutoCAD 2000
 90
        0
 91
        1
280
     0
281
     1
  0
CLASS
  1
IMAGE
  2
AcDbRasterImage
  3
ISM
 90
      127
 91
        4
280
     0
281
     1
  0
CLASS
  1
OLE2FRAME
  2
AcDbOle2Frame
  3
AutoCAD 2000
 90
        0
 91
        1
280
     0
281
     1
  0
CLASS
  1
HATCH
  2
AcDbHatch
  3
AutoCAD 2000
 90
        0
 91
        1
280
     0
281
     1
  0
CLASS
  1
DICTIONARYVAR
  2
AcDbDictionaryVar
  3
ObjectDBX Classes
 90
        0
 91
        3
280
     0
281
     0
  0
CLASS
  1
RASTERVARIABLES
  2
AcDbRasterVariables
  3
ISM
 90
        0
 91
        3
280
     0
281
     0
  0
CLASS
  1
IMAGEDEF
  2
AcDbRasterImageDef
  3
ISM
 90
        0
 91
        3
280
     0
281
     0
  0
CLASS
  1
IMAGEDEF_REACTOR
  2
AcDbRasterImageDefReactor
  3
ISM
 90
        1
 91
        3
280
     0
281
     0
  0
CLASS
  1
IDBUFFER
  2
AcDbIdBuffer
  3
ObjectDBX Classes
 90
        0
 91
        3
280
     0
281
     0
  0
CLASS
  1
SPATIAL_FILTER
  2
AcDbSpatialFilter
  3
ObjectDBX Classes
 90
        0
 91
        3
280
     0
281
     0
  0
CLASS
  1
XRECORD
  2
AcDbXrecord
  3
AutoCAD 2000
 90
        0
 91
        1
280
     0
281
     0
  0
CLASS
  1
SORTENTSTABLE
  2
AcDbSortentsTable
  3
ObjectDBX Classes
 90
        0
 91
        3
280
     0
281
     0
  0
CLASS
  1
LAYER_INDEX
  2
AcDbLayerIndex
  3
ObjectDBX Classes
 90
        0
 91
        3
280
     0
281
     0
  0
CLASS
  1
SPATIAL_INDEX
  2
AcDbSpatialIndex
  3
AutoCAD 2000
 90
        0
 91
        3
280
     0
281
     0
  0
CLASS
  1
OBJECT_PTR
  2
CAseDLPNTableRecord
  3
ASE-LPNTableRecord
 90
        1
 91
        3
280
     0
281
     0
  0
CLASS
  1
LAYOUT
  2
AcDbLayout
  3
ObjectDBX Classes
 90
        0
 91
        1
280
     0
281
     0
  0
CLASS
  1
PLOTSETTINGS
  2
AcDbPlotSettings
  3
ObjectDBX Classes
 90
        0
 91
        3
280
     0
281
     0
  0
CLASS
  1
ACDBDICTIONARYWDFLT
  2
AcDbDictionaryWithDefault
  3
ObjectDBX Classes
 90
        0
 91
        3
280
     0
281
     0
  0
CLASS
  1
ACDBPLACEHOLDER
  2
AcDbPlaceHolder
  3
ObjectDBX Classes
 90
        0
 91
        1
280
     0
281
     0
  0
CLASS
  1
VBA_PROJECT
  2
AcDbVbaProject
  3
ObjectDBX Classes
 90
        0
 91
        1
280
     0
281
     0
  0
CLASS
  1
WIPEOUT
  2
AcDbWipeout
  3
WipeOut|AutoCAD Express Tool|expresstools@autodesk.com
 90
      127
 91
        3
280
     0
281
     1
  0
CLASS
  1
WIPEOUTVARIABLES
  2
AcDbWipeoutVariables
  3
WipeOut|AutoCAD Express Tool|expresstools@autodesk.com
 90
        0
 91
        3
280
     0
281
     0
  0
CLASS
  1
RTEXT
  2
RText
  3
RText|AutoCAD Express Tool|expresstools@autodesk.com
 90
        0
 91
        3
280
     0
281
     1
  0
CLASS
  1
ARCALIGNEDTEXT
  2
AcDbArcAlignedText
  3
ATEXT|AutoCAD Express Tool|expresstools@autodesk.com
 90
        0
 91
        3
280
     0
281
     1
  0
ENDSEC
  0
SECTION
  2
TABLES
  0
TABLE
  2
VPORT
  5
7
330
0
100
AcDbSymbolTable
 70
     1
  0
VPORT
  5
15
330
7
100
AcDbSymbolTableRecord
100
AcDbViewportTableRecord
  2
*ACTIVE
 70
     0
 10
0.0
 20
0.0
 11
1.0
 21
1.0
 12
6.591288
 22
4.579184
 13
0.0
 23
0.0
 14
1.0
 24
1.0
 15
0.0
 25
0.0
 16
0.0
 26
0.0
 36
1.0
 17
0.0
 27
0.0
 37
0.0
 40
9.158369
 41
0.688564
 42
50.0
 43
0.0
 44
0.0
 50
0.0
 51
0.0
 71
     0
 72
   100
 73
     1
 74
     1
 75
     0
 76
     0
 77
     0
 78
     0
281
     0
 65
     0
110
0.0
120
0.0
130
0.0
111
1.0
121
0.0
131
0.0
112
0.0
122
1.0
132
0.0
 79
     0
146
0.0
  0
ENDTAB
  0
TABLE
  2
LTYPE
  5
4
330
0
100
AcDbSymbolTable
 70
     1
  0
LTYPE
  5
11
330
4
100
AcDbSymbolTableRecord
100
AcDbLinetypeTableRecord
  2
ByBlock
 70
     0
  3

 72
    65
 73
     0
 40
0.0
  0
LTYPE
  5
12
330
4
100
AcDbSymbolTableRecord
100
AcDbLinetypeTableRecord
  2
ByLayer
 70
     0
  3

 72
    65
 73
     0
 40
0.0
  0
LTYPE
  5
13
330
4
100
AcDbSymbolTableRecord
100
AcDbLinetypeTableRecord
  2
Continuous
 70
     0
  3
Solid line
 72
    65
 73
     0
 40
0.0
  0
ENDTAB
  0
TABLE
  2
LAYER
  5
2
330
0
100
AcDbSymbolTable
 70
     1
  0
LAYER
  5
14
330
2
100
AcDbSymbolTableRecord
100
AcDbLayerTableRecord
  2
0
 70
     0
 62
     7
  6
Continuous
370
    -3
390
1D
  0
ENDTAB
  0
TABLE
  2
STYLE
  5
3
330
0
100
AcDbSymbolTable
 70
     1
  0
STYLE
  5
17
330
3
100
AcDbSymbolTableRecord
100
AcDbTextStyleTableRecord
  2
Standard
 70
     0
 40
0.0
 41
1.0
 50
0.0
 71
     0
 42
2.5
  3
IsonormD
  4

1001
ACAD
1000
IsonormD
1071
        0
  0
ENDTAB
  0
TABLE
  2
VIEW
  5
5
330
0
100
AcDbSymbolTable
 70
     0
  0
ENDTAB
  0
TABLE
  2
UCS
  5
6
330
0
100
AcDbSymbolTable
 70
     0
  0
ENDTAB
  0
TABLE
  2
APPID
  5
8
330
0
100
AcDbSymbolTable
 70
     2
  0
APPID
  5
16
330
8
100
AcDbSymbolTableRecord
100
AcDbRegAppTableRecord
  2
ACAD
 70
     0
  0
APPID
  5
26
330
8
100
AcDbSymbolTableRecord
100
AcDbRegAppTableRecord
  2
TopSolid_Draft
 70
     0
  0
ENDTAB
  0
TABLE
  2
DIMSTYLE
  5
9
330
0
100
AcDbSymbolTable
 70
     1
100
AcDbDimStyleTable
  0
DIMSTYLE
105
18
330
9
100
AcDbSymbolTableRecord
100
AcDbDimStyleTableRecord
  2
Standard
 70
     0
 41
1.25
 42
1.0
 44
0.75
 73
     0
 74
     0
 77
     1
140
2.5
146
0.5
147
1.25
176
     7
177
     7
178
     7
271
     2
340
17
  0
ENDTAB
  0
TABLE
  2
BLOCK_RECORD
  5
1
330
0
100
AcDbSymbolTable
 70
     5
  0
BLOCK_RECORD
  5
A
330
1
100
AcDbSymbolTableRecord
100
AcDbBlockTableRecord
  2
*MODEL_SPACE
340
20
  0
BLOCK_RECORD
  5
B
330
1
100
AcDbSymbolTableRecord
100
AcDbBlockTableRecord
  2
*PAPER_SPACE
340
21
  0
BLOCK_RECORD
  5
27
330
1
100
AcDbSymbolTableRecord
100
AcDbBlockTableRecord
  2
AID1
340
0
102
{BLKREFS
331
32
102
}
  0
BLOCK_RECORD
  5
33
330
1
100
AcDbSymbolTableRecord
100
AcDbBlockTableRecord
  2
AID19
340
0
102
{BLKREFS
331
43
102
}
  0
BLOCK_RECORD
  5
44
330
1
100
AcDbSymbolTableRecord
100
AcDbBlockTableRecord
  2
AID47
340
0
102
{BLKREFS
331
4F
102
}
  0
BLOCK_RECORD
  5
50
330
1
100
AcDbSymbolTableRecord
100
AcDbBlockTableRecord
  2
AID65
340
0
102
{BLKREFS
331
5E
102
}
  0
BLOCK_RECORD
  5
5F
330
1
100
AcDbSymbolTableRecord
100
AcDbBlockTableRecord
  2
AID89
340
0
102
{BLKREFS
331
79
102
}
  0
ENDTAB
  0
ENDSEC
  0
SECTION
  2
BLOCKS
  0
BLOCK
  5
D
330
A
100
AcDbEntity
  8
0
390
1D
100
AcDbBlockBegin
  2
*MODEL_SPACE
 70
     0
 71
     0
 10
0.0
 20
0.0
 30
0.0
  3
*MODEL_SPACE
  1

  0
ENDBLK
  5
E
330
A
100
AcDbEntity
  8
0
390
1D
100
AcDbBlockEnd
  0
BLOCK
  5
F
330
B
100
AcDbEntity
 67
     1
  8
0
390
1D
100
AcDbBlockBegin
  2
*PAPER_SPACE
 70
     0
 71
     0
 10
0.0
 20
0.0
 30
0.0
  3
*PAPER_SPACE
  1

  0
ENDBLK
  5
10
330
B
100
AcDbEntity
 67
     1
  8
0
390
1D
100
AcDbBlockEnd
  0
BLOCK
  5
28
330
27
100
AcDbEntity
  8
0
390
1D
100
AcDbBlockBegin
  2
AID1
 70
     0
 71
     0
 10
0.0
 20
0.0
 30
0.0
  3
AID1
  1

  0
LINE
  5
29
330
27
100
AcDbEntity
  8
0
  6
Continuous
 62
     7
390
1D
100
AcDbLine
 10
673.9
 20
752.499975
 30
0.0
 11
81.09999999999999
 21
752.499975
 31
0.0
  0
LINE
  5
2A
330
27
100
AcDbEntity
  8
0
  6
Continuous
 62
     7
390
1D
100
AcDbLine
 10
673.9
 20
752.499975
 30
0.0
 11
673.9
 21
724.999975
 31
0.0
  0
LINE
  5
2B
330
27
100
AcDbEntity
  8
0
  6
Continuous
 62
     7
390
1D
100
AcDbLine
 10
673.9
 20
724.999975
 30
0.0
 11
81.09999999999999
 21
724.999975
 31
0.0
  0
LINE
  5
2C
330
27
100
AcDbEntity
  8
0
  6
Continuous
 62
     7
390
1D
100
AcDbLine
 10
81.09999999999999
 20
752.499975
 30
0.0
 11
81.09999999999999
 21
724.999975
 31
0.0
  0
LINE
  5
2D
330
27
100
AcDbEntity
  8
0
  6
Continuous
 62
     7
390
1D
100
AcDbLine
 10
81.09999999999999
 20
712.499975
 30
0.0
 11
673.9
 21
712.499975
 31
0.0
  0
LINE
  5
2E
330
27
100
AcDbEntity
  8
0
  6
Continuous
 62
     7
390
1D
100
AcDbLine
 10
81.09999999999999
 20
712.499975
 30
0.0
 11
81.09999999999999
 21
724.999975
 31
0.0
  0
LINE
  5
2F
330
27
100
AcDbEntity
  8
0
  6
Continuous
 62
     7
390
1D
100
AcDbLine
 10
673.9
 20
712.499975
 30
0.0
 11
673.9
 21
724.999975
 31
0.0
  0
LINE
  5
30
330
27
100
AcDbEntity
  8
0
  6
Continuous
 62
     7
390
1D
100
AcDbLine
 10
81.09999999999999
 20
724.999975
 30
0.0
 11
673.9
 21
724.999975
 31
0.0
  0
ENDBLK
  5
31
330
27
100
AcDbEntity
  8
0
390
1D
100
AcDbBlockEnd
  0
BLOCK
  5
34
330
33
100
AcDbEntity
  8
0
390
1D
100
AcDbBlockBegin
  2
AID19
 70
     0
 71
     0
 10
0.0
 20
0.0
 30
0.0
  3
AID19
  1

  0
LINE
  5
35
330
33
100
AcDbEntity
  8
0
  6
Continuous
 62
     7
390
1D
100
AcDbLine
 10
872.500013
 20
712.499975
 30
0.0
 11
817.500013
 21
712.499975
 31
0.0
  0
LINE
  5
36
330
33
100
AcDbEntity
  8
0
  6
Continuous
 62
     7
390
1D
100
AcDbLine
 10
872.500013
 20
724.999975
 30
0.0
 11
872.500013
 21
712.499975
 31
0.0
  0
LINE
  5
37
330
33
100
AcDbEntity
  8
0
  6
Continuous
 62
     7
390
1D
100
AcDbLine
 10
972.500013
 20
724.999975
 30
0.0
 11
872.500013
 21
724.999975
 31
0.0
  0
LINE
  5
38
330
33
100
AcDbEntity
  8
0
  6
Continuous
 62
     7
390
1D
100
AcDbLine
 10
972.500013
 20
752.499975
 30
0.0
 11
972.500013
 21
724.999975
 31
0.0
  0
LINE
  5
39
330
33
100
AcDbEntity
  8
0
  6
Continuous
 62
     7
390
1D
100
AcDbLine
 10
817.500013
 20
752.499975
 30
0.0
 11
972.500013
 21
752.499975
 31
0.0
  0
LINE
  5
3A
330
33
100
AcDbEntity
  8
0
  6
Continuous
 62
     7
390
1D
100
AcDbLine
 10
817.500013
 20
712.499975
 30
0.0
 11
817.500013
 21
752.499975
 31
0.0
  0
LINE
  5
3B
330
33
100
AcDbEntity
  8
0
  6
Continuous
 62
     7
390
1D
100
AcDbLine
 10
797.500013
 20
718.499975
 30
0.0
 11
817.500013
 21
718.499975
 31
0.0
  0
LINE
  5
3C
330
33
100
AcDbEntity
  8
0
  6
Continuous
 62
     7
390
1D
100
AcDbLine
 10
797.500013
 20
752.499975
 30
0.0
 11
797.500013
 21
718.499975
 31
0.0
  0
LINE
  5
3D
330
33
100
AcDbEntity
  8
0
  6
Continuous
 62
     7
390
1D
100
AcDbLine
 10
817.500013
 20
752.499975
 30
0.0
 11
797.500013
 21
752.499975
 31
0.0
  0
LINE
  5
3E
330
33
100
AcDbEntity
  8
0
  6
Continuous
 62
     7
390
1D
100
AcDbLine
 10
872.500013
 20
724.999975
 30
0.0
 11
872.500013
 21
712.499975
 31
0.0
  0
LINE
  5
3F
330
33
100
AcDbEntity
  8
0
  6
Continuous
 62
     7
390
1D
100
AcDbLine
 10
972.500013
 20
724.999975
 30
0.0
 11
872.500013
 21
724.999975
 31
0.0
  0
LINE
  5
40
330
33
100
AcDbEntity
  8
0
  6
Continuous
 62
     7
390
1D
100
AcDbLine
 10
972.500013
 20
712.499975
 30
0.0
 11
972.500013
 21
724.999975
 31
0.0
  0
LINE
  5
41
330
33
100
AcDbEntity
  8
0
  6
Continuous
 62
     7
390
1D
100
AcDbLine
 10
872.500013
 20
712.499975
 30
0.0
 11
972.500013
 21
712.499975
 31
0.0
  0
ENDBLK
  5
42
330
33
100
AcDbEntity
  8
0
390
1D
100
AcDbBlockEnd
  0
BLOCK
  5
45
330
44
100
AcDbEntity
  8
0
390
1D
100
AcDbBlockBegin
  2
AID47
 70
     0
 71
     0
 10
0.0
 20
0.0
 30
0.0
  3
AID47
  1

  0
LINE
  5
46
330
44
100
AcDbEntity
  8
0
  6
Continuous
 62
     7
390
1D
100
AcDbLine
 10
123.5
 20
562.499987
 30
0.0
 11
81.09999999999999
 21
562.499987
 31
0.0
  0
LINE
  5
47
330
44
100
AcDbEntity
  8
0
  6
Continuous
 62
     7
390
1D
100
AcDbLine
 10
123.5
 20
562.499987
 30
0.0
 11
123.5
 21
582.499987
 31
0.0
  0
LINE
  5
48
330
44
100
AcDbEntity
  8
0
  6
Continuous
 62
     7
390
1D
100
AcDbLine
 10
631.5
 20
582.499987
 30
0.0
 11
123.5
 21
582.499987
 31
0.0
  0
LINE
  5
49
330
44
100
AcDbEntity
  8
0
  6
Continuous
 62
     7
390
1D
100
AcDbLine
 10
631.5
 20
562.499987
 30
0.0
 11
631.5
 21
582.499987
 31
0.0
  0
LINE
  5
4A
330
44
100
AcDbEntity
  8
0
  6
Continuous
 62
     7
390
1D
100
AcDbLine
 10
673.9
 20
562.499987
 30
0.0
 11
631.5
 21
562.499987
 31
0.0
  0
LINE
  5
4B
330
44
100
AcDbEntity
  8
0
  6
Continuous
 62
     7
390
1D
100
AcDbLine
 10
673.9
 20
562.499987
 30
0.0
 11
673.9
 21
407.499987
 31
0.0
  0
LINE
  5
4C
330
44
100
AcDbEntity
  8
0
  6
Continuous
 62
     7
390
1D
100
AcDbLine
 10
673.9
 20
407.499987
 30
0.0
 11
81.09999999999999
 21
407.499987
 31
0.0
  0
LINE
  5
4D
330
44
100
AcDbEntity
  8
0
  6
Continuous
 62
     7
390
1D
100
AcDbLine
 10
81.09999999999999
 20
562.499987
 30
0.0
 11
81.09999999999999
 21
407.499987
 31
0.0
  0
ENDBLK
  5
4E
330
44
100
AcDbEntity
  8
0
390
1D
100
AcDbBlockEnd
  0
BLOCK
  5
51
330
50
100
AcDbEntity
  8
0
390
1D
100
AcDbBlockBegin
  2
AID65
 70
     0
 71
     0
 10
0.0
 20
0.0
 30
0.0
  3
AID65
  1

  0
LINE
  5
52
330
50
100
AcDbEntity
  8
0
  6
Continuous
 62
     7
390
1D
100
AcDbLine
 10
673.9
 20
990.000013
 30
0.0
 11
81.09999999999999
 21
990.000013
 31
0.0
  0
LINE
  5
53
330
50
100
AcDbEntity
  8
0
  6
Continuous
 62
     7
390
1D
100
AcDbLine
 10
673.9
 20
935.000013
 30
0.0
 11
81.09999999999999
 21
935.000013
 31
0.0
  0
LINE
  5
54
330
50
100
AcDbEntity
  8
0
  6
Continuous
 62
     7
390
1D
100
AcDbLine
 10
673.9
 20
990.000013
 30
0.0
 11
673.9
 21
935.000013
 31
0.0
  0
LINE
  5
55
330
50
100
AcDbEntity
  8
0
  6
Continuous
 62
     7
390
1D
100
AcDbLine
 10
81.09999999999999
 20
990.000013
 30
0.0
 11
81.09999999999999
 21
935.000013
 31
0.0
  0
LINE
  5
56
330
50
100
AcDbEntity
  8
0
  6
Continuous
 62
     7
390
1D
100
AcDbLine
 10
631.5
 20
915.000012
 30
0.0
 11
123.5
 21
915.000012
 31
0.0
  0
LINE
  5
57
330
50
100
AcDbEntity
  8
0
  6
Continuous
 62
     7
390
1D
100
AcDbLine
 10
123.5
 20
915.000012
 30
0.0
 11
123.5
 21
935.000013
 31
0.0
  0
LINE
  5
58
330
50
100
AcDbEntity
  8
0
  6
Continuous
 62
     7
390
1D
100
AcDbLine
 10
631.5
 20
915.000012
 30
0.0
 11
631.5
 21
935.000013
 31
0.0
  0
LINE
  5
59
330
50
100
AcDbEntity
  8
0
  6
Continuous
 62
     7
390
1D
100
AcDbLine
 10
81.09999999999999
 20
990.000013
 30
0.0
 11
673.9
 21
990.000012
 31
0.0
  0
LINE
  5
5A
330
50
100
AcDbEntity
  8
0
  6
Continuous
 62
     7
390
1D
100
AcDbLine
 10
81.09999999999999
 20
990.000013
 30
0.0
 11
81.09999999999999
 21
1090.000012
 31
0.0
  0
LINE
  5
5B
330
50
100
AcDbEntity
  8
0
  6
Continuous
 62
     7
390
1D
100
AcDbLine
 10
81.09999999999999
 20
1090.000012
 30
0.0
 11
673.9
 21
1090.000012
 31
0.0
  0
LINE
  5
5C
330
50
100
AcDbEntity
  8
0
  6
Continuous
 62
     7
390
1D
100
AcDbLine
 10
673.9
 20
990.000012
 30
0.0
 11
673.9
 21
1090.000012
 31
0.0
  0
ENDBLK
  5
5D
330
50
100
AcDbEntity
  8
0
390
1D
100
AcDbBlockEnd
  0
BLOCK
  5
60
330
5F
100
AcDbEntity
  8
0
390
1D
100
AcDbBlockBegin
  2
AID89
 70
     0
 71
     0
 10
0.0
 20
0.0
 30
0.0
  3
AID89
  1

  0
LINE
  5
61
330
5F
100
AcDbEntity
  8
0
  6
Continuous
 62
     7
390
1D
100
AcDbLine
 10
906.602865
 20
412.22485
 30
0.0
 11
876.2638950000001
 21
406.031934
 31
0.0
  0
LINE
  5
62
330
5F
100
AcDbEntity
  8
0
  6
Continuous
 62
     7
390
1D
100
AcDbLine
 10
906.602865
 20
412.22485
 30
0.0
 11
899.447448
 21
418.067224
 31
0.0
  0
LINE
  5
63
330
5F
100
AcDbEntity
  8
0
  6
Continuous
 62
     7
390
1D
100
AcDbLine
 10
1262.942658
 20
492.265374
 30
0.0
 11
899.447448
 21
418.067224
 31
0.0
  0
LINE
  5
64
330
5F
100
AcDbEntity
  8
0
  6
Continuous
 62
     7
390
1D
100
AcDbLine
 10
1270.098076
 20
486.423
 30
0.0
 11
1262.942658
 21
492.265374
 31
0.0
  0
LINE
  5
65
330
5F
100
AcDbEntity
  8
0
  6
Continuous
 62
     7
390
1D
100
AcDbLine
 10
1300.437046
 20
492.615916
 30
0.0
 11
1270.098076
 21
486.423
 31
0.0
  0
LINE
  5
66
330
5F
100
AcDbEntity
  8
0
  6
Continuous
 62
     7
390
1D
100
AcDbLine
 10
1300.437046
 20
492.615916
 30
0.0
 11
1355.891532
 21
447.337518
 31
0.0
  0
LINE
  5
67
330
5F
100
AcDbEntity
  8
0
  6
Continuous
 62
     7
390
1D
100
AcDbLine
 10
1355.891532
 20
447.337518
 30
0.0
 11
931.718381
 21
360.753536
 31
0.0
  0
LINE
  5
68
330
5F
100
AcDbEntity
  8
0
  6
Continuous
 62
     7
390
1D
100
AcDbLine
 10
876.2638950000001
 20
406.031934
 30
0.0
 11
931.718381
 21
360.753536
 31
0.0
  0
LINE
  5
69
330
5F
100
AcDbEntity
  8
0
  6
Continuous
 62
     7
390
1D
100
AcDbLine
 10
1355.891532
 20
447.337518
 30
0.0
 11
1355.891532
 21
427.254357
 31
0.0
  0
LINE
  5
6A
330
5F
100
AcDbEntity
  8
0
  6
Continuous
 62
     7
390
1D
100
AcDbLine
 10
1355.891532
 20
427.254357
 30
0.0
 11
931.718381
 21
340.670376
 31
0.0
  0
LINE
  5
6B
330
5F
100
AcDbEntity
  8
0
  6
Continuous
 62
     7
390
1D
100
AcDbLine
 10
931.718381
 20
360.753536
 30
0.0
 11
931.718381
 21
340.670376
 31
0.0
  0
LINE
  5
6C
330
5F
100
AcDbEntity
  8
0
  6
Continuous
 62
     7
390
1D
100
AcDbLine
 10
931.718381
 20
340.670376
 30
0.0
 11
895.941293
 21
369.882245
 31
0.0
  0
LINE
  5
6D
330
5F
100
AcDbEntity
  8
0
  6
Continuous
 62
     7
390
1D
100
AcDbLine
 10
895.941293
 20
369.882245
 30
0.0
 11
895.941293
 21
360.753536
 31
0.0
  0
LINE
  5
6E
330
5F
100
AcDbEntity
  8
0
  6
Continuous
 62
     7
390
1D
100
AcDbLine
 10
895.941293
 20
360.753536
 30
0.0
 11
876.2638950000001
 21
376.820064
 31
0.0
  0
LINE
  5
6F
330
5F
100
AcDbEntity
  8
0
  6
Continuous
 62
     7
390
1D
100
AcDbLine
 10
876.2638950000001
 20
376.820064
 30
0.0
 11
876.2638950000001
 21
406.031934
 31
0.0
  0
LINE
  5
70
330
5F
100
AcDbEntity
  8
0
  6
Continuous
 62
     7
390
1D
100
AcDbLine
 10
899.447448
 20
418.067224
 30
0.0
 11
899.447448
 21
410.764257
 31
0.0
  0
LINE
  5
71
330
5F
100
AcDbEntity
  8
0
  6
Continuous
 62
     7
390
1D
100
AcDbLine
 10
931.718381
 20
340.670376
 30
0.0
 11
1355.891532
 21
427.254357
 31
0.0
  0
LINE
  5
72
330
5F
100
AcDbEntity
  8
0
  6
Continuous
 62
     7
390
1D
100
AcDbLine
 10
931.718381
 20
340.670376
 30
0.0
 11
895.941293
 21
369.882245
 31
0.0
  0
LINE
  5
73
330
5F
100
AcDbEntity
  8
0
  6
Continuous
 62
     7
390
1D
100
AcDbLine
 10
931.718381
 20
331.541666
 30
0.0
 11
1355.891532
 21
418.125648
 31
0.0
  0
LINE
  5
74
330
5F
100
AcDbEntity
  8
0
  6
Continuous
 62
     7
390
1D
100
AcDbLine
 10
931.718381
 20
331.541666
 30
0.0
 11
931.718381
 21
340.670376
 31
0.0
  0
LINE
  5
75
330
5F
100
AcDbEntity
  8
0
  6
Continuous
 62
     7
390
1D
100
AcDbLine
 10
1355.891532
 20
418.125648
 30
0.0
 11
1355.891532
 21
427.254357
 31
0.0
  0
LINE
  5
76
330
5F
100
AcDbEntity
  8
0
  6
Continuous
 62
     7
390
1D
100
AcDbLine
 10
895.941293
 20
360.753536
 30
0.0
 11
931.718381
 21
331.541666
 31
0.0
  0
LINE
  5
77
330
5F
100
AcDbEntity
  8
0
  6
Continuous
 62
     7
390
1D
100
AcDbLine
 10
895.941293
 20
369.882245
 30
0.0
 11
895.941293
 21
360.753536
 31
0.0
  0
ENDBLK
  5
78
330
5F
100
AcDbEntity
  8
0
390
1D
100
AcDbBlockEnd
  0
ENDSEC
  0
SECTION
  2
ENTITIES
  0
INSERT
  5
32
330
A
100
AcDbEntity
  8
0
390
1D
100
AcDbBlockReference
  2
AID1
 10
0.0
 20
0.0
 30
0.0
  0
INSERT
  5
43
330
A
100
AcDbEntity
  8
0
390
1D
100
AcDbBlockReference
  2
AID19
 10
0.0
 20
0.0
 30
0.0
  0
INSERT
  5
4F
330
A
100
AcDbEntity
  8
0
390
1D
100
AcDbBlockReference
  2
AID47
 10
0.0
 20
0.0
 30
0.0
  0
INSERT
  5
5E
330
A
100
AcDbEntity
  8
0
390
1D
100
AcDbBlockReference
  2
AID65
 10
0.0
 20
0.0
 30
0.0
  0
INSERT
  5
79
330
A
100
AcDbEntity
  8
0
390
1D
100
AcDbBlockReference
  2
AID89
 10
0.0
 20
0.0
 30
0.0
  0
ENDSEC
  0
SECTION
  2
OBJECTS
  0
DICTIONARY
  5
19
330
0
100
AcDbDictionary
281
     1
  3
ACAD_GROUP
350
1A
  3
ACAD_LAYOUT
350
1E
  3
ACAD_MLINESTYLE
350
1B
  3
ACAD_PLOTSETTINGS
350
22
  3
ACAD_PLOTSTYLENAME
350
1F
  3
ACAD_WIPEOUT_VARS
350
23
  0
DICTIONARY
  5
1A
102
{ACAD_REACTORS
330
19
102
}
330
19
100
AcDbDictionary
281
     1
  0
DICTIONARY
  5
1E
102
{ACAD_REACTORS
330
19
102
}
330
19
100
AcDbDictionary
281
     1
  3
Layout1
350
21
  3
Model
350
20
  0
DICTIONARY
  5
1B
102
{ACAD_REACTORS
330
19
102
}
330
19
100
AcDbDictionary
281
     1
  3
Standard
350
1C
  0
DICTIONARY
  5
22
102
{ACAD_REACTORS
330
19
102
}
330
19
100
AcDbDictionary
281
     1
  0
ACDBDICTIONARYWDFLT
  5
1F
102
{ACAD_REACTORS
330
19
102
}
330
19
100
AcDbDictionary
281
     1
  3
Normal
350
1D
100
AcDbDictionaryWithDefault
340
1D
  0
WIPEOUTVARIABLES
  5
23
330
19
100
AcDbWipeoutVariables
 70
     1
  0
LAYOUT
  5
21
102
{ACAD_REACTORS
330
1E
102
}
330
1E
100
AcDbPlotSettings
  1

  2

  4

  6

 40
0.0
 41
0.0
 42
0.0
 43
0.0
 44
0.0
 45
0.0
 46
0.0
 47
0.0
 48
0.0
 49
0.0
140
0.0
141
0.0
142
1.0
143
1.0
 70
     0
 72
     0
 73
     0
 74
     0
  7

 75
     0
 76
     0
 77
     2
 78
   300
147
1.0
148
0.0
149
0.0
100
AcDbLayout
  1
Layout1
 70
     0
 71
     2
 10
0.0
 20
0.0
 11
0.0
 21
0.0
 12
0.0
 22
0.0
 32
0.0
 14
0.0
 24
0.0
 34
0.0
 15
0.0
 25
0.0
 35
0.0
146
0.0
 13
0.0
 23
0.0
 33
0.0
 16
0.0
 26
0.0
 36
0.0
 17
0.0
 27
0.0
 37
0.0
 76
     0
330
B
  0
LAYOUT
  5
20
102
{ACAD_REACTORS
330
1E
102
}
330
1E
100
AcDbPlotSettings
  1

  2

  4

  6

 40
0.0
 41
0.0
 42
0.0
 43
0.0
 44
0.0
 45
0.0
 46
0.0
 47
0.0
 48
0.0
 49
0.0
140
0.0
141
0.0
142
1.0
143
1.0
 70
  1024
 72
     0
 73
     0
 74
     0
  7

 75
     0
 76
     0
 77
     2
 78
   300
147
1.0
148
0.0
149
0.0
100
AcDbLayout
  1
Model
 70
     0
 71
     1
 10
0.0
 20
0.0
 11
0.0
 21
0.0
 12
0.0
 22
0.0
 32
0.0
 14
0.0
 24
0.0
 34
0.0
 15
0.0
 25
0.0
 35
0.0
146
0.0
 13
0.0
 23
0.0
 33
0.0
 16
0.0
 26
0.0
 36
0.0
 17
0.0
 27
0.0
 37
0.0
 76
     0
330
A
  0
MLINESTYLE
  5
1C
102
{ACAD_REACTORS
330
1B
102
}
330
1B
100
AcDbMlineStyle
  2
Standard
 70
     0
  3

 62
     0
 51
90.0
 52
90.0
 71
     2
 49
0.5
 62
   256
  6
BYLAYER
 49
-0.5
 62
   256
  6
BYLAYER
  0
ACDBPLACEHOLDER
  5
1D
102
{ACAD_REACTORS
330
1F
102
}
330
1F
  0
ENDSEC
  0
EOF
