  0
SECTION
  2
HEADER
  9
$ACADVER
  1
AC1018
  9
$ACADMAINTVER
 70
     0
  9
$DWGCODEPAGE
  3
ANSI_1252
  9
$INSBASE
 10
0.0
 20
0.0
 30
0.0
  9
$EXTMIN
 10
0.0
 20
0.0000000000000853
 30
0.0
  9
$EXTMAX
 10
937.9613483095309
 20
1279.422638468407
 30
0.0
  9
$LIMMIN
 10
0.0
 20
0.0
  9
$LIMMAX
 10
12.0
 20
9.0
  9
$ORTHOMODE
 70
     0
  9
$REGENMODE
 70
     1
  9
$FILLMODE
 70
     1
  9
$QTEXTMODE
 70
     0
  9
$MIRRTEXT
 70
     1
  9
$LTSCALE
 40
1.0
  9
$ATTMODE
 70
     1
  9
$TEXTSIZE
 40
0.2
  9
$TRACEWID
 40
0.05
  9
$TEXTSTYLE
  7
Standard
  9
$CLAYER
  8
PREDEFINITO
  9
$CELTYPE
  6
ByLayer
  9
$CECOLOR
 62
   256
  9
$CELTSCALE
 40
1.0
  9
$DISPSILH
 70
     0
  9
$DIMSCALE
 40
1.0
  9
$DIMASZ
 40
0.18
  9
$DIMEXO
 40
0.0625
  9
$DIMDLI
 40
0.38
  9
$DIMRND
 40
0.0
  9
$DIMDLE
 40
0.0
  9
$DIMEXE
 40
0.18
  9
$DIMTP
 40
0.0
  9
$DIMTM
 40
0.0
  9
$DIMTXT
 40
0.18
  9
$DIMCEN
 40
0.09
  9
$DIMTSZ
 40
0.0
  9
$DIMTOL
 70
     0
  9
$DIMLIM
 70
     0
  9
$DIMTIH
 70
     1
  9
$DIMTOH
 70
     1
  9
$DIMSE1
 70
     0
  9
$DIMSE2
 70
     0
  9
$DIMTAD
 70
     0
  9
$DIMZIN
 70
     0
  9
$DIMBLK
  1

  9
$DIMASO
 70
     1
  9
$DIMSHO
 70
     1
  9
$DIMPOST
  1

  9
$DIMAPOST
  1

  9
$DIMALT
 70
     0
  9
$DIMALTD
 70
     2
  9
$DIMALTF
 40
25.4
  9
$DIMLFAC
 40
1.0
  9
$DIMTOFL
 70
     0
  9
$DIMTVP
 40
0.0
  9
$DIMTIX
 70
     0
  9
$DIMSOXD
 70
     0
  9
$DIMSAH
 70
     0
  9
$DIMBLK1
  1

  9
$DIMBLK2
  1

  9
$DIMSTYLE
  2
Standard
  9
$DIMCLRD
 70
     0
  9
$DIMCLRE
 70
     0
  9
$DIMCLRT
 70
     0
  9
$DIMTFAC
 40
1.0
  9
$DIMGAP
 40
0.09
  9
$DIMJUST
 70
     0
  9
$DIMSD1
 70
     0
  9
$DIMSD2
 70
     0
  9
$DIMTOLJ
 70
     1
  9
$DIMTZIN
 70
     0
  9
$DIMALTZ
 70
     0
  9
$DIMALTTZ
 70
     0
  9
$DIMUPT
 70
     0
  9
$DIMDEC
 70
     4
  9
$DIMTDEC
 70
     4
  9
$DIMALTU
 70
     2
  9
$DIMALTTD
 70
     2
  9
$DIMTXSTY
  7
Standard
  9
$DIMAUNIT
 70
     0
  9
$DIMADEC
 70
     0
  9
$DIMALTRND
 40
0.0
  9
$DIMAZIN
 70
     0
  9
$DIMDSEP
 70
    46
  9
$DIMATFIT
 70
     3
  9
$DIMFRAC
 70
     0
  9
$DIMLDRBLK
  1

  9
$DIMLUNIT
 70
     2
  9
$DIMLWD
 70
    -2
  9
$DIMLWE
 70
    -2
  9
$DIMTMOVE
 70
     0
  9
$LUNITS
 70
     2
  9
$LUPREC
 70
     3
  9
$SKETCHINC
 40
0.1
  9
$FILLETRAD
 40
0.5
  9
$AUNITS
 70
     0
  9
$AUPREC
 70
     0
  9
$MENU
  1
.
  9
$ELEVATION
 40
0.0
  9
$PELEVATION
 40
0.0
  9
$THICKNESS
 40
0.0
  9
$LIMCHECK
 70
     0
  9
$CHAMFERA
 40
0.5
  9
$CHAMFERB
 40
0.5
  9
$CHAMFERC
 40
1.0
  9
$CHAMFERD
 40
0.0
  9
$SKPOLY
 70
     0
  9
$TDCREATE
 40
2455863.422780081
  9
$TDUCREATE
 40
2455863.339446748
  9
$TDUPDATE
 40
2455863.422780093
  9
$TDUUPDATE
 40
2455863.339446759
  9
$TDINDWG
 40
0.0000000116
  9
$TDUSRTIMER
 40
0.0000000116
  9
$USRTIMER
 70
     1
  9
$ANGBASE
 50
0.0
  9
$ANGDIR
 70
     0
  9
$PDMODE
 70
     0
  9
$PDSIZE
 40
0.0
  9
$PLINEWID
 40
0.0
  9
$SPLFRAME
 70
     0
  9
$SPLINETYPE
 70
     6
  9
$SPLINESEGS
 70
     8
  9
$HANDSEED
  5
11B
  9
$SURFTAB1
 70
     6
  9
$SURFTAB2
 70
     6
  9
$SURFTYPE
 70
     6
  9
$SURFU
 70
     6
  9
$SURFV
 70
     6
  9
$UCSBASE
  2

  9
$UCSNAME
  2

  9
$UCSORG
 10
0.0
 20
0.0
 30
0.0
  9
$UCSXDIR
 10
1.0
 20
0.0
 30
0.0
  9
$UCSYDIR
 10
0.0
 20
1.0
 30
0.0
  9
$UCSORTHOREF
  2

  9
$UCSORTHOVIEW
 70
     0
  9
$UCSORGTOP
 10
0.0
 20
0.0
 30
0.0
  9
$UCSORGBOTTOM
 10
0.0
 20
0.0
 30
0.0
  9
$UCSORGLEFT
 10
0.0
 20
0.0
 30
0.0
  9
$UCSORGRIGHT
 10
0.0
 20
0.0
 30
0.0
  9
$UCSORGFRONT
 10
0.0
 20
0.0
 30
0.0
  9
$UCSORGBACK
 10
0.0
 20
0.0
 30
0.0
  9
$PUCSBASE
  2

  9
$PUCSNAME
  2

  9
$PUCSORG
 10
0.0
 20
0.0
 30
0.0
  9
$PUCSXDIR
 10
1.0
 20
0.0
 30
0.0
  9
$PUCSYDIR
 10
0.0
 20
1.0
 30
0.0
  9
$PUCSORTHOREF
  2

  9
$PUCSORTHOVIEW
 70
     0
  9
$PUCSORGTOP
 10
0.0
 20
0.0
 30
0.0
  9
$PUCSORGBOTTOM
 10
0.0
 20
0.0
 30
0.0
  9
$PUCSORGLEFT
 10
0.0
 20
0.0
 30
0.0
  9
$PUCSORGRIGHT
 10
0.0
 20
0.0
 30
0.0
  9
$PUCSORGFRONT
 10
0.0
 20
0.0
 30
0.0
  9
$PUCSORGBACK
 10
0.0
 20
0.0
 30
0.0
  9
$USERI1
 70
     0
  9
$USERI2
 70
     0
  9
$USERI3
 70
     0
  9
$USERI4
 70
     0
  9
$USERI5
 70
     0
  9
$USERR1
 40
0.0
  9
$USERR2
 40
0.0
  9
$USERR3
 40
0.0
  9
$USERR4
 40
0.0
  9
$USERR5
 40
0.0
  9
$WORLDVIEW
 70
     1
  9
$SHADEDGE
 70
     3
  9
$SHADEDIF
 70
    70
  9
$TILEMODE
 70
     1
  9
$MAXACTVP
 70
    64
  9
$PINSBASE
 10
0.0
 20
0.0
 30
0.0
  9
$PLIMCHECK
 70
     0
  9
$PEXTMIN
 10
1.000000000000000E+20
 20
1.000000000000000E+20
 30
1.000000000000000E+20
  9
$PEXTMAX
 10
-1.000000000000000E+20
 20
-1.000000000000000E+20
 30
-1.000000000000000E+20
  9
$PLIMMIN
 10
0.0
 20
0.0
  9
$PLIMMAX
 10
12.0
 20
9.0
  9
$UNITMODE
 70
     0
  9
$VISRETAIN
 70
     1
  9
$PLINEGEN
 70
     0
  9
$PSLTSCALE
 70
     1
  9
$TREEDEPTH
 70
  3020
  9
$CMLSTYLE
  2
Standard
  9
$CMLJUST
 70
     0
  9
$CMLSCALE
 40
1.0
  9
$PROXYGRAPHICS
 70
     1
  9
$MEASUREMENT
 70
     0
  9
$CELWEIGHT
370
    -1
  9
$ENDCAPS
280
     0
  9
$JOINSTYLE
280
     0
  9
$LWDISPLAY
290
     0
  9
$INSUNITS
 70
     4
  9
$HYPERLINKBASE
  1

  9
$STYLESHEET
  1

  9
$XEDIT
290
     1
  9
$CEPSNTYPE
380
     0
  9
$PSTYLEMODE
290
     1
  9
$FINGERPRINTGUID
  2
{32B99989-69BE-492D-9AC6-CAE2F8A1FD38}
  9
$VERSIONGUID
  2
{FAEB1C32-E019-11D5-929B-00C0DF256EC4}
  9
$EXTNAMES
290
     1
  9
$PSVPSCALE
 40
0.0
  9
$OLESTARTUP
290
     0
  9
$SORTENTS
280
   127
  9
$INDEXCTL
280
     0
  9
$HIDETEXT
280
     1
  9
$XCLIPFRAME
290
     0
  9
$HALOGAP
280
     0
  9
$OBSCOLOR
 70
   257
  9
$OBSLTYPE
280
     0
  9
$INTERSECTIONDISPLAY
280
     0
  9
$INTERSECTIONCOLOR
 70
   257
  9
$DIMASSOC
280
     2
  9
$PROJECTNAME
  1

  0
ENDSEC
  0
SECTION
  2
CLASSES
  0
CLASS
  1
ACDBDICTIONARYWDFLT
  2
AcDbDictionaryWithDefault
  3
ObjectDBX Classes
 90
        0
 91
        3
280
     0
281
     0
  0
CLASS
  1
VISUALSTYLE
  2
AcDbVisualStyle
  3
ObjectDBX Classes
 90
     4095
 91
        3
280
     0
281
     0
  0
CLASS
  1
SCALE
  2
AcDbScale
  3
ObjectDBX Classes
 90
     1153
 91
        3
280
     0
281
     0
  0
ENDSEC
  0
SECTION
  2
TABLES
  0
TABLE
  2
VPORT
  5
8
330
0
100
AcDbSymbolTable
 70
     1
  0
VPORT
  5
29
330
8
100
AcDbSymbolTableRecord
100
AcDbViewportTableRecord
  2
*Active
 70
     0
 10
0.0
 20
0.0
 11
1.0
 21
1.0
 12
0.0
 22
0.0
 13
0.0
 23
0.0
 14
0.5
 24
0.5
 15
0.5
 25
0.5
 16
0.0
 26
0.0
 36
1.0
 17
468.9806741547654
 27
639.7113192342034
 37
0.0
 40
1305.011091237775
 41
0.7331129840193868
 42
50.0
 43
0.0
 44
0.0
 50
0.0
 51
0.0
 71
     0
 72
   100
 73
     1
 74
     3
 75
     0
 76
     0
 77
     0
 78
     0
281
     0
 65
     1
110
0.0
120
0.0
130
0.0
111
1.0
121
0.0
131
0.0
112
0.0
122
1.0
132
0.0
 79
     0
146
0.0
  0
ENDTAB
  0
TABLE
  2
LTYPE
  5
5
330
0
100
AcDbSymbolTable
 70
     1
  0
LTYPE
  5
14
330
5
100
AcDbSymbolTableRecord
100
AcDbLinetypeTableRecord
  2
ByBlock
 70
     0
  3

 72
    65
 73
     0
 40
0.0
  0
LTYPE
  5
15
330
5
100
AcDbSymbolTableRecord
100
AcDbLinetypeTableRecord
  2
ByLayer
 70
     0
  3

 72
    65
 73
     0
 40
0.0
  0
LTYPE
  5
16
330
5
100
AcDbSymbolTableRecord
100
AcDbLinetypeTableRecord
  2
Continuous
 70
     0
  3
Solid line
 72
    65
 73
     0
 40
0.0
  0
ENDTAB
  0
TABLE
  2
LAYER
  5
2
330
0
100
AcDbSymbolTable
 70
     3
  0
LAYER
  5
10
330
2
100
AcDbSymbolTableRecord
100
AcDbLayerTableRecord
  2
0
 70
     0
 62
     7
  6
Continuous
370
    -3
390
F
  0
LAYER
  5
5D
330
2
100
AcDbSymbolTableRecord
100
AcDbLayerTableRecord
  2
LINEE VISIBILI 2D
 70
     0
 62
     7
  6
Continuous
370
    -3
390
F
  0
LAYER
  5
83
330
2
100
AcDbSymbolTableRecord
100
AcDbLayerTableRecord
  2
PREDEFINITO
 70
     0
 62
     7
  6
Continuous
370
    -3
390
F
  0
ENDTAB
  0
TABLE
  2
STYLE
  5
3
330
0
100
AcDbSymbolTable
 70
     1
  0
STYLE
  5
11
330
3
100
AcDbSymbolTableRecord
100
AcDbTextStyleTableRecord
  2
Standard
 70
     0
 40
0.0
 41
1.0
 50
0.0
 71
     0
 42
0.2
  3
txt
  4

  0
ENDTAB
  0
TABLE
  2
VIEW
  5
6
330
0
100
AcDbSymbolTable
 70
     0
  0
ENDTAB
  0
TABLE
  2
UCS
  5
7
330
0
100
AcDbSymbolTable
 70
     0
  0
ENDTAB
  0
TABLE
  2
APPID
  5
9
330
0
100
AcDbSymbolTable
 70
     1
  0
APPID
  5
12
330
9
100
AcDbSymbolTableRecord
100
AcDbRegAppTableRecord
  2
ACAD
 70
     0
  0
ENDTAB
  0
TABLE
  2
DIMSTYLE
  5
A
330
0
100
AcDbSymbolTable
 70
     1
100
AcDbDimStyleTable
  0
DIMSTYLE
105
27
330
A
100
AcDbSymbolTableRecord
100
AcDbDimStyleTableRecord
  2
Standard
 70
     0
340
11
  0
ENDTAB
  0
TABLE
  2
BLOCK_RECORD
  5
1
330
0
100
AcDbSymbolTable
 70
     1
  0
BLOCK_RECORD
  5
1F
330
1
100
AcDbSymbolTableRecord
100
AcDbBlockTableRecord
  2
*Model_Space
340
22
  0
BLOCK_RECORD
  5
1B
330
1
100
AcDbSymbolTableRecord
100
AcDbBlockTableRecord
  2
*Paper_Space
340
1E
  0
BLOCK_RECORD
  5
23
330
1
100
AcDbSymbolTableRecord
100
AcDbBlockTableRecord
  2
*Paper_Space0
340
26
  0
ENDTAB
  0
ENDSEC
  0
SECTION
  2
BLOCKS
  0
BLOCK
  5
20
330
1F
100
AcDbEntity
  8
0
100
AcDbBlockBegin
  2
*Model_Space
 70
     0
 10
0.0
 20
0.0
 30
0.0
  3
*Model_Space
  1

  0
ENDBLK
  5
21
330
1F
100
AcDbEntity
  8
0
100
AcDbBlockEnd
  0
BLOCK
  5
1C
330
1B
100
AcDbEntity
 67
     1
  8
0
100
AcDbBlockBegin
  2
*Paper_Space
 70
     0
 10
0.0
 20
0.0
 30
0.0
  3
*Paper_Space
  1

  0
ENDBLK
  5
1D
330
1B
100
AcDbEntity
 67
     1
  8
0
100
AcDbBlockEnd
  0
BLOCK
  5
24
330
23
100
AcDbEntity
  8
0
100
AcDbBlockBegin
  2
*Paper_Space0
 70
     0
 10
0.0
 20
0.0
 30
0.0
  3
*Paper_Space0
  1

  0
ENDBLK
  5
25
330
23
100
AcDbEntity
  8
0
100
AcDbBlockEnd
  0
ENDSEC
  0
SECTION
  2
ENTITIES
  0
SPLINE
  5
5E
330
1F
100
AcDbEntity
  8
LINEE VISIBILI 2D
100
AcDbSpline
210
0.0
220
0.0
230
1.0
 70
    12
 71
     2
 72
     8
 73
     5
 74
     0
 42
0.0000000001
 43
0.0000000001
 40
0.0
 40
0.0
 40
0.0
 40
150.3864669076558
 40
150.3864669076558
 40
200.2619066626249
 40
200.2619066626249
 40
200.2619066626249
 10
758.4166916308177
 20
83.13555289635353
 30
0.0
 41
1.0
 10
662.82667084925
 20
83.54378497334358
 30
0.0
 41
0.7086150636483363
 10
662.8266708492499
 20
179.1346774602809
 30
0.0
 41
1.0
 10
662.82667084925
 20
204.648890108183
 30
0.0
 41
0.9664496165470244
 10
675.4938974750636
 20
226.7964953207707
 30
0.0
 41
1.0
  0
SPLINE
  5
5F
330
1F
100
AcDbEntity
  8
LINEE VISIBILI 2D
100
AcDbSpline
210
0.0
220
0.0
230
1.0
 70
    24
 71
     2
 72
     6
 73
     3
 74
     0
 42
0.0000000001
 43
0.0000000001
 40
0.0
 40
0.0
 40
0.0
 40
7.398011129324724
 40
7.398011129324724
 40
7.398011129324724
 10
680.7112927169669
 20
223.8335331419475
 30
0.0
 10
677.494411224073
 20
225.6604033559157
 30
0.0
 10
674.2775297311791
 20
227.4872735698839
 30
0.0
  0
SPLINE
  5
60
330
1F
100
AcDbEntity
  8
LINEE VISIBILI 2D
100
AcDbSpline
210
0.0
220
0.0
230
1.0
 70
    12
 71
     2
 72
     6
 73
     3
 74
     0
 42
0.0000000001
 43
0.0000000001
 40
-0.4191240347615855
 40
-0.4191240347615855
 40
-0.4191240347615855
 40
0.0
 40
0.0
 40
0.0
 10
674.2775297311791
 20
227.4872735698839
 30
0.0
 41
1.0
 10
674.0760710041391
 20
227.6033719780889
 30
0.0
 41
0.8628207617059027
 10
674.0788455356385
 20
227.83525253821
 30
0.0
 41
1.0
  0
SPLINE
  5
61
330
1F
100
AcDbEntity
  8
LINEE VISIBILI 2D
100
AcDbSpline
210
0.0
220
0.0
230
1.0
 70
    12
 71
     2
 72
    10
 73
     7
 74
     0
 42
0.0000000001
 43
0.0000000001
 40
-0.830760976791129
 40
-0.830760976791129
 40
-0.830760976791129
 40
-0.5171144205323729
 40
-0.5171144205323729
 40
-0.2040544719385774
 40
-0.2040544719385774
 40
0.0
 40
0.0
 40
0.0
 10
674.0788455356385
 20
227.83525253821
 30
0.0
 41
1.0
 10
674.0807029958306
 20
228.0006875317069
 30
0.0
 41
0.9254552454709611
 10
674.1978736993667
 20
228.1171683864702
 30
0.0
 41
1.0
 10
674.3147712901551
 20
228.2337070307867
 30
0.0
 41
0.9241684341633659
 10
674.4798358300546
 20
228.2337026712168
 30
0.0
 41
1.0
 10
674.5842162488078
 20
228.2335841260459
 30
0.0
 41
0.966468713997345
 10
674.6747753092736
 20
228.1816770702384
 30
0.0
 41
0.9999901094397823
  0
SPLINE
  5
62
330
1F
100
AcDbEntity
  8
LINEE VISIBILI 2D
100
AcDbSpline
210
0.0
220
0.0
230
1.0
 70
    24
 71
     2
 72
     6
 73
     3
 74
     0
 42
0.0000000001
 43
0.0000000001
 40
0.0
 40
0.0
 40
0.0
 40
7.402534760613844
 40
7.402534760613844
 40
7.402534760613844
 10
674.6747753092736
 20
228.1816770702384
 30
0.0
 10
677.8932426346105
 20
226.3539084386225
 30
0.0
 10
681.1117099599473
 20
224.5261398070067
 30
0.0
  0
SPLINE
  5
63
330
1F
100
AcDbEntity
  8
LINEE VISIBILI 2D
100
AcDbSpline
210
0.0
220
0.0
230
1.0
 70
    24
 71
     2
 72
     6
 73
     3
 74
     0
 42
0.0000000001
 43
0.0000000001
 40
0.0
 40
0.0
 40
0.0
 40
7.398011129361826
 40
7.398011129361826
 40
7.398011129361826
 10
836.5947044558083
 20
224.4351515082333
 30
0.0
 10
839.7852611949602
 20
226.3076175312006
 30
0.0
 10
842.9758179341122
 20
228.180083554168
 30
0.0
  0
SPLINE
  5
64
330
1F
100
AcDbEntity
  8
LINEE VISIBILI 2D
100
AcDbSpline
210
0.0
220
0.0
230
1.0
 70
    12
 71
     2
 72
     6
 73
     3
 74
     0
 42
0.0000000001
 43
0.0000000001
 40
0.0
 40
0.0
 40
0.0
 40
0.4195804442497358
 40
0.4195804442497358
 40
0.4195804442497358
 10
842.9758179341122
 20
228.180083554168
 30
0.0
 41
1.0
 10
843.1773568179427
 20
228.2966548462716
 30
0.0
 41
0.862533066243219
 10
843.3767428757851
 20
228.1780273499165
 30
0.0
 41
1.0
  0
SPLINE
  5
65
330
1F
100
AcDbEntity
  8
LINEE VISIBILI 2D
100
AcDbSpline
210
0.0
220
0.0
230
1.0
 70
    12
 71
     2
 72
     8
 73
     5
 74
     0
 42
0.0000000001
 43
0.0000000001
 40
0.0
 40
0.0
 40
0.0
 40
0.6268432646082186
 40
0.6268432646082186
 40
0.8306389394605598
 40
0.8306389394605598
 40
0.8306389394605598
 10
843.3767428757851
 20
228.1780273499165
 30
0.0
 41
1.0
 10
843.7188582276681
 20
227.9759540212187
 30
0.0
 41
0.7113785028441936
 10
843.5209617857381
 20
227.6314427864266
 30
0.0
 41
1.0
 10
843.468678330717
 20
227.5412607415689
 30
0.0
 41
0.9665550503741996
 10
843.378566190729
 20
227.4888568952082
 30
0.0
 41
0.9999901225946216
  0
SPLINE
  5
66
330
1F
100
AcDbEntity
  8
LINEE VISIBILI 2D
100
AcDbSpline
210
0.0
220
0.0
230
1.0
 70
    24
 71
     2
 72
     6
 73
     3
 74
     0
 42
0.0000000001
 43
0.0000000001
 40
0.0
 40
0.0
 40
0.0
 40
7.402534662854124
 40
7.402534662854124
 40
7.402534662854124
 10
843.378566190729
 20
227.4888568952082
 30
0.0
 10
840.1864384959097
 20
225.6154667831881
 30
0.0
 10
836.9943108010903
 20
223.742076671168
 30
0.0
  0
SPLINE
  5
67
330
1F
100
AcDbEntity
  8
LINEE VISIBILI 2D
100
AcDbSpline
210
0.0
220
0.0
230
1.0
 70
    24
 71
     2
 72
     6
 73
     3
 74
     0
 42
0.0000000001
 43
0.0000000001
 40
0.0
 40
0.0
 40
0.0
 40
7.398011129384076
 40
7.398011129384076
 40
7.398011129384076
 10
759.1740153749745
 20
89.13534773066309
 30
0.0
 10
759.2003401490117
 20
85.43601153084688
 30
0.0
 10
759.2266649230489
 20
81.73667533103068
 30
0.0
  0
SPLINE
  5
68
330
1F
100
AcDbEntity
  8
LINEE VISIBILI 2D
100
AcDbSpline
210
0.0
220
0.0
230
1.0
 70
    12
 71
     2
 72
     6
 73
     3
 74
     0
 42
0.0000000001
 43
0.0000000001
 40
0.0
 40
0.0
 40
0.0
 40
0.4195804442268365
 40
0.4195804442268365
 40
0.4195804442268365
 10
759.2266649230489
 20
81.73667533103068
 30
0.0
 41
1.0
 10
759.2268491814343
 20
81.5038518917466
 30
0.0
 41
0.8625330662581314
 10
759.0244217270957
 20
81.3904922486796
 30
0.0
 41
1.0
  0
SPLINE
  5
69
330
1F
100
AcDbEntity
  8
LINEE VISIBILI 2D
100
AcDbSpline
210
0.0
220
0.0
230
1.0
 70
    12
 71
     2
 72
     8
 73
     5
 74
     0
 42
0.0000000001
 43
0.0000000001
 40
0.0
 40
0.0
 40
0.0
 40
0.6268432646083412
 40
0.6268432646083412
 40
0.830638939464673
 40
0.830638939464673
 40
0.830638939464673
 10
759.0244217270957
 20
81.3904922486796
 30
0.0
 41
1.0
 10
758.6783634150747
 20
81.19524832727288
 30
0.0
 41
0.7113785028439469
 10
758.4789561548205
 20
81.53888729069897
 30
0.0
 41
1.0
 10
758.426997940518
 20
81.62925711337574
 30
0.0
 41
0.9665550503735522
 10
758.4266709483081
 20
81.73349843897722
 30
0.0
 41
0.9999901225946413
  0
SPLINE
  5
6A
330
1F
100
AcDbEntity
  8
LINEE VISIBILI 2D
100
AcDbSpline
210
0.0
220
0.0
230
1.0
 70
    24
 71
     2
 72
     6
 73
     3
 74
     0
 42
0.0000000001
 43
0.0000000001
 40
0.0
 40
0.0
 40
0.0
 40
7.402534662849858
 40
7.402534662849858
 40
7.402534662849858
 10
758.426670948308
 20
81.73349843897721
 30
0.0
 10
758.4003313675096
 20
85.43465717082256
 30
0.0
 10
758.3739917867111
 20
89.13581590266793
 30
0.0
  0
SPLINE
  5
6B
330
1F
100
AcDbEntity
  8
LINEE VISIBILI 2D
100
AcDbSpline
210
0.0
220
0.0
230
1.0
 70
    12
 71
     2
 72
     8
 73
     5
 74
     0
 42
0.0000000001
 43
0.0000000001
 40
0.0
 40
0.0
 40
0.0
 40
1.178097245096172
 40
1.178097245096172
 40
2.356194490192402
 40
2.356194490192402
 40
2.356194490192402
 10
758.8266708492498
 20
275.784677460281
 30
0.0
 41
1.0
 10
758.0766708492498
 20
275.784677460281
 30
0.0
 41
0.7071067811865476
 10
758.0766708492498
 20
276.534677460281
 30
0.0
 41
1.0
 10
758.0766708492498
 20
277.284677460281
 30
0.0
 41
0.7071067811865207
 10
758.8266708492499
 20
277.284677460281
 30
0.0
 41
1.0
  0
SPLINE
  5
6C
330
1F
100
AcDbEntity
  8
LINEE VISIBILI 2D
100
AcDbSpline
210
0.0
220
0.0
230
1.0
 70
    12
 71
     2
 72
     8
 73
     5
 74
     0
 42
0.0000000001
 43
0.0000000001
 40
0.0
 40
0.0
 40
0.0
 40
1.178097245096514
 40
1.178097245096514
 40
2.356194490192824
 40
2.356194490192824
 40
2.356194490192824
 10
758.8266708492499
 20
277.284677460281
 30
0.0
 41
1.0
 10
759.5766708492504
 20
277.2846774602815
 30
0.0
 41
0.7071067811860919
 10
759.5766708492499
 20
276.534677460281
 30
0.0
 41
1.0
 10
759.5766708492501
 20
275.7846774602806
 30
0.0
 41
0.7071067811861456
 10
758.8266708492498
 20
275.784677460281
 30
0.0
 41
1.0
  0
SPLINE
  5
6D
330
1F
100
AcDbEntity
  8
LINEE VISIBILI 2D
100
AcDbSpline
210
0.0
220
0.0
230
1.0
 70
    12
 71
     2
 72
     6
 73
     3
 74
     0
 42
0.0000000001
 43
0.0000000001
 40
0.0
 40
0.0
 40
0.0
 40
100.1209844502208
 40
100.1209844502208
 40
100.1209844502208
 10
675.8939798450374
 20
227.4892921604293
 30
0.0
 41
1.0
 10
703.6740291900828
 20
275.1346774602808
 30
0.0
 41
0.8670910860822372
 10
758.8266708492499
 20
275.134677460281
 30
0.0
 41
1.0
  0
SPLINE
  5
6E
330
1F
100
AcDbEntity
  8
LINEE VISIBILI 2D
100
AcDbSpline
210
0.0
220
0.0
230
1.0
 70
    12
 71
     2
 72
     6
 73
     3
 74
     0
 42
0.0000000001
 43
0.0000000001
 40
0.0
 40
0.0
 40
0.0
 40
100.1409222124041
 40
100.1409222124041
 40
100.1409222124041
 10
758.8266708492499
 20
275.134677460281
 30
0.0
 41
1.0
 10
813.9925724888795
 20
275.1346774602808
 30
0.0
 41
0.867039352299241
 10
841.7694025940733
 20
227.4720672398943
 30
0.0
 41
1.0
  0
SPLINE
  5
6F
330
1F
100
AcDbEntity
  8
LINEE VISIBILI 2D
100
AcDbSpline
210
0.0
220
0.0
230
1.0
 70
    12
 71
     2
 72
     8
 73
     5
 74
     0
 42
0.0000000001
 43
0.0000000001
 40
0.0
 40
0.0
 40
0.0
 40
281.3840933561979
 40
281.3840933561979
 40
562.7681867123956
 40
562.7681867123956
 40
562.7681867123956
 10
758.8266708492499
 20
358.2693549205617
 30
0.0
 41
1.0
 10
579.6919933889689
 20
358.269354920562
 30
0.0
 41
0.7071067811865468
 10
579.691993388969
 20
179.1346774602809
 30
0.0
 41
1.0
 10
579.6919933889692
 20
0.0000000000001483
 30
0.0
 41
0.7071067811865481
 10
758.8266708492499
 20
0.0000000000000853
 30
0.0
 41
1.0
  0
SPLINE
  5
70
330
1F
100
AcDbEntity
  8
LINEE VISIBILI 2D
100
AcDbSpline
210
0.0
220
0.0
230
1.0
 70
    12
 71
     2
 72
     8
 73
     5
 74
     0
 42
0.0000000001
 43
0.0000000001
 40
0.0
 40
0.0
 40
0.0
 40
281.384093356198
 40
281.384093356198
 40
562.7681867123958
 40
562.7681867123958
 40
562.7681867123958
 10
758.8266708492499
 20
0.0000000000000853
 30
0.0
 41
1.0
 10
937.9613483095311
 20
-0.0000000000002825
 30
0.0
 41
0.7071067811865464
 10
937.9613483095309
 20
179.134677460281
 30
0.0
 41
1.0
 10
937.961348309531
 20
358.269354920562
 30
0.0
 41
0.7071067811865468
 10
758.8266708492499
 20
358.2693549205617
 30
0.0
 41
1.0
  0
SPLINE
  5
71
330
1F
100
AcDbEntity
  8
LINEE VISIBILI 2D
100
AcDbSpline
210
0.0
220
0.0
230
1.0
 70
    12
 71
     2
 72
     8
 73
     5
 74
     0
 42
0.0000000001
 43
0.0000000001
 40
0.0
 40
0.0
 40
0.0
 40
0.7615322216278745
 40
0.7615322216278745
 40
1.939629466724067
 40
1.939629466724067
 40
1.939629466724067
 10
759.2221460281164
 20
82.37193673475286
 30
0.0
 41
1.0
 10
759.5766708492498
 20
82.15192304069312
 30
0.0
 41
0.8738707680455254
 10
759.5766708492499
 20
81.73467746028092
 30
0.0
 41
1.0
 10
759.57667084925
 20
80.98467746028082
 30
0.0
 41
0.7071067811864538
 10
758.8266708492499
 20
80.98467746028093
 30
0.0
 41
1.0
  0
SPLINE
  5
72
330
1F
100
AcDbEntity
  8
LINEE VISIBILI 2D
100
AcDbSpline
210
0.0
220
0.0
230
1.0
 70
    12
 71
     2
 72
     8
 73
     5
 74
     0
 42
0.0000000001
 43
0.0000000001
 40
0.0
 40
0.0
 40
0.0
 40
1.178097245096311
 40
1.178097245096311
 40
1.928955150320224
 40
1.928955150320224
 40
1.928955150320224
 10
758.8266708492499
 20
80.98467746028093
 30
0.0
 41
1.0
 10
758.0766708492497
 20
80.9846774602808
 30
0.0
 41
0.707106781186514
 10
758.0766708492498
 20
81.73467746028092
 30
0.0
 41
1.0
 10
758.0766708492499
 20
82.14496147378433
 30
0.0
 41
0.8773082172554872
 10
758.4221662871538
 20
82.36624381407398
 30
0.0
 41
1.0
  0
SPLINE
  5
73
330
1F
100
AcDbEntity
  8
LINEE VISIBILI 2D
100
AcDbSpline
210
0.0
220
0.0
230
1.0
 70
    12
 71
     2
 72
     8
 73
     5
 74
     0
 42
0.0000000001
 43
0.0000000001
 40
0.0
 40
0.0
 40
0.0
 40
155.5088363526947
 40
155.5088363526947
 40
311.0176727053894
 40
311.0176727053894
 40
311.0176727053894
 10
758.8266708492499
 20
80.13467746028101
 30
0.0
 41
1.0
 10
659.8266708492499
 20
80.13467746028101
 30
0.0
 41
0.7071067811865479
 10
659.8266708492499
 20
179.1346774602809
 30
0.0
 41
1.0
 10
659.8266708492501
 20
278.1346774602808
 30
0.0
 41
0.7071067811865482
 10
758.8266708492499
 20
278.134677460281
 30
0.0
 41
1.0
  0
SPLINE
  5
74
330
1F
100
AcDbEntity
  8
LINEE VISIBILI 2D
100
AcDbSpline
210
0.0
220
0.0
230
1.0
 70
    12
 71
     2
 72
     8
 73
     5
 74
     0
 42
0.0000000001
 43
0.0000000001
 40
0.0
 40
0.0
 40
0.0
 40
155.5088363526945
 40
155.5088363526945
 40
311.0176727053891
 40
311.0176727053891
 40
311.0176727053891
 10
758.8266708492499
 20
278.1346774602808
 30
0.0
 41
1.0
 10
857.82667084925
 20
278.134677460281
 30
0.0
 41
0.7071067811865456
 10
857.8266708492497
 20
179.134677460281
 30
0.0
 41
1.0
 10
857.8266708492497
 20
80.134677460281
 30
0.0
 41
0.7071067811865469
 10
758.8266708492499
 20
80.13467746028101
 30
0.0
 41
1.0
  0
SPLINE
  5
75
330
1F
100
AcDbEntity
  8
LINEE VISIBILI 2D
100
AcDbSpline
210
0.0
220
0.0
230
1.0
 70
    12
 71
     2
 72
     6
 73
     3
 74
     0
 42
0.0000000001
 43
0.0000000001
 40
0.0
 40
0.0
 40
0.0
 40
0.7853981633975355
 40
0.7853981633975355
 40
0.7853981633975355
 10
674.4757965206456
 20
129.6846774602809
 30
0.0
 41
1.0
 10
674.0427838187534
 20
129.6846774602809
 30
0.0
 41
0.8660254037843996
 10
673.8262774678072
 20
130.0596774602809
 30
0.0
 41
1.0
  0
SPLINE
  5
76
330
1F
100
AcDbEntity
  8
LINEE VISIBILI 2D
100
AcDbSpline
210
0.0
220
0.0
230
1.0
 70
    12
 71
     2
 72
     8
 73
     5
 74
     0
 42
0.0000000001
 43
0.0000000001
 40
0.0
 40
0.0
 40
0.0
 40
1.178097245096242
 40
1.178097245096242
 40
2.356194490192544
 40
2.356194490192544
 40
2.356194490192544
 10
673.8262774678072
 20
130.0596774602809
 30
0.0
 41
1.0
 10
673.451277467807
 20
130.7091965131193
 30
0.0
 41
0.7071067811864462
 10
674.1007965206455
 20
131.0841965131193
 30
0.0
 41
1.0
 10
674.7503155734838
 20
131.4591965131194
 30
0.0
 41
0.7071067811865012
 10
675.1253155734839
 20
130.809677460281
 30
0.0
 41
1.0
  0
SPLINE
  5
77
330
1F
100
AcDbEntity
  8
LINEE VISIBILI 2D
100
AcDbSpline
210
0.0
220
0.0
230
1.0
 70
    12
 71
     2
 72
     8
 73
     5
 74
     0
 42
0.0000000001
 43
0.0000000001
 40
0.0
 40
0.0
 40
0.0
 40
0.7853981633974036
 40
0.7853981633974036
 40
1.570796326794845
 40
1.570796326794845
 40
1.570796326794845
 10
675.1253155734839
 20
130.809677460281
 30
0.0
 41
1.0
 10
675.34182192443
 20
130.4346774602809
 30
0.0
 41
0.8660254037846519
 10
675.1253155734839
 20
130.0596774602809
 30
0.0
 41
1.0
 10
674.9088092225379
 20
129.6846774602809
 30
0.0
 41
0.8660254037842848
 10
674.4757965206456
 20
129.6846774602809
 30
0.0
 41
1.0
  0
SPLINE
  5
78
330
1F
100
AcDbEntity
  8
LINEE VISIBILI 2D
100
AcDbSpline
210
0.0
220
0.0
230
1.0
 70
    12
 71
     2
 72
     6
 73
     3
 74
     0
 42
0.0000000001
 43
0.0000000001
 40
0.0
 40
0.0
 40
0.0
 40
49.85550199278378
 40
49.85550199278378
 40
49.85550199278378
 10
842.1693410718933
 20
226.7791873240597
 30
0.0
 41
1.0
 10
854.8266708492498
 20
204.6382173665652
 30
0.0
 41
0.9664762839354115
 10
854.8266708492499
 20
179.134677460281
 30
0.0
 41
1.0
  0
SPLINE
  5
79
330
1F
100
AcDbEntity
  8
LINEE VISIBILI 2D
100
AcDbSpline
210
0.0
220
0.0
230
1.0
 70
    12
 71
     2
 72
     6
 73
     3
 74
     0
 42
0.0000000001
 43
0.0000000001
 40
0.0
 40
0.0
 40
0.0
 40
150.4064046698416
 40
150.4064046698416
 40
150.4064046698416
 10
854.8266708492499
 20
179.134677460281
 30
0.0
 41
1.0
 10
854.8266708492499
 20
83.52392994253796
 30
0.0
 41
0.7085417890425371
 10
759.216712478613
 20
83.13546982017921
 30
0.0
 41
1.0
  0
SPLINE
  5
7A
330
1F
100
AcDbEntity
  8
LINEE VISIBILI 2D
100
AcDbSpline
210
0.0
220
0.0
230
1.0
 70
    12
 71
     2
 72
     6
 73
     3
 74
     0
 42
0.0000000001
 43
0.0000000001
 40
0.0
 40
0.0
 40
0.0
 40
0.3688331364565366
 40
0.3688331364565366
 40
0.3688331364565366
 10
674.829941648641
 20
227.1735562699406
 30
0.0
 41
1.0
 10
674.664021917454
 20
227.0846774602809
 30
0.0
 41
0.9699213680638676
 10
674.4757965206454
 20
227.0846774602809
 30
0.0
 41
1.0
  0
SPLINE
  5
7B
330
1F
100
AcDbEntity
  8
LINEE VISIBILI 2D
100
AcDbSpline
210
0.0
220
0.0
230
1.0
 70
    12
 71
     2
 72
     8
 73
     5
 74
     0
 42
0.0000000001
 43
0.0000000001
 40
0.0
 40
0.0
 40
0.0
 40
0.7853981633974375
 40
0.7853981633974375
 40
1.570796326794911
 40
1.570796326794911
 40
1.570796326794911
 10
674.4757965206454
 20
227.0846774602809
 30
0.0
 41
1.0
 10
674.0427838187533
 20
227.0846774602809
 30
0.0
 41
0.866025403784353
 10
673.8262774678071
 20
227.4596774602809
 30
0.0
 41
1.0
 10
673.6097711168609
 20
227.8346774602809
 30
0.0
 41
0.8660254037843487
 10
673.8262774678071
 20
228.2096774602809
 30
0.0
 41
1.0
  0
SPLINE
  5
7C
330
1F
100
AcDbEntity
  8
LINEE VISIBILI 2D
100
AcDbSpline
210
0.0
220
0.0
230
1.0
 70
    12
 71
     2
 72
     8
 73
     5
 74
     0
 42
0.0000000001
 43
0.0000000001
 40
0.0
 40
0.0
 40
0.0
 40
1.178097245096148
 40
1.178097245096148
 40
1.928955150321049
 40
1.928955150321049
 40
1.928955150321049
 10
673.8262774678071
 20
228.2096774602809
 30
0.0
 41
1.0
 10
674.2012774678069
 20
228.8591965131193
 30
0.0
 41
0.7071067811865109
 10
674.8507965206454
 20
228.4841965131193
 30
0.0
 41
1.0
 10
675.2061128991069
 20
228.2790545063674
 30
0.0
 41
0.877308217254992
 10
675.2250013082538
 20
227.8692055101054
 30
0.0
 41
1.0
  0
SPLINE
  5
7D
330
1F
100
AcDbEntity
  8
LINEE VISIBILI 2D
100
AcDbSpline
210
0.0
220
0.0
230
1.0
 70
    12
 71
     2
 72
     8
 73
     5
 74
     0
 42
0.0000000001
 43
0.0000000001
 40
0.0
 40
0.0
 40
0.0
 40
0.7615322214896049
 40
0.7615322214896049
 40
1.939629466585719
 40
1.939629466585719
 40
1.939629466585719
 10
842.4279248679354
 20
227.8585393746477
 30
0.0
 41
1.0
 10
842.4411999056788
 20
228.2755737229584
 30
0.0
 41
0.8738707680902579
 10
842.8025451778542
 20
228.4841965131192
 30
0.0
 41
1.0
 10
843.4520642306925
 20
228.8591965131192
 30
0.0
 41
0.7071067811865476
 10
843.8270642306925
 20
228.2096774602809
 30
0.0
 41
1.0
  0
SPLINE
  5
7E
330
1F
100
AcDbEntity
  8
LINEE VISIBILI 2D
100
AcDbSpline
210
0.0
220
0.0
230
1.0
 70
    12
 71
     2
 72
     8
 73
     5
 74
     0
 42
0.0000000001
 43
0.0000000001
 40
0.0
 40
0.0
 40
0.0
 40
0.7853981633974839
 40
0.7853981633974839
 40
1.570796326794948
 40
1.570796326794948
 40
1.570796326794948
 10
843.8270642306925
 20
228.2096774602809
 30
0.0
 41
1.0
 10
844.0435705816387
 20
227.8346774602809
 30
0.0
 41
0.8660254037843108
 10
843.8270642306925
 20
227.4596774602809
 30
0.0
 41
1.0
 10
843.6105578797464
 20
227.0846774602809
 30
0.0
 41
0.86602540378444
 10
843.1775451778542
 20
227.0846774602809
 30
0.0
 41
1.0
  0
SPLINE
  5
7F
330
1F
100
AcDbEntity
  8
LINEE VISIBILI 2D
100
AcDbSpline
210
0.0
220
0.0
230
1.0
 70
    12
 71
     2
 72
     6
 73
     3
 74
     0
 42
0.0000000001
 43
0.0000000001
 40
0.0
 40
0.0
 40
0.0
 40
0.358158823544325
 40
0.358158823544325
 40
0.358158823544325
 10
843.1775451778542
 20
227.0846774602809
 30
0.0
 41
1.0
 10
842.9949830771299
 20
227.0846774602809
 30
0.0
 41
0.9716290113719245
 10
842.832844952325
 20
227.1685830566713
 30
0.0
 41
1.0
  0
SPLINE
  5
80
330
1F
100
AcDbEntity
  8
LINEE VISIBILI 2D
100
AcDbSpline
210
0.0
220
0.0
230
1.0
 70
    12
 71
     2
 72
     8
 73
     5
 74
     0
 42
0.0000000001
 43
0.0000000001
 40
0.0
 40
0.0
 40
0.0
 40
0.7853981633973959
 40
0.7853981633973959
 40
1.570796326794923
 40
1.570796326794923
 40
1.570796326794923
 10
843.1775451778542
 20
129.6846774602809
 30
0.0
 41
1.0
 10
842.744532475962
 20
129.6846774602809
 30
0.0
 41
0.8660254037845058
 10
842.5280261250158
 20
130.0596774602809
 30
0.0
 41
1.0
 10
842.3115197740698
 20
130.4346774602809
 30
0.0
 41
0.8660254037843701
 10
842.5280261250159
 20
130.809677460281
 30
0.0
 41
1.0
  0
SPLINE
  5
81
330
1F
100
AcDbEntity
  8
LINEE VISIBILI 2D
100
AcDbSpline
210
0.0
220
0.0
230
1.0
 70
    12
 71
     2
 72
     8
 73
     5
 74
     0
 42
0.0000000001
 43
0.0000000001
 40
0.0
 40
0.0
 40
0.0
 40
1.17809724509618
 40
1.17809724509618
 40
2.356194490192429
 40
2.356194490192429
 40
2.356194490192429
 10
842.5280261250159
 20
130.809677460281
 30
0.0
 41
1.0
 10
842.9030261250157
 20
131.4591965131194
 30
0.0
 41
0.7071067811864743
 10
843.5525451778542
 20
131.0841965131193
 30
0.0
 41
1.0
 10
844.2020642306928
 20
130.7091965131193
 30
0.0
 41
0.7071067811862851
 10
843.8270642306925
 20
130.0596774602809
 30
0.0
 41
1.0
  0
SPLINE
  5
82
330
1F
100
AcDbEntity
  8
LINEE VISIBILI 2D
100
AcDbSpline
210
0.0
220
0.0
230
1.0
 70
    12
 71
     2
 72
     6
 73
     3
 74
     0
 42
0.0000000001
 43
0.0000000001
 40
0.0
 40
0.0
 40
0.0
 40
0.7853981633974466
 40
0.7853981633974466
 40
0.7853981633974466
 10
843.8270642306925
 20
130.0596774602809
 30
0.0
 41
1.0
 10
843.6105578797464
 20
129.6846774602808
 30
0.0
 41
0.8660254037843965
 10
843.1775451778542
 20
129.6846774602809
 30
0.0
 41
1.0
  0
POLYLINE
  5
84
330
1F
100
AcDbEntity
  8
PREDEFINITO
100
AcDb2dPolyline
 66
     1
 10
0.0
 20
0.0
 30
0.0
  0
VERTEX
  5
86
330
84
100
AcDbEntity
  8
PREDEFINITO
100
AcDbVertex
100
AcDb2dVertex
 10
89.21633204763235
 20
1274.554795836308
 30
0.0
  0
VERTEX
  5
87
330
84
100
AcDbEntity
  8
PREDEFINITO
100
AcDbVertex
100
AcDb2dVertex
 10
269.0938506299716
 20
1274.563296662404
 30
0.0
  0
SEQEND
  5
85
330
84
100
AcDbEntity
  8
PREDEFINITO
  0
SPLINE
  5
88
330
1F
100
AcDbEntity
  8
PREDEFINITO
100
AcDbSpline
210
0.0
220
0.0
230
1.0
 70
    24
 71
     2
 72
     6
 73
     3
 74
     0
 42
0.0000000001
 43
0.0000000001
 40
-4.850840556764069
 40
-4.850840556764069
 40
-4.850840556764069
 40
0.0
 40
0.0
 40
0.0
 10
269.0938506299716
 20
1274.563296662404
 30
0.0
 10
269.0918946960038
 20
1276.992967565405
 30
0.0
 10
269.0899387620361
 20
1279.422638468407
 30
0.0
  0
SPLINE
  5
89
330
1F
100
AcDbEntity
  8
PREDEFINITO
100
AcDbSpline
210
0.0
220
0.0
230
1.0
 70
    28
 71
     2
 72
    10
 73
     7
 74
     0
 42
0.0000000001
 43
0.0000000001
 40
-4.663301595172349
 40
-4.663301595172349
 40
-4.663301595172349
 40
-3.134640108639864
 40
-3.134640108639864
 40
-1.556666961251492
 40
-1.556666961251492
 40
-1.521708941582556
 40
-1.521708941582556
 40
-1.521708941582556
 10
269.0899387620361
 20
1279.422638468407
 30
0.0
 41
0.9822662308921544
 10
265.2080290358587
 20
1279.422638468407
 30
0.0
 41
0.7162596942744679
 10
179.1346774602808
 20
1279.422638468407
 30
0.0
 41
1.0
 10
89.13467746028066
 20
1279.422638468407
 30
0.0
 41
0.7071067811865476
 10
89.13467746028067
 20
1279.422638468407
 30
0.0
 41
1.0
 10
89.13467746028067
 20
1279.422638468407
 30
0.0
 41
0.993511317400347
 10
89.17941615852553
 20
1279.422638468407
 30
0.0
 41
0.9873101320807581
  0
SPLINE
  5
8A
330
1F
100
AcDbEntity
  8
PREDEFINITO
100
AcDbSpline
210
0.0
220
0.0
230
1.0
 70
    24
 71
     2
 72
     6
 73
     3
 74
     0
 42
0.0000000001
 43
0.0000000001
 40
-4.850840556764069
 40
-4.850840556764069
 40
-4.850840556764069
 40
0.0
 40
0.0
 40
0.0
 10
89.17941615852553
 20
1279.422638468407
 30
0.0
 10
89.19787410307893
 20
1276.988717152357
 30
0.0
 10
89.21633204763235
 20
1274.554795836308
 30
0.0
  0
SPLINE
  5
8B
330
1F
100
AcDbEntity
  8
PREDEFINITO
100
AcDbSpline
210
0.0
220
0.0
230
1.0
 70
    12
 71
     2
 72
     6
 73
     3
 74
     0
 42
0.0000000001
 43
0.0000000001
 40
0.0
 40
0.0
 40
0.0
 40
5.412410841958224
 40
5.412410841958224
 40
5.412410841958224
 10
206.9876351637711
 20
1259.547677286935
 30
0.0
 41
1.0
 10
204.3003025845956
 20
1259.224811821449
 30
0.0
 41
0.9997491052030754
 10
201.5557667737031
 20
1259.022628629481
 30
0.0
 41
1.0
  0
SPLINE
  5
8C
330
1F
100
AcDbEntity
  8
PREDEFINITO
100
AcDbSpline
210
0.0
220
0.0
230
1.0
 70
    28
 71
     2
 72
    10
 73
     7
 74
     0
 42
0.0000000001
 43
0.0000000001
 40
-4.614214209960009
 40
-4.614214209960009
 40
-4.614214209960009
 40
-3.128151365594098
 40
-3.128151365594098
 40
-1.543017664937128
 40
-1.543017664937128
 40
-1.472621556370215
 40
-1.472621556370215
 40
-1.472621556370215
 10
201.5557667737031
 20
1259.022628629481
 30
0.0
 41
0.9656765759202987
 10
199.6655382377247
 20
1259.022628629481
 30
0.0
 41
0.7254126073623883
 10
179.1346774602808
 20
1259.022628629481
 30
0.0
 41
1.0
 10
156.6681485655933
 20
1259.022628629481
 30
0.0
 41
0.7071067811865476
 10
156.6681485655934
 20
1259.022628629481
 30
0.0
 41
1.0
 10
156.6681485655934
 20
1259.022628629481
 30
0.0
 41
0.9869925528543373
 10
156.7135881468586
 20
1259.022628629481
 30
0.0
 41
0.9751404324310387
  0
SPLINE
  5
8D
330
1F
100
AcDbEntity
  8
PREDEFINITO
100
AcDbSpline
210
0.0
220
0.0
230
1.0
 70
     8
 71
     3
 72
    11
 73
     7
 74
     0
 42
0.0000000001
 43
0.0000000001
 40
0.0
 40
0.0
 40
0.0
 40
0.0
 40
6.706637427281111
 40
15.31784708903985
 40
24.24924108470952
 40
34.01022698116982
 40
34.01022698116982
 40
34.01022698116982
 40
34.01022698116982
 10
156.7135881468586
 20
1259.022628629481
 30
0.0
 10
154.4386032228212
 20
1259.18647569794
 30
0.0
 10
149.3598356510937
 20
1259.730853596429
 30
0.0
 10
141.3655372160615
 20
1260.927847887524
 30
0.0
 10
132.3858587486132
 20
1262.415214657373
 30
0.0
 10
126.2819230552929
 20
1263.673431991861
 30
0.0
 10
123.098929600482
 20
1264.346391464701
 30
0.0
  0
POLYLINE
  5
8E
330
1F
100
AcDbEntity
  8
PREDEFINITO
100
AcDb2dPolyline
 66
     1
 10
0.0
 20
0.0
 30
0.0
  0
VERTEX
  5
90
330
8E
100
AcDbEntity
  8
PREDEFINITO
100
AcDbVertex
100
AcDb2dVertex
 10
123.098929600482
 20
1264.346391464701
 30
0.0
  0
VERTEX
  5
91
330
8E
100
AcDbEntity
  8
PREDEFINITO
100
AcDbVertex
100
AcDb2dVertex
 10
122.5447702675127
 20
1264.46499858114
 30
0.0
  0
SEQEND
  5
8F
330
8E
100
AcDbEntity
  8
PREDEFINITO
  0
SPLINE
  5
92
330
1F
100
AcDbEntity
  8
PREDEFINITO
100
AcDbSpline
210
0.0
220
0.0
230
1.0
 70
     8
 71
     3
 72
    11
 73
     7
 74
     0
 42
0.0000000001
 43
0.0000000001
 40
0.0
 40
0.0
 40
0.0
 40
0.0
 40
11.80699780755807
 40
16.04910227582451
 40
19.86043554509259
 40
34.90338194106165
 40
34.90338194106165
 40
34.90338194106165
 40
34.90338194106165
 10
122.5447702675127
 20
1264.46499858114
 30
0.0
 10
118.69811935016
 20
1265.296519134341
 30
0.0
 10
113.4801791859776
 20
1266.480526464722
 30
0.0
 10
107.0651987809916
 20
1268.116720916668
 30
0.0
 10
99.65822333705833
 20
1270.219843718326
 30
0.0
 10
93.76181315947221
 20
1272.436223503589
 30
0.0
 10
89.21633204763235
 20
1274.554795836308
 30
0.0
  0
SPLINE
  5
93
330
1F
100
AcDbEntity
  8
PREDEFINITO
100
AcDbSpline
210
0.0
220
0.0
230
1.0
 70
    12
 71
     2
 72
    10
 73
     7
 74
     0
 42
0.0000000001
 43
0.0000000001
 40
1.521708941582556
 40
1.521708941582556
 40
1.521708941582556
 40
1.568652169464554
 40
1.568652169464554
 40
3.140537592046291
 40
3.140537592046291
 40
4.663301595172349
 40
4.663301595172349
 40
4.663301595172349
 10
89.21633204763235
 20
1274.554795836308
 30
0.0
 41
0.9830283576908498
 10
89.13467746028067
 20
1274.571797911643
 30
0.0
 41
0.9912529546248547
 10
89.13467746028067
 20
1274.571797911643
 30
0.0
 41
1.0
 10
89.13467746028066
 20
1274.571797911643
 30
0.0
 41
0.7071067811865476
 10
179.1346774602808
 20
1274.571797911643
 30
0.0
 41
1.0
 10
265.2080290358587
 20
1274.571797911643
 30
0.0
 41
0.7162596942744679
 10
269.0530237996621
 20
1274.554795413165
 30
0.0
 41
0.9822662308921544
  0
SPLINE
  5
94
330
1F
100
AcDbEntity
  8
PREDEFINITO
100
AcDbSpline
210
0.0
220
0.0
230
1.0
 70
     8
 71
     3
 72
    12
 73
     8
 74
     0
 42
0.0000000001
 43
0.0000000001
 40
0.0
 40
0.0
 40
0.0
 40
0.0
 40
5.782402226389346
 40
11.54017627036347
 40
24.14176225657847
 40
44.58174506391614
 40
63.26698998152131
 40
63.26698998152131
 40
63.26698998152131
 40
63.26698998152131
 10
269.0530237996621
 20
1274.554795413165
 30
0.0
 10
267.3110848125117
 20
1273.723869250686
 30
0.0
 10
263.7710756889217
 20
1272.230283639248
 30
0.0
 10
256.2166454476191
 20
1269.423981503127
 30
0.0
 10
243.7020485630376
 20
1266.13433937052
 30
0.0
 10
226.8459795546655
 20
1262.485858116333
 30
0.0
 10
213.9619635973147
 20
1260.425642922223
 30
0.0
 10
207.7828077580487
 20
1259.643373177133
 30
0.0
  0
POLYLINE
  5
95
330
1F
100
AcDbEntity
  8
PREDEFINITO
100
AcDb2dPolyline
 66
     1
 10
0.0
 20
0.0
 30
0.0
  0
VERTEX
  5
97
330
95
100
AcDbEntity
  8
PREDEFINITO
100
AcDbVertex
100
AcDb2dVertex
 10
182.0920701582676
 20
976.4226384684063
 30
0.0
  0
VERTEX
  5
98
330
95
100
AcDbEntity
  8
PREDEFINITO
100
AcDbVertex
100
AcDb2dVertex
 10
177.0808085591997
 20
976.4226384684068
 30
0.0
  0
SEQEND
  5
96
330
95
100
AcDbEntity
  8
PREDEFINITO
  0
SPLINE
  5
99
330
1F
100
AcDbEntity
  8
PREDEFINITO
100
AcDbSpline
210
0.0
220
0.0
230
1.0
 70
     8
 71
     3
 72
    15
 73
    11
 74
     0
 42
0.0000000001
 43
0.0000000001
 40
0.0
 40
0.0
 40
0.0
 40
0.0
 40
42.40007367855798
 40
63.15885594494012
 40
85.61405432777593
 40
138.1694978823526
 40
162.2720267728631
 40
182.5578780498051
 40
236.8294189394133
 40
283.5903023231422
 40
283.5903023231422
 40
283.5903023231422
 40
283.5903023231422
 10
177.0808085591997
 20
976.4226384684068
 30
0.0
 10
177.9914713567808
 20
990.5293647275098
 30
0.0
 10
181.2037564039841
 20
1011.379208704859
 30
0.0
 10
181.950993878321
 20
1039.953662427936
 30
0.0
 10
179.0547384437045
 20
1071.779181446082
 30
0.0
 10
173.2581192941805
 20
1104.335262804248
 30
0.0
 10
171.182440658752
 20
1136.642828573231
 30
0.0
 10
172.6958361538625
 20
1169.502130615752
 30
0.0
 10
177.9888558821657
 20
1209.692029441075
 30
0.0
 10
176.8112100176577
 20
1243.45968535599
 30
0.0
 10
176.6509856939379
 20
1259.022624203513
 30
0.0
  0
POLYLINE
  5
9A
330
1F
100
AcDbEntity
  8
PREDEFINITO
100
AcDb2dPolyline
 66
     1
 10
0.0
 20
0.0
 30
0.0
  0
VERTEX
  5
9C
330
9A
100
AcDbEntity
  8
PREDEFINITO
100
AcDbVertex
100
AcDb2dVertex
 10
176.6509856939379
 20
1259.022624203513
 30
0.0
  0
VERTEX
  5
9D
330
9A
100
AcDbEntity
  8
PREDEFINITO
100
AcDbVertex
100
AcDb2dVertex
 10
181.6517986464887
 20
1259.022660785135
 30
0.0
  0
SEQEND
  5
9B
330
9A
100
AcDbEntity
  8
PREDEFINITO
  0
SPLINE
  5
9E
330
1F
100
AcDbEntity
  8
PREDEFINITO
100
AcDbSpline
210
0.0
220
0.0
230
1.0
 70
     8
 71
     3
 72
    16
 73
    12
 74
     0
 42
0.0000000001
 43
0.0000000001
 40
0.0
 40
0.0
 40
0.0
 40
0.0
 40
29.43885433137704
 40
46.92935476015759
 40
100.8450440398264
 40
120.9781121881185
 40
144.9549038913625
 40
197.471052468761
 40
220.4872801189714
 40
241.9314704553369
 40
283.5898010814192
 40
283.5898010814192
 40
283.5898010814192
 40
283.5898010814192
 10
181.6517986464887
 20
1259.022660785135
 30
0.0
 10
181.757071393311
 20
1249.20513852119
 30
0.0
 10
182.1511261418608
 20
1233.580764910833
 30
0.0
 10
181.7112577794786
 20
1199.930210587938
 30
0.0
 10
177.7554958871374
 20
1169.629231155905
 30
0.0
 10
176.1700003457557
 20
1136.971354851791
 30
0.0
 10
178.2438962453821
 20
1104.773975995912
 30
0.0
 10
184.0700912897834
 20
1072.086435223963
 30
0.0
 10
186.9683712130274
 20
1039.856325788506
 30
0.0
 10
186.1806227369471
 20
1011.114961608356
 30
0.0
 10
183.0112702565913
 20
990.2803404456582
 30
0.0
 10
182.0920701582676
 20
976.4226384684063
 30
0.0
  0
POLYLINE
  5
9F
330
1F
100
AcDbEntity
  8
PREDEFINITO
100
AcDb2dPolyline
 66
     1
 10
0.0
 20
0.0
 30
0.0
  0
VERTEX
  5
A1
330
9F
100
AcDbEntity
  8
PREDEFINITO
100
AcDbVertex
100
AcDb2dVertex
 10
81.3387154936168
 20
976.4793320346349
 30
0.0
  0
VERTEX
  5
A2
330
9F
100
AcDbEntity
  8
PREDEFINITO
100
AcDbVertex
100
AcDb2dVertex
 10
81.330626890256
 20
976.422638468407
 30
0.0
  0
VERTEX
  5
A3
330
9F
100
AcDbEntity
  8
PREDEFINITO
100
AcDbVertex
100
AcDb2dVertex
 10
82.13872803030571
 20
976.422638468407
 30
0.0
  0
SEQEND
  5
A0
330
9F
100
AcDbEntity
  8
PREDEFINITO
  0
SPLINE
  5
A4
330
1F
100
AcDbEntity
  8
PREDEFINITO
100
AcDbSpline
210
0.0
220
0.0
230
1.0
 70
    24
 71
     2
 72
     6
 73
     3
 74
     0
 42
0.0000000001
 43
0.0000000001
 40
-290.8147583731748
 40
-290.8147583731748
 40
-290.8147583731748
 40
0.0
 40
0.0
 40
0.0
 10
82.13872803030571
 20
976.422638468407
 30
0.0
 10
102.6763652128316
 20
1120.3723219723
 30
0.0
 10
123.2140023953575
 20
1264.322005476193
 30
0.0
  0
POLYLINE
  5
A5
330
1F
100
AcDbEntity
  8
PREDEFINITO
100
AcDb2dPolyline
 66
     1
 10
0.0
 20
0.0
 30
0.0
  0
VERTEX
  5
A7
330
A5
100
AcDbEntity
  8
PREDEFINITO
100
AcDbVertex
100
AcDb2dVertex
 10
123.2140023953575
 20
1264.322005476193
 30
0.0
  0
VERTEX
  5
A8
330
A5
100
AcDbEntity
  8
PREDEFINITO
100
AcDbVertex
100
AcDb2dVertex
 10
122.4298459723854
 20
1264.48983561236
 30
0.0
  0
SEQEND
  5
A6
330
A5
100
AcDbEntity
  8
PREDEFINITO
  0
SPLINE
  5
A9
330
1F
100
AcDbEntity
  8
PREDEFINITO
100
AcDbSpline
210
0.0
220
0.0
230
1.0
 70
    24
 71
     2
 72
     6
 73
     3
 74
     0
 42
0.0000000001
 43
0.0000000001
 40
-290.9270203592609
 40
-290.9270203592609
 40
-290.9270203592609
 40
0.0
 40
0.0
 40
0.0
 10
122.4298459723854
 20
1264.48983561236
 30
0.0
 10
101.8842807330011
 20
1120.484583823497
 30
0.0
 10
81.3387154936168
 20
976.4793320346349
 30
0.0
  0
POLYLINE
  5
AA
330
1F
100
AcDbEntity
  8
PREDEFINITO
100
AcDb2dPolyline
 66
     1
 10
0.0
 20
0.0
 30
0.0
  0
VERTEX
  5
AC
330
AA
100
AcDbEntity
  8
PREDEFINITO
100
AcDbVertex
100
AcDb2dVertex
 10
228.2336385080812
 20
976.4514496179688
 30
0.0
  0
VERTEX
  5
AD
330
AA
100
AcDbEntity
  8
PREDEFINITO
100
AcDbVertex
100
AcDb2dVertex
 10
228.2360850006503
 20
976.4226384684068
 30
0.0
  0
VERTEX
  5
AE
330
AA
100
AcDbEntity
  8
PREDEFINITO
100
AcDbVertex
100
AcDb2dVertex
 10
227.4336358024997
 20
976.4226384684068
 30
0.0
  0
SEQEND
  5
AB
330
AA
100
AcDbEntity
  8
PREDEFINITO
  0
SPLINE
  5
AF
330
1F
100
AcDbEntity
  8
PREDEFINITO
100
AcDbSpline
210
0.0
220
0.0
230
1.0
 70
    24
 71
     2
 72
     6
 73
     3
 74
     0
 42
0.0000000001
 43
0.0000000001
 40
0.0276864825730461
 40
0.0276864825730461
 40
0.0276864825730461
 40
288.71897670315
 40
288.71897670315
 40
288.71897670315
 10
227.4336358024997
 20
976.4226384684068
 30
0.0
 10
217.0367181663915
 20
1120.393523515336
 30
0.0
 10
206.6398005302833
 20
1264.364408562266
 30
0.0
  0
SPLINE
  5
B0
330
1F
100
AcDbEntity
  8
PREDEFINITO
100
AcDbSpline
210
0.0
220
0.0
230
1.0
 70
    12
 71
     2
 72
     8
 73
     5
 74
     0
 42
0.0000000001
 43
0.0000000001
 40
0.0
 40
0.0
 40
0.0
 40
0.419902771447935
 40
0.419902771447935
 40
0.8251670975161282
 40
0.8251670975161282
 40
0.8251670975161282
 10
206.6398005302833
 20
1264.364408562266
 30
0.0
 41
1.0
 10
206.8185415904767
 20
1264.48912370011
 30
0.0
 41
0.9469461302117845
 10
207.0360860030863
 20
1264.479013811036
 30
0.0
 41
1.0
 10
207.2393174214187
 20
1264.527129495498
 30
0.0
 41
0.9559379600928358
 10
207.4358461208115
 20
1264.447908242341
 30
0.0
 41
1.0
  0
SPLINE
  5
B1
330
1F
100
AcDbEntity
  8
PREDEFINITO
100
AcDbSpline
210
0.0
220
0.0
230
1.0
 70
    24
 71
     2
 72
     6
 73
     3
 74
     0
 42
0.0000000001
 43
0.0000000001
 40
0.0
 40
0.0
 40
0.0
 40
288.7464430055606
 40
288.7464430055606
 40
288.7464430055606
 10
207.4358461208115
 20
1264.447908242341
 30
0.0
 10
217.8347423144463
 20
1120.449678930155
 30
0.0
 10
228.2336385080812
 20
976.4514496179688
 30
0.0
  0
POLYLINE
  5
B2
330
1F
100
AcDbEntity
  8
PREDEFINITO
100
AcDb2dPolyline
 66
     1
 10
0.0
 20
0.0
 30
0.0
  0
VERTEX
  5
B4
330
B2
100
AcDbEntity
  8
PREDEFINITO
100
AcDbVertex
100
AcDb2dVertex
 10
5.654563737579401
 20
761.437216013271
 30
0.0
  0
VERTEX
  5
B5
330
B2
100
AcDbEntity
  8
PREDEFINITO
100
AcDbVertex
100
AcDb2dVertex
 10
5.570125689939339
 20
761.4226384684068
 30
0.0
  0
VERTEX
  5
B6
330
B2
100
AcDbEntity
  8
PREDEFINITO
100
AcDbVertex
100
AcDb2dVertex
 10
352.6727667140958
 20
761.4226384684068
 30
0.0
  0
VERTEX
  5
B7
330
B2
100
AcDbEntity
  8
PREDEFINITO
100
AcDbVertex
100
AcDb2dVertex
 10
352.6148331259821
 20
761.4373574095926
 30
0.0
  0
SEQEND
  5
B3
330
B2
100
AcDbEntity
  8
PREDEFINITO
  0
SPLINE
  5
B8
330
1F
100
AcDbEntity
  8
PREDEFINITO
100
AcDbSpline
210
0.0
220
0.0
230
1.0
 70
    12
 71
     2
 72
     6
 73
     3
 74
     0
 42
0.0000000001
 43
0.0000000001
 40
-1.067629715188084
 40
-1.067629715188084
 40
-1.067629715188084
 40
0.0
 40
0.0
 40
0.0
 10
352.6148331259821
 20
761.4373574095926
 30
0.0
 41
1.0
 10
352.0338888635896
 20
761.5404414467886
 30
0.0
 41
0.8630503739470629
 10
351.8392709025894
 20
762.0974391164314
 30
0.0
 41
1.0
  0
SPLINE
  5
B9
330
1F
100
AcDbEntity
  8
PREDEFINITO
100
AcDbSpline
210
0.0
220
0.0
230
1.0
 70
    24
 71
     2
 72
     6
 73
     3
 74
     0
 42
0.0000000001
 43
0.0000000001
 40
-226.6443429070314
 40
-226.6443429070314
 40
-226.6443429070314
 40
0.0
 40
0.0
 40
0.0
 10
351.8392709025894
 20
762.0974391164314
 30
0.0
 10
314.986974181435
 20
869.2600387924191
 30
0.0
 10
278.1346774602807
 20
976.4226384684068
 30
0.0
  0
SPLINE
  5
BA
330
1F
100
AcDbEntity
  8
PREDEFINITO
100
AcDbSpline
210
0.0
220
0.0
230
1.0
 70
    24
 71
     2
 72
     6
 73
     3
 74
     0
 42
0.0000000001
 43
0.0000000001
 40
0.0
 40
0.0
 40
0.0
 40
49.12764978196918
 40
49.12764978196918
 40
49.12764978196918
 10
278.1346774602807
 20
976.4226384684068
 30
0.0
 10
253.5708525692961
 20
976.4226384684068
 30
0.0
 10
229.0070276783115
 20
976.4226384684068
 30
0.0
  0
SPLINE
  5
BB
330
1F
100
AcDbEntity
  8
PREDEFINITO
100
AcDbSpline
210
0.0
220
0.0
230
1.0
 70
    24
 71
     2
 72
     6
 73
     3
 74
     0
 42
0.0000000001
 43
0.0000000001
 40
0.0
 40
0.0
 40
0.0
 40
0.7733250070955648
 40
0.7733250070955648
 40
0.7733250070955648
 10
229.0070276783115
 20
976.4226384684068
 30
0.0
 10
228.6203651747638
 20
976.4226384684068
 30
0.0
 10
228.233702671216
 20
976.4226384684068
 30
0.0
  0
SPLINE
  5
BC
330
1F
100
AcDbEntity
  8
PREDEFINITO
100
AcDbSpline
210
0.0
220
0.0
230
1.0
 70
    24
 71
     2
 72
     6
 73
     3
 74
     0
 42
0.0000000001
 43
0.0000000001
 40
0.0
 40
0.0
 40
0.0
 40
146.8432262014042
 40
146.8432262014042
 40
146.8432262014042
 10
228.233702671216
 20
976.4226384684068
 30
0.0
 10
154.8120895705139
 20
976.4226384684068
 30
0.0
 10
81.39047646981177
 20
976.422638468407
 30
0.0
  0
SPLINE
  5
BD
330
1F
100
AcDbEntity
  8
PREDEFINITO
100
AcDbSpline
210
0.0
220
0.0
230
1.0
 70
    24
 71
     2
 72
     6
 73
     3
 74
     0
 42
0.0000000001
 43
0.0000000001
 40
0.0
 40
0.0
 40
0.0
 40
0.3401088716869367
 40
0.3401088716869367
 40
0.3401088716869367
 10
81.39047646981177
 20
976.422638468407
 30
0.0
 10
81.2204220339683
 20
976.4226384684068
 30
0.0
 10
81.05036759812484
 20
976.4226384684068
 30
0.0
  0
SPLINE
  5
BE
330
1F
100
AcDbEntity
  8
PREDEFINITO
100
AcDbSpline
210
0.0
220
0.0
230
1.0
 70
    24
 71
     2
 72
     6
 73
     3
 74
     0
 42
0.0000000001
 43
0.0000000001
 40
0.0
 40
0.0
 40
0.0
 40
0.817265001705195
 40
0.817265001705195
 40
0.817265001705195
 10
81.05036759812484
 20
976.4226384684068
 30
0.0
 10
80.6171288132376
 20
976.4226384684068
 30
0.0
 10
80.18389002835036
 20
976.4226384684068
 30
0.0
  0
SPLINE
  5
BF
330
1F
100
AcDbEntity
  8
PREDEFINITO
100
AcDbSpline
210
0.0
220
0.0
230
1.0
 70
    24
 71
     2
 72
     6
 73
     3
 74
     0
 42
0.0000000001
 43
0.0000000001
 40
-226.6443429070313
 40
-226.6443429070313
 40
-226.6443429070313
 40
0.0
 40
0.0
 40
0.0
 10
80.18389002835036
 20
976.4226384684068
 30
0.0
 10
43.30698702316145
 20
869.2600387924191
 30
0.0
 10
6.430084017972547
 20
762.0974391164314
 30
0.0
  0
SPLINE
  5
C0
330
1F
100
AcDbEntity
  8
PREDEFINITO
100
AcDbSpline
210
0.0
220
0.0
230
1.0
 70
    12
 71
     2
 72
     6
 73
     3
 74
     0
 42
0.0000000001
 43
0.0000000001
 40
0.0
 40
0.0
 40
0.0
 40
1.068617072328951
 40
1.068617072328951
 40
1.068617072328951
 10
6.430084017972547
 20
762.0974391164314
 30
0.0
 41
1.0
 10
6.237657269646343
 20
761.5378823877462
 30
0.0
 41
0.8606209602305661
 10
5.654563737579401
 20
761.437216013271
 30
0.0
 41
1.0
  0
SPLINE
  5
C1
330
1F
100
AcDbEntity
  8
LINEE VISIBILI 2D
100
AcDbSpline
210
0.0
220
0.0
230
1.0
 70
    12
 71
     2
 72
     6
 73
     3
 74
     0
 42
0.0000000001
 43
0.0000000001
 40
-1.240194506069758
 40
-1.240194506069758
 40
-1.240194506069758
 40
0.0
 40
0.0
 40
0.0
 10
354.7346879430087
 20
760.7465558866049
 30
0.0
 41
1.0
 10
354.5017914037728
 20
761.4206475223673
 30
0.0
 41
0.8152279648949898
 10
353.7886039336594
 20
761.4226384684059
 30
0.0
 41
1.0
  0
SPLINE
  5
C2
330
1F
100
AcDbEntity
  8
LINEE VISIBILI 2D
100
AcDbSpline
210
0.0
220
0.0
230
1.0
 70
    24
 71
     2
 72
     6
 73
     3
 74
     0
 42
0.0000000001
 43
0.0000000001
 40
0.0
 40
0.0
 40
0.0
 40
349.3078502477999
 40
349.3078502477999
 40
349.3078502477999
 10
353.7886025841808
 20
761.4226384684068
 30
0.0
 10
179.1346774602808
 20
761.4226384684068
 30
0.0
 10
4.480752336380874
 20
761.4226384684068
 30
0.0
  0
SPLINE
  5
C3
330
1F
100
AcDbEntity
  8
LINEE VISIBILI 2D
100
AcDbSpline
210
0.0
220
0.0
230
1.0
 70
    12
 71
     2
 72
     6
 73
     3
 74
     0
 42
0.0000000001
 43
0.0000000001
 40
-1.240929098168328
 40
-1.240929098168328
 40
-1.240929098168328
 40
0.0
 40
0.0
 40
0.0
 10
4.480752336380874
 20
761.4226384684068
 30
0.0
 41
1.0
 10
3.766141783016143
 20
761.422638468407
 30
0.0
 41
0.8136084495008289
 10
3.534666977552916
 20
760.7465558866049
 30
0.0
 41
1.0
  0
SPLINE
  5
C4
330
1F
100
AcDbEntity
  8
LINEE VISIBILI 2D
100
AcDbSpline
210
0.0
220
0.0
230
1.0
 70
    24
 71
     2
 72
     6
 73
     3
 74
     0
 42
0.0000000001
 43
0.0000000001
 40
0.0
 40
0.0
 40
0.0
 40
10.91224731666111
 40
10.91224731666111
 40
10.91224731666111
 10
3.534666977552916
 20
760.7465558866049
 30
0.0
 10
1.767333488776458
 20
755.5845971775059
 30
0.0
 10
0.0
 20
750.4226384684068
 30
0.0
  0
SPLINE
  5
C5
330
1F
100
AcDbEntity
  8
LINEE VISIBILI 2D
100
AcDbSpline
210
0.0
220
0.0
230
1.0
 70
    24
 71
     2
 72
     6
 73
     3
 74
     0
 42
0.0000000001
 43
0.0000000001
 40
0.0
 40
0.0
 40
0.0
 40
358.2693549205617
 40
358.2693549205617
 40
358.2693549205617
 10
0.0
 20
750.4226384684068
 30
0.0
 10
179.1346774602808
 20
750.4226384684068
 30
0.0
 10
358.2693549205616
 20
750.4226384684068
 30
0.0
  0
SPLINE
  5
C6
330
1F
100
AcDbEntity
  8
LINEE VISIBILI 2D
100
AcDbSpline
210
0.0
220
0.0
230
1.0
 70
    24
 71
     2
 72
     6
 73
     3
 74
     0
 42
0.0000000001
 43
0.0000000001
 40
-10.91224731666098
 40
-10.91224731666098
 40
-10.91224731666098
 40
0.0
 40
0.0
 40
0.0
 10
358.2693549205616
 20
750.4226384684068
 30
0.0
 10
356.5020214317852
 20
755.5845971775059
 30
0.0
 10
354.7346879430087
 20
760.7465558866049
 30
0.0
  0
POLYLINE
  5
C7
330
1F
100
AcDbEntity
  8
PREDEFINITO
100
AcDb2dPolyline
 66
     1
 10
0.0
 20
0.0
 30
0.0
  0
VERTEX
  5
C9
330
C7
100
AcDbEntity
  8
PREDEFINITO
100
AcDbVertex
100
AcDb2dVertex
 10
674.0722989244877
 20
976.4226384684068
 30
0.0
  0
VERTEX
  5
CA
330
C7
100
AcDbEntity
  8
PREDEFINITO
100
AcDbVertex
100
AcDb2dVertex
 10
674.8788632153462
 20
976.422638468407
 30
0.0
  0
SEQEND
  5
C8
330
C7
100
AcDbEntity
  8
PREDEFINITO
  0
SPLINE
  5
CB
330
1F
100
AcDbEntity
  8
PREDEFINITO
100
AcDbSpline
210
0.0
220
0.0
230
1.0
 70
    24
 71
     2
 72
     6
 73
     3
 74
     0
 42
0.0000000001
 43
0.0000000001
 40
-288.5674160842261
 40
-288.5674160842261
 40
-288.5674160842261
 40
0.0
 40
0.0
 40
0.0
 10
674.8788632153462
 20
976.422638468407
 30
0.0
 10
692.6433006990571
 20
1119.608577607936
 30
0.0
 10
710.4077381827682
 20
1262.794516747466
 30
0.0
  0
POLYLINE
  5
CC
330
1F
100
AcDbEntity
  8
PREDEFINITO
100
AcDb2dPolyline
 66
     1
 10
0.0
 20
0.0
 30
0.0
  0
VERTEX
  5
CE
330
CC
100
AcDbEntity
  8
PREDEFINITO
100
AcDbVertex
100
AcDb2dVertex
 10
710.4077381827682
 20
1262.794516747466
 30
0.0
  0
VERTEX
  5
CF
330
CC
100
AcDbEntity
  8
PREDEFINITO
100
AcDbVertex
100
AcDb2dVertex
 10
709.6211991061864
 20
1262.947752006483
 30
0.0
  0
SEQEND
  5
CD
330
CC
100
AcDbEntity
  8
PREDEFINITO
  0
SPLINE
  5
D0
330
1F
100
AcDbEntity
  8
PREDEFINITO
100
AcDbSpline
210
0.0
220
0.0
230
1.0
 70
    24
 71
     2
 72
     6
 73
     3
 74
     0
 42
0.0000000001
 43
0.0000000001
 40
0.0
 40
0.0
 40
0.0
 40
288.6722474821692
 40
288.6722474821692
 40
288.6722474821692
 10
709.6211991061864
 20
1262.947752006483
 30
0.0
 10
691.8500211756262
 20
1119.709831567927
 30
0.0
 10
674.0788432450661
 20
976.4719111293709
 30
0.0
  0
POLYLINE
  5
D1
330
1F
100
AcDbEntity
  8
PREDEFINITO
100
AcDb2dPolyline
 66
     1
 10
0.0
 20
0.0
 30
0.0
  0
VERTEX
  5
D3
330
D1
100
AcDbEntity
  8
PREDEFINITO
100
AcDbVertex
100
AcDb2dVertex
 10
674.0788432450661
 20
976.4719111293709
 30
0.0
  0
VERTEX
  5
D4
330
D1
100
AcDbEntity
  8
PREDEFINITO
100
AcDbVertex
100
AcDb2dVertex
 10
674.0722989244877
 20
976.4226384684068
 30
0.0
  0
SEQEND
  5
D2
330
D1
100
AcDbEntity
  8
PREDEFINITO
  0
SPLINE
  5
D5
330
1F
100
AcDbEntity
  8
LINEE VISIBILI 2D
100
AcDbSpline
210
0.0
220
0.0
230
1.0
 70
    24
 71
     2
 72
     6
 73
     3
 74
     0
 42
0.0000000001
 43
0.0000000001
 40
0.0
 40
0.0
 40
0.0
 40
179.9105226035107
 40
179.9105226035107
 40
179.9105226035107
 10
668.8266708492497
 20
1274.571797911643
 30
0.0
 10
758.7858440189405
 20
1274.563296662404
 30
0.0
 10
848.7450171886312
 20
1274.554795413165
 30
0.0
  0
SPLINE
  5
D6
330
1F
100
AcDbEntity
  8
LINEE VISIBILI 2D
100
AcDbSpline
210
0.0
220
0.0
230
1.0
 70
     8
 71
     3
 72
    12
 73
     8
 74
     0
 42
0.0000000001
 43
0.0000000001
 40
0.0
 40
0.0
 40
0.0
 40
0.0
 40
6.628032054615193
 40
13.29130337469695
 40
29.12714666391992
 40
49.45732822987541
 40
69.48031600036586
 40
69.48031600036586
 40
69.48031600036586
 40
69.48031600036586
 10
848.7450171886312
 20
1274.554795413165
 30
0.0
 10
846.7433858824818
 20
1273.619897111746
 30
0.0
 10
842.6696004435621
 20
1271.872981818197
 30
0.0
 10
833.4943413262678
 20
1268.67477255718
 30
0.0
 10
819.6169751097069
 20
1265.263375349452
 30
0.0
 10
801.2713070714357
 20
1261.514958081959
 30
0.0
 10
787.9429927994142
 20
1259.581718180079
 30
0.0
 10
781.2477601626722
 20
1259.022628629481
 30
0.0
  0
SPLINE
  5
D7
330
1F
100
AcDbEntity
  8
LINEE VISIBILI 2D
100
AcDbSpline
210
0.0
220
0.0
230
1.0
 70
    24
 71
     2
 72
     6
 73
     3
 74
     0
 42
0.0000000001
 43
0.0000000001
 40
-22.2625742072446
 40
-22.2625742072446
 40
-22.2625742072446
 40
0.0
 40
0.0
 40
0.0
 10
781.2477601626722
 20
1259.022628629481
 30
0.0
 10
770.0937532684172
 20
1259.022628629481
 30
0.0
 10
758.9397463741624
 20
1259.022628629481
 30
0.0
  0
SPLINE
  5
D8
330
1F
100
AcDbEntity
  8
LINEE VISIBILI 2D
100
AcDbSpline
210
0.0
220
0.0
230
1.0
 70
    24
 71
     2
 72
     6
 73
     3
 74
     0
 42
0.0000000001
 43
0.0000000001
 40
-4.850840556764069
 40
-4.850840556764069
 40
-4.850840556764069
 40
0.0
 40
0.0
 40
0.0
 10
848.8266708492501
 20
1274.571797911643
 30
0.0
 10
848.8043015001276
 20
1276.997218190025
 30
0.0
 10
848.7819321510051
 20
1279.422638468407
 30
0.0
  0
SPLINE
  5
D9
330
1F
100
AcDbEntity
  8
LINEE VISIBILI 2D
100
AcDbSpline
210
0.0
220
0.0
230
1.0
 70
    24
 71
     2
 72
     6
 73
     3
 74
     0
 42
0.0000000001
 43
0.0000000001
 40
-179.9105226035105
 40
-179.9105226035105
 40
-179.9105226035105
 40
0.0
 40
0.0
 40
0.0
 10
848.7819321510051
 20
1279.422638468407
 30
0.0
 10
758.8043015001274
 20
1279.422638468407
 30
0.0
 10
668.8266708492497
 20
1279.422638468407
 30
0.0
  0
SPLINE
  5
DA
330
1F
100
AcDbEntity
  8
LINEE VISIBILI 2D
100
AcDbSpline
210
0.0
220
0.0
230
1.0
 70
    24
 71
     2
 72
     6
 73
     3
 74
     0
 42
0.0000000001
 43
0.0000000001
 40
0.0
 40
0.0
 40
0.0
 40
4.850840556764069
 40
4.850840556764069
 40
4.850840556764069
 10
668.8266708492497
 20
1279.422638468407
 30
0.0
 10
668.8266708492497
 20
1276.997218190025
 30
0.0
 10
668.8266708492497
 20
1274.571797911643
 30
0.0
  0
SPLINE
  5
DB
330
1F
100
AcDbEntity
  8
LINEE VISIBILI 2D
100
AcDbSpline
210
0.0
220
0.0
230
1.0
 70
    12
 71
     3
 72
    11
 73
     7
 74
     0
 42
0.0000000001
 43
0.0000000001
 40
0.0
 40
0.0
 40
0.0
 40
0.0
 40
1.0
 40
2.0
 40
3.0
 40
4.0
 40
4.0
 40
4.0
 40
4.0
 10
668.8266708492497
 20
1274.571797911643
 30
0.0
 41
1.0
 10
677.8266708492499
 20
1270.422638468407
 30
0.0
 41
1.0
 10
692.8266708492499
 20
1266.422638468407
 30
0.0
 41
1.0
 10
709.6136994352961
 20
1262.887303719571
 30
0.0
 41
1.0
 10
717.8266708492499
 20
1261.422638468407
 30
0.0
 41
1.0
 10
730.8266708492499
 20
1259.422638468407
 30
0.0
 41
1.0
 10
736.3601419545623
 20
1259.022628629481
 30
0.0
 41
1.0
  0
SPLINE
  5
DC
330
1F
100
AcDbEntity
  8
LINEE VISIBILI 2D
100
AcDbSpline
210
0.0
220
0.0
230
1.0
 70
    24
 71
     2
 72
     6
 73
     3
 74
     0
 42
0.0000000001
 43
0.0000000001
 40
0.0
 40
0.0
 40
0.0
 40
21.77960400726363
 40
21.77960400726363
 40
21.77960400726363
 10
736.3601419545623
 20
1259.022628629481
 30
0.0
 10
747.2499439581941
 20
1259.022628629481
 30
0.0
 10
758.139745961826
 20
1259.022628629481
 30
0.0
  0
POLYLINE
  5
DD
330
1F
100
AcDbEntity
  8
PREDEFINITO
100
AcDb2dPolyline
 66
     1
 10
0.0
 20
0.0
 30
0.0
  0
VERTEX
  5
DF
330
DD
100
AcDbEntity
  8
PREDEFINITO
100
AcDbVertex
100
AcDb2dVertex
 10
807.5296251924118
 20
1262.84963583534
 30
0.0
  0
VERTEX
  5
E0
330
DD
100
AcDbEntity
  8
PREDEFINITO
100
AcDbVertex
100
AcDb2dVertex
 10
807.5281677383252
 20
1262.861480220236
 30
0.0
  0
VERTEX
  5
E1
330
DD
100
AcDbEntity
  8
PREDEFINITO
100
AcDbVertex
100
AcDb2dVertex
 10
808.314712820291
 20
1263.013942400334
 30
0.0
  0
VERTEX
  5
E2
330
DD
100
AcDbEntity
  8
PREDEFINITO
100
AcDbVertex
100
AcDb2dVertex
 10
808.3166876567931
 20
1263.003811297458
 30
0.0
  0
SEQEND
  5
DE
330
DD
100
AcDbEntity
  8
PREDEFINITO
  0
SPLINE
  5
E3
330
1F
100
AcDbEntity
  8
PREDEFINITO
100
AcDbSpline
210
0.0
220
0.0
230
1.0
 70
    24
 71
     2
 72
     6
 73
     3
 74
     0
 42
0.0000000001
 43
0.0000000001
 40
0.0
 40
0.0
 40
0.0
 40
288.6863147891116
 40
288.6863147891116
 40
288.6863147891116
 10
808.3166876567931
 20
1263.003811297458
 30
0.0
 10
825.945185676012
 20
1119.741174353222
 30
0.0
 10
843.5736836952308
 20
976.4785374089865
 30
0.0
  0
POLYLINE
  5
E4
330
1F
100
AcDbEntity
  8
PREDEFINITO
100
AcDb2dPolyline
 66
     1
 10
0.0
 20
0.0
 30
0.0
  0
VERTEX
  5
E6
330
E4
100
AcDbEntity
  8
PREDEFINITO
100
AcDbVertex
100
AcDb2dVertex
 10
843.5736836952308
 20
976.4785374089865
 30
0.0
  0
VERTEX
  5
E7
330
E4
100
AcDbEntity
  8
PREDEFINITO
100
AcDbVertex
100
AcDb2dVertex
 10
843.5797112679195
 20
976.4226384684068
 30
0.0
  0
SEQEND
  5
E5
330
E4
100
AcDbEntity
  8
PREDEFINITO
  0
POLYLINE
  5
E8
330
1F
100
AcDbEntity
  8
PREDEFINITO
100
AcDb2dPolyline
 66
     1
 10
0.0
 20
0.0
 30
0.0
  0
VERTEX
  5
EA
330
E8
100
AcDbEntity
  8
PREDEFINITO
100
AcDbVertex
100
AcDb2dVertex
 10
843.5797112679195
 20
976.4226384684068
 30
0.0
  0
VERTEX
  5
EB
330
E8
100
AcDbEntity
  8
PREDEFINITO
100
AcDbVertex
100
AcDb2dVertex
 10
842.7745282839219
 20
976.4226384684067
 30
0.0
  0
SEQEND
  5
E9
330
E8
100
AcDbEntity
  8
PREDEFINITO
  0
SPLINE
  5
EC
330
1F
100
AcDbEntity
  8
PREDEFINITO
100
AcDbSpline
210
0.0
220
0.0
230
1.0
 70
    24
 71
     2
 72
     6
 73
     3
 74
     0
 42
0.0000000001
 43
0.0000000001
 40
-288.5872970429693
 40
-288.5872970429693
 40
-288.5872970429693
 40
0.0
 40
0.0
 40
0.0
 10
842.7745282839219
 20
976.4226384684067
 30
0.0
 10
825.1520767381669
 20
1119.636137151873
 30
0.0
 10
807.5296251924118
 20
1262.84963583534
 30
0.0
  0
SPLINE
  5
ED
330
1F
100
AcDbEntity
  8
PREDEFINITO
100
AcDbSpline
210
0.0
220
0.0
230
1.0
 70
    24
 71
     2
 72
     6
 73
     3
 74
     0
 42
0.0000000001
 43
0.0000000001
 40
0.0
 40
0.0
 40
0.0
 40
287.9826958301725
 40
287.9826958301725
 40
287.9826958301725
 10
758.9342810320506
 20
1264.40559198764
 30
0.0
 10
759.0804758375665
 20
1120.414318288563
 30
0.0
 10
759.2266706430823
 20
976.4230445894871
 30
0.0
  0
POLYLINE
  5
EE
330
1F
100
AcDbEntity
  8
PREDEFINITO
100
AcDb2dPolyline
 66
     1
 10
0.0
 20
0.0
 30
0.0
  0
VERTEX
  5
F0
330
EE
100
AcDbEntity
  8
PREDEFINITO
100
AcDbVertex
100
AcDb2dVertex
 10
759.2266706430823
 20
976.4230445894871
 30
0.0
  0
VERTEX
  5
F1
330
EE
100
AcDbEntity
  8
PREDEFINITO
100
AcDbVertex
100
AcDb2dVertex
 10
759.2266385318436
 20
976.4226384684068
 30
0.0
  0
VERTEX
  5
F2
330
EE
100
AcDbEntity
  8
PREDEFINITO
100
AcDbVertex
100
AcDb2dVertex
 10
758.4266426941294
 20
976.4226384684068
 30
0.0
  0
VERTEX
  5
F3
330
EE
100
AcDbEntity
  8
PREDEFINITO
100
AcDbVertex
100
AcDb2dVertex
 10
758.4266426941294
 20
976.450166158807
 30
0.0
  0
SEQEND
  5
EF
330
EE
100
AcDbEntity
  8
PREDEFINITO
  0
SPLINE
  5
F4
330
1F
100
AcDbEntity
  8
PREDEFINITO
100
AcDbSpline
210
0.0
220
0.0
230
1.0
 70
    24
 71
     2
 72
     6
 73
     3
 74
     0
 42
0.0000000001
 43
0.0000000001
 40
0.0
 40
0.0
 40
0.0
 40
287.9559762674598
 40
287.9559762674598
 40
287.9559762674598
 10
758.4266426941294
 20
976.450166158807
 30
0.0
 10
758.2804612220641
 20
1120.428310414825
 30
0.0
 10
758.1342797499988
 20
1264.406454670842
 30
0.0
  0
SPLINE
  5
F5
330
1F
100
AcDbEntity
  8
PREDEFINITO
100
AcDbSpline
210
0.0
220
0.0
230
1.0
 70
    12
 71
     2
 72
    10
 73
     7
 74
     0
 42
0.0000000001
 43
0.0000000001
 40
0.0
 40
0.0
 40
0.0
 40
0.4187073713608019
 40
0.4187073713608019
 40
0.713009351450921
 40
0.713009351450921
 40
0.8418973280675847
 40
0.8418973280675847
 40
0.8418973280675847
 10
758.1342797499988
 20
1264.406454670842
 30
0.0
 41
1.0
 10
758.3174931860383
 20
1264.528603337547
 30
0.0
 41
0.9277347085459496
 10
758.5342526546378
 20
1264.489837467306
 30
0.0
 41
1.0
 10
758.6820155086264
 20
1264.493259235157
 30
0.0
 41
0.9934014547800317
 10
758.8266708492499
 20
1264.462921108269
 30
0.0
 41
1.0
 10
758.899006936788
 20
1264.469040335537
 30
0.0
 41
0.8397926977319891
 10
758.9342810320506
 20
1264.40559198764
 30
0.0
 41
1.0
  0
POLYLINE
  5
F6
330
1F
100
AcDbEntity
  8
PREDEFINITO
100
AcDb2dPolyline
 66
     1
 10
0.0
 20
0.0
 30
0.0
  0
VERTEX
  5
F8
330
F6
100
AcDbEntity
  8
PREDEFINITO
100
AcDbVertex
100
AcDb2dVertex
 10
755.9456748363846
 20
976.4226384684068
 30
0.0
  0
VERTEX
  5
F9
330
F6
100
AcDbEntity
  8
PREDEFINITO
100
AcDbVertex
100
AcDb2dVertex
 10
760.9535362617988
 20
976.4226384684068
 30
0.0
  0
SEQEND
  5
F7
330
F6
100
AcDbEntity
  8
PREDEFINITO
  0
SPLINE
  5
FA
330
1F
100
AcDbEntity
  8
LINEE VISIBILI 2D
100
AcDbSpline
210
0.0
220
0.0
230
1.0
 70
    24
 71
     2
 72
     6
 73
     3
 74
     0
 42
0.0000000001
 43
0.0000000001
 40
0.0
 40
0.0
 40
0.0
 40
79.79343325426976
 40
79.79343325426976
 40
79.79343325426976
 10
754.5469677748921
 20
976.4226384684068
 30
0.0
 10
714.6502511477572
 20
976.4226384684068
 30
0.0
 10
674.7535345206223
 20
976.422638468407
 30
0.0
  0
SPLINE
  5
FB
330
1F
100
AcDbEntity
  8
LINEE VISIBILI 2D
100
AcDbSpline
210
0.0
220
0.0
230
1.0
 70
    24
 71
     2
 72
     6
 73
     3
 74
     0
 42
0.0000000001
 43
0.0000000001
 40
0.0
 40
0.0
 40
0.0
 40
0.5611900454359784
 40
0.5611900454359784
 40
0.5611900454359784
 10
674.7535345206223
 20
976.422638468407
 30
0.0
 10
674.4729394979043
 20
976.422638468407
 30
0.0
 10
674.1923444751864
 20
976.422638468407
 30
0.0
  0
SPLINE
  5
FC
330
1F
100
AcDbEntity
  8
LINEE VISIBILI 2D
100
AcDbSpline
210
0.0
220
0.0
230
1.0
 70
    24
 71
     2
 72
     6
 73
     3
 74
     0
 42
0.0000000001
 43
0.0000000001
 40
0.0
 40
0.0
 40
0.0
 40
0.1135012300022709
 40
0.1135012300022709
 40
0.1135012300022709
 10
674.1923444751864
 20
976.422638468407
 30
0.0
 10
674.1355938601853
 20
976.4226384684068
 30
0.0
 10
674.0788432451841
 20
976.4226384684068
 30
0.0
  0
SPLINE
  5
FD
330
1F
100
AcDbEntity
  8
LINEE VISIBILI 2D
100
AcDbSpline
210
0.0
220
0.0
230
1.0
 70
    24
 71
     2
 72
     6
 73
     3
 74
     0
 42
0.0000000001
 43
0.0000000001
 40
0.0
 40
0.0
 40
0.0
 40
0.5274370514204065
 40
0.5274370514204065
 40
0.5274370514204065
 10
674.0788432451841
 20
976.4226384684068
 30
0.0
 10
673.8151247194739
 20
976.4226384684068
 30
0.0
 10
673.5514061937638
 20
976.4226384684068
 30
0.0
  0
SPLINE
  5
FE
330
1F
100
AcDbEntity
  8
LINEE VISIBILI 2D
100
AcDbSpline
210
0.0
220
0.0
230
1.0
 70
    24
 71
     2
 72
     6
 73
     3
 74
     0
 42
0.0000000001
 43
0.0000000001
 40
0.0
 40
0.0
 40
0.0
 40
13.626310208375
 40
13.626310208375
 40
13.626310208375
 10
673.5514061937636
 20
976.4226384684068
 30
0.0
 10
666.7136448055414
 20
976.4226384684068
 30
0.0
 10
659.8758834173193
 20
976.4226384684068
 30
0.0
  0
SPLINE
  5
FF
330
1F
100
AcDbEntity
  8
LINEE VISIBILI 2D
100
AcDbSpline
210
0.0
220
0.0
230
1.0
 70
    24
 71
     2
 72
     6
 73
     3
 74
     0
 42
0.0000000001
 43
0.0000000001
 40
-226.6443429070313
 40
-226.6443429070313
 40
-226.6443429070313
 40
0.0
 40
0.0
 40
0.0
 10
659.8758834173193
 20
976.4226384684068
 30
0.0
 10
622.9989804121303
 20
869.2600387924191
 30
0.0
 10
586.1220774069415
 20
762.0974391164314
 30
0.0
  0
SPLINE
  5
100
330
1F
100
AcDbEntity
  8
LINEE VISIBILI 2D
100
AcDbSpline
210
0.0
220
0.0
230
1.0
 70
    12
 71
     2
 72
     6
 73
     3
 74
     0
 42
0.0000000001
 43
0.0000000001
 40
-0.8712398320514565
 40
-0.8712398320514565
 40
-0.8712398320514565
 40
0.0
 40
0.0
 40
0.0
 10
586.1220774069415
 20
762.0974391164314
 30
0.0
 41
1.0
 10
585.9705945937025
 20
761.6571221745364
 30
0.0
 41
0.906024640909248
 10
585.5356977648341
 20
761.4907166449807
 30
0.0
 41
1.0
  0
LINE
  5
101
330
1F
100
AcDbEntity
  8
LINEE VISIBILI 2D
100
AcDbLine
 10
585.5356977648341
 20
761.4907166449807
 30
0.0
 11
585.3680767823698
 21
761.4226384684068
 31
0.0
  0
LINE
  5
102
330
1F
100
AcDbEntity
  8
LINEE VISIBILI 2D
100
AcDbLine
 10
585.3680767823698
 20
761.4226384684068
 30
0.0
 11
932.3897771479957
 21
761.4226384684068
 31
0.0
  0
LINE
  5
103
330
1F
100
AcDbEntity
  8
LINEE VISIBILI 2D
100
AcDbLine
 10
932.3897771479957
 20
761.4226384684068
 30
0.0
 11
932.3068265153528
 21
761.4373574119011
 31
0.0
  0
SPLINE
  5
104
330
1F
100
AcDbEntity
  8
LINEE VISIBILI 2D
100
AcDbSpline
210
0.0
220
0.0
230
1.0
 70
    12
 71
     2
 72
     6
 73
     3
 74
     0
 42
0.0000000001
 43
0.0000000001
 40
-1.067629714832138
 40
-1.067629714832138
 40
-1.067629714832138
 40
0.0
 40
0.0
 40
0.0
 10
932.3068265153528
 20
761.4373574119011
 30
0.0
 41
1.0
 10
931.7258822513772
 20
761.5404414454076
 30
0.0
 41
0.8630503716011303
 10
931.5312642915583
 20
762.0974391164314
 30
0.0
 41
1.0
  0
SPLINE
  5
105
330
1F
100
AcDbEntity
  8
LINEE VISIBILI 2D
100
AcDbSpline
210
0.0
220
0.0
230
1.0
 70
    24
 71
     2
 72
     6
 73
     3
 74
     0
 42
0.0000000001
 43
0.0000000001
 40
-226.6443429070313
 40
-226.6443429070313
 40
-226.6443429070313
 40
0.0
 40
0.0
 40
0.0
 10
931.5312642915583
 20
762.0974391164314
 30
0.0
 10
894.6543612863693
 20
869.2600387924191
 30
0.0
 10
857.7774582811803
 20
976.4226384684068
 30
0.0
  0
SPLINE
  5
106
330
1F
100
AcDbEntity
  8
LINEE VISIBILI 2D
100
AcDbSpline
210
0.0
220
0.0
230
1.0
 70
    28
 71
     2
 72
     6
 73
     3
 74
     0
 42
0.0000000001
 43
0.0000000001
 40
150.6491852166731
 40
150.6491852166731
 40
150.6491852166731
 40
154.179235577865
 40
154.179235577865
 40
154.179235577865
 10
857.7774582811804
 20
976.422638468407
 30
0.0
 41
0.9873101320807457
 10
857.8266708492497
 20
976.422638468407
 30
0.0
 41
0.9935113174003405
 10
857.8266708492497
 20
976.4226384684068
 30
0.0
 41
1.0
  0
SPLINE
  5
107
330
1F
100
AcDbEntity
  8
LINEE VISIBILI 2D
100
AcDbSpline
210
0.0
220
0.0
230
1.0
 70
    28
 71
     2
 72
     6
 73
     3
 74
     0
 42
0.0000000001
 43
0.0000000001
 40
154.179235577865
 40
154.179235577865
 40
154.179235577865
 40
209.4321639943001
 40
209.4321639943001
 40
209.4321639943001
 10
857.8266708492497
 20
976.4226384684068
 30
0.0
 41
1.0
 10
857.8266708492498
 20
976.422638468407
 30
0.0
 41
0.8984380735364655
 10
844.101935504736
 20
976.4226384684068
 30
0.0
 41
0.8673101772547909
  0
SPLINE
  5
108
330
1F
100
AcDbEntity
  8
LINEE VISIBILI 2D
100
AcDbSpline
210
0.0
220
0.0
230
1.0
 70
    24
 71
     2
 72
     6
 73
     3
 74
     0
 42
0.0000000001
 43
0.0000000001
 40
0.0
 40
0.0
 40
0.0
 40
0.5406845037243784
 40
0.5406845037243784
 40
0.5406845037243784
 10
844.101935504736
 20
976.4226384684068
 30
0.0
 10
843.8315932528739
 20
976.4226384684068
 30
0.0
 10
843.5612510010117
 20
976.4226384684068
 30
0.0
  0
SPLINE
  5
109
330
1F
100
AcDbEntity
  8
LINEE VISIBILI 2D
100
AcDbSpline
210
0.0
220
0.0
230
1.0
 70
    24
 71
     2
 72
     6
 73
     3
 74
     0
 42
0.0000000001
 43
0.0000000001
 40
0.0
 40
0.0
 40
0.0
 40
84.73458015176175
 40
84.73458015176175
 40
84.73458015176175
 10
843.5612510010117
 20
976.4226384684068
 30
0.0
 10
801.1939609251308
 20
976.4226384684068
 30
0.0
 10
758.8266708492499
 20
976.4226384684068
 30
0.0
  0
SPLINE
  5
10A
330
1F
100
AcDbEntity
  8
LINEE VISIBILI 2D
100
AcDbSpline
210
0.0
220
0.0
230
1.0
 70
    24
 71
     2
 72
     6
 73
     3
 74
     0
 42
0.0000000001
 43
0.0000000001
 40
0.0
 40
0.0
 40
0.0
 40
0.3477144414513305
 40
0.3477144414513305
 40
0.3477144414513305
 10
758.8266708492499
 20
976.4226384684068
 30
0.0
 10
758.6528136285243
 20
976.4226384684068
 30
0.0
 10
758.4789564077987
 20
976.4226384684068
 30
0.0
  0
SPLINE
  5
10B
330
1F
100
AcDbEntity
  8
LINEE VISIBILI 2D
100
AcDbSpline
210
0.0
220
0.0
230
1.0
 70
    24
 71
     2
 72
     6
 73
     3
 74
     0
 42
0.0000000001
 43
0.0000000001
 40
0.0
 40
0.0
 40
0.0
 40
3.931988632906609
 40
3.931988632906609
 40
3.931988632906609
 10
758.4789564077987
 20
976.4226384684068
 30
0.0
 10
756.5129620913453
 20
976.4226384684068
 30
0.0
 10
754.5469677748921
 20
976.4226384684068
 30
0.0
  0
SPLINE
  5
10C
330
1F
100
AcDbEntity
  8
LINEE VISIBILI 2D
100
AcDbSpline
210
0.0
220
0.0
230
1.0
 70
    12
 71
     2
 72
     6
 73
     3
 74
     0
 42
0.0000000001
 43
0.0000000001
 40
-1.240194504591004
 40
-1.240194504591004
 40
-1.240194504591004
 40
0.0
 40
0.0
 40
0.0
 10
934.4266813319778
 20
760.7465558866049
 30
0.0
 41
1.0
 10
934.1937847898721
 20
761.4206475183514
 30
0.0
 41
0.8152279681626774
 10
933.4805966478891
 20
761.4226384684064
 30
0.0
 41
1.0
  0
SPLINE
  5
10D
330
1F
100
AcDbEntity
  8
LINEE VISIBILI 2D
100
AcDbSpline
210
0.0
220
0.0
230
1.0
 70
    24
 71
     2
 72
     6
 73
     3
 74
     0
 42
0.0000000001
 43
0.0000000001
 40
0.0
 40
0.0
 40
0.0
 40
174.6539251238999
 40
174.6539251238999
 40
174.6539251238999
 10
933.4805966478891
 20
761.4226384684064
 30
0.0
 10
846.1296829148139
 20
761.4226384684066
 30
0.0
 10
758.7787691817387
 20
761.4226384684068
 30
0.0
  0
SPLINE
  5
10E
330
1F
100
AcDbEntity
  8
LINEE VISIBILI 2D
100
AcDbSpline
210
0.0
220
0.0
230
1.0
 70
    24
 71
     2
 72
     6
 73
     3
 74
     0
 42
0.0000000001
 43
0.0000000001
 40
0.0
 40
0.0
 40
0.0
 40
174.6060234563888
 40
174.6060234563888
 40
174.6060234563888
 10
758.7787691817387
 20
761.4226384684068
 30
0.0
 10
671.4757571161747
 20
761.4226384684066
 30
0.0
 10
584.1727450506106
 20
761.4226384684064
 30
0.0
  0
SPLINE
  5
10F
330
1F
100
AcDbEntity
  8
LINEE VISIBILI 2D
100
AcDbSpline
210
0.0
220
0.0
230
1.0
 70
    12
 71
     2
 72
     6
 73
     3
 74
     0
 42
0.0000000001
 43
0.0000000001
 40
-1.240045507972556
 40
-1.240045507972556
 40
-1.240045507972556
 40
0.0
 40
0.0
 40
0.0
 10
584.1727450506106
 20
761.4226384684064
 30
0.0
 41
1.0
 10
583.4598461144468
 20
761.420242814831
 30
0.0
 41
0.815557259727123
 10
583.226660366522
 20
760.7465558866049
 30
0.0
 41
1.0
  0
SPLINE
  5
110
330
1F
100
AcDbEntity
  8
LINEE VISIBILI 2D
100
AcDbSpline
210
0.0
220
0.0
230
1.0
 70
    24
 71
     2
 72
     6
 73
     3
 74
     0
 42
0.0000000001
 43
0.0000000001
 40
-10.91224731666105
 40
-10.91224731666105
 40
-10.91224731666105
 40
0.0
 40
0.0
 40
0.0
 10
583.226660366522
 20
760.7465558866049
 30
0.0
 10
581.4593268777455
 20
755.5845971775059
 30
0.0
 10
579.691993388969
 20
750.4226384684068
 30
0.0
  0
SPLINE
  5
111
330
1F
100
AcDbEntity
  8
LINEE VISIBILI 2D
100
AcDbSpline
210
0.0
220
0.0
230
1.0
 70
    24
 71
     2
 72
     6
 73
     3
 74
     0
 42
0.0000000001
 43
0.0000000001
 40
0.0
 40
0.0
 40
0.0
 40
179.1346774602811
 40
179.1346774602811
 40
179.1346774602811
 10
579.691993388969
 20
750.4226384684068
 30
0.0
 10
669.2593321191094
 20
750.4226384684068
 30
0.0
 10
758.8266708492499
 20
750.4226384684068
 30
0.0
  0
SPLINE
  5
112
330
1F
100
AcDbEntity
  8
LINEE VISIBILI 2D
100
AcDbSpline
210
0.0
220
0.0
230
1.0
 70
    24
 71
     2
 72
     6
 73
     3
 74
     0
 42
0.0000000001
 43
0.0000000001
 40
0.0
 40
0.0
 40
0.0
 40
179.134677460281
 40
179.134677460281
 40
179.134677460281
 10
758.8266708492499
 20
750.4226384684068
 30
0.0
 10
848.3940095793903
 20
750.4226384684068
 30
0.0
 10
937.9613483095308
 20
750.4226384684068
 30
0.0
  0
SPLINE
  5
113
330
1F
100
AcDbEntity
  8
LINEE VISIBILI 2D
100
AcDbSpline
210
0.0
220
0.0
230
1.0
 70
    24
 71
     2
 72
     6
 73
     3
 74
     0
 42
0.0000000001
 43
0.0000000001
 40
-10.91224731666102
 40
-10.91224731666102
 40
-10.91224731666102
 40
0.0
 40
0.0
 40
0.0
 10
937.9613483095308
 20
750.4226384684068
 30
0.0
 10
936.1940148207543
 20
755.5845971775059
 30
0.0
 10
934.4266813319778
 20
760.7465558866049
 30
0.0
  0
SPLINE
  5
114
330
1F
100
AcDbEntity
  8
LINEE VISIBILI 2D
100
AcDbSpline
210
0.0
220
0.0
230
1.0
 70
     8
 71
     3
 72
    15
 73
    11
 74
     0
 42
0.0000000001
 43
0.0000000001
 40
0.0
 40
0.0
 40
0.0
 40
0.0
 40
13.49492713862139
 40
58.12464410252664
 40
93.75357404284898
 40
112.2159206212073
 40
155.8210893607334
 40
215.9484707584698
 40
234.5408989249037
 40
283.0675686581136
 40
283.0675686581136
 40
283.0675686581136
 40
283.0675686581136
 10
755.9456748363846
 20
976.4226384684068
 30
0.0
 10
755.6996928209995
 20
980.9169594997305
 30
0.0
 10
754.0785649029617
 20
1000.215824839782
 30
0.0
 10
749.9375862677256
 20
1031.234705832596
 30
0.0
 10
749.2680525180488
 20
1064.172961737685
 30
0.0
 10
749.6645310804549
 20
1096.728189109127
 30
0.0
 10
751.2142913409954
 20
1137.439409698221
 30
0.0
 10
751.1636613706881
 20
1178.222748218219
 30
0.0
 10
753.1801211870475
 20
1220.600691650518
 30
0.0
 10
755.7052974869944
 20
1242.850914609158
 30
0.0
 10
756.2770356696955
 20
1259.02264358476
 30
0.0
  0
SPLINE
  5
115
330
1F
100
AcDbEntity
  8
LINEE VISIBILI 2D
100
AcDbSpline
210
0.0
220
0.0
230
1.0
 70
    12
 71
     2
 72
    10
 73
     7
 74
     0
 42
0.0000000001
 43
0.0000000001
 40
0.0
 40
0.0
 40
0.0
 40
8.297885152546625
 40
8.297885152546625
 40
30.63379180821185
 40
30.63379180821185
 40
33.56384576947284
 40
33.56384576947284
 40
33.56384576947284
 10
758.9737396106484
 20
1225.541757438763
 30
0.0
 41
1.0
 10
759.32061628155
 20
1229.676174283431
 30
0.0
 41
0.9999999316354719
 10
759.6644353001279
 20
1233.810846525913
 30
0.0
 41
1.0
 10
760.6338670583115
 20
1244.93808304282
 30
0.0
 41
0.9998075684689447
 10
761.1660710753727
 20
1256.094782793248
 30
0.0
 41
1.0
 10
761.2292845216834
 20
1257.558454910702
 30
0.0
 41
0.9999902322056589
 10
761.2795570633093
 20
1259.022628629481
 30
0.0
 41
1.0
  0
SPLINE
  5
116
330
1F
100
AcDbEntity
  8
LINEE VISIBILI 2D
100
AcDbSpline
210
0.0
220
0.0
230
1.0
 70
    12
 71
     2
 72
    24
 73
    21
 74
     0
 42
0.0000000001
 43
0.0000000001
 40
0.0
 40
0.0
 40
0.0
 40
8.39045787865203
 40
8.39045787865203
 40
30.52360785231011
 40
30.52360785231011
 40
52.61697156537622
 40
52.61697156537622
 40
96.59340850743737
 40
96.59340850743737
 40
118.7081062592796
 40
118.7081062592796
 40
129.8275367190349
 40
129.8275367190349
 40
140.956758538452
 40
140.956758538452
 40
185.2480466725742
 40
185.2480466725742
 40
207.3712041663196
 40
207.3712041663196
 40
211.3530927967814
 40
211.3530927967814
 40
211.3530927967814
 10
758.398149732494
 20
1004.51366543714
 30
0.0
 41
1.0
 10
757.9337652382139
 20
1008.683114637613
 30
0.0
 41
0.9999994144661088
 10
757.4784058377065
 20
1012.853559147522
 30
0.0
 41
1.0
 10
756.2446451995801
 20
1023.852564918396
 30
0.0
 41
0.9998089095204934
 10
755.441773797913
 20
1034.89139143086
 30
0.0
 41
1.0
 10
754.701557087051
 20
1045.915533628568
 30
0.0
 41
0.9996900437706382
 10
754.5110043876562
 20
1056.962855550331
 30
0.0
 41
1.0
 10
754.2038516931158
 20
1078.95288703468
 30
0.0
 41
0.999730059856331
 10
754.9185768279633
 20
1100.93344652351
 30
0.0
 41
1.0
 10
755.2348246201548
 20
1111.986272309698
 30
0.0
 41
0.9999999609738124
 10
755.5448965183646
 20
1123.039273076179
 30
0.0
 41
1.0
 10
755.6952257083253
 20
1128.596973604237
 30
0.0
 41
0.9999951330431265
 10
755.8108729975755
 20
1134.155503961213
 30
0.0
 41
1.0
 10
755.9227715998856
 20
1139.719006540597
 30
0.0
 41
0.9999954544380443
 10
756.001118779008
 20
1145.283082741328
 30
0.0
 41
1.0
 10
756.1931280425293
 20
1167.428567586354
 30
0.0
 41
0.9999544068057848
 10
756.8080195835046
 20
1189.566346945886
 30
0.0
 41
1.0
 10
757.1658461031462
 20
1200.623211857908
 30
0.0
 41
0.9998542850385187
 10
757.9009058458547
 20
1211.661417720978
 30
0.0
 41
1.0
 10
758.0358432872703
 20
1213.647791186379
 30
0.0
 41
0.9999946282285733
 10
758.1837993511566
 20
1215.633237398267
 30
0.0
 41
1.0
  0
SPLINE
  5
117
330
1F
100
AcDbEntity
  8
LINEE VISIBILI 2D
100
AcDbSpline
210
0.0
220
0.0
230
1.0
 70
    12
 71
     2
 72
    10
 73
     7
 74
     0
 42
0.0000000001
 43
0.0000000001
 40
0.0
 40
0.0
 40
0.0
 40
3.308062926795228
 40
3.308062926795228
 40
14.45001563676932
 40
14.45001563676932
 40
20.72513392734079
 40
20.72513392734079
 40
20.72513392734079
 10
760.9535362617988
 20
976.4226384684068
 30
0.0
 41
1.0
 10
760.8606860745383
 20
978.0740787298413
 30
0.0
 41
0.999984645006279
 10
760.7495385029406
 20
979.7243884921855
 30
0.0
 41
1.0
 10
760.3698757779414
 20
985.2827784824393
 30
0.0
 41
0.999901766562015
 10
759.8345611887847
 20
990.8283425979414
 30
0.0
 41
1.0
 10
759.5352968741491
 20
993.9516218203304
 30
0.0
 41
0.9999882034144524
 10
759.2057058432715
 20
997.071846489066
 30
0.0
 41
1.0
  0
SPLINE
  5
118
330
1F
100
AcDbEntity
  8
LINEE VISIBILI 2D
100
AcDbSpline
210
0.0
220
0.0
230
1.0
 70
    15
 71
     2
 72
    12
 73
     9
 74
     0
 42
0.0000000001
 43
0.0000000001
 40
0.0
 40
0.0
 40
0.0
 40
141.371669411541
 40
141.371669411541
 40
282.743338823082
 40
282.743338823082
 40
424.1150082346229
 40
424.1150082346229
 40
565.486677646164
 40
565.486677646164
 40
565.486677646164
 10
668.8266708492497
 20
179.1346774602809
 30
0.0
 41
1.0
 10
668.8266708492497
 20
89.13467746028068
 30
0.0
 41
0.707106781186547
 10
758.8266708492499
 20
89.13467746028076
 30
0.0
 41
1.0
 10
848.8266708492505
 20
89.13467746028037
 30
0.0
 41
0.7071067811865444
 10
848.8266708492499
 20
179.1346774602809
 30
0.0
 41
1.0
 10
848.8266708492503
 20
269.1346774602813
 30
0.0
 41
0.7071067811865452
 10
758.8266708492499
 20
269.1346774602811
 30
0.0
 41
1.0
 10
668.8266708492497
 20
269.1346774602812
 30
0.0
 41
0.7071067811865471
 10
668.8266708492496
 20
179.1346774602809
 30
0.0
 41
1.0
  0
ENDSEC
  0
SECTION
  2
OBJECTS
  0
DICTIONARY
  5
C
330
0
100
AcDbDictionary
281
     1
  3
ACAD_GROUP
350
D
  3
ACAD_LAYOUT
350
1A
  3
ACAD_MLEADERSTYLE
350
11A
  3
ACAD_MLINESTYLE
350
17
  3
ACAD_PLOTSETTINGS
350
19
  3
ACAD_PLOTSTYLENAME
350
E
  3
ACAD_SCALELIST
350
3B
  3
ACAD_TABLESTYLE
350
119
  3
ACAD_VISUALSTYLE
350
2A
  0
DICTIONARY
  5
D
102
{ACAD_REACTORS
330
C
102
}
330
C
100
AcDbDictionary
281
     1
  0
DICTIONARY
  5
1A
102
{ACAD_REACTORS
330
C
102
}
330
C
100
AcDbDictionary
281
     1
  3
Layout1
350
1E
  3
Layout2
350
26
  3
Model
350
22
  0
DICTIONARY
  5
11A
102
{ACAD_REACTORS
330
C
102
}
330
C
100
AcDbDictionary
281
     1
  0
DICTIONARY
  5
17
102
{ACAD_REACTORS
330
C
102
}
330
C
100
AcDbDictionary
281
     1
  3
Standard
350
18
  0
DICTIONARY
  5
19
102
{ACAD_REACTORS
330
C
102
}
330
C
100
AcDbDictionary
281
     1
  0
ACDBDICTIONARYWDFLT
  5
E
102
{ACAD_REACTORS
330
C
102
}
330
C
100
AcDbDictionary
281
     1
  3
Normal
350
F
100
AcDbDictionaryWithDefault
340
F
  0
DICTIONARY
  5
3B
102
{ACAD_REACTORS
330
C
102
}
330
C
100
AcDbDictionary
281
     1
  3
A0
350
3C
  3
A1
350
3D
  3
A2
350
3E
  3
A3
350
3F
  3
A4
350
40
  3
A5
350
41
  3
A6
350
42
  3
A7
350
43
  3
A8
350
44
  3
A9
350
45
  3
B0
350
46
  3
B1
350
47
  3
B2
350
48
  3
B3
350
49
  3
B4
350
4A
  3
B5
350
4B
  3
B6
350
4C
  3
B7
350
4D
  3
B8
350
4E
  3
B9
350
4F
  3
C0
350
50
  3
C1
350
51
  3
C2
350
52
  3
C3
350
53
  3
C4
350
54
  3
C5
350
55
  3
C6
350
56
  3
C7
350
57
  3
C8
350
58
  3
C9
350
59
  3
D0
350
5A
  3
D1
350
5B
  3
D2
350
5C
  0
DICTIONARY
  5
119
102
{ACAD_REACTORS
330
C
102
}
330
C
100
AcDbDictionary
281
     1
  0
DICTIONARY
  5
2A
102
{ACAD_REACTORS
330
C
102
}
330
C
100
AcDbDictionary
281
     1
  3
2dWireframe
350
2F
  3
3D Hidden
350
31
  3
3dWireframe
350
30
  3
Basic
350
32
  3
Brighten
350
36
  3
ColorChange
350
3A
  3
Conceptual
350
34
  3
Dim
350
35
  3
Facepattern
350
39
  3
Flat
350
2B
  3
FlatWithEdges
350
2C
  3
Gouraud
350
2D
  3
GouraudWithEdges
350
2E
  3
Linepattern
350
38
  3
Realistic
350
33
  3
Thicken
350
37
  0
LAYOUT
  5
1E
102
{ACAD_REACTORS
330
1A
102
}
330
1A
100
AcDbPlotSettings
  1

  2
none_device
  4

  6

 40
0.0
 41
0.0
 42
0.0
 43
0.0
 44
0.0
 45
0.0
 46
0.0
 47
0.0
 48
0.0
 49
0.0
140
0.0
141
0.0
142
1.0
143
1.0
 70
   688
 72
     0
 73
     0
 74
     5
  7

 75
    16
 76
     0
 77
     2
 78
   300
147
1.0
148
0.0
149
0.0
100
AcDbLayout
  1
Layout1
 70
     1
 71
     1
 10
0.0
 20
0.0
 11
12.0
 21
9.0
 12
0.0
 22
0.0
 32
0.0
 14
1.000000000000000E+20
 24
1.000000000000000E+20
 34
1.000000000000000E+20
 15
-1.000000000000000E+20
 25
-1.000000000000000E+20
 35
-1.000000000000000E+20
146
0.0
 13
0.0
 23
0.0
 33
0.0
 16
1.0
 26
0.0
 36
0.0
 17
0.0
 27
1.0
 37
0.0
 76
     0
330
1B
  0
LAYOUT
  5
26
102
{ACAD_REACTORS
330
1A
102
}
330
1A
100
AcDbPlotSettings
  1

  2
none_device
  4

  6

 40
0.0
 41
0.0
 42
0.0
 43
0.0
 44
0.0
 45
0.0
 46
0.0
 47
0.0
 48
0.0
 49
0.0
140
0.0
141
0.0
142
1.0
143
1.0
 70
   688
 72
     0
 73
     0
 74
     5
  7

 75
    16
 76
     0
 77
     2
 78
   300
147
1.0
148
0.0
149
0.0
100
AcDbLayout
  1
Layout2
 70
     1
 71
     2
 10
0.0
 20
0.0
 11
0.0
 21
0.0
 12
0.0
 22
0.0
 32
0.0
 14
0.0
 24
0.0
 34
0.0
 15
0.0
 25
0.0
 35
0.0
146
0.0
 13
0.0
 23
0.0
 33
0.0
 16
1.0
 26
0.0
 36
0.0
 17
0.0
 27
1.0
 37
0.0
 76
     0
330
23
  0
LAYOUT
  5
22
102
{ACAD_REACTORS
330
1A
102
}
330
1A
100
AcDbPlotSettings
  1

  2
none_device
  4

  6

 40
0.0
 41
0.0
 42
0.0
 43
0.0
 44
0.0
 45
0.0
 46
0.0
 47
0.0
 48
0.0
 49
0.0
140
0.0
141
0.0
142
1.0
143
1.0
 70
  1712
 72
     0
 73
     0
 74
     0
  7

 75
     0
 76
     0
 77
     2
 78
   300
147
1.0
148
0.0
149
0.0
100
AcDbLayout
  1
Model
 70
     1
 71
     0
 10
0.0
 20
0.0
 11
12.0
 21
9.0
 12
0.0
 22
0.0
 32
0.0
 14
0.0
 24
0.0000000000000853
 34
0.0
 15
937.9613483095309
 25
1279.422638468407
 35
0.0
146
0.0
 13
0.0
 23
0.0
 33
0.0
 16
1.0
 26
0.0
 36
0.0
 17
0.0
 27
1.0
 37
0.0
 76
     0
330
1F
331
29
  0
MLINESTYLE
  5
18
102
{ACAD_REACTORS
330
17
102
}
330
17
100
AcDbMlineStyle
  2
Standard
 70
     0
  3

 62
   256
 51
90.0
 52
90.0
 71
     2
 49
0.5
 62
   256
  6
BYLAYER
 49
-0.5
 62
   256
  6
BYLAYER
  0
ACDBPLACEHOLDER
  5
F
102
{ACAD_REACTORS
330
E
102
}
330
E
  0
SCALE
  5
3C
102
{ACAD_REACTORS
330
3B
102
}
330
3B
100
AcDbScale
 70
     0
300
1:1
140
1.0
141
1.0
290
     1
  0
SCALE
  5
3D
102
{ACAD_REACTORS
330
3B
102
}
330
3B
100
AcDbScale
 70
     0
300
1:2
140
1.0
141
2.0
290
     0
  0
SCALE
  5
3E
102
{ACAD_REACTORS
330
3B
102
}
330
3B
100
AcDbScale
 70
     0
300
1:4
140
1.0
141
4.0
290
     0
  0
SCALE
  5
3F
102
{ACAD_REACTORS
330
3B
102
}
330
3B
100
AcDbScale
 70
     0
300
1:5
140
1.0
141
5.0
290
     0
  0
SCALE
  5
40
102
{ACAD_REACTORS
330
3B
102
}
330
3B
100
AcDbScale
 70
     0
300
1:8
140
1.0
141
8.0
290
     0
  0
SCALE
  5
41
102
{ACAD_REACTORS
330
3B
102
}
330
3B
100
AcDbScale
 70
     0
300
1:10
140
1.0
141
10.0
290
     0
  0
SCALE
  5
42
102
{ACAD_REACTORS
330
3B
102
}
330
3B
100
AcDbScale
 70
     0
300
1:16
140
1.0
141
16.0
290
     0
  0
SCALE
  5
43
102
{ACAD_REACTORS
330
3B
102
}
330
3B
100
AcDbScale
 70
     0
300
1:20
140
1.0
141
20.0
290
     0
  0
SCALE
  5
44
102
{ACAD_REACTORS
330
3B
102
}
330
3B
100
AcDbScale
 70
     0
300
1:30
140
1.0
141
30.0
290
     0
  0
SCALE
  5
45
102
{ACAD_REACTORS
330
3B
102
}
330
3B
100
AcDbScale
 70
     0
300
1:40
140
1.0
141
40.0
290
     0
  0
SCALE
  5
46
102
{ACAD_REACTORS
330
3B
102
}
330
3B
100
AcDbScale
 70
     0
300
1:50
140
1.0
141
50.0
290
     0
  0
SCALE
  5
47
102
{ACAD_REACTORS
330
3B
102
}
330
3B
100
AcDbScale
 70
     0
300
1:100
140
1.0
141
100.0
290
     0
  0
SCALE
  5
48
102
{ACAD_REACTORS
330
3B
102
}
330
3B
100
AcDbScale
 70
     0
300
2:1
140
2.0
141
1.0
290
     0
  0
SCALE
  5
49
102
{ACAD_REACTORS
330
3B
102
}
330
3B
100
AcDbScale
 70
     0
300
4:1
140
4.0
141
1.0
290
     0
  0
SCALE
  5
4A
102
{ACAD_REACTORS
330
3B
102
}
330
3B
100
AcDbScale
 70
     0
300
8:1
140
8.0
141
1.0
290
     0
  0
SCALE
  5
4B
102
{ACAD_REACTORS
330
3B
102
}
330
3B
100
AcDbScale
 70
     0
300
10:1
140
10.0
141
1.0
290
     0
  0
SCALE
  5
4C
102
{ACAD_REACTORS
330
3B
102
}
330
3B
100
AcDbScale
 70
     0
300
100:1
140
100.0
141
1.0
290
     0
  0
SCALE
  5
4D
102
{ACAD_REACTORS
330
3B
102
}
330
3B
100
AcDbScale
 70
     0
300
1/128" = 1'-0"
140
0.0078125
141
12.0
290
     0
  0
SCALE
  5
4E
102
{ACAD_REACTORS
330
3B
102
}
330
3B
100
AcDbScale
 70
     0
300
1/64" = 1'-0"
140
0.015625
141
12.0
290
     0
  0
SCALE
  5
4F
102
{ACAD_REACTORS
330
3B
102
}
330
3B
100
AcDbScale
 70
     0
300
1/32" = 1'-0"
140
0.03125
141
12.0
290
     0
  0
SCALE
  5
50
102
{ACAD_REACTORS
330
3B
102
}
330
3B
100
AcDbScale
 70
     0
300
1/16" = 1'-0"
140
0.0625
141
12.0
290
     0
  0
SCALE
  5
51
102
{ACAD_REACTORS
330
3B
102
}
330
3B
100
AcDbScale
 70
     0
300
3/32" = 1'-0"
140
0.09375
141
12.0
290
     0
  0
SCALE
  5
52
102
{ACAD_REACTORS
330
3B
102
}
330
3B
100
AcDbScale
 70
     0
300
1/8" = 1'-0"
140
0.125
141
12.0
290
     0
  0
SCALE
  5
53
102
{ACAD_REACTORS
330
3B
102
}
330
3B
100
AcDbScale
 70
     0
300
3/16" = 1'-0"
140
0.1875
141
12.0
290
     0
  0
SCALE
  5
54
102
{ACAD_REACTORS
330
3B
102
}
330
3B
100
AcDbScale
 70
     0
300
1/4" = 1'-0"
140
0.25
141
12.0
290
     0
  0
SCALE
  5
55
102
{ACAD_REACTORS
330
3B
102
}
330
3B
100
AcDbScale
 70
     0
300
3/8" = 1'-0"
140
0.375
141
12.0
290
     0
  0
SCALE
  5
56
102
{ACAD_REACTORS
330
3B
102
}
330
3B
100
AcDbScale
 70
     0
300
1/2" = 1'-0"
140
0.5
141
12.0
290
     0
  0
SCALE
  5
57
102
{ACAD_REACTORS
330
3B
102
}
330
3B
100
AcDbScale
 70
     0
300
3/4" = 1'-0"
140
0.75
141
12.0
290
     0
  0
SCALE
  5
58
102
{ACAD_REACTORS
330
3B
102
}
330
3B
100
AcDbScale
 70
     0
300
1" = 1'-0"
140
1.0
141
12.0
290
     0
  0
SCALE
  5
59
102
{ACAD_REACTORS
330
3B
102
}
330
3B
100
AcDbScale
 70
     0
300
1-1/2" = 1'-0"
140
1.5
141
12.0
290
     0
  0
SCALE
  5
5A
102
{ACAD_REACTORS
330
3B
102
}
330
3B
100
AcDbScale
 70
     0
300
3" = 1'-0"
140
3.0
141
12.0
290
     0
  0
SCALE
  5
5B
102
{ACAD_REACTORS
330
3B
102
}
330
3B
100
AcDbScale
 70
     0
300
6" = 1'-0"
140
6.0
141
12.0
290
     0
  0
SCALE
  5
5C
102
{ACAD_REACTORS
330
3B
102
}
330
3B
100
AcDbScale
 70
     0
300
1'-0" = 1'-0"
140
12.0
141
12.0
290
     0
  0
VISUALSTYLE
  5
2F
102
{ACAD_REACTORS
330
2A
102
}
330
2A
100
AcDbVisualStyle
  2
2dWireframe
 70
     4
 71
     0
 72
     2
 73
     0
 90
        0
 40
-0.6
 41
-30.0
 62
     5
 63
     7
421
 16777215
 74
     1
 91
        4
 64
     7
 65
   257
 75
     1
175
     1
 42
1.0
 92
        0
 66
   257
 43
1.0
 76
     1
 77
     6
 78
     2
 67
     7
 79
     5
170
     0
171
     0
290
     0
174
     0
 93
        1
 44
0.0
173
     0
291
     0
 45
0.0
1001
ACAD
1000
AcDbSavedByObjectVersion
1070
     0
  0
VISUALSTYLE
  5
31
102
{ACAD_REACTORS
330
2A
102
}
330
2A
100
AcDbVisualStyle
  2
3D Hidden
 70
     6
 71
     1
 72
     2
 73
     2
 90
        0
 40
-0.6
 41
-30.0
 62
     5
 63
     7
421
 16777215
 74
     2
 91
        2
 64
     7
 65
   257
 75
     2
175
     1
 42
40.0
 92
        0
 66
   257
 43
1.0
 76
     1
 77
     6
 78
     2
 67
     7
 79
     3
170
     0
171
     0
290
     0
174
     0
 93
        1
 44
0.0
173
     0
291
     0
 45
0.0
1001
ACAD
1000
AcDbSavedByObjectVersion
1070
     0
  0
VISUALSTYLE
  5
30
102
{ACAD_REACTORS
330
2A
102
}
330
2A
100
AcDbVisualStyle
  2
3dWireframe
 70
     5
 71
     0
 72
     2
 73
     0
 90
        0
 40
-0.6
 41
-30.0
 62
     5
 63
     7
421
 16777215
 74
     1
 91
        4
 64
     7
 65
   257
 75
     1
175
     1
 42
1.0
 92
        0
 66
   257
 43
1.0
 76
     1
 77
     6
 78
     2
 67
     7
 79
     5
170
     0
171
     0
290
     0
174
     0
 93
        1
 44
0.0
173
     0
291
     0
 45
0.0
1001
ACAD
1000
AcDbSavedByObjectVersion
1070
     0
  0
VISUALSTYLE
  5
32
102
{ACAD_REACTORS
330
2A
102
}
330
2A
100
AcDbVisualStyle
  2
Basic
 70
     7
 71
     1
 72
     0
 73
     1
 90
        0
 40
-0.6
 41
-30.0
 62
     5
 63
     7
421
 16777215
 74
     0
 91
        4
 64
     7
 65
   257
 75
     1
175
     1
 42
1.0
 92
        8
 66
     7
 43
1.0
 76
     1
 77
     6
 78
     2
 67
     7
 79
     5
170
     0
171
     0
290
     0
174
     0
 93
        1
 44
0.0
173
     0
291
     1
 45
0.0
1001
ACAD
1000
AcDbSavedByObjectVersion
1070
     0
  0
VISUALSTYLE
  5
36
102
{ACAD_REACTORS
330
2A
102
}
330
2A
100
AcDbVisualStyle
  2
Brighten
 70
    12
 71
     2
 72
     2
 73
     0
 90
        0
 40
-0.6
 41
-30.0
 62
     5
 63
     7
421
 16777215
 74
     1
 91
        4
 64
     7
 65
   257
 75
     1
175
     1
 42
1.0
 92
        8
 66
     7
 43
1.0
 76
     1
 77
     6
 78
     2
 67
     7
 79
     5
170
     0
171
     0
290
     0
174
     0
 93
        1
 44
50.0
173
     0
291
     1
 45
0.0
1001
ACAD
1000
AcDbSavedByObjectVersion
1070
     0
  0
VISUALSTYLE
  5
3A
102
{ACAD_REACTORS
330
2A
102
}
330
2A
100
AcDbVisualStyle
  2
ColorChange
 70
    16
 71
     2
 72
     2
 73
     3
 90
        0
 40
-0.6
 41
-30.0
 62
     5
 63
     8
421
  8421504
 74
     1
 91
        4
 64
     7
 65
   257
 75
     1
175
     1
 42
1.0
 92
        8
 66
     8
424
  8421504
 43
1.0
 76
     1
 77
     6
 78
     2
 67
     7
 79
     5
170
     0
171
     0
290
     0
174
     0
 93
        1
 44
0.0
173
     0
291
     1
 45
0.0
1001
ACAD
1000
AcDbSavedByObjectVersion
1070
     0
  0
VISUALSTYLE
  5
34
102
{ACAD_REACTORS
330
2A
102
}
330
2A
100
AcDbVisualStyle
  2
Conceptual
 70
     9
 71
     3
 72
     2
 73
     0
 90
        0
 40
-0.6
 41
-30.0
 62
     5
 63
     7
421
 16777215
 74
     2
 91
        2
 64
     7
 65
   257
 75
     1
175
     1
 42
40.0
 92
        8
 66
     7
 43
1.0
 76
     1
 77
     6
 78
     2
 67
     7
 79
     3
170
     0
171
     0
290
     0
174
     0
 93
        1
 44
0.0
173
     0
291
     0
 45
0.0
1001
ACAD
1000
AcDbSavedByObjectVersion
1070
     0
  0
VISUALSTYLE
  5
35
102
{ACAD_REACTORS
330
2A
102
}
330
2A
100
AcDbVisualStyle
  2
Dim
 70
    11
 71
     2
 72
     2
 73
     0
 90
        0
 40
-0.6
 41
-30.0
 62
     5
 63
     7
421
 16777215
 74
     1
 91
        4
 64
     7
 65
   257
 75
     1
175
     1
 42
1.0
 92
        8
 66
     7
 43
1.0
 76
     1
 77
     6
 78
     2
 67
     7
 79
     5
170
     0
171
     0
290
     0
174
     0
 93
        1
 44
-50.0
173
     0
291
     1
 45
0.0
1001
ACAD
1000
AcDbSavedByObjectVersion
1070
     0
  0
VISUALSTYLE
  5
39
102
{ACAD_REACTORS
330
2A
102
}
330
2A
100
AcDbVisualStyle
  2
Facepattern
 70
    15
 71
     2
 72
     2
 73
     0
 90
        0
 40
-0.6
 41
-30.0
 62
     5
 63
     7
421
 16777215
 74
     1
 91
        4
 64
     7
 65
   257
 75
     1
175
     1
 42
1.0
 92
        8
 66
     7
 43
1.0
 76
     1
 77
     6
 78
     2
 67
     7
 79
     5
170
     0
171
     0
290
     0
174
     0
 93
        1
 44
0.0
173
     0
291
     1
 45
0.0
1001
ACAD
1000
AcDbSavedByObjectVersion
1070
     0
  0
VISUALSTYLE
  5
2B
102
{ACAD_REACTORS
330
2A
102
}
330
2A
100
AcDbVisualStyle
  2
Flat
 70
     0
 71
     2
 72
     1
 73
     1
 90
        2
 40
-0.6
 41
30.0
 62
     5
 63
     7
421
 16777215
 74
     0
 91
        4
 64
     7
 65
   257
 75
     1
175
     1
 42
1.0
 92
        8
 66
     7
 43
1.0
 76
     1
 77
     6
 78
     2
 67
     7
 79
     5
170
     0
171
     0
290
     0
174
     0
 93
       13
 44
0.0
173
     0
291
     1
 45
0.0
1001
ACAD
1000
AcDbSavedByObjectVersion
1070
     0
  0
VISUALSTYLE
  5
2C
102
{ACAD_REACTORS
330
2A
102
}
330
2A
100
AcDbVisualStyle
  2
FlatWithEdges
 70
     1
 71
     2
 72
     1
 73
     1
 90
        2
 40
-0.6
 41
30.0
 62
     5
 63
     7
421
 16777215
 74
     1
 91
        4
 64
     7
 65
   257
 75
     1
175
     1
 42
1.0
 92
        0
 66
   257
 43
1.0
 76
     1
 77
     6
 78
     2
 67
     7
 79
     5
170
     0
171
     0
290
     0
174
     0
 93
       13
 44
0.0
173
     0
291
     1
 45
0.0
1001
ACAD
1000
AcDbSavedByObjectVersion
1070
     0
  0
VISUALSTYLE
  5
2D
102
{ACAD_REACTORS
330
2A
102
}
330
2A
100
AcDbVisualStyle
  2
Gouraud
 70
     2
 71
     2
 72
     2
 73
     1
 90
        2
 40
-0.6
 41
30.0
 62
     5
 63
     7
421
 16777215
 74
     0
 91
        4
 64
     7
 65
   257
 75
     1
175
     1
 42
1.0
 92
        0
 66
     7
 43
1.0
 76
     1
 77
     6
 78
     2
 67
     7
 79
     5
170
     0
171
     0
290
     0
174
     0
 93
       13
 44
0.0
173
     0
291
     1
 45
0.0
1001
ACAD
1000
AcDbSavedByObjectVersion
1070
     0
  0
VISUALSTYLE
  5
2E
102
{ACAD_REACTORS
330
2A
102
}
330
2A
100
AcDbVisualStyle
  2
GouraudWithEdges
 70
     3
 71
     2
 72
     2
 73
     1
 90
        2
 40
-0.6
 41
30.0
 62
     5
 63
     7
421
 16777215
 74
     1
 91
        4
 64
     7
 65
   257
 75
     1
175
     1
 42
1.0
 92
        0
 66
   257
 43
1.0
 76
     1
 77
     6
 78
     2
 67
     7
 79
     5
170
     0
171
     0
290
     0
174
     0
 93
       13
 44
0.0
173
     0
291
     1
 45
0.0
1001
ACAD
1000
AcDbSavedByObjectVersion
1070
     0
  0
VISUALSTYLE
  5
38
102
{ACAD_REACTORS
330
2A
102
}
330
2A
100
AcDbVisualStyle
  2
Linepattern
 70
    14
 71
     2
 72
     2
 73
     0
 90
        0
 40
-0.6
 41
-30.0
 62
     5
 63
     7
421
 16777215
 74
     1
 91
        4
 64
     7
 65
   257
 75
     7
175
     7
 42
1.0
 92
        8
 66
     7
 43
1.0
 76
     1
 77
     6
 78
     2
 67
     7
 79
     5
170
     0
171
     0
290
     0
174
     0
 93
        1
 44
0.0
173
     0
291
     1
 45
0.0
1001
ACAD
1000
AcDbSavedByObjectVersion
1070
     0
  0
VISUALSTYLE
  5
33
102
{ACAD_REACTORS
330
2A
102
}
330
2A
100
AcDbVisualStyle
  2
Realistic
 70
     8
 71
     2
 72
     2
 73
     0
 90
        0
 40
-0.6
 41
-30.0
 62
     5
 63
     7
421
 16777215
 74
     1
 91
        0
 64
     7
 65
   257
 75
     1
175
     1
 42
1.0
 92
        8
 66
     8
424
  7895160
 43
1.0
 76
     1
 77
     6
 78
     2
 67
     7
 79
     5
170
     0
171
     0
290
     0
174
     0
 93
       13
 44
0.0
173
     0
291
     0
 45
0.0
1001
ACAD
1000
AcDbSavedByObjectVersion
1070
     0
  0
VISUALSTYLE
  5
37
102
{ACAD_REACTORS
330
2A
102
}
330
2A
100
AcDbVisualStyle
  2
Thicken
 70
    13
 71
     2
 72
     2
 73
     0
 90
        0
 40
-0.6
 41
-30.0
 62
     5
 63
     7
421
 16777215
 74
     1
 91
        4
 64
     7
 65
   257
 75
     1
175
     1
 42
1.0
 92
       12
 66
     7
 43
1.0
 76
     1
 77
     6
 78
     2
 67
     7
 79
     5
170
     0
171
     0
290
     0
174
     0
 93
        1
 44
0.0
173
     0
291
     1
 45
0.0
1001
ACAD
1000
AcDbSavedByObjectVersion
1070
     0
  0
ENDSEC
  0
EOF
