  0
SECTION
  2
HEADER
  9
$ACADVER
  1
AC1018
  9
$ACADMAINTVER
 70
     0
  9
$DWGCODEPAGE
  3
ANSI_1252
  9
$INSBASE
 10
0.0
 20
0.0
 30
0.0
  9
$EXTMIN
 10
0.0000492986171752
 20
0.0025548134854958
 30
0.0
  9
$EXTMAX
 10
96.35566640407073
 20
134.3864872886534
 30
0.0
  9
$LIMMIN
 10
0.0
 20
0.0
  9
$LIMMAX
 10
12.0
 20
9.0
  9
$ORTHOMODE
 70
     0
  9
$REGENMODE
 70
     1
  9
$FILLMODE
 70
     1
  9
$QTEXTMODE
 70
     0
  9
$MIRRTEXT
 70
     1
  9
$LTSCALE
 40
1.0
  9
$ATTMODE
 70
     1
  9
$TEXTSIZE
 40
0.2
  9
$TRACEWID
 40
0.05
  9
$TEXTSTYLE
  7
Standard
  9
$CLAYER
  8
PREDEFINITO
  9
$CELTYPE
  6
ByLayer
  9
$CECOLOR
 62
   256
  9
$CELTSCALE
 40
1.0
  9
$DISPSILH
 70
     0
  9
$DIMSCALE
 40
1.0
  9
$DIMASZ
 40
0.18
  9
$DIMEXO
 40
0.0625
  9
$DIMDLI
 40
0.38
  9
$DIMRND
 40
0.0
  9
$DIMDLE
 40
0.0
  9
$DIMEXE
 40
0.18
  9
$DIMTP
 40
0.0
  9
$DIMTM
 40
0.0
  9
$DIMTXT
 40
0.18
  9
$DIMCEN
 40
0.09
  9
$DIMTSZ
 40
0.0
  9
$DIMTOL
 70
     0
  9
$DIMLIM
 70
     0
  9
$DIMTIH
 70
     1
  9
$DIMTOH
 70
     1
  9
$DIMSE1
 70
     0
  9
$DIMSE2
 70
     0
  9
$DIMTAD
 70
     0
  9
$DIMZIN
 70
     0
  9
$DIMBLK
  1

  9
$DIMASO
 70
     1
  9
$DIMSHO
 70
     1
  9
$DIMPOST
  1

  9
$DIMAPOST
  1

  9
$DIMALT
 70
     0
  9
$DIMALTD
 70
     2
  9
$DIMALTF
 40
25.4
  9
$DIMLFAC
 40
1.0
  9
$DIMTOFL
 70
     0
  9
$DIMTVP
 40
0.0
  9
$DIMTIX
 70
     0
  9
$DIMSOXD
 70
     0
  9
$DIMSAH
 70
     0
  9
$DIMBLK1
  1

  9
$DIMBLK2
  1

  9
$DIMSTYLE
  2
Standard
  9
$DIMCLRD
 70
     0
  9
$DIMCLRE
 70
     0
  9
$DIMCLRT
 70
     0
  9
$DIMTFAC
 40
1.0
  9
$DIMGAP
 40
0.09
  9
$DIMJUST
 70
     0
  9
$DIMSD1
 70
     0
  9
$DIMSD2
 70
     0
  9
$DIMTOLJ
 70
     1
  9
$DIMTZIN
 70
     0
  9
$DIMALTZ
 70
     0
  9
$DIMALTTZ
 70
     0
  9
$DIMUPT
 70
     0
  9
$DIMDEC
 70
     4
  9
$DIMTDEC
 70
     4
  9
$DIMALTU
 70
     2
  9
$DIMALTTD
 70
     2
  9
$DIMTXSTY
  7
Standard
  9
$DIMAUNIT
 70
     0
  9
$DIMADEC
 70
     0
  9
$DIMALTRND
 40
0.0
  9
$DIMAZIN
 70
     0
  9
$DIMDSEP
 70
    46
  9
$DIMATFIT
 70
     3
  9
$DIMFRAC
 70
     0
  9
$DIMLDRBLK
  1

  9
$DIMLUNIT
 70
     2
  9
$DIMLWD
 70
    -2
  9
$DIMLWE
 70
    -2
  9
$DIMTMOVE
 70
     0
  9
$LUNITS
 70
     2
  9
$LUPREC
 70
     3
  9
$SKETCHINC
 40
0.1
  9
$FILLETRAD
 40
0.5
  9
$AUNITS
 70
     0
  9
$AUPREC
 70
     0
  9
$MENU
  1
.
  9
$ELEVATION
 40
0.0
  9
$PELEVATION
 40
0.0
  9
$THICKNESS
 40
0.0
  9
$LIMCHECK
 70
     0
  9
$CHAMFERA
 40
0.5
  9
$CHAMFERB
 40
0.5
  9
$CHAMFERC
 40
1.0
  9
$CHAMFERD
 40
0.0
  9
$SKPOLY
 70
     0
  9
$TDCREATE
 40
2455876.612261747
  9
$TDUCREATE
 40
2455876.570595081
  9
$TDUPDATE
 40
2455876.612261759
  9
$TDUUPDATE
 40
2455876.570595093
  9
$TDINDWG
 40
0.0000000116
  9
$TDUSRTIMER
 40
0.0000000116
  9
$USRTIMER
 70
     1
  9
$ANGBASE
 50
0.0
  9
$ANGDIR
 70
     0
  9
$PDMODE
 70
     0
  9
$PDSIZE
 40
0.0
  9
$PLINEWID
 40
0.0
  9
$SPLFRAME
 70
     0
  9
$SPLINETYPE
 70
     6
  9
$SPLINESEGS
 70
     8
  9
$HANDSEED
  5
113
  9
$SURFTAB1
 70
     6
  9
$SURFTAB2
 70
     6
  9
$SURFTYPE
 70
     6
  9
$SURFU
 70
     6
  9
$SURFV
 70
     6
  9
$UCSBASE
  2

  9
$UCSNAME
  2

  9
$UCSORG
 10
0.0
 20
0.0
 30
0.0
  9
$UCSXDIR
 10
1.0
 20
0.0
 30
0.0
  9
$UCSYDIR
 10
0.0
 20
1.0
 30
0.0
  9
$UCSORTHOREF
  2

  9
$UCSORTHOVIEW
 70
     0
  9
$UCSORGTOP
 10
0.0
 20
0.0
 30
0.0
  9
$UCSORGBOTTOM
 10
0.0
 20
0.0
 30
0.0
  9
$UCSORGLEFT
 10
0.0
 20
0.0
 30
0.0
  9
$UCSORGRIGHT
 10
0.0
 20
0.0
 30
0.0
  9
$UCSORGFRONT
 10
0.0
 20
0.0
 30
0.0
  9
$UCSORGBACK
 10
0.0
 20
0.0
 30
0.0
  9
$PUCSBASE
  2

  9
$PUCSNAME
  2

  9
$PUCSORG
 10
0.0
 20
0.0
 30
0.0
  9
$PUCSXDIR
 10
1.0
 20
0.0
 30
0.0
  9
$PUCSYDIR
 10
0.0
 20
1.0
 30
0.0
  9
$PUCSORTHOREF
  2

  9
$PUCSORTHOVIEW
 70
     0
  9
$PUCSORGTOP
 10
0.0
 20
0.0
 30
0.0
  9
$PUCSORGBOTTOM
 10
0.0
 20
0.0
 30
0.0
  9
$PUCSORGLEFT
 10
0.0
 20
0.0
 30
0.0
  9
$PUCSORGRIGHT
 10
0.0
 20
0.0
 30
0.0
  9
$PUCSORGFRONT
 10
0.0
 20
0.0
 30
0.0
  9
$PUCSORGBACK
 10
0.0
 20
0.0
 30
0.0
  9
$USERI1
 70
     0
  9
$USERI2
 70
     0
  9
$USERI3
 70
     0
  9
$USERI4
 70
     0
  9
$USERI5
 70
     0
  9
$USERR1
 40
0.0
  9
$USERR2
 40
0.0
  9
$USERR3
 40
0.0
  9
$USERR4
 40
0.0
  9
$USERR5
 40
0.0
  9
$WORLDVIEW
 70
     1
  9
$SHADEDGE
 70
     3
  9
$SHADEDIF
 70
    70
  9
$TILEMODE
 70
     1
  9
$MAXACTVP
 70
    64
  9
$PINSBASE
 10
0.0
 20
0.0
 30
0.0
  9
$PLIMCHECK
 70
     0
  9
$PEXTMIN
 10
1.000000000000000E+20
 20
1.000000000000000E+20
 30
1.000000000000000E+20
  9
$PEXTMAX
 10
-1.000000000000000E+20
 20
-1.000000000000000E+20
 30
-1.000000000000000E+20
  9
$PLIMMIN
 10
0.0
 20
0.0
  9
$PLIMMAX
 10
12.0
 20
9.0
  9
$UNITMODE
 70
     0
  9
$VISRETAIN
 70
     1
  9
$PLINEGEN
 70
     0
  9
$PSLTSCALE
 70
     1
  9
$TREEDEPTH
 70
  3020
  9
$CMLSTYLE
  2
Standard
  9
$CMLJUST
 70
     0
  9
$CMLSCALE
 40
1.0
  9
$PROXYGRAPHICS
 70
     1
  9
$MEASUREMENT
 70
     0
  9
$CELWEIGHT
370
    -1
  9
$ENDCAPS
280
     0
  9
$JOINSTYLE
280
     0
  9
$LWDISPLAY
290
     0
  9
$INSUNITS
 70
     4
  9
$HYPERLINKBASE
  1

  9
$STYLESHEET
  1

  9
$XEDIT
290
     1
  9
$CEPSNTYPE
380
     0
  9
$PSTYLEMODE
290
     1
  9
$FINGERPRINTGUID
  2
{9E70AF4E-DF00-459C-A204-02800F8F6788}
  9
$VERSIONGUID
  2
{FAEB1C32-E019-11D5-929B-00C0DF256EC4}
  9
$EXTNAMES
290
     1
  9
$PSVPSCALE
 40
0.0
  9
$OLESTARTUP
290
     0
  9
$SORTENTS
280
   127
  9
$INDEXCTL
280
     0
  9
$HIDETEXT
280
     1
  9
$XCLIPFRAME
290
     0
  9
$HALOGAP
280
     0
  9
$OBSCOLOR
 70
   257
  9
$OBSLTYPE
280
     0
  9
$INTERSECTIONDISPLAY
280
     0
  9
$INTERSECTIONCOLOR
 70
   257
  9
$DIMASSOC
280
     2
  9
$PROJECTNAME
  1

  0
ENDSEC
  0
SECTION
  2
CLASSES
  0
CLASS
  1
ACDBDICTIONARYWDFLT
  2
AcDbDictionaryWithDefault
  3
ObjectDBX Classes
 90
        0
 91
        3
280
     0
281
     0
  0
CLASS
  1
VISUALSTYLE
  2
AcDbVisualStyle
  3
ObjectDBX Classes
 90
     4095
 91
        3
280
     0
281
     0
  0
CLASS
  1
SCALE
  2
AcDbScale
  3
ObjectDBX Classes
 90
     1153
 91
        3
280
     0
281
     0
  0
ENDSEC
  0
SECTION
  2
TABLES
  0
TABLE
  2
VPORT
  5
8
330
0
100
AcDbSymbolTable
 70
     1
  0
VPORT
  5
29
330
8
100
AcDbSymbolTableRecord
100
AcDbViewportTableRecord
  2
*Active
 70
     0
 10
0.0
 20
0.0
 11
1.0
 21
1.0
 12
0.0
 22
0.0
 13
0.0
 23
0.0
 14
0.5
 24
0.5
 15
0.5
 25
0.5
 16
0.0
 26
0.0
 36
1.0
 17
48.17785785134395
 27
67.19452105106946
 37
0.0
 40
137.0716111246713
 41
0.7170173943470405
 42
50.0
 43
0.0
 44
0.0
 50
0.0
 51
0.0
 71
     0
 72
   100
 73
     1
 74
     3
 75
     0
 76
     0
 77
     0
 78
     0
281
     0
 65
     1
110
0.0
120
0.0
130
0.0
111
1.0
121
0.0
131
0.0
112
0.0
122
1.0
132
0.0
 79
     0
146
0.0
  0
ENDTAB
  0
TABLE
  2
LTYPE
  5
5
330
0
100
AcDbSymbolTable
 70
     1
  0
LTYPE
  5
14
330
5
100
AcDbSymbolTableRecord
100
AcDbLinetypeTableRecord
  2
ByBlock
 70
     0
  3

 72
    65
 73
     0
 40
0.0
  0
LTYPE
  5
15
330
5
100
AcDbSymbolTableRecord
100
AcDbLinetypeTableRecord
  2
ByLayer
 70
     0
  3

 72
    65
 73
     0
 40
0.0
  0
LTYPE
  5
16
330
5
100
AcDbSymbolTableRecord
100
AcDbLinetypeTableRecord
  2
Continuous
 70
     0
  3
Solid line
 72
    65
 73
     0
 40
0.0
  0
ENDTAB
  0
TABLE
  2
LAYER
  5
2
330
0
100
AcDbSymbolTable
 70
     3
  0
LAYER
  5
10
330
2
100
AcDbSymbolTableRecord
100
AcDbLayerTableRecord
  2
0
 70
     0
 62
     7
  6
Continuous
370
    -3
390
F
  0
LAYER
  5
5D
330
2
100
AcDbSymbolTableRecord
100
AcDbLayerTableRecord
  2
LINEE VISIBILI 2D
 70
     0
 62
     7
  6
Continuous
370
    -3
390
F
  0
LAYER
  5
61
330
2
100
AcDbSymbolTableRecord
100
AcDbLayerTableRecord
  2
PREDEFINITO
 70
     0
 62
     7
  6
Continuous
370
    -3
390
F
  0
ENDTAB
  0
TABLE
  2
STYLE
  5
3
330
0
100
AcDbSymbolTable
 70
     1
  0
STYLE
  5
11
330
3
100
AcDbSymbolTableRecord
100
AcDbTextStyleTableRecord
  2
Standard
 70
     0
 40
0.0
 41
1.0
 50
0.0
 71
     0
 42
0.2
  3
txt
  4

  0
ENDTAB
  0
TABLE
  2
VIEW
  5
6
330
0
100
AcDbSymbolTable
 70
     0
  0
ENDTAB
  0
TABLE
  2
UCS
  5
7
330
0
100
AcDbSymbolTable
 70
     0
  0
ENDTAB
  0
TABLE
  2
APPID
  5
9
330
0
100
AcDbSymbolTable
 70
     1
  0
APPID
  5
12
330
9
100
AcDbSymbolTableRecord
100
AcDbRegAppTableRecord
  2
ACAD
 70
     0
  0
ENDTAB
  0
TABLE
  2
DIMSTYLE
  5
A
330
0
100
AcDbSymbolTable
 70
     1
100
AcDbDimStyleTable
  0
DIMSTYLE
105
27
330
A
100
AcDbSymbolTableRecord
100
AcDbDimStyleTableRecord
  2
Standard
 70
     0
340
11
  0
ENDTAB
  0
TABLE
  2
BLOCK_RECORD
  5
1
330
0
100
AcDbSymbolTable
 70
     1
  0
BLOCK_RECORD
  5
1F
330
1
100
AcDbSymbolTableRecord
100
AcDbBlockTableRecord
  2
*Model_Space
340
22
  0
BLOCK_RECORD
  5
1B
330
1
100
AcDbSymbolTableRecord
100
AcDbBlockTableRecord
  2
*Paper_Space
340
1E
  0
BLOCK_RECORD
  5
23
330
1
100
AcDbSymbolTableRecord
100
AcDbBlockTableRecord
  2
*Paper_Space0
340
26
  0
ENDTAB
  0
ENDSEC
  0
SECTION
  2
BLOCKS
  0
BLOCK
  5
20
330
1F
100
AcDbEntity
  8
0
100
AcDbBlockBegin
  2
*Model_Space
 70
     0
 10
0.0
 20
0.0
 30
0.0
  3
*Model_Space
  1

  0
ENDBLK
  5
21
330
1F
100
AcDbEntity
  8
0
100
AcDbBlockEnd
  0
BLOCK
  5
1C
330
1B
100
AcDbEntity
 67
     1
  8
0
100
AcDbBlockBegin
  2
*Paper_Space
 70
     0
 10
0.0
 20
0.0
 30
0.0
  3
*Paper_Space
  1

  0
ENDBLK
  5
1D
330
1B
100
AcDbEntity
 67
     1
  8
0
100
AcDbBlockEnd
  0
BLOCK
  5
24
330
23
100
AcDbEntity
  8
0
100
AcDbBlockBegin
  2
*Paper_Space0
 70
     0
 10
0.0
 20
0.0
 30
0.0
  3
*Paper_Space0
  1

  0
ENDBLK
  5
25
330
23
100
AcDbEntity
  8
0
100
AcDbBlockEnd
  0
ENDSEC
  0
SECTION
  2
ENTITIES
  0
SPLINE
  5
5E
330
1F
100
AcDbEntity
  8
LINEE VISIBILI 2D
100
AcDbSpline
210
0.0
220
0.0
230
1.0
 70
    12
 71
     2
 72
     6
 73
     3
 74
     0
 42
0.0000000001
 43
0.0000000001
 40
0.0
 40
0.0
 40
0.0
 40
0.8745733095379259
 40
0.8745733095379259
 40
0.8745733095379259
 10
77.64218135710962
 20
81.19005871722544
 30
0.0
 41
1.0
 10
77.60391227208002
 20
80.67413475607539
 30
0.0
 41
0.7832590091537819
 10
77.09276867535888
 20
80.59429566734852
 30
0.0
 41
1.0
  0
SPLINE
  5
5F
330
1F
100
AcDbEntity
  8
LINEE VISIBILI 2D
100
AcDbSpline
210
0.0
220
0.0
230
1.0
 70
    12
 71
     2
 72
     6
 73
     3
 74
     0
 42
0.0000000001
 43
0.0000000001
 40
0.0
 40
0.0
 40
0.0
 40
0.9197160854985738
 40
0.9197160854985738
 40
0.9197160854985738
 10
16.51928591399697
 20
80.58886174819267
 30
0.0
 41
1.0
 10
17.07240049217953
 20
80.6364273820942
 30
0.0
 41
0.7613261940311903
 10
17.11351704464541
 20
81.19005871722604
 30
0.0
 41
1.0
  0
SPLINE
  5
60
330
1F
100
AcDbEntity
  8
LINEE VISIBILI 2D
100
AcDbSpline
210
0.0
220
0.0
230
1.0
 70
    12
 71
     2
 72
     6
 73
     3
 74
     0
 42
0.0000000001
 43
0.0000000001
 40
0.0
 40
0.0
 40
0.0
 40
0.9197264605664804
 40
0.9197264605664804
 40
0.9197264605664804
 10
18.71351704464523
 20
81.19005871722604
 30
0.0
 41
1.0
 10
18.75459319719101
 20
80.63638572020054
 30
0.0
 41
0.761264195366588
 10
19.30775156756244
 20
80.58887934977298
 30
0.0
 41
1.0
  0
SPLINE
  5
62
330
1F
100
AcDbEntity
  8
PREDEFINITO
100
AcDbSpline
210
0.0
220
0.0
230
1.0
 70
    24
 71
     2
 72
     6
 73
     3
 74
     0
 42
0.0000000001
 43
0.0000000001
 40
0.0
 40
0.0
 40
0.0
 40
0.8948472355389256
 40
0.8948472355389256
 40
0.8948472355389256
 10
60.66352164032198
 20
17.31439741429391
 30
0.0
 10
60.21609802255252
 20
17.31439741429389
 30
0.0
 10
59.76867440478306
 20
17.31439741429388
 30
0.0
  0
SPLINE
  5
63
330
1F
100
AcDbEntity
  8
PREDEFINITO
100
AcDbSpline
210
0.0
220
0.0
230
1.0
 70
     8
 71
     2
 72
     6
 73
     3
 74
     0
 42
0.0000000001
 43
0.0000000001
 40
-1.0
 40
-1.0
 40
-1.0
 40
0.0
 40
0.0
 40
0.0
 10
59.76867440478306
 20
17.31439741429388
 30
0.0
 10
59.75014595097368
 20
17.31291384427555
 30
0.0
 10
59.73251602145071
 20
17.32367357407259
 30
0.0
  0
SPLINE
  5
64
330
1F
100
AcDbEntity
  8
PREDEFINITO
100
AcDbSpline
210
0.0
220
0.0
230
1.0
 70
     8
 71
     3
 72
    13
 73
     9
 74
     0
 42
0.0000000001
 43
0.0000000001
 40
0.0
 40
0.0
 40
0.0
 40
0.0
 40
0.1006257267419217
 40
0.2395776489923052
 40
0.6368404472534926
 40
1.037628459909049
 40
1.1789735109343
 40
1.28074392515768
 40
1.28074392515768
 40
1.28074392515768
 40
1.28074392515768
 10
59.73251602145071
 20
17.32367357407259
 30
0.0
 10
59.70167976512268
 20
17.33798595043602
 30
0.0
 10
59.64603693640947
 20
17.39817046439479
 30
0.0
 10
59.56823009746178
 20
17.59798594008481
 30
0.0
 10
59.53970749348829
 20
17.91117865066422
 30
0.0
 10
59.56734235370251
 20
18.22529850782066
 30
0.0
 10
59.64508373303071
 20
18.42759717686711
 30
0.0
 10
59.70127279788841
 20
18.48896495955719
 30
0.0
 10
59.73251070271654
 20
18.50338530254621
 30
0.0
  0
SPLINE
  5
65
330
1F
100
AcDbEntity
  8
PREDEFINITO
100
AcDbSpline
210
0.0
220
0.0
230
1.0
 70
     8
 71
     2
 72
     6
 73
     3
 74
     0
 42
0.0000000001
 43
0.0000000001
 40
0.0
 40
0.0
 40
0.0
 40
1.0
 40
1.0
 40
1.0
 10
59.73251070271654
 20
18.50338530254621
 30
0.0
 10
59.75297065296788
 20
18.51283022216504
 30
0.0
 10
59.76867440061695
 20
18.51263667499669
 30
0.0
  0
SPLINE
  5
66
330
1F
100
AcDbEntity
  8
PREDEFINITO
100
AcDbSpline
210
0.0
220
0.0
230
1.0
 70
    24
 71
     2
 72
     6
 73
     3
 74
     0
 42
0.0000000001
 43
0.0000000001
 40
0.0
 40
0.0
 40
0.0
 40
0.8948472397057259
 40
0.8948472397057259
 40
0.8948472397057259
 10
59.76867440061695
 20
18.51263667499669
 30
0.0
 10
60.21609802046981
 20
18.5126366749967
 30
0.0
 10
60.66352164032268
 20
18.51263667499671
 30
0.0
  0
SPLINE
  5
67
330
1F
100
AcDbEntity
  8
LINEE VISIBILI 2D
100
AcDbSpline
210
0.0
220
0.0
230
1.0
 70
    12
 71
     2
 72
     8
 73
     5
 74
     0
 42
0.0000000001
 43
0.0000000001
 40
0.0
 40
0.0
 40
0.0
 40
27.83879785294731
 40
27.83879785294731
 40
55.67759570589461
 40
55.67759570589461
 40
55.67759570589461
 10
60.53875227382751
 20
17.314405823315
 30
0.0
 41
1.0
 10
61.12792594060166
 20
-0.2920732292530783
 30
0.0
 41
0.7129953393280639
 10
78.7417961727389
 20
0.0025548134854958
 30
0.0
 41
1.0
 10
96.35566640487615
 20
0.2971828562240791
 30
0.0
 41
0.7129953393280639
 10
96.35566640407072
 20
17.9135170446453
 30
0.0
 41
1.0
  0
SPLINE
  5
68
330
1F
100
AcDbEntity
  8
LINEE VISIBILI 2D
100
AcDbSpline
210
0.0
220
0.0
230
1.0
 70
    12
 71
     2
 72
     8
 73
     5
 74
     0
 42
0.0000000001
 43
0.0000000001
 40
0.0
 40
0.0
 40
0.0
 40
27.83879777056717
 40
27.83879777056717
 40
55.67759554113434
 40
55.67759554113434
 40
55.67759554113434
 10
96.35566640407072
 20
17.9135170446453
 30
0.0
 41
1.0
 10
96.35566640487613
 20
35.52985115204153
 30
0.0
 41
0.7129953409403248
 10
78.7417962551075
 20
35.82447927442731
 30
0.0
 41
1.0
 10
61.12792610533886
 20
36.11910739681311
 30
0.0
 41
0.7129953409403248
 10
60.53875227933789
 20
18.51262843064366
 30
0.0
 41
1.0
  0
SPLINE
  5
69
330
1F
100
AcDbEntity
  8
LINEE VISIBILI 2D
100
AcDbSpline
210
0.0
220
0.0
230
1.0
 70
    12
 71
     2
 72
     6
 73
     3
 74
     0
 42
0.0000000001
 43
0.0000000001
 40
-0.2916417750969835
 40
-0.2916417750969835
 40
-0.2916417750969835
 40
0.0
 40
0.0
 40
0.0
 10
83.45903036176955
 20
15.79501750587337
 30
0.0
 41
1.0
 10
83.59252678189362
 20
15.73616731289231
 30
0.0
 41
0.9992632479524691
 10
83.73010532109382
 20
15.68761657865188
 30
0.0
 41
1.0
  0
SPLINE
  5
6A
330
1F
100
AcDbEntity
  8
LINEE VISIBILI 2D
100
AcDbSpline
210
0.0
220
0.0
230
1.0
 70
    12
 71
     2
 72
     6
 73
     3
 74
     0
 42
0.0000000001
 43
0.0000000001
 40
0.0
 40
0.0
 40
0.0
 40
0.66208848697528
 40
0.66208848697528
 40
0.66208848697528
 10
83.73010532109382
 20
15.68761657865188
 30
0.0
 41
1.0
 10
84.04481222710083
 20
15.57680649865047
 30
0.0
 41
0.9883519367501634
 10
84.37827881004858
 20
15.56592086862177
 30
0.0
 41
1.0
  0
SPLINE
  5
6B
330
1F
100
AcDbEntity
  8
LINEE VISIBILI 2D
100
AcDbSpline
210
0.0
220
0.0
230
1.0
 70
    12
 71
     2
 72
     6
 73
     3
 74
     0
 42
0.0000000001
 43
0.0000000001
 40
0.0
 40
0.0
 40
0.0
 40
1.069589092463445
 40
1.069589092463445
 40
1.069589092463445
 10
84.37827881004858
 20
15.56592086862177
 30
0.0
 41
1.0
 10
84.92397104858823
 20
15.54873971685942
 30
0.0
 41
0.9695968653751776
 10
85.4124621635578
 20
15.79256679036454
 30
0.0
 41
1.0
  0
SPLINE
  5
6C
330
1F
100
AcDbEntity
  8
LINEE VISIBILI 2D
100
AcDbSpline
210
0.0
220
0.0
230
1.0
 70
    12
 71
     2
 72
     6
 73
     3
 74
     0
 42
0.0000000001
 43
0.0000000001
 40
0.0
 40
0.0
 40
0.0
 40
0.8929447089499616
 40
0.8929447089499616
 40
0.8929447089499616
 10
85.37821619529124
 20
20.03410083935758
 30
0.0
 41
1.0
 10
84.96915730248635
 20
20.22835542174872
 30
0.0
 41
0.9790406435305664
 10
84.51656617763685
 20
20.2433652275506
 30
0.0
 41
1.0
  0
SPLINE
  5
6D
330
1F
100
AcDbEntity
  8
LINEE VISIBILI 2D
100
AcDbSpline
210
0.0
220
0.0
230
1.0
 70
    12
 71
     2
 72
     6
 73
     3
 74
     0
 42
0.0000000001
 43
0.0000000001
 40
0.0
 40
0.0
 40
0.0
 40
0.8003265301298539
 40
0.8003265301298539
 40
0.8003265301298539
 10
84.51656617763685
 20
20.2433652275506
 30
0.0
 41
1.0
 10
84.11195068343983
 20
20.25627769764082
 30
0.0
 41
0.9828287848252857
 10
83.73017567301008
 20
20.12155653066984
 30
0.0
 41
1.0
  0
SPLINE
  5
6E
330
1F
100
AcDbEntity
  8
LINEE VISIBILI 2D
100
AcDbSpline
210
0.0
220
0.0
230
1.0
 70
    12
 71
     2
 72
     6
 73
     3
 74
     0
 42
0.0000000001
 43
0.0000000001
 40
-0.2563776809684722
 40
-0.2563776809684722
 40
-0.2563776809684722
 40
0.0
 40
0.0
 40
0.0
 10
83.73017567301008
 20
20.12155653066984
 30
0.0
 41
1.0
 10
83.60918746752857
 20
20.07897150046747
 30
0.0
 41
0.999433007736578
 10
83.49136809912953
 20
20.02834139947323
 30
0.0
 41
1.0
  0
SPLINE
  5
6F
330
1F
100
AcDbEntity
  8
LINEE VISIBILI 2D
100
AcDbSpline
210
0.0
220
0.0
230
1.0
 70
    12
 71
     2
 72
     6
 73
     3
 74
     0
 42
0.0000000001
 43
0.0000000001
 40
0.0
 40
0.0
 40
0.0
 40
1.007022410974519
 40
1.007022410974519
 40
1.007022410974519
 10
85.90659122374396
 20
15.78436299852369
 30
0.0
 41
1.0
 10
85.44808517841552
 20
15.55488595950986
 30
0.0
 41
0.9732596589847073
 10
84.93535967212995
 20
15.55464050496924
 30
0.0
 41
0.9999999974128285
  0
SPLINE
  5
70
330
1F
100
AcDbEntity
  8
LINEE VISIBILI 2D
100
AcDbSpline
210
0.0
220
0.0
230
1.0
 70
    24
 71
     2
 72
     6
 73
     3
 74
     0
 42
0.0000000001
 43
0.0000000001
 40
0.0
 40
0.0
 40
0.0
 40
0.4281441821623417
 40
0.4281441821623417
 40
0.4281441821623417
 10
84.93535967212995
 20
15.55464050496924
 30
0.0
 10
84.72128760457358
 20
15.55464177652772
 30
0.0
 10
84.50721553701722
 20
15.5546430480862
 30
0.0
  0
SPLINE
  5
71
330
1F
100
AcDbEntity
  8
LINEE VISIBILI 2D
100
AcDbSpline
210
0.0
220
0.0
230
1.0
 70
    24
 71
     2
 72
     6
 73
     3
 74
     0
 42
0.0000000001
 43
0.0000000001
 40
0.0
 40
0.0
 40
0.0
 40
0.0593244933039614
 40
0.0593244933039614
 40
0.0593244933039614
 10
84.50721553701722
 20
15.5546430480862
 30
0.0
 10
84.4775532903648
 20
15.55464304808619
 30
0.0
 10
84.44789104371239
 20
15.55464304808618
 30
0.0
  0
SPLINE
  5
72
330
1F
100
AcDbEntity
  8
LINEE VISIBILI 2D
100
AcDbSpline
210
0.0
220
0.0
230
1.0
 70
    24
 71
     2
 72
     6
 73
     3
 74
     0
 42
0.0000000001
 43
0.0000000001
 40
0.0
 40
0.0
 40
0.0
 40
0.059324493303933
 40
0.059324493303933
 40
0.059324493303933
 10
84.44789104371242
 20
20.25464304808614
 30
0.0
 10
84.47755329036363
 20
20.25464304808615
 30
0.0
 10
84.50721553701483
 20
20.25464304808617
 30
0.0
  0
SPLINE
  5
73
330
1F
100
AcDbEntity
  8
LINEE VISIBILI 2D
100
AcDbSpline
210
0.0
220
0.0
230
1.0
 70
    24
 71
     2
 72
     6
 73
     3
 74
     0
 42
0.0000000001
 43
0.0000000001
 40
0.0
 40
0.0
 40
0.0
 40
0.4281471208669245
 40
0.4281471208669245
 40
0.4281471208669245
 10
84.50721553701483
 20
20.25464304808617
 30
0.0
 10
84.72129139006287
 20
20.25475074392764
 30
0.0
 10
84.9353672431109
 20
20.25485843976911
 30
0.0
  0
SPLINE
  5
74
330
1F
100
AcDbEntity
  8
LINEE VISIBILI 2D
100
AcDbSpline
210
0.0
220
0.0
230
1.0
 70
    12
 71
     2
 72
     6
 73
     3
 74
     0
 42
0.0000000001
 43
0.0000000001
 40
0.0
 40
0.0
 40
0.0
 40
0.9691443504979074
 40
0.9691443504979074
 40
0.9691443504979074
 10
84.9353672431109
 20
20.25485843976911
 30
0.0
 41
1.0
 10
85.42823891774839
 20
20.25529198524912
 30
0.0
 41
0.9749451147553835
 10
85.87242450862503
 20
20.04171020637036
 30
0.0
 41
1.0
  0
SPLINE
  5
75
330
1F
100
AcDbEntity
  8
LINEE VISIBILI 2D
100
AcDbSpline
210
0.0
220
0.0
230
1.0
 70
    12
 71
     2
 72
     6
 73
     3
 74
     0
 42
0.0000000001
 43
0.0000000001
 40
0.0
 40
0.0
 40
0.0
 40
0.0611681525540074
 40
0.0611681525540074
 40
0.0611681525540074
 10
60.9870237246182
 20
112.8864872886534
 30
0.0
 41
1.0
 10
60.9552463046831
 20
112.8874920324267
 30
0.0
 41
0.9439134807633646
 10
60.92932343039278
 20
112.8681536973639
 30
0.0
 41
1.0
  0
SPLINE
  5
76
330
1F
100
AcDbEntity
  8
LINEE VISIBILI 2D
100
AcDbSpline
210
0.0
220
0.0
230
1.0
 70
    12
 71
     2
 72
     6
 73
     3
 74
     0
 42
0.0000000001
 43
0.0000000001
 40
0.0
 40
0.0
 40
0.0
 40
0.0622783695479215
 40
0.0622783695479215
 40
0.0622783695479215
 10
60.92932343039278
 20
112.8681536973639
 30
0.0
 41
1.0
 10
60.90184287738659
 20
112.8499113531607
 30
0.0
 41
0.9410857908983659
 10
60.89240353365454
 20
112.8188790304708
 30
0.0
 41
1.0
  0
SPLINE
  5
77
330
1F
100
AcDbEntity
  8
LINEE VISIBILI 2D
100
AcDbSpline
210
0.0
220
0.0
230
1.0
 70
    12
 71
     2
 72
     6
 73
     3
 74
     0
 42
0.0000000001
 43
0.0000000001
 40
-1.091290135317487
 40
-1.091290135317487
 40
-1.091290135317487
 40
0.0
 40
0.0
 40
0.0
 10
60.89240353365454
 20
112.8188790304708
 30
0.0
 41
1.0
 10
60.71556745141537
 20
112.3026837768308
 30
0.0
 41
0.9999999999939075
 10
60.538734972904
 20
111.786487288655
 30
0.0
 41
1.0
  0
SPLINE
  5
78
330
1F
100
AcDbEntity
  8
LINEE VISIBILI 2D
100
AcDbSpline
210
0.0
220
0.0
230
1.0
 70
    24
 71
     2
 72
     6
 73
     3
 74
     0
 42
0.0000000001
 43
0.0000000001
 40
0.0
 40
0.0
 40
0.0
 40
35.81119500026578
 40
35.81119500026578
 40
35.81119500026578
 10
60.538734972904
 20
111.786487288655
 30
0.0
 10
78.446892005331
 20
111.7873636124302
 30
0.0
 10
96.355049037758
 20
111.7882399362054
 30
0.0
  0
SPLINE
  5
79
330
1F
100
AcDbEntity
  8
LINEE VISIBILI 2D
100
AcDbSpline
210
0.0
220
0.0
230
1.0
 70
    24
 71
     2
 72
     6
 73
     3
 74
     0
 42
0.0000000001
 43
0.0000000001
 40
-1.08937220584968
 40
-1.08937220584968
 40
-1.08937220584968
 40
0.0
 40
0.0
 40
0.0
 10
96.355049037758
 20
111.7882399362054
 30
0.0
 10
96.17861572157015
 20
112.3035594833394
 30
0.0
 10
96.00218240538231
 20
112.8188790304734
 30
0.0
  0
SPLINE
  5
7A
330
1F
100
AcDbEntity
  8
LINEE VISIBILI 2D
100
AcDbSpline
210
0.0
220
0.0
230
1.0
 70
    12
 71
     2
 72
     6
 73
     3
 74
     0
 42
0.0000000001
 43
0.0000000001
 40
0.0
 40
0.0
 40
0.0
 40
0.1240929098166249
 40
0.1240929098166249
 40
0.1240929098166249
 10
96.00218240538231
 20
112.8188790304734
 30
0.0
 41
1.0
 10
95.97903492483584
 20
112.8864872886534
 30
0.0
 41
0.8136084495017624
 10
95.90757386949957
 20
112.8864872886534
 30
0.0
 41
1.0
  0
SPLINE
  5
7B
330
1F
100
AcDbEntity
  8
LINEE VISIBILI 2D
100
AcDbSpline
210
0.0
220
0.0
230
1.0
 70
    24
 71
     2
 72
     6
 73
     3
 74
     0
 42
0.0000000001
 43
0.0000000001
 40
-34.92055014483866
 40
-34.92055014483866
 40
-34.92055014483866
 40
0.0
 40
0.0
 40
0.0
 10
95.90757386949957
 20
112.8864872886534
 30
0.0
 10
78.44729879705889
 20
112.8864872886534
 30
0.0
 10
60.9870237246182
 20
112.8864872886534
 30
0.0
  0
SPLINE
  5
7C
330
1F
100
AcDbEntity
  8
LINEE VISIBILI 2D
100
AcDbSpline
210
0.0
220
0.0
230
1.0
 70
    12
 71
     2
 72
     6
 73
     3
 74
     0
 42
0.0000000001
 43
0.0000000001
 40
0.0
 40
0.0
 40
0.0
 40
0.1569551070565701
 40
0.1569551070565701
 40
0.1569551070565701
 10
66.96186720171569
 20
80.4863127637599
 30
0.0
 41
1.0
 10
66.96215450847005
 20
80.58619967480828
 30
0.0
 41
0.7091371327633009
 10
67.0618677832556
 20
80.58648728864543
 30
0.0
 41
1.0
  0
SPLINE
  5
7D
330
1F
100
AcDbEntity
  8
LINEE VISIBILI 2D
100
AcDbSpline
210
0.0
220
0.0
230
1.0
 70
    24
 71
     2
 72
     6
 73
     3
 74
     0
 42
0.0000000001
 43
0.0000000001
 40
0.0
 40
0.0
 40
0.0
 40
11.38031268009811
 40
11.38031268009811
 40
11.38031268009811
 10
67.0618677832556
 20
80.58648728864543
 30
0.0
 10
72.75202457018258
 20
80.58648728864942
 30
0.0
 10
78.44218135710958
 20
80.58648728865342
 30
0.0
  0
SPLINE
  5
7E
330
1F
100
AcDbEntity
  8
LINEE VISIBILI 2D
100
AcDbSpline
210
0.0
220
0.0
230
1.0
 70
    24
 71
     2
 72
     6
 73
     3
 74
     0
 42
0.0000000001
 43
0.0000000001
 40
0.0
 40
0.0
 40
0.0
 40
11.38031268009809
 40
11.38031268009809
 40
11.38031268009809
 10
78.44218135710958
 20
80.58648728865342
 30
0.0
 10
84.13233814403655
 20
80.58648728864942
 30
0.0
 10
89.82249493096353
 20
80.58648728864543
 30
0.0
  0
SPLINE
  5
7F
330
1F
100
AcDbEntity
  8
LINEE VISIBILI 2D
100
AcDbSpline
210
0.0
220
0.0
230
1.0
 70
    12
 71
     2
 72
     6
 73
     3
 74
     0
 42
0.0000000001
 43
0.0000000001
 40
0.0
 40
0.0
 40
0.0
 40
0.1552009544473267
 40
0.1552009544473267
 40
0.1552009544473267
 10
89.82249493096353
 20
80.58648728864543
 30
0.0
 41
1.0
 10
89.920462317696
 20
80.58617875492024
 30
0.0
 41
0.7154442789150074
 10
89.92247827193937
 20
80.48823251931776
 30
0.0
 41
1.0
  0
SPLINE
  5
80
330
1F
100
AcDbEntity
  8
LINEE VISIBILI 2D
100
AcDbSpline
210
0.0
220
0.0
230
1.0
 70
    24
 71
     2
 72
     6
 73
     3
 74
     0
 42
0.0000000001
 43
0.0000000001
 40
-1.149301229356834
 40
-1.149301229356834
 40
-1.149301229356834
 40
0.0
 40
0.0
 40
0.0
 10
89.92247827193937
 20
80.48823251931776
 30
0.0
 10
89.92253095453796
 20
79.91358191201991
 30
0.0
 10
89.92258363713657
 20
79.33893130472205
 30
0.0
  0
SPLINE
  5
81
330
1F
100
AcDbEntity
  8
LINEE VISIBILI 2D
100
AcDbSpline
210
0.0
220
0.0
230
1.0
 70
    12
 71
     2
 72
     6
 73
     3
 74
     0
 42
0.0000000001
 43
0.0000000001
 40
0.0
 40
0.0
 40
0.0
 40
11.48029747766382
 40
11.48029747766382
 40
11.48029747766382
 10
89.92258363713657
 20
79.33893130472205
 30
0.0
 41
1.0
 10
84.1824348823452
 20
79.33893197448889
 30
0.0
 41
0.9999999958295082
 10
78.44228620535563
 20
79.33788416034682
 30
0.0
 41
1.0
  0
SPLINE
  5
82
330
1F
100
AcDbEntity
  8
LINEE VISIBILI 2D
100
AcDbSpline
210
0.0
220
0.0
230
1.0
 70
    12
 71
     2
 72
     8
 73
     5
 74
     0
 42
0.0000000001
 43
0.0000000001
 40
0.0
 40
0.0
 40
0.0
 40
10.60642673889794
 40
10.60642673889794
 40
11.47508525712317
 40
11.47508525712317
 40
11.47508525712317
 10
78.44228620535563
 20
79.33788416034682
 30
0.0
 41
1.0
 10
73.13907285681582
 20
79.33721808372546
 30
0.0
 41
0.9999999991267932
 10
67.83585960030285
 20
79.33610876329293
 30
0.0
 41
1.0
 10
67.4015303372134
 20
79.33605471177066
 30
0.0
 41
0.9999999746501577
 10
66.96197050901583
 20
79.33736125608402
 30
0.0
 41
1.0
  0
SPLINE
  5
83
330
1F
100
AcDbEntity
  8
LINEE VISIBILI 2D
100
AcDbSpline
210
0.0
220
0.0
230
1.0
 70
    24
 71
     2
 72
     6
 73
     3
 74
     0
 42
0.0000000001
 43
0.0000000001
 40
0.0
 40
0.0
 40
0.0
 40
1.148776987561082
 40
1.148776987561082
 40
1.148776987561082
 10
66.96197050901583
 20
79.33736125608402
 30
0.0
 10
66.96191885536575
 20
79.91183700992195
 30
0.0
 10
66.96186720171569
 20
80.4863127637599
 30
0.0
  0
SPLINE
  5
84
330
1F
100
AcDbEntity
  8
LINEE VISIBILI 2D
100
AcDbSpline
210
0.0
220
0.0
230
1.0
 70
    12
 71
     2
 72
     6
 73
     3
 74
     0
 42
0.0000000001
 43
0.0000000001
 40
0.0
 40
0.0
 40
0.0
 40
0.124064081974821
 40
0.124064081974821
 40
0.124064081974821
 10
0.3535159963725611
 20
112.8188790304734
 30
0.0
 41
1.0
 10
0.3767179168770274
 20
112.8864104077929
 30
0.0
 41
0.8142320467987371
 10
0.4513401285233953
 20
112.8864872886523
 30
0.0
 41
1.0
  0
SPLINE
  5
85
330
1F
100
AcDbEntity
  8
LINEE VISIBILI 2D
100
AcDbSpline
210
0.0
220
0.0
230
1.0
 70
    28
 71
     2
 72
     8
 73
     5
 74
     0
 42
0.0000000001
 43
0.0000000001
 40
817.5265780256566
 40
817.5265780256566
 40
817.5265780256566
 40
824.5299637335362
 40
824.5299637335362
 40
1097.38297617973
 40
1097.38297617973
 40
1097.38297617973
 10
0.4513401285233953
 20
112.8864872886523
 30
0.0
 41
0.9856516737310005
 10
0.4452649092907269
 20
112.8864872886534
 30
0.0
 41
0.992636829488369
 10
0.4506667534895143
 20
112.8864872886534
 30
0.0
 41
1.0
 10
0.743610758072514
 20
112.8864872886534
 30
0.0
 41
0.71311341297393
 10
17.91379438623544
 20
112.8864872886534
 30
0.0
 41
1.0
  0
SPLINE
  5
86
330
1F
100
AcDbEntity
  8
LINEE VISIBILI 2D
100
AcDbSpline
210
0.0
220
0.0
230
1.0
 70
    24
 71
     2
 72
     6
 73
     3
 74
     0
 42
0.0000000001
 43
0.0000000001
 40
0.0
 40
0.0
 40
0.0
 40
17.46229560791145
 40
17.46229560791145
 40
17.46229560791145
 10
17.91379438623544
 20
112.8864872886534
 30
0.0
 10
26.64571658189969
 20
112.8864872886529
 30
0.0
 10
35.37763877756394
 20
112.8864872886523
 30
0.0
  0
SPLINE
  5
87
330
1F
100
AcDbEntity
  8
LINEE VISIBILI 2D
100
AcDbSpline
210
0.0
220
0.0
230
1.0
 70
    12
 71
     2
 72
     6
 73
     3
 74
     0
 42
0.0000000001
 43
0.0000000001
 40
0.0
 40
0.0
 40
0.0
 40
0.1240570348583459
 40
0.1240570348583459
 40
0.1240570348583459
 10
35.37763877756394
 20
112.8864872886523
 30
0.0
 41
1.0
 10
35.45030250633111
 20
112.8863912841083
 30
0.0
 41
0.8143876447297324
 10
35.47351809291808
 20
112.8188790304734
 30
0.0
 41
1.0
  0
SPLINE
  5
88
330
1F
100
AcDbEntity
  8
LINEE VISIBILI 2D
100
AcDbSpline
210
0.0
220
0.0
230
1.0
 70
    24
 71
     2
 72
     6
 73
     3
 74
     0
 42
0.0000000001
 43
0.0000000001
 40
0.0
 40
0.0
 40
0.0
 40
1.090418631928695
 40
1.090418631928695
 40
1.090418631928695
 10
35.47351809291808
 20
112.8188790304734
 30
0.0
 10
35.64956401524634
 20
112.3028738193533
 30
0.0
 10
35.8256099375746
 20
111.7868686082332
 30
0.0
  0
SPLINE
  5
89
330
1F
100
AcDbEntity
  8
LINEE VISIBILI 2D
100
AcDbSpline
210
0.0
220
0.0
230
1.0
 70
    24
 71
     2
 72
     6
 73
     3
 74
     0
 42
0.0000000001
 43
0.0000000001
 40
-17.91097914957628
 40
-17.91097914957628
 40
-17.91097914957628
 40
0.0
 40
0.0
 40
0.0
 10
35.8256099375746
 20
111.7868686082332
 30
0.0
 10
26.86956349110996
 20
111.7866779484433
 30
0.0
 10
17.91351704464532
 20
111.7864872886534
 30
0.0
  0
SPLINE
  5
8A
330
1F
100
AcDbEntity
  8
LINEE VISIBILI 2D
100
AcDbSpline
210
0.0
220
0.0
230
1.0
 70
    28
 71
     3
 72
    10
 73
     6
 74
     0
 42
0.0000000001
 43
0.0000000001
 40
0.0
 40
0.0
 40
0.0
 40
0.0
 40
283.4220957898038
 40
283.4220957898038
 40
286.7796690191041
 40
286.7796690191041
 40
286.7796690191041
 40
286.7796690191041
 10
17.91351704464532
 20
111.7864872886534
 30
0.0
 41
1.0
 10
8.13653837714125
 20
111.7864872886534
 30
0.0
 41
1.0
 10
0.165501965838672
 20
111.7864872886534
 30
0.0
 41
1.0
 10
0.000607332136089
 20
111.7864872886534
 30
0.0
 41
1.0
 10
-0.0002189842237291
 20
111.7864872886534
 30
0.0
 41
1.0
 10
0.0000492986171992
 20
111.7864872886534
 30
0.0
 41
1.0
  0
SPLINE
  5
8B
330
1F
100
AcDbEntity
  8
LINEE VISIBILI 2D
100
AcDbSpline
210
0.0
220
0.0
230
1.0
 70
    24
 71
     2
 72
     6
 73
     3
 74
     0
 42
0.0000000001
 43
0.0000000001
 40
0.0
 40
0.0
 40
0.0
 40
1.091224731666306
 40
1.091224731666306
 40
1.091224731666306
 10
0.0000492986171992
 20
111.7864872886534
 30
0.0
 10
0.1767826474948802
 20
112.3026831595634
 30
0.0
 10
0.3535159963725611
 20
112.8188790304734
 30
0.0
  0
SPLINE
  5
8C
330
1F
100
AcDbEntity
  8
LINEE VISIBILI 2D
100
AcDbSpline
210
0.0
220
0.0
230
1.0
 70
    24
 71
     2
 72
     6
 73
     3
 74
     0
 42
0.0000000001
 43
0.0000000001
 40
0.0
 40
0.0
 40
0.0
 40
1.62157580755708
 40
1.62157580755708
 40
1.62157580755708
 10
61.29389749928431
 20
111.7864872886534
 30
0.0
 10
61.03127732123708
 20
111.0194099346688
 30
0.0
 10
60.76865714318986
 20
110.2523325806842
 30
0.0
  0
SPLINE
  5
8D
330
1F
100
AcDbEntity
  8
LINEE VISIBILI 2D
100
AcDbSpline
210
0.0
220
0.0
230
1.0
 70
    12
 71
     2
 72
     6
 73
     3
 74
     0
 42
0.0000000001
 43
0.0000000001
 40
0.0
 40
0.0
 40
0.0
 40
0.552364538730783
 40
0.552364538730783
 40
0.552364538730783
 10
60.76865714318986
 20
110.2523325806842
 30
0.0
 41
1.0
 10
60.68591282361353
 20
109.9888365890691
 30
0.0
 41
0.9999988780242359
 10
60.60250159989702
 20
109.7203278919221
 30
0.0
 41
1.0
  0
SPLINE
  5
8E
330
1F
100
AcDbEntity
  8
LINEE VISIBILI 2D
100
AcDbSpline
210
0.0
220
0.0
230
1.0
 70
    24
 71
     2
 72
     6
 73
     3
 74
     0
 42
0.0000000001
 43
0.0000000001
 40
0.0
 40
0.0
 40
0.0
 40
1.0
 40
1.0
 40
1.0
 10
60.60250159989702
 20
109.7203278919221
 30
0.0
 10
60.10177325035538
 20
109.7179448973703
 30
0.0
 10
59.60104490081373
 20
109.7155619028184
 30
0.0
  0
SPLINE
  5
8F
330
1F
100
AcDbEntity
  8
LINEE VISIBILI 2D
100
AcDbSpline
210
0.0
220
0.0
230
1.0
 70
    12
 71
     2
 72
     8
 73
     5
 74
     0
 42
0.0000000001
 43
0.0000000001
 40
0.0
 40
0.0
 40
0.0
 40
0.0471732331974655
 40
0.0471732331974655
 40
0.0943464664548398
 40
0.0943464664548398
 40
0.0943464664548398
 10
59.60104490081373
 20
109.7155619028184
 30
0.0
 41
0.9999999997249618
 10
59.57555633293512
 20
109.7157151189211
 30
0.0
 41
0.8917149333378195
 10
59.56063382193992
 20
109.7363793206544
 30
0.0
 41
1.0
 10
59.54571131092344
 20
109.7570435224171
 30
0.0
 41
0.8917149332003004
 10
59.55366133288812
 20
109.7815223469631
 30
0.0
 41
1.0
  0
SPLINE
  5
90
330
1F
100
AcDbEntity
  8
LINEE VISIBILI 2D
100
AcDbSpline
210
0.0
220
0.0
230
1.0
 70
    24
 71
     2
 72
     6
 73
     3
 74
     0
 42
0.0000000001
 43
0.0000000001
 40
-0.516191714967341
 40
-0.516191714967341
 40
-0.516191714967341
 40
0.0
 40
0.0
 40
0.0
 10
59.55366133288812
 20
109.7815223469631
 30
0.0
 10
59.63730272679883
 20
110.0258207725663
 30
0.0
 10
59.72094412070954
 20
110.2701191981694
 30
0.0
  0
SPLINE
  5
91
330
1F
100
AcDbEntity
  8
LINEE VISIBILI 2D
100
AcDbSpline
210
0.0
220
0.0
230
1.0
 70
    24
 71
     2
 72
     6
 73
     3
 74
     0
 42
0.0000000001
 43
0.0000000001
 40
-2.763840103930677
 40
-2.763840103930677
 40
-2.763840103930677
 40
0.0
 40
0.0
 40
0.0
 10
59.72094412070954
 20
110.2701191981694
 30
0.0
 10
60.16857209607547
 20
111.5775335264119
 30
0.0
 10
60.6162000714414
 20
112.8849478546543
 30
0.0
  0
SPLINE
  5
92
330
1F
100
AcDbEntity
  8
LINEE VISIBILI 2D
100
AcDbSpline
210
0.0
220
0.0
230
1.0
 70
    24
 71
     2
 72
     6
 73
     3
 74
     0
 42
0.0000000001
 43
0.0000000001
 40
-0.5491196303514672
 40
-0.5491196303514672
 40
-0.5491196303514672
 40
0.0
 40
0.0
 40
0.0
 10
60.6162000714414
 20
112.8849478546543
 30
0.0
 10
60.70513488124276
 20
113.1447051777003
 30
0.0
 10
60.79406969104411
 20
113.4044625007462
 30
0.0
  0
SPLINE
  5
93
330
1F
100
AcDbEntity
  8
LINEE VISIBILI 2D
100
AcDbSpline
210
0.0
220
0.0
230
1.0
 70
    12
 71
     2
 72
     6
 73
     3
 74
     0
 42
0.0000000001
 43
0.0000000001
 40
0.0
 40
0.0
 40
0.0
 40
0.075161448834236
 40
0.075161448834236
 40
0.075161448834236
 10
60.79406969104411
 20
113.4044625007462
 30
0.0
 41
1.0
 10
60.80557831724704
 20
113.4376723794991
 30
0.0
 41
0.7325322642446044
 10
60.85839272983897
 20
113.4352804326152
 30
0.0
 41
1.0
  0
SPLINE
  5
94
330
1F
100
AcDbEntity
  8
LINEE VISIBILI 2D
100
AcDbSpline
210
0.0
220
0.0
230
1.0
 70
    24
 71
     2
 72
     6
 73
     3
 74
     0
 42
0.0000000001
 43
0.0000000001
 40
0.0
 40
0.0
 40
0.0
 40
0.4788487129768981
 40
0.4788487129768981
 40
0.4788487129768981
 10
60.85839272983897
 20
113.4352804326152
 30
0.0
 10
61.09781708632742
 20
113.4352804326152
 30
0.0
 10
61.33724144281587
 20
113.4352804326152
 30
0.0
  0
SPLINE
  5
95
330
1F
100
AcDbEntity
  8
LINEE VISIBILI 2D
100
AcDbSpline
210
0.0
220
0.0
230
1.0
 70
    24
 71
     2
 72
     6
 73
     3
 74
     0
 42
0.0000000001
 43
0.0000000001
 40
0.0
 40
0.0
 40
0.0
 40
0.5519211134757
 40
0.5519211134757
 40
0.5519211134757
 10
89.29862158929774
 20
79.33840840212912
 30
0.0
 10
89.2986153768188
 20
79.06244784539126
 30
0.0
 10
89.29860916433987
 20
78.78648728865342
 30
0.0
  0
SPLINE
  5
96
330
1F
100
AcDbEntity
  8
LINEE VISIBILI 2D
100
AcDbSpline
210
0.0
220
0.0
230
1.0
 70
    28
 71
     2
 72
     8
 73
     5
 74
     0
 42
0.0000000001
 43
0.0000000001
 40
-33.57359861386702
 40
-33.57359861386702
 40
-33.57359861386702
 40
-17.05702709465714
 40
-17.05702709465714
 40
0.0
 40
0.0
 40
0.0
 10
89.29860916433987
 20
78.78648728865342
 30
0.0
 41
0.9820273325920851
 10
89.31430773209178
 20
78.78648728865342
 30
0.0
 41
0.7163871658772666
 10
78.94936839933891
 20
78.78648728865342
 30
0.0
 41
1.0
 10
68.10478192408458
 20
78.78648728865342
 30
0.0
 41
0.707106781186548
 10
67.59759488185517
 20
78.78648728865342
 30
0.0
 41
1.0
  0
SPLINE
  5
97
330
1F
100
AcDbEntity
  8
LINEE VISIBILI 2D
100
AcDbSpline
210
0.0
220
0.0
230
1.0
 70
    24
 71
     2
 72
     6
 73
     3
 74
     0
 42
0.0000000001
 43
0.0000000001
 40
0.0
 40
0.0
 40
0.0
 40
0.0118289070181419
 40
0.0118289070181419
 40
0.0118289070181419
 10
67.59759488185517
 20
78.78648728865342
 30
0.0
 10
67.59167421586717
 20
78.78648728865342
 30
0.0
 10
67.58575354987917
 20
78.78648728865342
 30
0.0
  0
SPLINE
  5
98
330
1F
100
AcDbEntity
  8
LINEE VISIBILI 2D
100
AcDbSpline
210
0.0
220
0.0
230
1.0
 70
    24
 71
     2
 72
     6
 73
     3
 74
     0
 42
0.0000000001
 43
0.0000000001
 40
0.0
 40
0.0
 40
0.0
 40
0.55112183785009
 40
0.55112183785009
 40
0.55112183785009
 10
67.58575354987917
 20
78.78648728865342
 30
0.0
 10
67.58574733740024
 20
79.06204820757847
 30
0.0
 10
67.5857411249213
 20
79.33760912650351
 30
0.0
  0
SPLINE
  5
99
330
1F
100
AcDbEntity
  8
LINEE VISIBILI 2D
100
AcDbSpline
210
0.0
220
0.0
230
1.0
 70
    24
 71
     2
 72
     6
 73
     3
 74
     0
 42
0.0000000001
 43
0.0000000001
 40
0.0
 40
0.0
 40
0.0
 40
0.5519211134757
 40
0.5519211134757
 40
0.5519211134757
 10
28.76995727683358
 20
79.33840840212912
 30
0.0
 10
28.76995106435465
 20
79.06244784539126
 30
0.0
 10
28.76994485187572
 20
78.78648728865342
 30
0.0
  0
SPLINE
  5
9A
330
1F
100
AcDbEntity
  8
LINEE VISIBILI 2D
100
AcDbSpline
210
0.0
220
0.0
230
1.0
 70
    28
 71
     2
 72
     6
 73
     3
 74
     0
 42
0.0000000001
 43
0.0000000001
 40
-50.62685505265662
 40
-50.62685505265662
 40
-50.62685505265662
 40
-34.1065128775792
 40
-34.1065128775792
 40
-34.1065128775792
 10
28.76994485187572
 20
78.78648728865342
 30
0.0
 41
0.9820273325923791
 10
28.78564341963553
 20
78.78648728865342
 30
0.0
 41
0.7163871658771096
 10
18.42070408687466
 20
78.78648728865342
 30
0.0
 41
1.0
  0
SPLINE
  5
9B
330
1F
100
AcDbEntity
  8
LINEE VISIBILI 2D
100
AcDbSpline
210
0.0
220
0.0
230
1.0
 70
    24
 71
     2
 72
     6
 73
     3
 74
     0
 42
0.0000000001
 43
0.0000000001
 40
0.0
 40
0.0
 40
0.0
 40
11.36360242450188
 40
11.36360242450188
 40
11.36360242450188
 10
18.42070408687466
 20
78.78648728865342
 30
0.0
 10
12.73889666214479
 20
78.78648728865342
 30
0.0
 10
7.057089237414917
 20
78.78648728865342
 30
0.0
  0
SPLINE
  5
9C
330
1F
100
AcDbEntity
  8
LINEE VISIBILI 2D
100
AcDbSpline
210
0.0
220
0.0
230
1.0
 70
    24
 71
     2
 72
     6
 73
     3
 74
     0
 42
0.0000000001
 43
0.0000000001
 40
0.0
 40
0.0
 40
0.0
 40
0.5519021281723013
 40
0.5519021281723013
 40
0.5519021281723013
 10
7.057089237414917
 20
78.78648728865342
 30
0.0
 10
7.057083024935986
 20
79.06243835273958
 30
0.0
 10
7.057076812457055
 20
79.33838941682572
 30
0.0
  0
SPLINE
  5
9D
330
1F
100
AcDbEntity
  8
LINEE VISIBILI 2D
100
AcDbSpline
210
0.0
220
0.0
230
1.0
 70
    24
 71
     2
 72
     6
 73
     3
 74
     0
 42
0.0000000001
 43
0.0000000001
 40
0.0
 40
0.0
 40
0.0
 40
0.2000000000000028
 40
0.2000000000000028
 40
0.2000000000000028
 10
13.50455714786685
 20
78.78648728865342
 30
0.0
 10
13.50455714786685
 20
78.68648728865341
 30
0.0
 10
13.50455714786685
 20
78.58648728865342
 30
0.0
  0
SPLINE
  5
9E
330
1F
100
AcDbEntity
  8
LINEE VISIBILI 2D
100
AcDbSpline
210
0.0
220
0.0
230
1.0
 70
    24
 71
     2
 72
     6
 73
     3
 74
     0
 42
0.0000000001
 43
0.0000000001
 40
0.0
 40
0.0
 40
0.0
 40
1.175000000000004
 40
1.175000000000004
 40
1.175000000000004
 10
13.50455714786685
 20
78.58648728865342
 30
0.0
 10
12.91705714786685
 20
78.58648728865342
 30
0.0
 10
12.32955714786684
 20
78.58648728865342
 30
0.0
  0
SPLINE
  5
9F
330
1F
100
AcDbEntity
  8
LINEE VISIBILI 2D
100
AcDbSpline
210
0.0
220
0.0
230
1.0
 70
    24
 71
     2
 72
     6
 73
     3
 74
     0
 42
0.0000000001
 43
0.0000000001
 40
0.0
 40
0.0
 40
0.0
 40
1.174999999999997
 40
1.174999999999997
 40
1.174999999999997
 10
12.32955714786684
 20
78.58648728865342
 30
0.0
 10
11.74205714786684
 20
78.58648728865342
 30
0.0
 10
11.15455714786685
 20
78.58648728865342
 30
0.0
  0
SPLINE
  5
A0
330
1F
100
AcDbEntity
  8
LINEE VISIBILI 2D
100
AcDbSpline
210
0.0
220
0.0
230
1.0
 70
    24
 71
     2
 72
     6
 73
     3
 74
     0
 42
0.0000000001
 43
0.0000000001
 40
0.0
 40
0.0
 40
0.0
 40
0.2000000000000028
 40
0.2000000000000028
 40
0.2000000000000028
 10
11.15455714786685
 20
78.58648728865342
 30
0.0
 10
11.15455714786685
 20
78.68648728865341
 30
0.0
 10
11.15455714786685
 20
78.78648728865342
 30
0.0
  0
SPLINE
  5
A1
330
1F
100
AcDbEntity
  8
LINEE VISIBILI 2D
100
AcDbSpline
210
0.0
220
0.0
230
1.0
 70
    24
 71
     2
 72
     6
 73
     3
 74
     0
 42
0.0000000001
 43
0.0000000001
 40
0.0
 40
0.0
 40
0.0
 40
0.2000000000000028
 40
0.2000000000000028
 40
0.2000000000000028
 10
24.67247694142384
 20
78.78648728865342
 30
0.0
 10
24.67247694142384
 20
78.68648728865341
 30
0.0
 10
24.67247694142384
 20
78.58648728865342
 30
0.0
  0
SPLINE
  5
A2
330
1F
100
AcDbEntity
  8
LINEE VISIBILI 2D
100
AcDbSpline
210
0.0
220
0.0
230
1.0
 70
    24
 71
     2
 72
     6
 73
     3
 74
     0
 42
0.0000000001
 43
0.0000000001
 40
0.0
 40
0.0
 40
0.0
 40
1.175000000000011
 40
1.175000000000011
 40
1.175000000000011
 10
24.67247694142384
 20
78.58648728865342
 30
0.0
 10
24.08497694142383
 20
78.58648728865342
 30
0.0
 10
23.49747694142383
 20
78.58648728865342
 30
0.0
  0
SPLINE
  5
A3
330
1F
100
AcDbEntity
  8
LINEE VISIBILI 2D
100
AcDbSpline
210
0.0
220
0.0
230
1.0
 70
    24
 71
     2
 72
     6
 73
     3
 74
     0
 42
0.0000000001
 43
0.0000000001
 40
0.0
 40
0.0
 40
0.0
 40
1.174999999999997
 40
1.174999999999997
 40
1.174999999999997
 10
23.49747694142383
 20
78.58648728865342
 30
0.0
 10
22.90997694142383
 20
78.58648728865342
 30
0.0
 10
22.32247694142383
 20
78.58648728865342
 30
0.0
  0
SPLINE
  5
A4
330
1F
100
AcDbEntity
  8
LINEE VISIBILI 2D
100
AcDbSpline
210
0.0
220
0.0
230
1.0
 70
    24
 71
     2
 72
     6
 73
     3
 74
     0
 42
0.0000000001
 43
0.0000000001
 40
0.0
 40
0.0
 40
0.0
 40
0.2000000000000028
 40
0.2000000000000028
 40
0.2000000000000028
 10
22.32247694142383
 20
78.58648728865342
 30
0.0
 10
22.32247694142383
 20
78.68648728865341
 30
0.0
 10
22.32247694142383
 20
78.78648728865342
 30
0.0
  0
SPLINE
  5
A5
330
1F
100
AcDbEntity
  8
LINEE VISIBILI 2D
100
AcDbSpline
210
0.0
220
0.0
230
1.0
 70
    24
 71
     2
 72
     6
 73
     3
 74
     0
 42
0.0000000001
 43
0.0000000001
 40
0.0
 40
0.0
 40
0.0
 40
0.2000000000000028
 40
0.2000000000000028
 40
0.2000000000000028
 10
89.11718135710956
 20
78.78648728865342
 30
0.0
 10
89.11718135710956
 20
78.68648728865341
 30
0.0
 10
89.11718135710956
 20
78.58648728865342
 30
0.0
  0
SPLINE
  5
A6
330
1F
100
AcDbEntity
  8
LINEE VISIBILI 2D
100
AcDbSpline
210
0.0
220
0.0
230
1.0
 70
    24
 71
     2
 72
     6
 73
     3
 74
     0
 42
0.0000000001
 43
0.0000000001
 40
0.0
 40
0.0
 40
0.0
 40
1.174999999999983
 40
1.174999999999983
 40
1.174999999999983
 10
89.11718135710956
 20
78.58648728865342
 30
0.0
 10
88.52968135710957
 20
78.58648728865342
 30
0.0
 10
87.94218135710958
 20
78.58648728865342
 30
0.0
  0
SPLINE
  5
A7
330
1F
100
AcDbEntity
  8
LINEE VISIBILI 2D
100
AcDbSpline
210
0.0
220
0.0
230
1.0
 70
    24
 71
     2
 72
     6
 73
     3
 74
     0
 42
0.0000000001
 43
0.0000000001
 40
0.0
 40
0.0
 40
0.0
 40
1.175000000000011
 40
1.175000000000011
 40
1.175000000000011
 10
87.94218135710958
 20
78.58648728865342
 30
0.0
 10
87.35468135710957
 20
78.58648728865342
 30
0.0
 10
86.76718135710956
 20
78.58648728865342
 30
0.0
  0
SPLINE
  5
A8
330
1F
100
AcDbEntity
  8
LINEE VISIBILI 2D
100
AcDbSpline
210
0.0
220
0.0
230
1.0
 70
    24
 71
     2
 72
     6
 73
     3
 74
     0
 42
0.0000000001
 43
0.0000000001
 40
0.0
 40
0.0
 40
0.0
 40
0.2000000000000028
 40
0.2000000000000028
 40
0.2000000000000028
 10
86.76718135710956
 20
78.58648728865342
 30
0.0
 10
86.76718135710956
 20
78.68648728865341
 30
0.0
 10
86.76718135710956
 20
78.78648728865342
 30
0.0
  0
SPLINE
  5
A9
330
1F
100
AcDbEntity
  8
LINEE VISIBILI 2D
100
AcDbSpline
210
0.0
220
0.0
230
1.0
 70
    24
 71
     2
 72
     6
 73
     3
 74
     0
 42
0.0000000001
 43
0.0000000001
 40
0.0
 40
0.0
 40
0.0
 40
0.2000000000000028
 40
0.2000000000000028
 40
0.2000000000000028
 10
19.08851704464526
 20
78.78648728865342
 30
0.0
 10
19.08851704464526
 20
78.68648728865341
 30
0.0
 10
19.08851704464526
 20
78.58648728865342
 30
0.0
  0
SPLINE
  5
AA
330
1F
100
AcDbEntity
  8
LINEE VISIBILI 2D
100
AcDbSpline
210
0.0
220
0.0
230
1.0
 70
    24
 71
     2
 72
     6
 73
     3
 74
     0
 42
0.0000000001
 43
0.0000000001
 40
0.0
 40
0.0
 40
0.0
 40
1.174999999999997
 40
1.174999999999997
 40
1.174999999999997
 10
19.08851704464526
 20
78.58648728865342
 30
0.0
 10
18.50101704464526
 20
78.58648728865342
 30
0.0
 10
17.91351704464526
 20
78.58648728865342
 30
0.0
  0
SPLINE
  5
AB
330
1F
100
AcDbEntity
  8
LINEE VISIBILI 2D
100
AcDbSpline
210
0.0
220
0.0
230
1.0
 70
    24
 71
     2
 72
     6
 73
     3
 74
     0
 42
0.0000000001
 43
0.0000000001
 40
0.0
 40
0.0
 40
0.0
 40
1.174999999999997
 40
1.174999999999997
 40
1.174999999999997
 10
17.91351704464526
 20
78.58648728865342
 30
0.0
 10
17.32601704464526
 20
78.58648728865342
 30
0.0
 10
16.73851704464526
 20
78.58648728865342
 30
0.0
  0
SPLINE
  5
AC
330
1F
100
AcDbEntity
  8
LINEE VISIBILI 2D
100
AcDbSpline
210
0.0
220
0.0
230
1.0
 70
    24
 71
     2
 72
     6
 73
     3
 74
     0
 42
0.0000000001
 43
0.0000000001
 40
0.0
 40
0.0
 40
0.0
 40
0.2000000000000028
 40
0.2000000000000028
 40
0.2000000000000028
 10
16.73851704464526
 20
78.58648728865342
 30
0.0
 10
16.73851704464526
 20
78.68648728865341
 30
0.0
 10
16.73851704464526
 20
78.78648728865342
 30
0.0
  0
SPLINE
  5
AD
330
1F
100
AcDbEntity
  8
LINEE VISIBILI 2D
100
AcDbSpline
210
0.0
220
0.0
230
1.0
 70
    24
 71
     2
 72
     6
 73
     3
 74
     0
 42
0.0000000001
 43
0.0000000001
 40
0.0
 40
0.0
 40
0.0
 40
0.2000000000000028
 40
0.2000000000000028
 40
0.2000000000000028
 10
71.93151991054754
 20
78.78648728865342
 30
0.0
 10
71.93151991054754
 20
78.68648728865341
 30
0.0
 10
71.93151991054754
 20
78.58648728865342
 30
0.0
  0
SPLINE
  5
AE
330
1F
100
AcDbEntity
  8
LINEE VISIBILI 2D
100
AcDbSpline
210
0.0
220
0.0
230
1.0
 70
    24
 71
     2
 72
     6
 73
     3
 74
     0
 42
0.0000000001
 43
0.0000000001
 40
0.0
 40
0.0
 40
0.0
 40
1.174999999999983
 40
1.174999999999983
 40
1.174999999999983
 10
71.93151991054754
 20
78.58648728865342
 30
0.0
 10
71.34401991054754
 20
78.58648728865342
 30
0.0
 10
70.75651991054755
 20
78.58648728865342
 30
0.0
  0
SPLINE
  5
AF
330
1F
100
AcDbEntity
  8
LINEE VISIBILI 2D
100
AcDbSpline
210
0.0
220
0.0
230
1.0
 70
    24
 71
     2
 72
     6
 73
     3
 74
     0
 42
0.0000000001
 43
0.0000000001
 40
0.0
 40
0.0
 40
0.0
 40
1.174999999999969
 40
1.174999999999969
 40
1.174999999999969
 10
70.75651991054755
 20
78.58648728865342
 30
0.0
 10
70.16901991054756
 20
78.58648728865342
 30
0.0
 10
69.58151991054757
 20
78.58648728865342
 30
0.0
  0
SPLINE
  5
B0
330
1F
100
AcDbEntity
  8
LINEE VISIBILI 2D
100
AcDbSpline
210
0.0
220
0.0
230
1.0
 70
    24
 71
     2
 72
     6
 73
     3
 74
     0
 42
0.0000000001
 43
0.0000000001
 40
0.0
 40
0.0
 40
0.0
 40
0.2000000000000028
 40
0.2000000000000028
 40
0.2000000000000028
 10
69.58151991054757
 20
78.58648728865342
 30
0.0
 10
69.58151991054756
 20
78.68648728865341
 30
0.0
 10
69.58151991054754
 20
78.78648728865342
 30
0.0
  0
SPLINE
  5
B1
330
1F
100
AcDbEntity
  8
LINEE VISIBILI 2D
100
AcDbSpline
210
0.0
220
0.0
230
1.0
 70
    24
 71
     2
 72
     6
 73
     3
 74
     0
 42
0.0000000001
 43
0.0000000001
 40
0.0
 40
0.0
 40
0.0
 40
0.2199999999999989
 40
0.2199999999999989
 40
0.2199999999999989
 10
10.05348013984133
 20
78.78648728865342
 30
0.0
 10
10.05348013984133
 20
78.67648728865342
 30
0.0
 10
10.05348013984133
 20
78.56648728865342
 30
0.0
  0
SPLINE
  5
B2
330
1F
100
AcDbEntity
  8
LINEE VISIBILI 2D
100
AcDbSpline
210
0.0
220
0.0
230
1.0
 70
    24
 71
     2
 72
     6
 73
     3
 74
     0
 42
0.0000000001
 43
0.0000000001
 40
0.0
 40
0.0
 40
0.0
 40
1.174999999999997
 40
1.174999999999997
 40
1.174999999999997
 10
10.05348013984133
 20
78.56648728865342
 30
0.0
 10
9.465980139841335
 20
78.56648728865342
 30
0.0
 10
8.878480139841336
 20
78.56648728865342
 30
0.0
  0
SPLINE
  5
B3
330
1F
100
AcDbEntity
  8
LINEE VISIBILI 2D
100
AcDbSpline
210
0.0
220
0.0
230
1.0
 70
    24
 71
     2
 72
     6
 73
     3
 74
     0
 42
0.0000000001
 43
0.0000000001
 40
0.0
 40
0.0
 40
0.0
 40
1.175000000000018
 40
1.175000000000018
 40
1.175000000000018
 10
8.878480139841336
 20
78.56648728865342
 30
0.0
 10
8.290980139841327
 20
78.56648728865342
 30
0.0
 10
7.703480139841318
 20
78.56648728865342
 30
0.0
  0
SPLINE
  5
B4
330
1F
100
AcDbEntity
  8
LINEE VISIBILI 2D
100
AcDbSpline
210
0.0
220
0.0
230
1.0
 70
    24
 71
     2
 72
     6
 73
     3
 74
     0
 42
0.0000000001
 43
0.0000000001
 40
0.0
 40
0.0
 40
0.0
 40
0.2199999999999989
 40
0.2199999999999989
 40
0.2199999999999989
 10
7.703480139841318
 20
78.56648728865342
 30
0.0
 10
7.703480139841318
 20
78.67648728865342
 30
0.0
 10
7.703480139841318
 20
78.78648728865342
 30
0.0
  0
POLYLINE
  5
B5
330
1F
100
AcDbEntity
  8
PREDEFINITO
100
AcDb2dPolyline
 66
     1
 10
0.0
 20
0.0
 30
0.0
  0
VERTEX
  5
B7
330
B5
100
AcDbEntity
  8
PREDEFINITO
100
AcDbVertex
100
AcDb2dVertex
 10
0.5471611727858647
 20
112.8864872886534
 30
0.0
  0
VERTEX
  5
B8
330
B5
100
AcDbEntity
  8
PREDEFINITO
100
AcDbVertex
100
AcDb2dVertex
 10
0.5687391490006202
 20
112.8885843710062
 30
0.0
  0
SEQEND
  5
B6
330
B5
100
AcDbEntity
  8
PREDEFINITO
  0
SPLINE
  5
B9
330
1F
100
AcDbEntity
  8
PREDEFINITO
100
AcDbSpline
210
0.0
220
0.0
230
1.0
 70
    12
 71
     2
 72
     6
 73
     3
 74
     0
 42
0.0000000001
 43
0.0000000001
 40
0.0
 40
0.0
 40
0.0
 40
0.103522783157266
 40
0.103522783157266
 40
0.103522783157266
 10
0.5687391490006202
 20
112.8885843710062
 30
0.0
 41
1.0
 10
0.6244527160459163
 20
112.9001858476258
 30
0.0
 41
0.8696897845426859
 10
0.643057700414332
 20
112.9539673534555
 30
0.0
 41
1.0
  0
SPLINE
  5
BA
330
1F
100
AcDbEntity
  8
PREDEFINITO
100
AcDbSpline
210
0.0
220
0.0
230
1.0
 70
    24
 71
     2
 72
     6
 73
     3
 74
     0
 42
0.0000000001
 43
0.0000000001
 40
0.0
 40
0.0
 40
0.0
 40
22.66443429070353
 40
22.66443429070353
 40
22.66443429070353
 10
0.643057700414332
 20
112.9539673534555
 30
0.0
 10
4.330748000933298
 20
123.6702273210545
 30
0.0
 10
8.018438301452264
 20
134.3864872886534
 30
0.0
  0
SPLINE
  5
BB
330
1F
100
AcDbEntity
  8
PREDEFINITO
100
AcDbSpline
210
0.0
220
0.0
230
1.0
 70
    24
 71
     2
 72
     6
 73
     3
 74
     0
 42
0.0000000001
 43
0.0000000001
 40
-9.890157486386123
 40
-9.890157486386123
 40
-9.890157486386123
 40
0.0
 40
0.0
 40
0.0
 10
8.018438301452264
 20
134.3864872886534
 30
0.0
 10
12.96597767304879
 20
134.3864872886534
 30
0.0
 10
17.91351704464532
 20
134.3864872886534
 30
0.0
  0
SPLINE
  5
BC
330
1F
100
AcDbEntity
  8
PREDEFINITO
100
AcDbSpline
210
0.0
220
0.0
230
1.0
 70
    24
 71
     2
 72
     6
 73
     3
 74
     0
 42
0.0000000001
 43
0.0000000001
 40
-9.890157486395228
 40
-9.890157486395228
 40
-9.890157486395228
 40
0.0
 40
0.0
 40
0.0
 10
17.91351704464532
 20
134.3864872886534
 30
0.0
 10
22.86105641624412
 20
134.3864872886534
 30
0.0
 10
27.80859578784292
 20
134.3864872886534
 30
0.0
  0
SPLINE
  5
BD
330
1F
100
AcDbEntity
  8
PREDEFINITO
100
AcDbSpline
210
0.0
220
0.0
230
1.0
 70
    24
 71
     2
 72
     6
 73
     3
 74
     0
 42
0.0000000001
 43
0.0000000001
 40
0.0
 40
0.0
 40
0.0
 40
22.66443429070353
 40
22.66443429070353
 40
22.66443429070353
 10
27.80859578784292
 20
134.3864872886534
 30
0.0
 10
31.49628608835961
 20
123.6702273210545
 30
0.0
 10
35.1839763888763
 20
112.9539673534555
 30
0.0
  0
SPLINE
  5
BE
330
1F
100
AcDbEntity
  8
PREDEFINITO
100
AcDbSpline
210
0.0
220
0.0
230
1.0
 70
    12
 71
     2
 72
     6
 73
     3
 74
     0
 42
0.0000000001
 43
0.0000000001
 40
0.0
 40
0.0
 40
0.0
 40
0.1035325108716431
 40
0.1035325108716431
 40
0.1035325108716431
 10
35.1839763888763
 20
112.9539673534555
 30
0.0
 41
1.0
 10
35.20255153073843
 20
112.9001499161713
 30
0.0
 41
0.8692729250531698
 10
35.25830022207581
 20
112.88859847188
 30
0.0
 41
1.0
  0
POLYLINE
  5
BF
330
1F
100
AcDbEntity
  8
PREDEFINITO
100
AcDb2dPolyline
 66
     1
 10
0.0
 20
0.0
 30
0.0
  0
VERTEX
  5
C1
330
BF
100
AcDbEntity
  8
PREDEFINITO
100
AcDbVertex
100
AcDb2dVertex
 10
35.25830022207581
 20
112.88859847188
 30
0.0
  0
VERTEX
  5
C2
330
BF
100
AcDbEntity
  8
PREDEFINITO
100
AcDbVertex
100
AcDb2dVertex
 10
35.2752384380279
 20
112.8864872886534
 30
0.0
  0
SEQEND
  5
C0
330
BF
100
AcDbEntity
  8
PREDEFINITO
  0
SPLINE
  5
C3
330
1F
100
AcDbEntity
  8
LINEE VISIBILI 2D
100
AcDbSpline
210
0.0
220
0.0
230
1.0
 70
    24
 71
     2
 72
     6
 73
     3
 74
     0
 42
0.0000000001
 43
0.0000000001
 40
0.0
 40
0.0
 40
0.0
 40
30.50000000000006
 40
30.50000000000006
 40
30.50000000000006
 10
18.71351704464531
 20
111.7864872886534
 30
0.0
 10
18.71351704464531
 20
96.5364872886534
 30
0.0
 10
18.71351704464531
 20
81.2864872886534
 30
0.0
  0
SPLINE
  5
C4
330
1F
100
AcDbEntity
  8
LINEE VISIBILI 2D
100
AcDbSpline
210
0.0
220
0.0
230
1.0
 70
    24
 71
     2
 72
     6
 73
     3
 74
     0
 42
0.0000000001
 43
0.0000000001
 40
0.0
 40
0.0
 40
0.0
 40
0.0964285714285893
 40
0.0964285714285893
 40
0.0964285714285893
 10
18.71351704464531
 20
81.2864872886534
 30
0.0
 10
18.71351704464531
 20
81.23827300293914
 30
0.0
 10
18.71351704464531
 20
81.19005871722486
 30
0.0
  0
SPLINE
  5
C5
330
1F
100
AcDbEntity
  8
LINEE VISIBILI 2D
100
AcDbSpline
210
0.0
220
0.0
230
1.0
 70
    24
 71
     2
 72
     6
 73
     3
 74
     0
 42
0.0000000001
 43
0.0000000001
 40
-0.7999999999999972
 40
-0.7999999999999972
 40
-0.7999999999999972
 40
0.0
 40
0.0
 40
0.0
 10
18.71351704464531
 20
81.19005871722486
 30
0.0
 10
18.31351704464532
 20
81.19005871722516
 30
0.0
 10
17.91351704464532
 20
81.19005871722544
 30
0.0
  0
SPLINE
  5
C6
330
1F
100
AcDbEntity
  8
LINEE VISIBILI 2D
100
AcDbSpline
210
0.0
220
0.0
230
1.0
 70
    24
 71
     2
 72
     6
 73
     3
 74
     0
 42
0.0000000001
 43
0.0000000001
 40
-0.7999999999999972
 40
-0.7999999999999972
 40
-0.7999999999999972
 40
0.0
 40
0.0
 40
0.0
 10
17.91351704464532
 20
81.19005871722544
 30
0.0
 10
17.51351704464532
 20
81.19005871722514
 30
0.0
 10
17.11351704464532
 20
81.19005871722484
 30
0.0
  0
SPLINE
  5
C7
330
1F
100
AcDbEntity
  8
LINEE VISIBILI 2D
100
AcDbSpline
210
0.0
220
0.0
230
1.0
 70
    24
 71
     2
 72
     6
 73
     3
 74
     0
 42
0.0000000001
 43
0.0000000001
 40
0.0
 40
0.0
 40
0.0
 40
0.0964285714285751
 40
0.0964285714285751
 40
0.0964285714285751
 10
17.11351704464532
 20
81.19005871722484
 30
0.0
 10
17.11351704464532
 20
81.23827300293911
 30
0.0
 10
17.11351704464532
 20
81.28648728865339
 30
0.0
  0
SPLINE
  5
C8
330
1F
100
AcDbEntity
  8
LINEE VISIBILI 2D
100
AcDbSpline
210
0.0
220
0.0
230
1.0
 70
    24
 71
     2
 72
     6
 73
     3
 74
     0
 42
0.0000000001
 43
0.0000000001
 40
0.0
 40
0.0
 40
0.0
 40
30.50000000000006
 40
30.50000000000006
 40
30.50000000000006
 10
17.11351704464532
 20
81.28648728865339
 30
0.0
 10
17.11351704464532
 20
96.5364872886534
 30
0.0
 10
17.11351704464532
 20
111.7864872886534
 30
0.0
  0
SPLINE
  5
C9
330
1F
100
AcDbEntity
  8
LINEE VISIBILI 2D
100
AcDbSpline
210
0.0
220
0.0
230
1.0
 70
    24
 71
     2
 72
     6
 73
     3
 74
     0
 42
0.0000000001
 43
0.0000000001
 40
0.0
 40
0.0
 40
0.0
 40
30.50000000000001
 40
30.50000000000001
 40
30.50000000000001
 10
77.64218135710956
 20
111.7864872886534
 30
0.0
 10
77.64218135710956
 20
96.5364872886534
 30
0.0
 10
77.64218135710956
 20
81.2864872886534
 30
0.0
  0
SPLINE
  5
CA
330
1F
100
AcDbEntity
  8
LINEE VISIBILI 2D
100
AcDbSpline
210
0.0
220
0.0
230
1.0
 70
    24
 71
     2
 72
     6
 73
     3
 74
     0
 42
0.0000000001
 43
0.0000000001
 40
0.0
 40
0.0
 40
0.0
 40
0.096428571427964
 40
0.096428571427964
 40
0.096428571427964
 10
77.64218135710956
 20
81.2864872886534
 30
0.0
 10
77.64218135710959
 20
81.23827300293942
 30
0.0
 10
77.64218135710962
 20
81.19005871722544
 30
0.0
  0
SPLINE
  5
CB
330
1F
100
AcDbEntity
  8
LINEE VISIBILI 2D
100
AcDbSpline
210
0.0
220
0.0
230
1.0
 70
    24
 71
     2
 72
     6
 73
     3
 74
     0
 42
0.0000000001
 43
0.0000000001
 40
0.0
 40
0.0
 40
0.0
 40
0.7999999999999545
 40
0.7999999999999545
 40
0.7999999999999545
 10
77.64218135710962
 20
81.19005871722544
 30
0.0
 10
78.0421813571096
 20
81.19005871722514
 30
0.0
 10
78.44218135710958
 20
81.19005871722484
 30
0.0
  0
SPLINE
  5
CC
330
1F
100
AcDbEntity
  8
LINEE VISIBILI 2D
100
AcDbSpline
210
0.0
220
0.0
230
1.0
 70
    24
 71
     2
 72
     6
 73
     3
 74
     0
 42
0.0000000001
 43
0.0000000001
 40
0.0
 40
0.0
 40
0.0
 40
0.7999999999999545
 40
0.7999999999999545
 40
0.7999999999999545
 10
78.44218135710958
 20
81.19005871722484
 30
0.0
 10
78.84218135710955
 20
81.19005871722514
 30
0.0
 10
79.24218135710953
 20
81.19005871722544
 30
0.0
  0
SPLINE
  5
CD
330
1F
100
AcDbEntity
  8
LINEE VISIBILI 2D
100
AcDbSpline
210
0.0
220
0.0
230
1.0
 70
    12
 71
     2
 72
     6
 73
     3
 74
     0
 42
0.0000000001
 43
0.0000000001
 40
0.0
 40
0.0
 40
0.0
 40
0.8745733108755253
 40
0.8745733108755253
 40
0.8745733108755253
 10
79.79159404018185
 20
80.5942956671421
 30
0.0
 41
1.0
 10
79.28045044221977
 20
80.67413475498823
 30
0.0
 41
0.7832590085158668
 10
79.24218135710953
 20
81.19005871722544
 30
0.0
 41
1.0
  0
SPLINE
  5
CE
330
1F
100
AcDbEntity
  8
LINEE VISIBILI 2D
100
AcDbSpline
210
0.0
220
0.0
230
1.0
 70
    24
 71
     2
 72
     6
 73
     3
 74
     0
 42
0.0000000001
 43
0.0000000001
 40
-0.0964285714279498
 40
-0.0964285714279498
 40
-0.0964285714279498
 40
0.0
 40
0.0
 40
0.0
 10
79.24218135710953
 20
81.19005871722544
 30
0.0
 10
79.24218135710954
 20
81.23827300293942
 30
0.0
 10
79.24218135710956
 20
81.28648728865339
 30
0.0
  0
SPLINE
  5
CF
330
1F
100
AcDbEntity
  8
LINEE VISIBILI 2D
100
AcDbSpline
210
0.0
220
0.0
230
1.0
 70
    24
 71
     2
 72
     6
 73
     3
 74
     0
 42
0.0000000001
 43
0.0000000001
 40
0.0
 40
0.0
 40
0.0
 40
30.50000000000004
 40
30.50000000000004
 40
30.50000000000004
 10
79.24218135710956
 20
81.28648728865339
 30
0.0
 10
79.24218135710956
 20
96.5364872886534
 30
0.0
 10
79.24218135710956
 20
111.7864872886534
 30
0.0
  0
POLYLINE
  5
D0
330
1F
100
AcDbEntity
  8
PREDEFINITO
100
AcDb2dPolyline
 66
     1
 10
0.0
 20
0.0
 30
0.0
  0
VERTEX
  5
D2
330
D0
100
AcDbEntity
  8
PREDEFINITO
100
AcDbVertex
100
AcDb2dVertex
 10
95.79600828874581
 20
112.8864872886534
 30
0.0
  0
VERTEX
  5
D3
330
D0
100
AcDbEntity
  8
PREDEFINITO
100
AcDbVertex
100
AcDb2dVertex
 10
95.78565087273586
 20
112.8888378706736
 30
0.0
  0
SEQEND
  5
D1
330
D0
100
AcDbEntity
  8
PREDEFINITO
  0
SPLINE
  5
D4
330
1F
100
AcDbEntity
  8
PREDEFINITO
100
AcDbSpline
210
0.0
220
0.0
230
1.0
 70
    12
 71
     2
 72
     6
 73
     3
 74
     0
 42
0.0000000001
 43
0.0000000001
 40
0.0
 40
0.0
 40
0.0
 40
0.1022325140692946
 40
0.1022325140692946
 40
0.1022325140692946
 10
95.78565087273586
 20
112.8888378706736
 30
0.0
 41
1.0
 10
95.73088067860559
 20
112.9009274195671
 30
0.0
 41
0.8721763775951399
 10
95.71264070134058
 20
112.9539673534555
 30
0.0
 41
1.0
  0
SPLINE
  5
D5
330
1F
100
AcDbEntity
  8
PREDEFINITO
100
AcDbSpline
210
0.0
220
0.0
230
1.0
 70
    24
 71
     2
 72
     6
 73
     3
 74
     0
 42
0.0000000001
 43
0.0000000001
 40
0.0
 40
0.0
 40
0.0
 40
22.66443429070353
 40
22.66443429070353
 40
22.66443429070353
 10
95.71264070134058
 20
112.9539673534555
 30
0.0
 10
92.02741102922506
 20
123.6702273210545
 30
0.0
 10
88.34218135710955
 20
134.3864872886534
 30
0.0
  0
SPLINE
  5
D6
330
1F
100
AcDbEntity
  8
PREDEFINITO
100
AcDbSpline
210
0.0
220
0.0
230
1.0
 70
    24
 71
     2
 72
     6
 73
     3
 74
     0
 42
0.0000000001
 43
0.0000000001
 40
0.0
 40
0.0
 40
0.0
 40
9.899999999999977
 40
9.899999999999977
 40
9.899999999999977
 10
88.34218135710955
 20
134.3864872886534
 30
0.0
 10
83.39218135710956
 20
134.3864872886534
 30
0.0
 10
78.44218135710958
 20
134.3864872886534
 30
0.0
  0
SPLINE
  5
D7
330
1F
100
AcDbEntity
  8
PREDEFINITO
100
AcDbSpline
210
0.0
220
0.0
230
1.0
 70
    24
 71
     2
 72
     6
 73
     3
 74
     0
 42
0.0000000001
 43
0.0000000001
 40
0.0
 40
0.0
 40
0.0
 40
9.89015748638613
 40
9.89015748638613
 40
9.89015748638613
 10
78.44218135710958
 20
134.3864872886534
 30
0.0
 10
73.49464198551304
 20
134.3864872886534
 30
0.0
 10
68.54710261391651
 20
134.3864872886534
 30
0.0
  0
SPLINE
  5
D8
330
1F
100
AcDbEntity
  8
PREDEFINITO
100
AcDbSpline
210
0.0
220
0.0
230
1.0
 70
    24
 71
     2
 72
     6
 73
     3
 74
     0
 42
0.0000000001
 43
0.0000000001
 40
0.0
 40
0.0
 40
0.0
 40
22.15545593963448
 40
22.15545593963448
 40
22.15545593963448
 10
68.54710261391651
 20
134.3864872886534
 30
0.0
 10
64.94217202836617
 20
123.9108838606343
 30
0.0
 10
61.33724144281585
 20
113.4352804326152
 30
0.0
  0
SPLINE
  5
D9
330
1F
100
AcDbEntity
  8
PREDEFINITO
100
AcDbSpline
210
0.0
220
0.0
230
1.0
 70
    12
 71
     2
 72
     6
 73
     3
 74
     0
 42
0.0000000001
 43
0.0000000001
 40
-0.505796804800594
 40
-0.505796804800594
 40
-0.505796804800594
 40
0.0
 40
0.0
 40
0.0
 10
61.33724144281585
 20
113.4352804326152
 30
0.0
 41
1.0
 10
61.26414975172492
 20
113.1931426419466
 30
0.0
 41
0.9998182462718794
 10
61.18188015617697
 20
112.9539673534555
 30
0.0
 41
1.0
  0
SPLINE
  5
DA
330
1F
100
AcDbEntity
  8
PREDEFINITO
100
AcDbSpline
210
0.0
220
0.0
230
1.0
 70
    12
 71
     2
 72
     6
 73
     3
 74
     0
 42
0.0000000001
 43
0.0000000001
 40
-0.1020431232278382
 40
-0.1020431232278382
 40
-0.1020431232278382
 40
0.0
 40
0.0
 40
0.0
 10
61.18188015617697
 20
112.9539673534555
 30
0.0
 41
1.0
 10
61.16370849244321
 20
112.901028849639
 30
0.0
 41
0.8724971062259688
 10
61.10907638436633
 20
112.8888622019387
 30
0.0
 41
1.0
  0
POLYLINE
  5
DB
330
1F
100
AcDbEntity
  8
PREDEFINITO
100
AcDb2dPolyline
 66
     1
 10
0.0
 20
0.0
 30
0.0
  0
VERTEX
  5
DD
330
DB
100
AcDbEntity
  8
PREDEFINITO
100
AcDbVertex
100
AcDb2dVertex
 10
61.10907638436633
 20
112.8888622019387
 30
0.0
  0
VERTEX
  5
DE
330
DB
100
AcDbEntity
  8
PREDEFINITO
100
AcDbVertex
100
AcDb2dVertex
 10
61.08986356882406
 20
112.8864872886534
 30
0.0
  0
SEQEND
  5
DC
330
DB
100
AcDbEntity
  8
PREDEFINITO
  0
SPLINE
  5
DF
330
1F
100
AcDbEntity
  8
LINEE VISIBILI 2D
100
AcDbSpline
210
0.0
220
0.0
230
1.0
 70
    24
 71
     2
 72
     6
 73
     3
 74
     0
 42
0.0000000001
 43
0.0000000001
 40
0.0
 40
0.0
 40
0.0
 40
0.2000000000000028
 40
0.2000000000000028
 40
0.2000000000000028
 10
28.12355394944932
 20
78.78648728865342
 30
0.0
 10
28.12355394944932
 20
78.68648728865341
 30
0.0
 10
28.12355394944932
 20
78.58648728865342
 30
0.0
  0
SPLINE
  5
E0
330
1F
100
AcDbEntity
  8
LINEE VISIBILI 2D
100
AcDbSpline
210
0.0
220
0.0
230
1.0
 70
    24
 71
     2
 72
     6
 73
     3
 74
     0
 42
0.0000000001
 43
0.0000000001
 40
0.0
 40
0.0
 40
0.0
 40
1.175000000000026
 40
1.175000000000026
 40
1.175000000000026
 10
28.12355394944932
 20
78.58648728865342
 30
0.0
 10
27.5360539494493
 20
78.58648728865342
 30
0.0
 10
26.94855394944929
 20
78.58648728865342
 30
0.0
  0
SPLINE
  5
E1
330
1F
100
AcDbEntity
  8
LINEE VISIBILI 2D
100
AcDbSpline
210
0.0
220
0.0
230
1.0
 70
    24
 71
     2
 72
     6
 73
     3
 74
     0
 42
0.0000000001
 43
0.0000000001
 40
0.0
 40
0.0
 40
0.0
 40
1.175000000000011
 40
1.175000000000011
 40
1.175000000000011
 10
26.94855394944929
 20
78.58648728865342
 30
0.0
 10
26.36105394944929
 20
78.58648728865342
 30
0.0
 10
25.77355394944928
 20
78.58648728865342
 30
0.0
  0
SPLINE
  5
E2
330
1F
100
AcDbEntity
  8
LINEE VISIBILI 2D
100
AcDbSpline
210
0.0
220
0.0
230
1.0
 70
    24
 71
     2
 72
     6
 73
     3
 74
     0
 42
0.0000000001
 43
0.0000000001
 40
0.0
 40
0.0
 40
0.0
 40
0.2000000000000028
 40
0.2000000000000028
 40
0.2000000000000028
 10
25.77355394944928
 20
78.58648728865342
 30
0.0
 10
25.77355394944928
 20
78.68648728865341
 30
0.0
 10
25.77355394944928
 20
78.78648728865342
 30
0.0
  0
SPLINE
  5
E3
330
1F
100
AcDbEntity
  8
LINEE VISIBILI 2D
100
AcDbSpline
210
0.0
220
0.0
230
1.0
 70
    24
 71
     2
 72
     6
 73
     3
 74
     0
 42
0.0000000001
 43
0.0000000001
 40
0.0
 40
0.0
 40
0.0
 40
0.2199999999999989
 40
0.2199999999999989
 40
0.2199999999999989
 10
82.55284280367152
 20
78.78648728865342
 30
0.0
 10
82.55284280367152
 20
78.67648728865342
 30
0.0
 10
82.55284280367152
 20
78.56648728865342
 30
0.0
  0
SPLINE
  5
E4
330
1F
100
AcDbEntity
  8
LINEE VISIBILI 2D
100
AcDbSpline
210
0.0
220
0.0
230
1.0
 70
    24
 71
     2
 72
     6
 73
     3
 74
     0
 42
0.0000000001
 43
0.0000000001
 40
0.0
 40
0.0
 40
0.0
 40
1.174999999999983
 40
1.174999999999983
 40
1.174999999999983
 10
82.55284280367152
 20
78.56648728865342
 30
0.0
 10
81.96534280367153
 20
78.56648728865342
 30
0.0
 10
81.37784280367154
 20
78.56648728865342
 30
0.0
  0
SPLINE
  5
E5
330
1F
100
AcDbEntity
  8
LINEE VISIBILI 2D
100
AcDbSpline
210
0.0
220
0.0
230
1.0
 70
    24
 71
     2
 72
     6
 73
     3
 74
     0
 42
0.0000000001
 43
0.0000000001
 40
0.0
 40
0.0
 40
0.0
 40
1.175000000000011
 40
1.175000000000011
 40
1.175000000000011
 10
81.37784280367154
 20
78.56648728865342
 30
0.0
 10
80.79034280367154
 20
78.56648728865342
 30
0.0
 10
80.20284280367153
 20
78.56648728865342
 30
0.0
  0
SPLINE
  5
E6
330
1F
100
AcDbEntity
  8
LINEE VISIBILI 2D
100
AcDbSpline
210
0.0
220
0.0
230
1.0
 70
    24
 71
     2
 72
     6
 73
     3
 74
     0
 42
0.0000000001
 43
0.0000000001
 40
0.0
 40
0.0
 40
0.0
 40
0.2199999999999989
 40
0.2199999999999989
 40
0.2199999999999989
 10
80.20284280367153
 20
78.56648728865342
 30
0.0
 10
80.20284280367153
 20
78.67648728865342
 30
0.0
 10
80.20284280367153
 20
78.78648728865342
 30
0.0
  0
SPLINE
  5
E7
330
1F
100
AcDbEntity
  8
LINEE VISIBILI 2D
100
AcDbSpline
210
0.0
220
0.0
230
1.0
 70
    24
 71
     2
 72
     6
 73
     3
 74
     0
 42
0.0000000001
 43
0.0000000001
 40
0.0
 40
0.0
 40
0.0
 40
1.148078887353961
 40
1.148078887353961
 40
1.148078887353961
 10
29.39382667864834
 20
80.48648728865342
 30
0.0
 10
29.39367120902347
 20
79.91165573511874
 30
0.0
 10
29.39351573939859
 20
79.33682418158406
 30
0.0
  0
SPLINE
  5
E8
330
1F
100
AcDbEntity
  8
LINEE VISIBILI 2D
100
AcDbSpline
210
0.0
220
0.0
230
1.0
 70
    12
 71
     2
 72
     8
 73
     5
 74
     0
 42
0.0000000001
 43
0.0000000001
 40
0.0
 40
0.0
 40
0.0
 40
0.8735779881912911
 40
0.8735779881912911
 40
11.47999912802569
 40
11.47999912802569
 40
11.47999912802569
 10
29.39351573939859
 20
79.33682418158406
 30
0.0
 41
1.0
 10
28.95672726197309
 20
79.33758323357428
 30
0.0
 41
0.9999995093611868
 10
28.51993813794422
 20
79.3374769240068
 30
0.0
 41
1.0
 10
23.21672772284359
 20
79.33886841464823
 30
0.0
 41
0.9999999921544905
 10
17.91351708510351
 20
79.33893130471975
 30
0.0
 41
1.0
  0
SPLINE
  5
E9
330
1F
100
AcDbEntity
  8
LINEE VISIBILI 2D
100
AcDbSpline
210
0.0
220
0.0
230
1.0
 70
    12
 71
     2
 72
     6
 73
     3
 74
     0
 42
0.0000000001
 43
0.0000000001
 40
0.0
 40
0.0
 40
0.0
 40
11.48030677905109
 40
11.48030677905109
 40
11.48030677905109
 10
17.91351708510351
 20
79.33893130471975
 30
0.0
 41
1.0
 10
12.1733636073636
 20
79.33997911734419
 30
0.0
 41
0.9999999625296196
 10
6.43321045674091
 20
79.33788416033708
 30
0.0
 41
1.0
  0
SPLINE
  5
EA
330
1F
100
AcDbEntity
  8
LINEE VISIBILI 2D
100
AcDbSpline
210
0.0
220
0.0
230
1.0
 70
    24
 71
     2
 72
     6
 73
     3
 74
     0
 42
0.0000000001
 43
0.0000000001
 40
-1.148952176451191
 40
-1.148952176451191
 40
-1.148952176451191
 40
0.0
 40
0.0
 40
0.0
 10
6.43321045674091
 20
79.33788416033708
 30
0.0
 10
6.433208933692487
 20
79.91236024855962
 30
0.0
 10
6.433207410644066
 20
80.48683633678218
 30
0.0
  0
SPLINE
  5
EB
330
1F
100
AcDbEntity
  8
LINEE VISIBILI 2D
100
AcDbSpline
210
0.0
220
0.0
230
1.0
 70
    12
 71
     2
 72
     6
 73
     3
 74
     0
 42
0.0000000001
 43
0.0000000001
 40
0.0
 40
0.0
 40
0.0
 40
0.1567294031086082
 40
0.1567294031086082
 40
0.1567294031086082
 10
6.433207410644066
 20
80.48683633678218
 30
0.0
 41
1.0
 10
6.433552314105474
 20
80.5864877903546
 30
0.0
 41
0.7083276229677122
 10
6.533204364547217
 20
80.58648728865342
 30
0.0
 41
1.0
  0
SPLINE
  5
EC
330
1F
100
AcDbEntity
  8
LINEE VISIBILI 2D
100
AcDbSpline
210
0.0
220
0.0
230
1.0
 70
    24
 71
     2
 72
     6
 73
     3
 74
     0
 42
0.0000000001
 43
0.0000000001
 40
0.0
 40
0.0
 40
0.0
 40
11.38031268009811
 40
11.38031268009811
 40
11.38031268009811
 10
6.533204364547217
 20
80.58648728865342
 30
0.0
 10
12.22336070459627
 20
80.58648728865342
 30
0.0
 10
17.91351704464533
 20
80.58648728865342
 30
0.0
  0
SPLINE
  5
ED
330
1F
100
AcDbEntity
  8
LINEE VISIBILI 2D
100
AcDbSpline
210
0.0
220
0.0
230
1.0
 70
    24
 71
     2
 72
     6
 73
     3
 74
     0
 42
0.0000000001
 43
0.0000000001
 40
0.0
 40
0.0
 40
0.0
 40
11.38031268009809
 40
11.38031268009809
 40
11.38031268009809
 10
17.91351704464533
 20
80.58648728865342
 30
0.0
 10
23.60367338469437
 20
80.58648728865342
 30
0.0
 10
29.29382972474342
 20
80.58648728865342
 30
0.0
  0
SPLINE
  5
EE
330
1F
100
AcDbEntity
  8
LINEE VISIBILI 2D
100
AcDbSpline
210
0.0
220
0.0
230
1.0
 70
    12
 71
     2
 72
     6
 73
     3
 74
     0
 42
0.0000000001
 43
0.0000000001
 40
-0.1570796326794869
 40
-0.1570796326794869
 40
-0.1570796326794869
 40
0.0
 40
0.0
 40
0.0
 10
29.29382972474342
 20
80.58648728865342
 30
0.0
 41
1.0
 10
29.39382972474344
 20
80.58648728865344
 30
0.0
 41
0.7071067811863089
 10
29.39382667864834
 20
80.48648728865342
 30
0.0
 41
1.0
  0
SPLINE
  5
EF
330
1F
100
AcDbEntity
  8
LINEE VISIBILI 2D
100
AcDbSpline
210
0.0
220
0.0
230
1.0
 70
     8
 71
     3
 72
    17
 73
    13
 74
     0
 42
0.0000000001
 43
0.0000000001
 40
0.0
 40
0.0
 40
0.0
 40
0.0
 40
0.8652247556442214
 40
1.279326828973045
 40
1.664702144779913
 40
2.041459344845406
 40
2.344736069331651
 40
6.06504582502019
 40
6.40057915295714
 40
8.244228771513196
 40
9.087115321372357
 40
10.12376575915406
 40
10.12376575915406
 40
10.12376575915406
 40
10.12376575915406
 10
86.69862352077769
 20
21.38403421491155
 30
0.0
 10
86.80735808663279
 20
21.11807467783393
 30
0.0
 10
86.78454024615615
 20
20.64892108681832
 30
0.0
 10
86.41792120328836
 20
20.21637343064371
 30
0.0
 10
86.05411541447712
 20
20.04297374337861
 30
0.0
 10
85.69660867990936
 20
20.03266125461938
 30
0.0
 10
84.22958957654816
 20
20.03299192541088
 30
0.0
 10
82.7779850328672
 20
20.00432667494478
 30
0.0
 10
80.80923288255094
 20
20.0272771950473
 30
0.0
 10
79.83376589458577
 20
20.41298925160716
 30
0.0
 10
78.91926762088016
 20
21.25989627651339
 30
0.0
 10
78.60874356039342
 20
21.81692072194396
 30
0.0
 10
78.44219865804259
 20
22.11647569778562
 30
0.0
  0
SPLINE
  5
F0
330
1F
100
AcDbEntity
  8
LINEE VISIBILI 2D
100
AcDbSpline
210
0.0
220
0.0
230
1.0
 70
     8
 71
     3
 72
    20
 73
    16
 74
     0
 42
0.0000000001
 43
0.0000000001
 40
0.0
 40
0.0
 40
0.0
 40
0.0
 40
2.033812545039261
 40
3.301857681062193
 40
3.550674530627414
 40
3.694974577241476
 40
4.067137715240419
 40
4.402377043736044
 40
4.907198487308661
 40
5.46349811600638
 40
5.823023625406406
 40
6.46109723172594
 40
7.532099789340689
 40
12.38657461477901
 40
17.25858041992231
 40
17.25858041992231
 40
17.25858041992231
 40
17.25858041992231
 10
78.4421986580426
 20
22.1164756977856
 30
0.0
 10
78.1056573620003
 20
22.70490797026184
 30
0.0
 10
77.55810039277821
 20
23.65988774944723
 30
0.0
 10
76.97572151769563
 20
24.68996521850316
 30
0.0
 10
76.70124983678957
 20
25.17122303248844
 30
0.0
 10
76.57620239807848
 20
25.39240382134962
 30
0.0
 10
76.46496803142284
 20
25.65887331624286
 30
0.0
 10
76.4653605398445
 20
26.07026413120416
 30
0.0
 10
76.67278069468908
 20
26.50461096854903
 30
0.0
 10
77.08678037875046
 20
26.77538915046389
 30
0.0
 10
77.6051427453876
 20
26.83417085571738
 30
0.0
 10
78.29170743547296
 20
26.88234544622249
 30
0.0
 10
80.4846870736042
 20
26.82666139455005
 30
0.0
 10
83.97906126784521
 20
25.5185308655841
 30
0.0
 10
86.07269244659417
 20
22.88208945344368
 30
0.0
 10
86.69862352077769
 20
21.38403421491155
 30
0.0
  0
SPLINE
  5
F1
330
1F
100
AcDbEntity
  8
LINEE VISIBILI 2D
100
AcDbSpline
210
0.0
220
0.0
230
1.0
 70
     8
 71
     3
 72
    16
 73
    12
 74
     0
 42
0.0000000001
 43
0.0000000001
 40
0.0
 40
0.0
 40
0.0
 40
0.0
 40
0.8561363568677098
 40
1.69341355590743
 40
2.097670901907668
 40
6.000209385061885
 40
6.256088698187374
 40
7.39162489703991
 40
9.261007233397457
 40
9.776545574174905
 40
13.85795016025759
 40
13.85795016025759
 40
13.85795016025759
 40
13.85795016025759
 10
77.3195422603957
 20
9.027984783946138
 30
0.0
 10
77.04367673769737
 20
9.067179194557319
 30
0.0
 10
76.50264326062755
 20
9.398191486233042
 30
0.0
 10
76.41791021733391
 20
10.1617482149249
 30
0.0
 10
77.27366391571798
 20
11.65924880271287
 30
0.0
 10
78.01897592287526
 20
12.97425130243716
 30
0.0
 10
78.89956434369226
 20
14.51113374834324
 30
0.0
 10
79.64229433028068
 20
15.31291110016733
 30
0.0
 10
80.76737381941437
 20
15.8038478839657
 30
0.0
 10
82.9260788781896
 20
15.82517050240151
 30
0.0
 10
84.4557986521976
 20
15.79278372858611
 30
0.0
 10
85.81715628503947
 20
15.78859300591715
 30
0.0
  0
SPLINE
  5
F2
330
1F
100
AcDbEntity
  8
LINEE VISIBILI 2D
100
AcDbSpline
210
0.0
220
0.0
230
1.0
 70
     8
 71
     3
 72
    20
 73
    16
 74
     0
 42
0.0000000001
 43
0.0000000001
 40
0.0
 40
0.0
 40
0.0
 40
0.0
 40
0.4563959792527145
 40
0.6987699496457844
 40
0.9408240487323997
 40
1.154669807372696
 40
1.418276543760551
 40
1.64553832646313
 40
1.881133677552602
 40
2.563769096598516
 40
4.124045249806538
 40
5.156360158830223
 40
6.377898386341525
 40
10.04301422043797
 40
13.52913861271678
 40
13.52913861271678
 40
13.52913861271678
 40
13.52913861271678
 10
85.81715628503949
 20
15.78859300591715
 30
0.0
 10
85.969469310239
 20
15.7891495744731
 30
0.0
 10
86.20305409879231
 20
15.73618462728671
 30
0.0
 10
86.45992954027489
 20
15.54846354822423
 30
0.0
 10
86.6126635691207
 20
15.37373162999783
 30
0.0
 10
86.72420093193809
 20
15.15572580659921
 30
0.0
 10
86.7701011304393
 20
14.92780154510889
 30
0.0
 10
86.78088347718443
 20
14.67960963522134
 30
0.0
 10
86.65553624288412
 20
14.31799501367382
 30
0.0
 10
86.29820069610228
 20
13.57251144300515
 30
0.0
 10
85.72637924847297
 20
12.63817376981186
 30
0.0
 10
84.89989078053777
 20
11.66846694684689
 30
0.0
 10
83.43806664140772
 20
10.33684031474408
 30
0.0
 10
80.89752394052486
 20
9.047380329945293
 30
0.0
 10
78.47174732371732
 20
8.882197129072063
 30
0.0
 10
77.3195422603957
 20
9.027984783946138
 30
0.0
  0
SPLINE
  5
F3
330
1F
100
AcDbEntity
  8
LINEE VISIBILI 2D
100
AcDbSpline
210
0.0
220
0.0
230
1.0
 70
     8
 71
     3
 72
    11
 73
     7
 74
     0
 42
0.0000000001
 43
0.0000000001
 40
0.0
 40
0.0
 40
0.0
 40
0.0
 40
4.103964407517232
 40
4.453049064195791
 40
5.22848323762966
 40
5.98175366900647
 40
5.98175366900647
 40
5.98175366900647
 40
5.98175366900647
 10
72.91448164589337
 20
12.58907840719629
 30
0.0
 10
73.61101801400969
 20
13.76662145472888
 30
0.0
 10
74.35896725234797
 20
15.04834828054002
 30
0.0
 10
75.23614981418797
 20
16.55479537080256
 30
0.0
 10
75.4353668229184
 20
17.15520318432537
 30
0.0
 10
75.49615420725621
 20
17.66119147694888
 30
0.0
 10
75.49400136719683
 20
17.91351704358788
 30
0.0
  0
SPLINE
  5
F4
330
1F
100
AcDbEntity
  8
LINEE VISIBILI 2D
100
AcDbSpline
210
0.0
220
0.0
230
1.0
 70
     8
 71
     3
 72
    20
 73
    16
 74
     0
 42
0.0000000001
 43
0.0000000001
 40
0.0
 40
0.0
 40
0.0
 40
0.0
 40
0.7328726766477964
 40
1.142456410853015
 40
1.50053356488115
 40
1.906185112631501
 40
2.437562336703987
 40
3.182125020649858
 40
5.205056047420861
 40
5.763746958892849
 40
5.993715313662388
 40
6.105080218322619
 40
6.532988579612264
 40
6.975620734808291
 40
7.878348094173308
 40
7.878348094173308
 40
7.878348094173308
 40
7.878348094173308
 10
75.49400136719683
 20
17.91351704358788
 30
0.0
 10
75.49441162150016
 20
18.15777153899018
 30
0.0
 10
75.45694290075251
 20
18.53906580156254
 30
0.0
 10
75.31871858105048
 20
19.02095929012481
 30
0.0
 10
75.16934047557184
 20
19.3829843107665
 30
0.0
 10
74.9569983902021
 20
19.75949572082678
 30
0.0
 10
74.67135541068899
 20
20.24153436442293
 30
0.0
 10
74.12098931990252
 20
21.19361763166429
 30
0.0
 10
73.55389244466927
 20
22.14639226118638
 30
0.0
 10
73.08434233749553
 20
22.95738207556705
 30
0.0
 10
72.9319989063511
 20
23.21611706579759
 30
0.0
 10
72.7844788153472
 20
23.42537909322385
 30
0.0
 10
72.52905271998962
 20
23.64383359479202
 30
0.0
 10
71.93727177426521
 20
23.78474985223404
 30
0.0
 10
71.49119498756535
 20
23.56758350865865
 30
0.0
 10
71.30843019295448
 20
23.32853213507831
 30
0.0
  0
SPLINE
  5
F5
330
1F
100
AcDbEntity
  8
LINEE VISIBILI 2D
100
AcDbSpline
210
0.0
220
0.0
230
1.0
 70
    12
 71
     2
 72
     6
 73
     3
 74
     0
 42
0.0000000001
 43
0.0000000001
 40
-5.815058757798564
 40
-5.815058757798564
 40
-5.815058757798564
 40
0.0
 40
0.0
 40
0.0
 10
71.3084301929544
 20
23.32853213507822
 30
0.0
 41
1.0
 10
69.48602531542004
 20
20.92768666579288
 30
0.0
 41
0.9477657135742386
 10
69.48602531542008
 20
17.9135170446453
 30
0.0
 41
1.0
  0
SPLINE
  5
F6
330
1F
100
AcDbEntity
  8
LINEE VISIBILI 2D
100
AcDbSpline
210
0.0
220
0.0
230
1.0
 70
     8
 71
     3
 72
    13
 73
     9
 74
     0
 42
0.0000000001
 43
0.0000000001
 40
-7.711382060841724
 40
-7.711382060841724
 40
-7.711382060841724
 40
-7.711382060841724
 40
-2.58814857181711
 40
-1.990222845837749
 40
-1.750704610471243
 40
-1.215734670484719
 40
-0.6088854092452705
 40
0.0
 40
0.0
 40
0.0
 40
0.0
 10
69.48602531542008
 20
17.9135170446453
 30
0.0
 10
69.4813615928113
 20
16.20419126160732
 30
0.0
 10
70.04631901624148
 20
14.30246981727153
 30
0.0
 10
71.17830422365847
 20
12.66749921706298
 30
0.0
 10
71.45785232006126
 20
12.30471033586728
 30
0.0
 10
71.88442011990354
 20
12.08010219161564
 30
0.0
 10
72.49036674379307
 20
12.12915521348292
 30
0.0
 10
72.81276252659815
 20
12.41545959841401
 30
0.0
 10
72.91448164589337
 20
12.58907840719629
 30
0.0
  0
SPLINE
  5
F7
330
1F
100
AcDbEntity
  8
LINEE VISIBILI 2D
100
AcDbSpline
210
0.0
220
0.0
230
1.0
 70
    12
 71
     2
 72
     8
 73
     5
 74
     0
 42
0.0000000001
 43
0.0000000001
 40
0.0
 40
0.0
 40
0.0
 40
14.94763750982095
 40
14.94763750982095
 40
29.8952750196422
 40
29.8952750196422
 40
29.8952750196422
 10
68.92623706910729
 20
17.9135170446453
 30
0.0
 41
1.0
 10
68.92623706910724
 20
8.397555455709954
 30
0.0
 41
0.7071067811865456
 10
78.4421986580426
 20
8.397555455709966
 30
0.0
 41
1.0
 10
87.95816024697814
 20
8.397555455710117
 30
0.0
 41
0.7071067811865464
 10
87.95816024697795
 20
17.91351704464566
 30
0.0
 41
1.0
  0
SPLINE
  5
F8
330
1F
100
AcDbEntity
  8
LINEE VISIBILI 2D
100
AcDbSpline
210
0.0
220
0.0
230
1.0
 70
    12
 71
     2
 72
     8
 73
     5
 74
     0
 42
0.0000000001
 43
0.0000000001
 40
0.0
 40
0.0
 40
0.0
 40
14.9476375098207
 40
14.9476375098207
 40
29.89527501964163
 40
29.89527501964163
 40
29.89527501964163
 10
87.95816024697794
 20
17.91351704464566
 30
0.0
 41
1.0
 10
87.95816024697778
 20
27.42947863358085
 30
0.0
 41
0.7071067811865456
 10
78.4421986580426
 20
27.42947863358065
 30
0.0
 41
1.0
 10
68.9262370691073
 20
27.42947863358061
 30
0.0
 41
0.7071067811865483
 10
68.92623706910729
 20
17.9135170446453
 30
0.0
 41
1.0
  0
SPLINE
  5
F9
330
1F
100
AcDbEntity
  8
LINEE VISIBILI 2D
100
AcDbSpline
210
0.0
220
0.0
230
1.0
 70
    12
 71
     2
 72
     6
 73
     3
 74
     0
 42
0.0000000001
 43
0.0000000001
 40
0.0
 40
0.0
 40
0.0
 40
15.55088363526947
 40
15.55088363526947
 40
15.55088363526947
 10
78.4421986580426
 20
27.81351704464529
 30
0.0
 41
1.0
 10
88.34219865804262
 20
27.81351704464533
 30
0.0
 41
0.7071067811865442
 10
88.34219865804258
 20
17.9135170446453
 30
0.0
 41
1.0
  0
SPLINE
  5
FA
330
1F
100
AcDbEntity
  8
LINEE VISIBILI 2D
100
AcDbSpline
210
0.0
220
0.0
230
1.0
 70
    12
 71
     2
 72
     6
 73
     3
 74
     0
 42
0.0000000001
 43
0.0000000001
 40
0.0
 40
0.0
 40
0.0
 40
15.55088363526947
 40
15.55088363526947
 40
15.55088363526947
 10
88.34219865804258
 20
17.9135170446453
 30
0.0
 41
1.0
 10
88.34219865804265
 20
8.013517044645278
 30
0.0
 41
0.7071067811865441
 10
78.4421986580426
 20
8.013517044645313
 30
0.0
 41
1.0
  0
SPLINE
  5
FB
330
1F
100
AcDbEntity
  8
LINEE VISIBILI 2D
100
AcDbSpline
210
0.0
220
0.0
230
1.0
 70
    12
 71
     2
 72
     6
 73
     3
 74
     0
 42
0.0000000001
 43
0.0000000001
 40
0.0
 40
0.0
 40
0.0
 40
15.55088363526945
 40
15.55088363526945
 40
15.55088363526945
 10
78.4421986580426
 20
8.013517044645313
 30
0.0
 41
1.0
 10
68.54219865804262
 20
8.013517044645312
 30
0.0
 41
0.7071067811865474
 10
68.54219865804262
 20
17.9135170446453
 30
0.0
 41
1.0
  0
SPLINE
  5
FC
330
1F
100
AcDbEntity
  8
LINEE VISIBILI 2D
100
AcDbSpline
210
0.0
220
0.0
230
1.0
 70
    12
 71
     2
 72
     6
 73
     3
 74
     0
 42
0.0000000001
 43
0.0000000001
 40
0.0
 40
0.0
 40
0.0
 40
15.55088363526945
 40
15.55088363526945
 40
15.55088363526945
 10
68.54219865804262
 20
17.9135170446453
 30
0.0
 41
1.0
 10
68.54219865804258
 20
27.81351704464531
 30
0.0
 41
0.7071067811865447
 10
78.4421986580426
 20
27.81351704464529
 30
0.0
 41
1.0
  0
SPLINE
  5
FD
330
1F
100
AcDbEntity
  8
PREDEFINITO
100
AcDbSpline
210
0.0
220
0.0
230
1.0
 70
     8
 71
     2
 72
     6
 73
     3
 74
     0
 42
0.0000000001
 43
0.0000000001
 40
-1.0
 40
-1.0
 40
-1.0
 40
0.0
 40
0.0
 40
0.0
 10
61.18189745711
 20
18.5057740951058
 30
0.0
 10
61.15654391833677
 20
18.51122318994472
 30
0.0
 10
61.08746444172224
 20
18.51122318994472
 30
0.0
  0
SPLINE
  5
FE
330
1F
100
AcDbEntity
  8
PREDEFINITO
100
AcDbSpline
210
0.0
220
0.0
230
1.0
 70
    24
 71
     2
 72
     6
 73
     3
 74
     0
 42
0.0000000001
 43
0.0000000001
 40
0.0
 40
0.0
 40
0.0
 40
0.1004234977767707
 40
0.1004234977767707
 40
0.1004234977767707
 10
61.08746444172224
 20
18.51122318994472
 30
0.0
 10
61.03725273365809
 20
18.51128721893155
 30
0.0
 10
60.98704102559395
 20
18.51135124791838
 30
0.0
  0
POLYLINE
  5
FF
330
1F
100
AcDbEntity
  8
PREDEFINITO
100
AcDb2dPolyline
 66
     1
 10
0.0
 20
0.0
 30
0.0
  0
VERTEX
  5
101
330
FF
100
AcDbEntity
  8
PREDEFINITO
100
AcDbVertex
100
AcDb2dVertex
 10
60.98704102559395
 20
18.51135124791838
 30
0.0
  0
VERTEX
  5
102
330
FF
100
AcDbEntity
  8
PREDEFINITO
100
AcDbVertex
100
AcDb2dVertex
 10
60.92888265512192
 20
18.5126290597545
 30
0.0
  0
SEQEND
  5
100
330
FF
100
AcDbEntity
  8
PREDEFINITO
  0
SPLINE
  5
103
330
1F
100
AcDbEntity
  8
PREDEFINITO
100
AcDbSpline
210
0.0
220
0.0
230
1.0
 70
    24
 71
     2
 72
     6
 73
     3
 74
     0
 42
0.0000000001
 43
0.0000000001
 40
-0.2290942202054751
 40
-0.2290942202054751
 40
-0.2290942202054751
 40
0.0
 40
0.0
 40
0.0
 10
60.92888265512192
 20
18.5126290597545
 30
0.0
 10
60.81433554501918
 20
18.5126290597545
 30
0.0
 10
60.69978843491644
 20
18.5126290597545
 30
0.0
  0
POLYLINE
  5
104
330
1F
100
AcDbEntity
  8
PREDEFINITO
100
AcDb2dPolyline
 66
     1
 10
0.0
 20
0.0
 30
0.0
  0
VERTEX
  5
106
330
104
100
AcDbEntity
  8
PREDEFINITO
100
AcDbVertex
100
AcDb2dVertex
 10
60.69978843491644
 20
18.5126290597545
 30
0.0
  0
VERTEX
  5
107
330
104
100
AcDbEntity
  8
PREDEFINITO
100
AcDbVertex
100
AcDb2dVertex
 10
60.66434721362626
 20
18.51262905975452
 30
0.0
  0
SEQEND
  5
105
330
104
100
AcDbEntity
  8
PREDEFINITO
  0
SPLINE
  5
108
330
1F
100
AcDbEntity
  8
PREDEFINITO
100
AcDbSpline
210
0.0
220
0.0
230
1.0
 70
    12
 71
     2
 72
     8
 73
     5
 74
     0
 42
0.0000000001
 43
0.0000000001
 40
-25.8766529498082
 40
-25.8766529498082
 40
-25.8766529498082
 40
-17.2511019665388
 40
-17.2511019665388
 40
-8.62555098326941
 40
-8.62555098326941
 40
-8.62555098326941
 10
60.66434721362626
 20
18.51262905975452
 30
0.0
 41
1.0
 10
60.85841003077191
 20
18.51262905975451
 30
0.0
 41
0.707106781186548
 10
60.85841003077191
 20
17.9135170446453
 30
0.0
 41
1.0
 10
60.85841003077191
 20
17.31440502953609
 30
0.0
 41
0.707106781186548
 10
60.66434721362631
 20
17.31440502953609
 30
0.0
 41
1.0
  0
SPLINE
  5
109
330
1F
100
AcDbEntity
  8
PREDEFINITO
100
AcDbSpline
210
0.0
220
0.0
230
1.0
 70
    24
 71
     2
 72
     6
 73
     3
 74
     0
 42
0.0000000001
 43
0.0000000001
 40
0.0
 40
0.0
 40
0.0
 40
0.2654409459723013
 40
0.2654409459723013
 40
0.2654409459723013
 10
60.66434721362631
 20
17.31440502953609
 30
0.0
 10
60.79706792092684
 20
17.31440502953609
 30
0.0
 10
60.92978862822736
 20
17.31440502953609
 30
0.0
  0
SPLINE
  5
10A
330
1F
100
AcDbEntity
  8
PREDEFINITO
100
AcDbSpline
210
0.0
220
0.0
230
1.0
 70
    12
 71
     2
 72
     6
 73
     3
 74
     0
 42
0.0000000001
 43
0.0000000001
 40
-0.0572348148739134
 40
-0.0572348148739134
 40
-0.0572348148739134
 40
0.0
 40
0.0
 40
0.0
 10
60.92978862822736
 20
17.31440502953609
 30
0.0
 41
1.0
 10
60.95841147579381
 20
17.314389419486
 30
0.0
 41
0.9997392581789117
 10
60.98704102550854
 20
17.3156828438744
 30
0.0
 41
1.0
  0
SPLINE
  5
10B
330
1F
100
AcDbEntity
  8
PREDEFINITO
100
AcDbSpline
210
0.0
220
0.0
230
1.0
 70
    24
 71
     2
 72
     6
 73
     3
 74
     0
 42
0.0000000001
 43
0.0000000001
 40
0.0
 40
0.0
 40
0.0
 40
0.1004224824041083
 40
0.1004224824041083
 40
0.1004224824041083
 10
60.98704102550854
 20
17.3156828438744
 30
0.0
 10
61.03725222588837
 20
17.31574687096271
 30
0.0
 10
61.08746342626819
 20
17.31581089805102
 30
0.0
  0
SPLINE
  5
10C
330
1F
100
AcDbEntity
  8
PREDEFINITO
100
AcDbSpline
210
0.0
220
0.0
230
1.0
 70
     8
 71
     2
 72
     6
 73
     3
 74
     0
 42
0.0000000001
 43
0.0000000001
 40
0.0
 40
0.0
 40
0.0
 40
1.0
 40
1.0
 40
1.0
 10
61.08746342626819
 20
17.31581089805102
 30
0.0
 10
61.14407260852862
 20
17.31581089805102
 30
0.0
 10
61.18189745711
 20
17.32125999418481
 30
0.0
  0
SPLINE
  5
10D
330
1F
100
AcDbEntity
  8
PREDEFINITO
100
AcDbSpline
210
0.0
220
0.0
230
1.0
 70
    12
 71
     3
 72
     8
 73
     4
 74
     0
 42
0.0000000001
 43
0.0000000001
 40
0.0
 40
0.0
 40
0.0
 40
0.0
 40
0.849540541512326
 40
0.849540541512326
 40
0.849540541512326
 40
0.849540541512326
 10
61.18189745711
 20
17.32125999418481
 30
0.0
 41
1.0
 10
61.29040263868981
 20
17.37294926871999
 30
0.0
 41
1.0
 10
61.33725874374888
 20
17.665731076184
 30
0.0
 41
1.0
 10
61.33725874374889
 20
17.9135170446453
 30
0.0
 41
1.0
  0
SPLINE
  5
10E
330
1F
100
AcDbEntity
  8
PREDEFINITO
100
AcDbSpline
210
0.0
220
0.0
230
1.0
 70
    12
 71
     3
 72
     8
 73
     4
 74
     0
 42
0.0000000001
 43
0.0000000001
 40
-0.84954054151231
 40
-0.84954054151231
 40
-0.84954054151231
 40
-0.84954054151231
 40
0.0
 40
0.0
 40
0.0
 40
0.0
 10
61.33725874374889
 20
17.9135170446453
 30
0.0
 41
1.0
 10
61.33725874374888
 20
18.16130245750729
 30
0.0
 41
1.0
 10
61.29040239539352
 20
18.45408493647112
 30
0.0
 41
1.0
 10
61.18189745711
 20
18.5057740951058
 30
0.0
 41
1.0
  0
SPLINE
  5
10F
330
1F
100
AcDbEntity
  8
LINEE VISIBILI 2D
100
AcDbSpline
210
0.0
220
0.0
230
1.0
 70
    12
 71
     2
 72
     8
 73
     5
 74
     0
 42
0.0000000001
 43
0.0000000001
 40
0.0
 40
0.0
 40
0.0
 40
15.07964473723099
 40
15.07964473723099
 40
30.15928947446197
 40
30.15928947446197
 40
30.15928947446197
 10
88.0421986580426
 20
17.9135170446453
 30
0.0
 41
1.0
 10
88.04219865804257
 20
8.313517044645312
 30
0.0
 41
0.7071067811865479
 10
78.4421986580426
 20
8.313517044645312
 30
0.0
 41
1.0
 10
68.8421986580426
 20
8.313517044645323
 30
0.0
 41
0.7071067811865489
 10
68.8421986580426
 20
17.9135170446453
 30
0.0
 41
1.0
  0
SPLINE
  5
110
330
1F
100
AcDbEntity
  8
LINEE VISIBILI 2D
100
AcDbSpline
210
0.0
220
0.0
230
1.0
 70
    12
 71
     2
 72
     8
 73
     5
 74
     0
 42
0.0000000001
 43
0.0000000001
 40
0.0
 40
0.0
 40
0.0
 40
15.07964473723098
 40
15.07964473723098
 40
30.15928947446198
 40
30.15928947446198
 40
30.15928947446198
 10
68.8421986580426
 20
17.9135170446453
 30
0.0
 41
1.0
 10
68.84219865804263
 20
27.51351704464526
 30
0.0
 41
0.7071067811865498
 10
78.4421986580426
 20
27.51351704464529
 30
0.0
 41
1.0
 10
88.04219865804258
 20
27.51351704464529
 30
0.0
 41
0.7071067811865472
 10
88.0421986580426
 20
17.9135170446453
 30
0.0
 41
1.0
  0
ENDSEC
  0
SECTION
  2
OBJECTS
  0
DICTIONARY
  5
C
330
0
100
AcDbDictionary
281
     1
  3
ACAD_GROUP
350
D
  3
ACAD_LAYOUT
350
1A
  3
ACAD_MLEADERSTYLE
350
112
  3
ACAD_MLINESTYLE
350
17
  3
ACAD_PLOTSETTINGS
350
19
  3
ACAD_PLOTSTYLENAME
350
E
  3
ACAD_SCALELIST
350
3B
  3
ACAD_TABLESTYLE
350
111
  3
ACAD_VISUALSTYLE
350
2A
  0
DICTIONARY
  5
D
102
{ACAD_REACTORS
330
C
102
}
330
C
100
AcDbDictionary
281
     1
  0
DICTIONARY
  5
1A
102
{ACAD_REACTORS
330
C
102
}
330
C
100
AcDbDictionary
281
     1
  3
Layout1
350
1E
  3
Layout2
350
26
  3
Model
350
22
  0
DICTIONARY
  5
112
102
{ACAD_REACTORS
330
C
102
}
330
C
100
AcDbDictionary
281
     1
  0
DICTIONARY
  5
17
102
{ACAD_REACTORS
330
C
102
}
330
C
100
AcDbDictionary
281
     1
  3
Standard
350
18
  0
DICTIONARY
  5
19
102
{ACAD_REACTORS
330
C
102
}
330
C
100
AcDbDictionary
281
     1
  0
ACDBDICTIONARYWDFLT
  5
E
102
{ACAD_REACTORS
330
C
102
}
330
C
100
AcDbDictionary
281
     1
  3
Normal
350
F
100
AcDbDictionaryWithDefault
340
F
  0
DICTIONARY
  5
3B
102
{ACAD_REACTORS
330
C
102
}
330
C
100
AcDbDictionary
281
     1
  3
A0
350
3C
  3
A1
350
3D
  3
A2
350
3E
  3
A3
350
3F
  3
A4
350
40
  3
A5
350
41
  3
A6
350
42
  3
A7
350
43
  3
A8
350
44
  3
A9
350
45
  3
B0
350
46
  3
B1
350
47
  3
B2
350
48
  3
B3
350
49
  3
B4
350
4A
  3
B5
350
4B
  3
B6
350
4C
  3
B7
350
4D
  3
B8
350
4E
  3
B9
350
4F
  3
C0
350
50
  3
C1
350
51
  3
C2
350
52
  3
C3
350
53
  3
C4
350
54
  3
C5
350
55
  3
C6
350
56
  3
C7
350
57
  3
C8
350
58
  3
C9
350
59
  3
D0
350
5A
  3
D1
350
5B
  3
D2
350
5C
  0
DICTIONARY
  5
111
102
{ACAD_REACTORS
330
C
102
}
330
C
100
AcDbDictionary
281
     1
  0
DICTIONARY
  5
2A
102
{ACAD_REACTORS
330
C
102
}
330
C
100
AcDbDictionary
281
     1
  3
2dWireframe
350
2F
  3
3D Hidden
350
31
  3
3dWireframe
350
30
  3
Basic
350
32
  3
Brighten
350
36
  3
ColorChange
350
3A
  3
Conceptual
350
34
  3
Dim
350
35
  3
Facepattern
350
39
  3
Flat
350
2B
  3
FlatWithEdges
350
2C
  3
Gouraud
350
2D
  3
GouraudWithEdges
350
2E
  3
Linepattern
350
38
  3
Realistic
350
33
  3
Thicken
350
37
  0
LAYOUT
  5
1E
102
{ACAD_REACTORS
330
1A
102
}
330
1A
100
AcDbPlotSettings
  1

  2
none_device
  4

  6

 40
0.0
 41
0.0
 42
0.0
 43
0.0
 44
0.0
 45
0.0
 46
0.0
 47
0.0
 48
0.0
 49
0.0
140
0.0
141
0.0
142
1.0
143
1.0
 70
   688
 72
     0
 73
     0
 74
     5
  7

 75
    16
 76
     0
 77
     2
 78
   300
147
1.0
148
0.0
149
0.0
100
AcDbLayout
  1
Layout1
 70
     1
 71
     1
 10
0.0
 20
0.0
 11
12.0
 21
9.0
 12
0.0
 22
0.0
 32
0.0
 14
1.000000000000000E+20
 24
1.000000000000000E+20
 34
1.000000000000000E+20
 15
-1.000000000000000E+20
 25
-1.000000000000000E+20
 35
-1.000000000000000E+20
146
0.0
 13
0.0
 23
0.0
 33
0.0
 16
1.0
 26
0.0
 36
0.0
 17
0.0
 27
1.0
 37
0.0
 76
     0
330
1B
  0
LAYOUT
  5
26
102
{ACAD_REACTORS
330
1A
102
}
330
1A
100
AcDbPlotSettings
  1

  2
none_device
  4

  6

 40
0.0
 41
0.0
 42
0.0
 43
0.0
 44
0.0
 45
0.0
 46
0.0
 47
0.0
 48
0.0
 49
0.0
140
0.0
141
0.0
142
1.0
143
1.0
 70
   688
 72
     0
 73
     0
 74
     5
  7

 75
    16
 76
     0
 77
     2
 78
   300
147
1.0
148
0.0
149
0.0
100
AcDbLayout
  1
Layout2
 70
     1
 71
     2
 10
0.0
 20
0.0
 11
0.0
 21
0.0
 12
0.0
 22
0.0
 32
0.0
 14
0.0
 24
0.0
 34
0.0
 15
0.0
 25
0.0
 35
0.0
146
0.0
 13
0.0
 23
0.0
 33
0.0
 16
1.0
 26
0.0
 36
0.0
 17
0.0
 27
1.0
 37
0.0
 76
     0
330
23
  0
LAYOUT
  5
22
102
{ACAD_REACTORS
330
1A
102
}
330
1A
100
AcDbPlotSettings
  1

  2
none_device
  4

  6

 40
0.0
 41
0.0
 42
0.0
 43
0.0
 44
0.0
 45
0.0
 46
0.0
 47
0.0
 48
0.0
 49
0.0
140
0.0
141
0.0
142
1.0
143
1.0
 70
  1712
 72
     0
 73
     0
 74
     0
  7

 75
     0
 76
     0
 77
     2
 78
   300
147
1.0
148
0.0
149
0.0
100
AcDbLayout
  1
Model
 70
     1
 71
     0
 10
0.0
 20
0.0
 11
12.0
 21
9.0
 12
0.0
 22
0.0
 32
0.0
 14
0.0000492986171752
 24
0.0025548134854958
 34
0.0
 15
96.35566640407073
 25
134.3864872886534
 35
0.0
146
0.0
 13
0.0
 23
0.0
 33
0.0
 16
1.0
 26
0.0
 36
0.0
 17
0.0
 27
1.0
 37
0.0
 76
     0
330
1F
331
29
  0
MLINESTYLE
  5
18
102
{ACAD_REACTORS
330
17
102
}
330
17
100
AcDbMlineStyle
  2
Standard
 70
     0
  3

 62
   256
 51
90.0
 52
90.0
 71
     2
 49
0.5
 62
   256
  6
BYLAYER
 49
-0.5
 62
   256
  6
BYLAYER
  0
ACDBPLACEHOLDER
  5
F
102
{ACAD_REACTORS
330
E
102
}
330
E
  0
SCALE
  5
3C
102
{ACAD_REACTORS
330
3B
102
}
330
3B
100
AcDbScale
 70
     0
300
1:1
140
1.0
141
1.0
290
     1
  0
SCALE
  5
3D
102
{ACAD_REACTORS
330
3B
102
}
330
3B
100
AcDbScale
 70
     0
300
1:2
140
1.0
141
2.0
290
     0
  0
SCALE
  5
3E
102
{ACAD_REACTORS
330
3B
102
}
330
3B
100
AcDbScale
 70
     0
300
1:4
140
1.0
141
4.0
290
     0
  0
SCALE
  5
3F
102
{ACAD_REACTORS
330
3B
102
}
330
3B
100
AcDbScale
 70
     0
300
1:5
140
1.0
141
5.0
290
     0
  0
SCALE
  5
40
102
{ACAD_REACTORS
330
3B
102
}
330
3B
100
AcDbScale
 70
     0
300
1:8
140
1.0
141
8.0
290
     0
  0
SCALE
  5
41
102
{ACAD_REACTORS
330
3B
102
}
330
3B
100
AcDbScale
 70
     0
300
1:10
140
1.0
141
10.0
290
     0
  0
SCALE
  5
42
102
{ACAD_REACTORS
330
3B
102
}
330
3B
100
AcDbScale
 70
     0
300
1:16
140
1.0
141
16.0
290
     0
  0
SCALE
  5
43
102
{ACAD_REACTORS
330
3B
102
}
330
3B
100
AcDbScale
 70
     0
300
1:20
140
1.0
141
20.0
290
     0
  0
SCALE
  5
44
102
{ACAD_REACTORS
330
3B
102
}
330
3B
100
AcDbScale
 70
     0
300
1:30
140
1.0
141
30.0
290
     0
  0
SCALE
  5
45
102
{ACAD_REACTORS
330
3B
102
}
330
3B
100
AcDbScale
 70
     0
300
1:40
140
1.0
141
40.0
290
     0
  0
SCALE
  5
46
102
{ACAD_REACTORS
330
3B
102
}
330
3B
100
AcDbScale
 70
     0
300
1:50
140
1.0
141
50.0
290
     0
  0
SCALE
  5
47
102
{ACAD_REACTORS
330
3B
102
}
330
3B
100
AcDbScale
 70
     0
300
1:100
140
1.0
141
100.0
290
     0
  0
SCALE
  5
48
102
{ACAD_REACTORS
330
3B
102
}
330
3B
100
AcDbScale
 70
     0
300
2:1
140
2.0
141
1.0
290
     0
  0
SCALE
  5
49
102
{ACAD_REACTORS
330
3B
102
}
330
3B
100
AcDbScale
 70
     0
300
4:1
140
4.0
141
1.0
290
     0
  0
SCALE
  5
4A
102
{ACAD_REACTORS
330
3B
102
}
330
3B
100
AcDbScale
 70
     0
300
8:1
140
8.0
141
1.0
290
     0
  0
SCALE
  5
4B
102
{ACAD_REACTORS
330
3B
102
}
330
3B
100
AcDbScale
 70
     0
300
10:1
140
10.0
141
1.0
290
     0
  0
SCALE
  5
4C
102
{ACAD_REACTORS
330
3B
102
}
330
3B
100
AcDbScale
 70
     0
300
100:1
140
100.0
141
1.0
290
     0
  0
SCALE
  5
4D
102
{ACAD_REACTORS
330
3B
102
}
330
3B
100
AcDbScale
 70
     0
300
1/128" = 1'-0"
140
0.0078125
141
12.0
290
     0
  0
SCALE
  5
4E
102
{ACAD_REACTORS
330
3B
102
}
330
3B
100
AcDbScale
 70
     0
300
1/64" = 1'-0"
140
0.015625
141
12.0
290
     0
  0
SCALE
  5
4F
102
{ACAD_REACTORS
330
3B
102
}
330
3B
100
AcDbScale
 70
     0
300
1/32" = 1'-0"
140
0.03125
141
12.0
290
     0
  0
SCALE
  5
50
102
{ACAD_REACTORS
330
3B
102
}
330
3B
100
AcDbScale
 70
     0
300
1/16" = 1'-0"
140
0.0625
141
12.0
290
     0
  0
SCALE
  5
51
102
{ACAD_REACTORS
330
3B
102
}
330
3B
100
AcDbScale
 70
     0
300
3/32" = 1'-0"
140
0.09375
141
12.0
290
     0
  0
SCALE
  5
52
102
{ACAD_REACTORS
330
3B
102
}
330
3B
100
AcDbScale
 70
     0
300
1/8" = 1'-0"
140
0.125
141
12.0
290
     0
  0
SCALE
  5
53
102
{ACAD_REACTORS
330
3B
102
}
330
3B
100
AcDbScale
 70
     0
300
3/16" = 1'-0"
140
0.1875
141
12.0
290
     0
  0
SCALE
  5
54
102
{ACAD_REACTORS
330
3B
102
}
330
3B
100
AcDbScale
 70
     0
300
1/4" = 1'-0"
140
0.25
141
12.0
290
     0
  0
SCALE
  5
55
102
{ACAD_REACTORS
330
3B
102
}
330
3B
100
AcDbScale
 70
     0
300
3/8" = 1'-0"
140
0.375
141
12.0
290
     0
  0
SCALE
  5
56
102
{ACAD_REACTORS
330
3B
102
}
330
3B
100
AcDbScale
 70
     0
300
1/2" = 1'-0"
140
0.5
141
12.0
290
     0
  0
SCALE
  5
57
102
{ACAD_REACTORS
330
3B
102
}
330
3B
100
AcDbScale
 70
     0
300
3/4" = 1'-0"
140
0.75
141
12.0
290
     0
  0
SCALE
  5
58
102
{ACAD_REACTORS
330
3B
102
}
330
3B
100
AcDbScale
 70
     0
300
1" = 1'-0"
140
1.0
141
12.0
290
     0
  0
SCALE
  5
59
102
{ACAD_REACTORS
330
3B
102
}
330
3B
100
AcDbScale
 70
     0
300
1-1/2" = 1'-0"
140
1.5
141
12.0
290
     0
  0
SCALE
  5
5A
102
{ACAD_REACTORS
330
3B
102
}
330
3B
100
AcDbScale
 70
     0
300
3" = 1'-0"
140
3.0
141
12.0
290
     0
  0
SCALE
  5
5B
102
{ACAD_REACTORS
330
3B
102
}
330
3B
100
AcDbScale
 70
     0
300
6" = 1'-0"
140
6.0
141
12.0
290
     0
  0
SCALE
  5
5C
102
{ACAD_REACTORS
330
3B
102
}
330
3B
100
AcDbScale
 70
     0
300
1'-0" = 1'-0"
140
12.0
141
12.0
290
     0
  0
VISUALSTYLE
  5
2F
102
{ACAD_REACTORS
330
2A
102
}
330
2A
100
AcDbVisualStyle
  2
2dWireframe
 70
     4
 71
     0
 72
     2
 73
     0
 90
        0
 40
-0.6
 41
-30.0
 62
     5
 63
     7
421
 16777215
 74
     1
 91
        4
 64
     7
 65
   257
 75
     1
175
     1
 42
1.0
 92
        0
 66
   257
 43
1.0
 76
     1
 77
     6
 78
     2
 67
     7
 79
     5
170
     0
171
     0
290
     0
174
     0
 93
        1
 44
0.0
173
     0
291
     0
 45
0.0
1001
ACAD
1000
AcDbSavedByObjectVersion
1070
     0
  0
VISUALSTYLE
  5
31
102
{ACAD_REACTORS
330
2A
102
}
330
2A
100
AcDbVisualStyle
  2
3D Hidden
 70
     6
 71
     1
 72
     2
 73
     2
 90
        0
 40
-0.6
 41
-30.0
 62
     5
 63
     7
421
 16777215
 74
     2
 91
        2
 64
     7
 65
   257
 75
     2
175
     1
 42
40.0
 92
        0
 66
   257
 43
1.0
 76
     1
 77
     6
 78
     2
 67
     7
 79
     3
170
     0
171
     0
290
     0
174
     0
 93
        1
 44
0.0
173
     0
291
     0
 45
0.0
1001
ACAD
1000
AcDbSavedByObjectVersion
1070
     0
  0
VISUALSTYLE
  5
30
102
{ACAD_REACTORS
330
2A
102
}
330
2A
100
AcDbVisualStyle
  2
3dWireframe
 70
     5
 71
     0
 72
     2
 73
     0
 90
        0
 40
-0.6
 41
-30.0
 62
     5
 63
     7
421
 16777215
 74
     1
 91
        4
 64
     7
 65
   257
 75
     1
175
     1
 42
1.0
 92
        0
 66
   257
 43
1.0
 76
     1
 77
     6
 78
     2
 67
     7
 79
     5
170
     0
171
     0
290
     0
174
     0
 93
        1
 44
0.0
173
     0
291
     0
 45
0.0
1001
ACAD
1000
AcDbSavedByObjectVersion
1070
     0
  0
VISUALSTYLE
  5
32
102
{ACAD_REACTORS
330
2A
102
}
330
2A
100
AcDbVisualStyle
  2
Basic
 70
     7
 71
     1
 72
     0
 73
     1
 90
        0
 40
-0.6
 41
-30.0
 62
     5
 63
     7
421
 16777215
 74
     0
 91
        4
 64
     7
 65
   257
 75
     1
175
     1
 42
1.0
 92
        8
 66
     7
 43
1.0
 76
     1
 77
     6
 78
     2
 67
     7
 79
     5
170
     0
171
     0
290
     0
174
     0
 93
        1
 44
0.0
173
     0
291
     1
 45
0.0
1001
ACAD
1000
AcDbSavedByObjectVersion
1070
     0
  0
VISUALSTYLE
  5
36
102
{ACAD_REACTORS
330
2A
102
}
330
2A
100
AcDbVisualStyle
  2
Brighten
 70
    12
 71
     2
 72
     2
 73
     0
 90
        0
 40
-0.6
 41
-30.0
 62
     5
 63
     7
421
 16777215
 74
     1
 91
        4
 64
     7
 65
   257
 75
     1
175
     1
 42
1.0
 92
        8
 66
     7
 43
1.0
 76
     1
 77
     6
 78
     2
 67
     7
 79
     5
170
     0
171
     0
290
     0
174
     0
 93
        1
 44
50.0
173
     0
291
     1
 45
0.0
1001
ACAD
1000
AcDbSavedByObjectVersion
1070
     0
  0
VISUALSTYLE
  5
3A
102
{ACAD_REACTORS
330
2A
102
}
330
2A
100
AcDbVisualStyle
  2
ColorChange
 70
    16
 71
     2
 72
     2
 73
     3
 90
        0
 40
-0.6
 41
-30.0
 62
     5
 63
     8
421
  8421504
 74
     1
 91
        4
 64
     7
 65
   257
 75
     1
175
     1
 42
1.0
 92
        8
 66
     8
424
  8421504
 43
1.0
 76
     1
 77
     6
 78
     2
 67
     7
 79
     5
170
     0
171
     0
290
     0
174
     0
 93
        1
 44
0.0
173
     0
291
     1
 45
0.0
1001
ACAD
1000
AcDbSavedByObjectVersion
1070
     0
  0
VISUALSTYLE
  5
34
102
{ACAD_REACTORS
330
2A
102
}
330
2A
100
AcDbVisualStyle
  2
Conceptual
 70
     9
 71
     3
 72
     2
 73
     0
 90
        0
 40
-0.6
 41
-30.0
 62
     5
 63
     7
421
 16777215
 74
     2
 91
        2
 64
     7
 65
   257
 75
     1
175
     1
 42
40.0
 92
        8
 66
     7
 43
1.0
 76
     1
 77
     6
 78
     2
 67
     7
 79
     3
170
     0
171
     0
290
     0
174
     0
 93
        1
 44
0.0
173
     0
291
     0
 45
0.0
1001
ACAD
1000
AcDbSavedByObjectVersion
1070
     0
  0
VISUALSTYLE
  5
35
102
{ACAD_REACTORS
330
2A
102
}
330
2A
100
AcDbVisualStyle
  2
Dim
 70
    11
 71
     2
 72
     2
 73
     0
 90
        0
 40
-0.6
 41
-30.0
 62
     5
 63
     7
421
 16777215
 74
     1
 91
        4
 64
     7
 65
   257
 75
     1
175
     1
 42
1.0
 92
        8
 66
     7
 43
1.0
 76
     1
 77
     6
 78
     2
 67
     7
 79
     5
170
     0
171
     0
290
     0
174
     0
 93
        1
 44
-50.0
173
     0
291
     1
 45
0.0
1001
ACAD
1000
AcDbSavedByObjectVersion
1070
     0
  0
VISUALSTYLE
  5
39
102
{ACAD_REACTORS
330
2A
102
}
330
2A
100
AcDbVisualStyle
  2
Facepattern
 70
    15
 71
     2
 72
     2
 73
     0
 90
        0
 40
-0.6
 41
-30.0
 62
     5
 63
     7
421
 16777215
 74
     1
 91
        4
 64
     7
 65
   257
 75
     1
175
     1
 42
1.0
 92
        8
 66
     7
 43
1.0
 76
     1
 77
     6
 78
     2
 67
     7
 79
     5
170
     0
171
     0
290
     0
174
     0
 93
        1
 44
0.0
173
     0
291
     1
 45
0.0
1001
ACAD
1000
AcDbSavedByObjectVersion
1070
     0
  0
VISUALSTYLE
  5
2B
102
{ACAD_REACTORS
330
2A
102
}
330
2A
100
AcDbVisualStyle
  2
Flat
 70
     0
 71
     2
 72
     1
 73
     1
 90
        2
 40
-0.6
 41
30.0
 62
     5
 63
     7
421
 16777215
 74
     0
 91
        4
 64
     7
 65
   257
 75
     1
175
     1
 42
1.0
 92
        8
 66
     7
 43
1.0
 76
     1
 77
     6
 78
     2
 67
     7
 79
     5
170
     0
171
     0
290
     0
174
     0
 93
       13
 44
0.0
173
     0
291
     1
 45
0.0
1001
ACAD
1000
AcDbSavedByObjectVersion
1070
     0
  0
VISUALSTYLE
  5
2C
102
{ACAD_REACTORS
330
2A
102
}
330
2A
100
AcDbVisualStyle
  2
FlatWithEdges
 70
     1
 71
     2
 72
     1
 73
     1
 90
        2
 40
-0.6
 41
30.0
 62
     5
 63
     7
421
 16777215
 74
     1
 91
        4
 64
     7
 65
   257
 75
     1
175
     1
 42
1.0
 92
        0
 66
   257
 43
1.0
 76
     1
 77
     6
 78
     2
 67
     7
 79
     5
170
     0
171
     0
290
     0
174
     0
 93
       13
 44
0.0
173
     0
291
     1
 45
0.0
1001
ACAD
1000
AcDbSavedByObjectVersion
1070
     0
  0
VISUALSTYLE
  5
2D
102
{ACAD_REACTORS
330
2A
102
}
330
2A
100
AcDbVisualStyle
  2
Gouraud
 70
     2
 71
     2
 72
     2
 73
     1
 90
        2
 40
-0.6
 41
30.0
 62
     5
 63
     7
421
 16777215
 74
     0
 91
        4
 64
     7
 65
   257
 75
     1
175
     1
 42
1.0
 92
        0
 66
     7
 43
1.0
 76
     1
 77
     6
 78
     2
 67
     7
 79
     5
170
     0
171
     0
290
     0
174
     0
 93
       13
 44
0.0
173
     0
291
     1
 45
0.0
1001
ACAD
1000
AcDbSavedByObjectVersion
1070
     0
  0
VISUALSTYLE
  5
2E
102
{ACAD_REACTORS
330
2A
102
}
330
2A
100
AcDbVisualStyle
  2
GouraudWithEdges
 70
     3
 71
     2
 72
     2
 73
     1
 90
        2
 40
-0.6
 41
30.0
 62
     5
 63
     7
421
 16777215
 74
     1
 91
        4
 64
     7
 65
   257
 75
     1
175
     1
 42
1.0
 92
        0
 66
   257
 43
1.0
 76
     1
 77
     6
 78
     2
 67
     7
 79
     5
170
     0
171
     0
290
     0
174
     0
 93
       13
 44
0.0
173
     0
291
     1
 45
0.0
1001
ACAD
1000
AcDbSavedByObjectVersion
1070
     0
  0
VISUALSTYLE
  5
38
102
{ACAD_REACTORS
330
2A
102
}
330
2A
100
AcDbVisualStyle
  2
Linepattern
 70
    14
 71
     2
 72
     2
 73
     0
 90
        0
 40
-0.6
 41
-30.0
 62
     5
 63
     7
421
 16777215
 74
     1
 91
        4
 64
     7
 65
   257
 75
     7
175
     7
 42
1.0
 92
        8
 66
     7
 43
1.0
 76
     1
 77
     6
 78
     2
 67
     7
 79
     5
170
     0
171
     0
290
     0
174
     0
 93
        1
 44
0.0
173
     0
291
     1
 45
0.0
1001
ACAD
1000
AcDbSavedByObjectVersion
1070
     0
  0
VISUALSTYLE
  5
33
102
{ACAD_REACTORS
330
2A
102
}
330
2A
100
AcDbVisualStyle
  2
Realistic
 70
     8
 71
     2
 72
     2
 73
     0
 90
        0
 40
-0.6
 41
-30.0
 62
     5
 63
     7
421
 16777215
 74
     1
 91
        0
 64
     7
 65
   257
 75
     1
175
     1
 42
1.0
 92
        8
 66
     8
424
  7895160
 43
1.0
 76
     1
 77
     6
 78
     2
 67
     7
 79
     5
170
     0
171
     0
290
     0
174
     0
 93
       13
 44
0.0
173
     0
291
     0
 45
0.0
1001
ACAD
1000
AcDbSavedByObjectVersion
1070
     0
  0
VISUALSTYLE
  5
37
102
{ACAD_REACTORS
330
2A
102
}
330
2A
100
AcDbVisualStyle
  2
Thicken
 70
    13
 71
     2
 72
     2
 73
     0
 90
        0
 40
-0.6
 41
-30.0
 62
     5
 63
     7
421
 16777215
 74
     1
 91
        4
 64
     7
 65
   257
 75
     1
175
     1
 42
1.0
 92
       12
 66
     7
 43
1.0
 76
     1
 77
     6
 78
     2
 67
     7
 79
     5
170
     0
171
     0
290
     0
174
     0
 93
        1
 44
0.0
173
     0
291
     1
 45
0.0
1001
ACAD
1000
AcDbSavedByObjectVersion
1070
     0
  0
ENDSEC
  0
EOF
