  0
SECTION
  2
HEADER
  9
$ACADVER
  1
AC1018
  9
$ACADMAINTVER
 70
     0
  9
$DWGCODEPAGE
  3
ANSI_1252
  9
$INSBASE
 10
0.0
 20
0.0
 30
0.0
  9
$EXTMIN
 10
0.0025055156736045
 20
0.002505515673576
 30
0.0
  9
$EXTMAX
 10
96.3556664040707
 20
208.1702356391234
 30
0.0
  9
$LIMMIN
 10
0.0
 20
0.0
  9
$LIMMAX
 10
12.0
 20
9.0
  9
$ORTHOMODE
 70
     0
  9
$REGENMODE
 70
     1
  9
$FILLMODE
 70
     1
  9
$QTEXTMODE
 70
     0
  9
$MIRRTEXT
 70
     1
  9
$LTSCALE
 40
1.0
  9
$ATTMODE
 70
     1
  9
$TEXTSIZE
 40
0.2
  9
$TRACEWID
 40
0.05
  9
$TEXTSTYLE
  7
Standard
  9
$CLAYER
  8
PREDEFINITO
  9
$CELTYPE
  6
ByLayer
  9
$CECOLOR
 62
   256
  9
$CELTSCALE
 40
1.0
  9
$DISPSILH
 70
     0
  9
$DIMSCALE
 40
1.0
  9
$DIMASZ
 40
0.18
  9
$DIMEXO
 40
0.0625
  9
$DIMDLI
 40
0.38
  9
$DIMRND
 40
0.0
  9
$DIMDLE
 40
0.0
  9
$DIMEXE
 40
0.18
  9
$DIMTP
 40
0.0
  9
$DIMTM
 40
0.0
  9
$DIMTXT
 40
0.18
  9
$DIMCEN
 40
0.09
  9
$DIMTSZ
 40
0.0
  9
$DIMTOL
 70
     0
  9
$DIMLIM
 70
     0
  9
$DIMTIH
 70
     1
  9
$DIMTOH
 70
     1
  9
$DIMSE1
 70
     0
  9
$DIMSE2
 70
     0
  9
$DIMTAD
 70
     0
  9
$DIMZIN
 70
     0
  9
$DIMBLK
  1

  9
$DIMASO
 70
     1
  9
$DIMSHO
 70
     1
  9
$DIMPOST
  1

  9
$DIMAPOST
  1

  9
$DIMALT
 70
     0
  9
$DIMALTD
 70
     2
  9
$DIMALTF
 40
25.4
  9
$DIMLFAC
 40
1.0
  9
$DIMTOFL
 70
     0
  9
$DIMTVP
 40
0.0
  9
$DIMTIX
 70
     0
  9
$DIMSOXD
 70
     0
  9
$DIMSAH
 70
     0
  9
$DIMBLK1
  1

  9
$DIMBLK2
  1

  9
$DIMSTYLE
  2
Standard
  9
$DIMCLRD
 70
     0
  9
$DIMCLRE
 70
     0
  9
$DIMCLRT
 70
     0
  9
$DIMTFAC
 40
1.0
  9
$DIMGAP
 40
0.09
  9
$DIMJUST
 70
     0
  9
$DIMSD1
 70
     0
  9
$DIMSD2
 70
     0
  9
$DIMTOLJ
 70
     1
  9
$DIMTZIN
 70
     0
  9
$DIMALTZ
 70
     0
  9
$DIMALTTZ
 70
     0
  9
$DIMUPT
 70
     0
  9
$DIMDEC
 70
     4
  9
$DIMTDEC
 70
     4
  9
$DIMALTU
 70
     2
  9
$DIMALTTD
 70
     2
  9
$DIMTXSTY
  7
Standard
  9
$DIMAUNIT
 70
     0
  9
$DIMADEC
 70
     0
  9
$DIMALTRND
 40
0.0
  9
$DIMAZIN
 70
     0
  9
$DIMDSEP
 70
    46
  9
$DIMATFIT
 70
     3
  9
$DIMFRAC
 70
     0
  9
$DIMLDRBLK
  1

  9
$DIMLUNIT
 70
     2
  9
$DIMLWD
 70
    -2
  9
$DIMLWE
 70
    -2
  9
$DIMTMOVE
 70
     0
  9
$LUNITS
 70
     2
  9
$LUPREC
 70
     3
  9
$SKETCHINC
 40
0.1
  9
$FILLETRAD
 40
0.5
  9
$AUNITS
 70
     0
  9
$AUPREC
 70
     0
  9
$MENU
  1
.
  9
$ELEVATION
 40
0.0
  9
$PELEVATION
 40
0.0
  9
$THICKNESS
 40
0.0
  9
$LIMCHECK
 70
     0
  9
$CHAMFERA
 40
0.5
  9
$CHAMFERB
 40
0.5
  9
$CHAMFERC
 40
1.0
  9
$CHAMFERD
 40
0.0
  9
$SKPOLY
 70
     0
  9
$TDCREATE
 40
2455876.624867234
  9
$TDUCREATE
 40
2455876.583200567
  9
$TDUPDATE
 40
2455876.624867246
  9
$TDUUPDATE
 40
2455876.583200579
  9
$TDINDWG
 40
0.0000000116
  9
$TDUSRTIMER
 40
0.0000000116
  9
$USRTIMER
 70
     1
  9
$ANGBASE
 50
0.0
  9
$ANGDIR
 70
     0
  9
$PDMODE
 70
     0
  9
$PDSIZE
 40
0.0
  9
$PLINEWID
 40
0.0
  9
$SPLFRAME
 70
     0
  9
$SPLINETYPE
 70
     6
  9
$SPLINESEGS
 70
     8
  9
$HANDSEED
  5
126
  9
$SURFTAB1
 70
     6
  9
$SURFTAB2
 70
     6
  9
$SURFTYPE
 70
     6
  9
$SURFU
 70
     6
  9
$SURFV
 70
     6
  9
$UCSBASE
  2

  9
$UCSNAME
  2

  9
$UCSORG
 10
0.0
 20
0.0
 30
0.0
  9
$UCSXDIR
 10
1.0
 20
0.0
 30
0.0
  9
$UCSYDIR
 10
0.0
 20
1.0
 30
0.0
  9
$UCSORTHOREF
  2

  9
$UCSORTHOVIEW
 70
     0
  9
$UCSORGTOP
 10
0.0
 20
0.0
 30
0.0
  9
$UCSORGBOTTOM
 10
0.0
 20
0.0
 30
0.0
  9
$UCSORGLEFT
 10
0.0
 20
0.0
 30
0.0
  9
$UCSORGRIGHT
 10
0.0
 20
0.0
 30
0.0
  9
$UCSORGFRONT
 10
0.0
 20
0.0
 30
0.0
  9
$UCSORGBACK
 10
0.0
 20
0.0
 30
0.0
  9
$PUCSBASE
  2

  9
$PUCSNAME
  2

  9
$PUCSORG
 10
0.0
 20
0.0
 30
0.0
  9
$PUCSXDIR
 10
1.0
 20
0.0
 30
0.0
  9
$PUCSYDIR
 10
0.0
 20
1.0
 30
0.0
  9
$PUCSORTHOREF
  2

  9
$PUCSORTHOVIEW
 70
     0
  9
$PUCSORGTOP
 10
0.0
 20
0.0
 30
0.0
  9
$PUCSORGBOTTOM
 10
0.0
 20
0.0
 30
0.0
  9
$PUCSORGLEFT
 10
0.0
 20
0.0
 30
0.0
  9
$PUCSORGRIGHT
 10
0.0
 20
0.0
 30
0.0
  9
$PUCSORGFRONT
 10
0.0
 20
0.0
 30
0.0
  9
$PUCSORGBACK
 10
0.0
 20
0.0
 30
0.0
  9
$USERI1
 70
     0
  9
$USERI2
 70
     0
  9
$USERI3
 70
     0
  9
$USERI4
 70
     0
  9
$USERI5
 70
     0
  9
$USERR1
 40
0.0
  9
$USERR2
 40
0.0
  9
$USERR3
 40
0.0
  9
$USERR4
 40
0.0
  9
$USERR5
 40
0.0
  9
$WORLDVIEW
 70
     1
  9
$SHADEDGE
 70
     3
  9
$SHADEDIF
 70
    70
  9
$TILEMODE
 70
     1
  9
$MAXACTVP
 70
    64
  9
$PINSBASE
 10
0.0
 20
0.0
 30
0.0
  9
$PLIMCHECK
 70
     0
  9
$PEXTMIN
 10
1.000000000000000E+20
 20
1.000000000000000E+20
 30
1.000000000000000E+20
  9
$PEXTMAX
 10
-1.000000000000000E+20
 20
-1.000000000000000E+20
 30
-1.000000000000000E+20
  9
$PLIMMIN
 10
0.0
 20
0.0
  9
$PLIMMAX
 10
12.0
 20
9.0
  9
$UNITMODE
 70
     0
  9
$VISRETAIN
 70
     1
  9
$PLINEGEN
 70
     0
  9
$PSLTSCALE
 70
     1
  9
$TREEDEPTH
 70
  3020
  9
$CMLSTYLE
  2
Standard
  9
$CMLJUST
 70
     0
  9
$CMLSCALE
 40
1.0
  9
$PROXYGRAPHICS
 70
     1
  9
$MEASUREMENT
 70
     0
  9
$CELWEIGHT
370
    -1
  9
$ENDCAPS
280
     0
  9
$JOINSTYLE
280
     0
  9
$LWDISPLAY
290
     0
  9
$INSUNITS
 70
     4
  9
$HYPERLINKBASE
  1

  9
$STYLESHEET
  1

  9
$XEDIT
290
     1
  9
$CEPSNTYPE
380
     0
  9
$PSTYLEMODE
290
     1
  9
$FINGERPRINTGUID
  2
{AE13FBFE-557E-415D-A82D-A8885DB7684E}
  9
$VERSIONGUID
  2
{FAEB1C32-E019-11D5-929B-00C0DF256EC4}
  9
$EXTNAMES
290
     1
  9
$PSVPSCALE
 40
0.0
  9
$OLESTARTUP
290
     0
  9
$SORTENTS
280
   127
  9
$INDEXCTL
280
     0
  9
$HIDETEXT
280
     1
  9
$XCLIPFRAME
290
     0
  9
$HALOGAP
280
     0
  9
$OBSCOLOR
 70
   257
  9
$OBSLTYPE
280
     0
  9
$INTERSECTIONDISPLAY
280
     0
  9
$INTERSECTIONCOLOR
 70
   257
  9
$DIMASSOC
280
     2
  9
$PROJECTNAME
  1

  0
ENDSEC
  0
SECTION
  2
CLASSES
  0
CLASS
  1
ACDBDICTIONARYWDFLT
  2
AcDbDictionaryWithDefault
  3
ObjectDBX Classes
 90
        0
 91
        3
280
     0
281
     0
  0
CLASS
  1
VISUALSTYLE
  2
AcDbVisualStyle
  3
ObjectDBX Classes
 90
     4095
 91
        3
280
     0
281
     0
  0
CLASS
  1
SCALE
  2
AcDbScale
  3
ObjectDBX Classes
 90
     1153
 91
        3
280
     0
281
     0
  0
ENDSEC
  0
SECTION
  2
TABLES
  0
TABLE
  2
VPORT
  5
8
330
0
100
AcDbSymbolTable
 70
     1
  0
VPORT
  5
29
330
8
100
AcDbSymbolTableRecord
100
AcDbViewportTableRecord
  2
*Active
 70
     0
 10
0.0
 20
0.0
 11
1.0
 21
1.0
 12
0.0
 22
0.0
 13
0.0
 23
0.0
 14
0.5
 24
0.5
 15
0.5
 25
0.5
 16
0.0
 26
0.0
 36
1.0
 17
48.17908595987215
 27
104.0863705773985
 37
0.0
 40
212.3310847259189
 41
0.4628631000167831
 42
50.0
 43
0.0
 44
0.0
 50
0.0
 51
0.0
 71
     0
 72
   100
 73
     1
 74
     3
 75
     0
 76
     0
 77
     0
 78
     0
281
     0
 65
     1
110
0.0
120
0.0
130
0.0
111
1.0
121
0.0
131
0.0
112
0.0
122
1.0
132
0.0
 79
     0
146
0.0
  0
ENDTAB
  0
TABLE
  2
LTYPE
  5
5
330
0
100
AcDbSymbolTable
 70
     1
  0
LTYPE
  5
14
330
5
100
AcDbSymbolTableRecord
100
AcDbLinetypeTableRecord
  2
ByBlock
 70
     0
  3

 72
    65
 73
     0
 40
0.0
  0
LTYPE
  5
15
330
5
100
AcDbSymbolTableRecord
100
AcDbLinetypeTableRecord
  2
ByLayer
 70
     0
  3

 72
    65
 73
     0
 40
0.0
  0
LTYPE
  5
16
330
5
100
AcDbSymbolTableRecord
100
AcDbLinetypeTableRecord
  2
Continuous
 70
     0
  3
Solid line
 72
    65
 73
     0
 40
0.0
  0
ENDTAB
  0
TABLE
  2
LAYER
  5
2
330
0
100
AcDbSymbolTable
 70
     3
  0
LAYER
  5
10
330
2
100
AcDbSymbolTableRecord
100
AcDbLayerTableRecord
  2
0
 70
     0
 62
     7
  6
Continuous
370
    -3
390
F
  0
LAYER
  5
5D
330
2
100
AcDbSymbolTableRecord
100
AcDbLayerTableRecord
  2
LINEE VISIBILI 2D
 70
     0
 62
     7
  6
Continuous
370
    -3
390
F
  0
LAYER
  5
65
330
2
100
AcDbSymbolTableRecord
100
AcDbLayerTableRecord
  2
PREDEFINITO
 70
     0
 62
     7
  6
Continuous
370
    -3
390
F
  0
ENDTAB
  0
TABLE
  2
STYLE
  5
3
330
0
100
AcDbSymbolTable
 70
     1
  0
STYLE
  5
11
330
3
100
AcDbSymbolTableRecord
100
AcDbTextStyleTableRecord
  2
Standard
 70
     0
 40
0.0
 41
1.0
 50
0.0
 71
     0
 42
0.2
  3
txt
  4

  0
ENDTAB
  0
TABLE
  2
VIEW
  5
6
330
0
100
AcDbSymbolTable
 70
     0
  0
ENDTAB
  0
TABLE
  2
UCS
  5
7
330
0
100
AcDbSymbolTable
 70
     0
  0
ENDTAB
  0
TABLE
  2
APPID
  5
9
330
0
100
AcDbSymbolTable
 70
     1
  0
APPID
  5
12
330
9
100
AcDbSymbolTableRecord
100
AcDbRegAppTableRecord
  2
ACAD
 70
     0
  0
ENDTAB
  0
TABLE
  2
DIMSTYLE
  5
A
330
0
100
AcDbSymbolTable
 70
     1
100
AcDbDimStyleTable
  0
DIMSTYLE
105
27
330
A
100
AcDbSymbolTableRecord
100
AcDbDimStyleTableRecord
  2
Standard
 70
     0
340
11
  0
ENDTAB
  0
TABLE
  2
BLOCK_RECORD
  5
1
330
0
100
AcDbSymbolTable
 70
     1
  0
BLOCK_RECORD
  5
1F
330
1
100
AcDbSymbolTableRecord
100
AcDbBlockTableRecord
  2
*Model_Space
340
22
  0
BLOCK_RECORD
  5
1B
330
1
100
AcDbSymbolTableRecord
100
AcDbBlockTableRecord
  2
*Paper_Space
340
1E
  0
BLOCK_RECORD
  5
23
330
1
100
AcDbSymbolTableRecord
100
AcDbBlockTableRecord
  2
*Paper_Space0
340
26
  0
ENDTAB
  0
ENDSEC
  0
SECTION
  2
BLOCKS
  0
BLOCK
  5
20
330
1F
100
AcDbEntity
  8
0
100
AcDbBlockBegin
  2
*Model_Space
 70
     0
 10
0.0
 20
0.0
 30
0.0
  3
*Model_Space
  1

  0
ENDBLK
  5
21
330
1F
100
AcDbEntity
  8
0
100
AcDbBlockEnd
  0
BLOCK
  5
1C
330
1B
100
AcDbEntity
 67
     1
  8
0
100
AcDbBlockBegin
  2
*Paper_Space
 70
     0
 10
0.0
 20
0.0
 30
0.0
  3
*Paper_Space
  1

  0
ENDBLK
  5
1D
330
1B
100
AcDbEntity
 67
     1
  8
0
100
AcDbBlockEnd
  0
BLOCK
  5
24
330
23
100
AcDbEntity
  8
0
100
AcDbBlockBegin
  2
*Paper_Space0
 70
     0
 10
0.0
 20
0.0
 30
0.0
  3
*Paper_Space0
  1

  0
ENDBLK
  5
25
330
23
100
AcDbEntity
  8
0
100
AcDbBlockEnd
  0
ENDSEC
  0
SECTION
  2
ENTITIES
  0
SPLINE
  5
5E
330
1F
100
AcDbEntity
  8
LINEE VISIBILI 2D
100
AcDbSpline
210
0.0
220
0.0
230
1.0
 70
    24
 71
     2
 72
     6
 73
     3
 74
     0
 42
0.0000000001
 43
0.0000000001
 40
0.0
 40
0.0
 40
0.0
 40
114.891874175235
 40
114.891874175235
 40
114.891874175235
 10
77.64218406088783
 20
70.67836146388842
 30
0.0
 10
77.64218406088786
 20
128.1242985515059
 30
0.0
 10
77.64218406088789
 20
185.5702356391234
 30
0.0
  0
SPLINE
  5
5F
330
1F
100
AcDbEntity
  8
LINEE VISIBILI 2D
100
AcDbSpline
210
0.0
220
0.0
230
1.0
 70
    12
 71
     2
 72
     6
 73
     3
 74
     0
 42
0.0000000001
 43
0.0000000001
 40
0.0
 40
0.0
 40
0.0
 40
1.070440959320266
 40
1.070440959320266
 40
1.070440959320266
 10
76.79315471275082
 20
10.8160966389159
 30
0.0
 41
1.0
 10
77.24905586021936
 20
11.1173008966868
 30
0.0
 41
0.9695493693004217
 10
77.50723746197745
 20
11.59887344747855
 30
0.0
 41
1.0
  0
SPLINE
  5
60
330
1F
100
AcDbEntity
  8
LINEE VISIBILI 2D
100
AcDbSpline
210
0.0
220
0.0
230
1.0
 70
    12
 71
     2
 72
     6
 73
     3
 74
     0
 42
0.0000000001
 43
0.0000000001
 40
0.0
 40
0.0
 40
0.0
 40
0.6620884869752675
 40
0.6620884869752675
 40
0.6620884869752675
 10
77.50723746197745
 20
11.59887344747855
 30
0.0
 41
1.0
 10
77.6645435213103
 20
11.89310679463883
 30
0.0
 41
0.9883519367501504
 10
77.72593263016766
 20
12.22105601068547
 30
0.0
 41
1.0
  0
SPLINE
  5
61
330
1F
100
AcDbEntity
  8
LINEE VISIBILI 2D
100
AcDbSpline
210
0.0
220
0.0
230
1.0
 70
    12
 71
     2
 72
     6
 73
     3
 74
     0
 42
0.0000000001
 43
0.0000000001
 40
-0.2922141315475892
 40
-0.2922141315475892
 40
-0.2922141315475892
 40
0.0
 40
0.0
 40
0.0
 10
77.72593263016766
 20
12.22105601068547
 30
0.0
 41
1.0
 10
77.75272473125833
 20
12.36476030970665
 30
0.0
 41
0.9992602125338398
 10
77.7685114095537
 20
12.51008454141467
 30
0.0
 41
1.0
  0
SPLINE
  5
62
330
1F
100
AcDbEntity
  8
LINEE VISIBILI 2D
100
AcDbSpline
210
0.0
220
0.0
230
1.0
 70
    12
 71
     2
 72
     6
 73
     3
 74
     0
 42
0.0000000001
 43
0.0000000001
 40
0.0
 40
0.0
 40
0.0
 40
0.8990987743692065
 40
0.8990987743692065
 40
0.8990987743692065
 10
73.13721801451858
 20
22.86607732853864
 30
0.0
 41
1.0
 10
73.1725064588354
 20
22.41139526687827
 30
0.0
 41
0.9787571907014637
 10
73.38730813856276
 20
22.00910023846711
 30
0.0
 41
1.0
  0
SPLINE
  5
63
330
1F
100
AcDbEntity
  8
LINEE VISIBILI 2D
100
AcDbSpline
210
0.0
220
0.0
230
1.0
 70
    12
 71
     2
 72
     6
 73
     3
 74
     0
 42
0.0000000001
 43
0.0000000001
 40
0.0
 40
0.0
 40
0.0
 40
0.8003265301298259
 40
0.8003265301298259
 40
0.8003265301298259
 10
73.38730813856276
 20
22.00910023846711
 30
0.0
 41
1.0
 10
73.57843335853752
 20
21.65223670668259
 30
0.0
 41
0.9828287848252887
 10
73.88599281677672
 20
21.38897043260586
 30
0.0
 41
1.0
  0
SPLINE
  5
64
330
1F
100
AcDbEntity
  8
LINEE VISIBILI 2D
100
AcDbSpline
210
0.0
220
0.0
230
1.0
 70
    12
 71
     2
 72
     6
 73
     3
 74
     0
 42
0.0000000001
 43
0.0000000001
 40
-0.2573520775229676
 40
-0.2573520775229676
 40
-0.2573520775229676
 40
0.0
 40
0.0
 40
0.0
 10
73.88599281677672
 20
21.38897043260586
 30
0.0
 41
1.0
 10
73.9837368557591
 20
21.3051665244503
 30
0.0
 41
0.9994286307969175
 10
74.08690422537751
 20
21.22818184988266
 30
0.0
 41
1.0
  0
SPLINE
  5
66
330
1F
100
AcDbEntity
  8
PREDEFINITO
100
AcDbSpline
210
0.0
220
0.0
230
1.0
 70
    12
 71
     2
 72
     8
 73
     5
 74
     0
 42
0.0000000001
 43
0.0000000001
 40
8.62555098326941
 40
8.62555098326941
 40
8.62555098326941
 40
17.2511019665388
 40
17.2511019665388
 40
25.8766529498082
 40
25.8766529498082
 40
25.8766529498082
 10
60.6643472136262
 20
17.31435573091887
 30
0.0
 41
1.0
 10
60.85841003077186
 20
17.31435573091888
 30
0.0
 41
0.707106781186548
 10
60.85841003077188
 20
17.91346774602807
 30
0.0
 41
1.0
 10
60.85841003077186
 20
18.51257976113727
 30
0.0
 41
0.707106781186548
 10
60.66434721362619
 20
18.51257976113729
 30
0.0
 41
1.0
  0
SPLINE
  5
67
330
1F
100
AcDbEntity
  8
PREDEFINITO
100
AcDbSpline
210
0.0
220
0.0
230
1.0
 70
    24
 71
     2
 72
     6
 73
     3
 74
     0
 42
0.0000000001
 43
0.0000000001
 40
0.0
 40
0.0
 40
0.0
 40
0.2609190831579085
 40
0.2609190831579085
 40
0.2609190831579085
 10
60.66434721362619
 20
18.51257976113729
 30
0.0
 10
60.79480675520514
 20
18.51257976113729
 30
0.0
 10
60.92526629678408
 20
18.51257976113728
 30
0.0
  0
SPLINE
  5
68
330
1F
100
AcDbEntity
  8
PREDEFINITO
100
AcDbSpline
210
0.0
220
0.0
230
1.0
 70
    24
 71
     2
 72
     6
 73
     3
 74
     0
 42
0.0000000001
 43
0.0000000001
 40
0.0
 40
0.0
 40
0.0
 40
1.0
 40
1.0
 40
1.0
 10
60.92526629678408
 20
18.51257976113728
 30
0.0
 10
60.95615366118896
 20
18.51194085521922
 30
0.0
 10
60.98704102559384
 20
18.51130194930115
 30
0.0
  0
SPLINE
  5
69
330
1F
100
AcDbEntity
  8
PREDEFINITO
100
AcDbSpline
210
0.0
220
0.0
230
1.0
 70
    24
 71
     2
 72
     6
 73
     3
 74
     0
 42
0.0000000001
 43
0.0000000001
 40
0.0
 40
0.0
 40
0.0
 40
0.1004234977767707
 40
0.1004234977767707
 40
0.1004234977767707
 10
60.98704102559384
 20
18.51130194930115
 30
0.0
 10
61.03725273365799
 20
18.51123792031433
 30
0.0
 10
61.08746444172213
 20
18.51117389132751
 30
0.0
  0
SPLINE
  5
6A
330
1F
100
AcDbEntity
  8
PREDEFINITO
100
AcDbSpline
210
0.0
220
0.0
230
1.0
 70
     8
 71
     2
 72
     6
 73
     3
 74
     0
 42
0.0000000001
 43
0.0000000001
 40
0.0
 40
0.0
 40
0.0
 40
1.0
 40
1.0
 40
1.0
 10
61.08746444172213
 20
18.51117389132751
 30
0.0
 10
61.15488051362307
 20
18.51117389132751
 30
0.0
 10
61.18189745710997
 20
18.50572479648857
 30
0.0
  0
SPLINE
  5
6B
330
1F
100
AcDbEntity
  8
PREDEFINITO
100
AcDbSpline
210
0.0
220
0.0
230
1.0
 70
    12
 71
     3
 72
     8
 73
     4
 74
     0
 42
0.0000000001
 43
0.0000000001
 40
0.0
 40
0.0
 40
0.0
 40
0.0
 40
0.84954054151231
 40
0.84954054151231
 40
0.84954054151231
 40
0.84954054151231
 10
61.18189745710997
 20
18.50572479648857
 30
0.0
 41
1.0
 10
61.29040239574569
 20
18.45403563768613
 30
0.0
 41
1.0
 10
61.33725874374893
 20
18.16125315969443
 30
0.0
 41
1.0
 10
61.33725874374892
 20
17.91346774602808
 30
0.0
 41
1.0
  0
SPLINE
  5
6C
330
1F
100
AcDbEntity
  8
PREDEFINITO
100
AcDbSpline
210
0.0
220
0.0
230
1.0
 70
    12
 71
     3
 72
     8
 73
     4
 74
     0
 42
0.0000000001
 43
0.0000000001
 40
-0.849540541512326
 40
-0.849540541512326
 40
-0.849540541512326
 40
-0.849540541512326
 40
0.0
 40
0.0
 40
0.0
 40
0.0
 10
61.33725874374892
 20
17.91346774602808
 30
0.0
 41
1.0
 10
61.33725874374893
 20
17.66568177691489
 30
0.0
 41
1.0
 10
61.29040263897518
 20
17.37289997023878
 30
0.0
 41
1.0
 10
61.18189745710997
 20
17.32121069556759
 30
0.0
 41
1.0
  0
SPLINE
  5
6D
330
1F
100
AcDbEntity
  8
PREDEFINITO
100
AcDbSpline
210
0.0
220
0.0
230
1.0
 70
     8
 71
     2
 72
     6
 73
     3
 74
     0
 42
0.0000000001
 43
0.0000000001
 40
-1.0
 40
-1.0
 40
-1.0
 40
0.0
 40
0.0
 40
0.0
 10
61.18189745710997
 20
17.32121069556759
 30
0.0
 10
61.146103797235
 20
17.31583637502535
 30
0.0
 10
61.08745454753881
 20
17.31576158811204
 30
0.0
  0
SPLINE
  5
6E
330
1F
100
AcDbEntity
  8
PREDEFINITO
100
AcDbSpline
210
0.0
220
0.0
230
1.0
 70
    24
 71
     2
 72
     6
 73
     3
 74
     0
 42
0.0000000001
 43
0.0000000001
 40
0.0
 40
0.0
 40
0.0
 40
0.10041360366765
 40
0.10041360366765
 40
0.10041360366765
 10
61.08745454753881
 20
17.31576158811204
 30
0.0
 10
61.03724778652361
 20
17.31569756668461
 30
0.0
 10
60.9870410255084
 20
17.31563354525718
 30
0.0
  0
SPLINE
  5
6F
330
1F
100
AcDbEntity
  8
PREDEFINITO
100
AcDbSpline
210
0.0
220
0.0
230
1.0
 70
    24
 71
     2
 72
     6
 73
     3
 74
     0
 42
0.0000000001
 43
0.0000000001
 40
-1.0
 40
-1.0
 40
-1.0
 40
0.0
 40
0.0
 40
0.0
 10
60.9870410255084
 20
17.31563354525718
 30
0.0
 10
60.95841315088669
 20
17.31499463808802
 30
0.0
 10
60.92978527626498
 20
17.31435573091887
 30
0.0
  0
SPLINE
  5
70
330
1F
100
AcDbEntity
  8
PREDEFINITO
100
AcDbSpline
210
0.0
220
0.0
230
1.0
 70
    24
 71
     2
 72
     6
 73
     3
 74
     0
 42
0.0000000001
 43
0.0000000001
 40
-0.2301097842968716
 40
-0.2301097842968716
 40
-0.2301097842968716
 40
0.0
 40
0.0
 40
0.0
 10
60.92978527626498
 20
17.31435573091887
 30
0.0
 10
60.81473038411654
 20
17.31435573091887
 30
0.0
 10
60.69967549196811
 20
17.31435573091887
 30
0.0
  0
SPLINE
  5
71
330
1F
100
AcDbEntity
  8
PREDEFINITO
100
AcDbSpline
210
0.0
220
0.0
230
1.0
 70
    24
 71
     2
 72
     6
 73
     3
 74
     0
 42
0.0000000001
 43
0.0000000001
 40
-1.0
 40
-1.0
 40
-1.0
 40
0.0
 40
0.0
 40
0.0
 10
60.69967549196811
 20
17.31435573091887
 30
0.0
 10
60.68159856653268
 20
17.31435192329778
 30
0.0
 10
60.66352164109725
 20
17.31434811567669
 30
0.0
  0
SPLINE
  5
72
330
1F
100
AcDbEntity
  8
PREDEFINITO
100
AcDbSpline
210
0.0
220
0.0
230
1.0
 70
    24
 71
     2
 72
     6
 73
     3
 74
     0
 42
0.0000000001
 43
0.0000000001
 40
0.0
 40
0.0
 40
0.0
 40
0.8948752694233022
 40
0.8948752694233022
 40
0.8948752694233022
 10
60.66352164109725
 20
17.31434811567669
 30
0.0
 10
60.2160840063856
 20
17.31434811567667
 30
0.0
 10
59.76864637167395
 20
17.31434811567666
 30
0.0
  0
SPLINE
  5
73
330
1F
100
AcDbEntity
  8
PREDEFINITO
100
AcDbSpline
210
0.0
220
0.0
230
1.0
 70
     8
 71
     2
 72
     6
 73
     3
 74
     0
 42
0.0000000001
 43
0.0000000001
 40
-1.0
 40
-1.0
 40
-1.0
 40
0.0
 40
0.0
 40
0.0
 10
59.76864637167395
 20
17.31434811567666
 30
0.0
 10
59.7503587271465
 20
17.315315860052
 30
0.0
 10
59.73238164505684
 20
17.32368553266188
 30
0.0
  0
SPLINE
  5
74
330
1F
100
AcDbEntity
  8
PREDEFINITO
100
AcDbSpline
210
0.0
220
0.0
230
1.0
 70
     8
 71
     3
 72
    13
 73
     9
 74
     0
 42
0.0000000001
 43
0.0000000001
 40
0.0
 40
0.0
 40
0.0
 40
0.0
 40
0.100478046495955
 40
0.2394299687461788
 40
0.6366927670074063
 40
1.037480779662973
 40
1.178825830688135
 40
1.28025919631846
 40
1.28025919631846
 40
1.28025919631846
 40
1.28025919631846
 10
59.73238164505684
 20
17.32368553266188
 30
0.0
 10
59.70161046262683
 20
17.33801181328257
 30
0.0
 10
59.64601929445203
 20
17.39816717463416
 30
0.0
 10
59.56822957138095
 20
17.5979367023849
 30
0.0
 10
59.53970839932914
 20
17.91112996539868
 30
0.0
 10
59.56734139103245
 20
18.22524812296731
 30
0.0
 10
59.64504418334397
 20
18.42744342233066
 30
0.0
 10
59.70111499722265
 20
18.48874285612106
 30
0.0
 10
59.73220398173177
 20
18.50319627334988
 30
0.0
  0
SPLINE
  5
75
330
1F
100
AcDbEntity
  8
PREDEFINITO
100
AcDbSpline
210
0.0
220
0.0
230
1.0
 70
     8
 71
     2
 72
     6
 73
     3
 74
     0
 42
0.0000000001
 43
0.0000000001
 40
0.0
 40
0.0
 40
0.0
 40
1.0
 40
1.0
 40
1.0
 10
59.73220398173177
 20
18.50319627334988
 30
0.0
 10
59.75489142831844
 20
18.51374377551346
 30
0.0
 10
59.76870247309867
 20
18.51258737637948
 30
0.0
  0
SPLINE
  5
76
330
1F
100
AcDbEntity
  8
PREDEFINITO
100
AcDbSpline
210
0.0
220
0.0
230
1.0
 70
    24
 71
     2
 72
     6
 73
     3
 74
     0
 42
0.0000000001
 43
0.0000000001
 40
0.0
 40
0.0
 40
0.0
 40
0.89481916724489
 40
0.89481916724489
 40
0.89481916724489
 10
59.76870247309867
 20
18.51258737637948
 30
0.0
 10
60.21611205672112
 20
18.51258737637949
 30
0.0
 10
60.66352164034356
 20
18.51258737637949
 30
0.0
  0
SPLINE
  5
77
330
1F
100
AcDbEntity
  8
PREDEFINITO
100
AcDbSpline
210
0.0
220
0.0
230
1.0
 70
    24
 71
     2
 72
     6
 73
     3
 74
     0
 42
0.0000000001
 43
0.0000000001
 40
0.0
 40
0.0
 40
0.0
 40
1.0
 40
1.0
 40
1.0
 10
60.66352164034356
 20
18.51258737637949
 30
0.0
 10
60.66495843143472
 20
18.51258356875839
 30
0.0
 10
60.66639522252588
 20
18.51257976113728
 30
0.0
  0
SPLINE
  5
78
330
1F
100
AcDbEntity
  8
LINEE VISIBILI 2D
100
AcDbSpline
210
0.0
220
0.0
230
1.0
 70
    12
 71
     2
 72
     6
 73
     3
 74
     0
 42
0.0000000001
 43
0.0000000001
 40
-0.2920767484343199
 40
-0.2920767484343199
 40
-0.2920767484343199
 40
0.0
 40
0.0
 40
0.0
 10
77.76850510693512
 20
23.31698878297689
 30
0.0
 41
1.0
 10
77.75271593361067
 20
23.46224353548911
 30
0.0
 41
0.9992610083185114
 10
77.72593263003718
 20
23.60587948206816
 30
0.0
 41
1.0
  0
SPLINE
  5
79
330
1F
100
AcDbEntity
  8
LINEE VISIBILI 2D
100
AcDbSpline
210
0.0
220
0.0
230
1.0
 70
    12
 71
     2
 72
     6
 73
     3
 74
     0
 42
0.0000000001
 43
0.0000000001
 40
0.0
 40
0.0
 40
0.0
 40
0.6620884869752581
 40
0.6620884869752581
 40
0.6620884869752581
 10
77.72593263003718
 20
23.60587948206816
 30
0.0
 41
1.0
 10
77.66454352131028
 20
23.93382869741733
 30
0.0
 41
0.9883519367501561
 10
77.50723746197745
 20
24.22806204457761
 30
0.0
 41
1.0
  0
SPLINE
  5
7A
330
1F
100
AcDbEntity
  8
LINEE VISIBILI 2D
100
AcDbSpline
210
0.0
220
0.0
230
1.0
 70
    12
 71
     2
 72
     6
 73
     3
 74
     0
 42
0.0000000001
 43
0.0000000001
 40
0.0
 40
0.0
 40
0.0
 40
1.071925920815036
 40
1.071925920815036
 40
1.071925920815036
 10
77.50723746197745
 20
24.22806204457761
 30
0.0
 41
1.0
 10
77.24868137476315
 20
24.71032957596378
 30
0.0
 41
0.9694664915596977
 10
76.79191671025646
 20
25.01165873705341
 30
0.0
 41
1.0
  0
SPLINE
  5
7B
330
1F
100
AcDbEntity
  8
LINEE VISIBILI 2D
100
AcDbSpline
210
0.0
220
0.0
230
1.0
 70
    12
 71
     2
 72
     8
 73
     5
 74
     0
 42
0.0000000001
 43
0.0000000001
 40
0.0
 40
0.0
 40
0.0
 40
27.83879785214958
 40
27.83879785214958
 40
55.67759570429921
 40
55.67759570429921
 40
55.67759570429921
 10
60.53875227382747
 20
17.31435652469778
 30
0.0
 41
1.0
 10
61.12792594138006
 20
-0.292122527051757
 30
0.0
 41
0.7129953393440918
 10
78.74179617272536
 20
0.002505515673576
 30
0.0
 41
1.0
 10
96.3556664040707
 20
0.2971335583988622
 30
0.0
 41
0.7129953393440912
 10
96.35566640407069
 20
17.91346774602808
 30
0.0
 41
1.0
  0
SPLINE
  5
7C
330
1F
100
AcDbEntity
  8
LINEE VISIBILI 2D
100
AcDbSpline
210
0.0
220
0.0
230
1.0
 70
    12
 71
     2
 72
     8
 73
     5
 74
     0
 42
0.0000000001
 43
0.0000000001
 40
0.0
 40
0.0
 40
0.0
 40
27.8387977697695
 40
27.8387977697695
 40
55.67759553953896
 40
55.67759553953896
 40
55.67759553953896
 10
96.35566640407069
 20
17.91346774602808
 30
0.0
 41
1.0
 10
96.35566640407067
 20
35.52980185263228
 30
0.0
 41
0.7129953409563532
 10
78.74179625509394
 20
35.82442997500479
 30
0.0
 41
1.0
 10
61.12792610611726
 20
36.11905809737731
 30
0.0
 41
0.7129953409563551
 10
60.53875227933777
 20
18.51257913202645
 30
0.0
 41
1.0
  0
SPLINE
  5
7D
330
1F
100
AcDbEntity
  8
LINEE VISIBILI 2D
100
AcDbSpline
210
0.0
220
0.0
230
1.0
 70
    12
 71
     2
 72
     6
 73
     3
 74
     0
 42
0.0000000001
 43
0.0000000001
 40
-0.2546175239103426
 40
-0.2546175239103426
 40
-0.2546175239103426
 40
0.0
 40
0.0
 40
0.0
 10
74.08471539722159
 20
14.5971147951037
 30
0.0
 41
1.0
 10
73.98270066585506
 20
14.52087442970216
 30
0.0
 41
0.9994415049737885
 10
73.88599281677674
 20
14.43796505945031
 30
0.0
 41
1.0
  0
SPLINE
  5
7E
330
1F
100
AcDbEntity
  8
LINEE VISIBILI 2D
100
AcDbSpline
210
0.0
220
0.0
230
1.0
 70
    12
 71
     2
 72
     6
 73
     3
 74
     0
 42
0.0000000001
 43
0.0000000001
 40
0.0
 40
0.0
 40
0.0
 40
0.8003265301298527
 40
0.8003265301298527
 40
0.8003265301298527
 10
73.88599281677674
 20
14.43796505945031
 30
0.0
 41
1.0
 10
73.57843335853752
 20
14.17469878537359
 30
0.0
 41
0.9828287848252799
 10
73.38730813856276
 20
13.81783525358905
 30
0.0
 41
1.0
  0
SPLINE
  5
7F
330
1F
100
AcDbEntity
  8
LINEE VISIBILI 2D
100
AcDbSpline
210
0.0
220
0.0
230
1.0
 70
    12
 71
     2
 72
     6
 73
     3
 74
     0
 42
0.0000000001
 43
0.0000000001
 40
0.0
 40
0.0
 40
0.0
 40
0.8929171490620723
 40
0.8929171490620723
 40
0.8929171490620723
 10
73.38730813856276
 20
13.81783525358905
 30
0.0
 41
1.0
 10
73.17401818753993
 20
13.41838763000388
 30
0.0
 41
0.9790419088920483
 10
73.13771365375615
 20
12.96701972239203
 30
0.0
 41
1.0
  0
SPLINE
  5
80
330
1F
100
AcDbEntity
  8
LINEE VISIBILI 2D
100
AcDbSpline
210
0.0
220
0.0
230
1.0
 70
    12
 71
     2
 72
     6
 73
     3
 74
     0
 42
0.0000000001
 43
0.0000000001
 40
0.0
 40
0.0
 40
0.0
 40
1.001577444116655
 40
1.001577444116655
 40
1.001577444116655
 10
76.55844208972692
 20
25.43938841452846
 30
0.0
 41
1.0
 10
76.98333359656714
 20
25.15757607413409
 30
0.0
 41
0.9735421775000538
 10
77.238466112425
 20
24.71614840492655
 30
0.0
 41
0.9999999974282624
  0
SPLINE
  5
81
330
1F
100
AcDbEntity
  8
LINEE VISIBILI 2D
100
AcDbSpline
210
0.0
220
0.0
230
1.0
 70
    24
 71
     2
 72
     6
 73
     3
 74
     0
 42
0.0000000001
 43
0.0000000001
 40
0.0
 40
0.0
 40
0.0
 40
0.4281441821620329
 40
0.4281441821620329
 40
0.4281441821620329
 10
77.23846611242499
 20
24.71614840492655
 30
0.0
 10
77.34550104500089
 20
24.53075592040335
 30
0.0
 10
77.45253597757679
 20
24.34536343588016
 30
0.0
  0
SPLINE
  5
82
330
1F
100
AcDbEntity
  8
LINEE VISIBILI 2D
100
AcDbSpline
210
0.0
220
0.0
230
1.0
 70
    24
 71
     2
 72
     6
 73
     3
 74
     0
 42
0.0000000001
 43
0.0000000001
 40
0.0
 40
0.0
 40
0.0
 40
0.0593244933038628
 40
0.0593244933038628
 40
0.0593244933038628
 10
77.45253597757679
 20
24.34536343588016
 30
0.0
 10
77.46736710090275
 20
24.3196751767463
 30
0.0
 10
77.4821982242287
 20
24.29398691761245
 30
0.0
  0
SPLINE
  5
83
330
1F
100
AcDbEntity
  8
LINEE VISIBILI 2D
100
AcDbSpline
210
0.0
220
0.0
230
1.0
 70
    24
 71
     2
 72
     6
 73
     3
 74
     0
 42
0.0000000001
 43
0.0000000001
 40
0.0
 40
0.0
 40
0.0
 40
0.059324493303869
 40
0.059324493303869
 40
0.059324493303869
 10
77.4821982242294
 20
11.53294857444494
 30
0.0
 10
77.46736710090363
 20
11.50726031531138
 30
0.0
 10
77.45253597757784
 20
11.48157205617781
 30
0.0
  0
SPLINE
  5
84
330
1F
100
AcDbEntity
  8
LINEE VISIBILI 2D
100
AcDbSpline
210
0.0
220
0.0
230
1.0
 70
    24
 71
     2
 72
     6
 73
     3
 74
     0
 42
0.0000000001
 43
0.0000000001
 40
0.0
 40
0.0
 40
0.0
 40
0.4281441821620299
 40
0.4281441821620299
 40
0.4281441821620299
 10
77.45253597757784
 20
11.48157205617781
 30
0.0
 10
77.34550104500211
 20
11.29617957165492
 30
0.0
 10
77.23846611242638
 20
11.11078708713202
 30
0.0
  0
SPLINE
  5
85
330
1F
100
AcDbEntity
  8
LINEE VISIBILI 2D
100
AcDbSpline
210
0.0
220
0.0
230
1.0
 70
    12
 71
     2
 72
     6
 73
     3
 74
     0
 42
0.0000000001
 43
0.0000000001
 40
0.0
 40
0.0
 40
0.0
 40
0.9960975273571862
 40
0.9960975273571862
 40
0.9960975273571862
 10
77.2384661124264
 20
11.11078708713202
 30
0.0
 41
0.999999997443762
 10
76.98478471364528
 20
10.67185692382883
 30
0.0
 41
0.9738250885386852
 10
76.56300099560023
 20
10.39058759466098
 30
0.0
 41
1.0
  0
SPLINE
  5
86
330
1F
100
AcDbEntity
  8
LINEE VISIBILI 2D
100
AcDbSpline
210
0.0
220
0.0
230
1.0
 70
    12
 71
     2
 72
     6
 73
     3
 74
     0
 42
0.0000000001
 43
0.0000000001
 40
0.0
 40
0.0
 40
0.0
 40
0.971435948111357
 40
0.971435948111357
 40
0.971435948111357
 10
72.88384197365967
 20
12.54051523946441
 30
0.0
 41
1.0
 10
72.92054274922663
 20
13.03322218570961
 30
0.0
 41
0.9748293113486868
 10
73.1679541920749
 20
13.4608894978683
 30
0.0
 41
1.0
  0
SPLINE
  5
87
330
1F
100
AcDbEntity
  8
LINEE VISIBILI 2D
100
AcDbSpline
210
0.0
220
0.0
230
1.0
 70
    24
 71
     2
 72
     6
 73
     3
 74
     0
 42
0.0000000001
 43
0.0000000001
 40
0.0
 40
0.0
 40
0.0
 40
0.4281471208669234
 40
0.4281471208669234
 40
0.4281471208669234
 10
73.1679541920749
 20
13.4608894978683
 30
0.0
 10
73.27508538593332
 20
13.64623077702368
 30
0.0
 10
73.38221657979173
 20
13.83157205617906
 30
0.0
  0
SPLINE
  5
88
330
1F
100
AcDbEntity
  8
LINEE VISIBILI 2D
100
AcDbSpline
210
0.0
220
0.0
230
1.0
 70
    24
 71
     2
 72
     6
 73
     3
 74
     0
 42
0.0000000001
 43
0.0000000001
 40
0.0
 40
0.0
 40
0.0
 40
0.0593244933040797
 40
0.0593244933040797
 40
0.0593244933040797
 10
73.38221657979173
 20
13.83157205617906
 30
0.0
 10
73.39704770311721
 20
13.85726031531205
 30
0.0
 10
73.41187882644267
 20
13.88294857444505
 30
0.0
  0
SPLINE
  5
89
330
1F
100
AcDbEntity
  8
LINEE VISIBILI 2D
100
AcDbSpline
210
0.0
220
0.0
230
1.0
 70
    24
 71
     2
 72
     6
 73
     3
 74
     0
 42
0.0000000001
 43
0.0000000001
 40
0.0
 40
0.0
 40
0.0
 40
0.0593244933040797
 40
0.0593244933040797
 40
0.0593244933040797
 10
73.41187882644087
 20
21.94398691761423
 30
0.0
 10
73.39704770311565
 20
21.96967517674679
 30
0.0
 10
73.38221657979042
 20
21.99536343587934
 30
0.0
  0
SPLINE
  5
8A
330
1F
100
AcDbEntity
  8
LINEE VISIBILI 2D
100
AcDbSpline
210
0.0
220
0.0
230
1.0
 70
    24
 71
     2
 72
     6
 73
     3
 74
     0
 42
0.0000000001
 43
0.0000000001
 40
0.0
 40
0.0
 40
0.0
 40
0.4281471208669295
 40
0.4281471208669295
 40
0.4281471208669295
 10
73.38221657979042
 20
21.99536343587934
 30
0.0
 10
73.27508538593227
 20
22.18070471503428
 30
0.0
 10
73.16795419207412
 20
22.36604599418922
 30
0.0
  0
SPLINE
  5
8B
330
1F
100
AcDbEntity
  8
LINEE VISIBILI 2D
100
AcDbSpline
210
0.0
220
0.0
230
1.0
 70
    12
 71
     2
 72
     6
 73
     3
 74
     0
 42
0.0000000001
 43
0.0000000001
 40
0.0
 40
0.0
 40
0.0
 40
0.9691081834257512
 40
0.9691081834257512
 40
0.9691081834257512
 10
73.16795419207412
 20
22.36604599418922
 30
0.0
 41
1.0
 10
72.9211523642708
 20
22.79265212671563
 30
0.0
 41
0.9749469404860276
 10
72.88402013085206
 20
23.28409945014317
 30
0.0
 41
1.0
  0
POLYLINE
  5
8C
330
1F
100
AcDbEntity
  8
PREDEFINITO
100
AcDb2dPolyline
 66
     1
 10
0.0
 20
0.0
 30
0.0
  0
VERTEX
  5
8E
330
8C
100
AcDbEntity
  8
PREDEFINITO
100
AcDbVertex
100
AcDb2dVertex
 10
35.3762930078983
 20
186.6702356391234
 30
0.0
  0
VERTEX
  5
8F
330
8C
100
AcDbEntity
  8
PREDEFINITO
100
AcDbVertex
100
AcDb2dVertex
 10
35.37886092077365
 20
186.6702356391212
 30
0.0
  0
SEQEND
  5
8D
330
8C
100
AcDbEntity
  8
PREDEFINITO
  0
SPLINE
  5
90
330
1F
100
AcDbEntity
  8
PREDEFINITO
100
AcDbSpline
210
0.0
220
0.0
230
1.0
 70
    12
 71
     2
 72
     6
 73
     3
 74
     0
 42
0.0000000001
 43
0.0000000001
 40
0.0
 40
0.0
 40
0.0
 40
0.1240570348474872
 40
0.1240570348474872
 40
0.1240570348474872
 10
35.37886092077365
 20
186.6702356391212
 30
0.0
 41
1.0
 10
35.45025320769285
 20
186.6701396345489
 30
0.0
 41
0.81438764496941
 10
35.47346879430086
 20
186.6026273809434
 30
0.0
 41
1.0
  0
SPLINE
  5
91
330
1F
100
AcDbEntity
  8
PREDEFINITO
100
AcDbSpline
210
0.0
220
0.0
230
1.0
 70
    24
 71
     2
 72
     6
 73
     3
 74
     0
 42
0.0000000001
 43
0.0000000001
 40
0.0
 40
0.0
 40
0.0
 40
1.090413151051748
 40
1.090413151051748
 40
1.090413151051748
 10
35.47346879430086
 20
186.6026273809434
 30
0.0
 10
35.64951004264135
 20
186.0866234661677
 30
0.0
 10
35.82555129098183
 20
185.5706195513919
 30
0.0
  0
SPLINE
  5
92
330
1F
100
AcDbEntity
  8
PREDEFINITO
100
AcDbSpline
210
0.0
220
0.0
230
1.0
 70
    24
 71
     2
 72
     6
 73
     3
 74
     0
 42
0.0000000001
 43
0.0000000001
 40
-17.9109622289767
 40
-17.9109622289767
 40
-17.9109622289767
 40
0.0
 40
0.0
 40
0.0
 10
35.82555129098183
 20
185.5706195513919
 30
0.0
 10
26.86950951850497
 20
185.5704275952577
 30
0.0
 10
17.9134677460281
 20
185.5702356391234
 30
0.0
  0
SPLINE
  5
93
330
1F
100
AcDbEntity
  8
PREDEFINITO
100
AcDbSpline
210
0.0
220
0.0
230
1.0
 70
    12
 71
     2
 72
     8
 73
     5
 74
     0
 42
0.0000000001
 43
0.0000000001
 40
0.0
 40
0.0
 40
0.0
 40
307.7041910561693
 40
307.7041910561693
 40
315.7963631353214
 40
315.7963631353214
 40
315.7963631353214
 10
17.9134677460281
 20
185.5702356391234
 30
0.0
 41
1.0
 10
0.2971335583989001
 20
185.5702356391234
 30
0.0
 41
0.712995339344093
 10
0.0025055156736045
 20
185.5702356391234
 30
0.0
 41
1.0
 10
-0.0030609927774063
 20
185.5702356391234
 30
0.0
 41
0.9924521954232262
 10
0.0037383290232826
 20
185.5712724757523
 30
0.0
 41
0.9853013833816883
  0
SPLINE
  5
94
330
1F
100
AcDbEntity
  8
PREDEFINITO
100
AcDbSpline
210
0.0
220
0.0
230
1.0
 70
    24
 71
     2
 72
     6
 73
     3
 74
     0
 42
0.0000000001
 43
0.0000000001
 40
0.0
 40
0.0
 40
0.0
 40
1.089032885826578
 40
1.089032885826578
 40
1.089032885826578
 10
0.0037383290232826
 20
185.5712724757523
 30
0.0
 10
0.1786025133893134
 20
186.0869499283479
 30
0.0
 10
0.3534666977553442
 20
186.6026273809434
 30
0.0
  0
SPLINE
  5
95
330
1F
100
AcDbEntity
  8
PREDEFINITO
100
AcDbSpline
210
0.0
220
0.0
230
1.0
 70
    12
 71
     2
 72
     6
 73
     3
 74
     0
 42
0.0000000001
 43
0.0000000001
 40
0.0
 40
0.0
 40
0.0
 40
0.1240640819370607
 40
0.1240640819370607
 40
0.1240640819370607
 10
0.3534666977553442
 20
186.6026273809434
 30
0.0
 41
1.0
 10
0.3766686183330482
 20
186.6701587581603
 30
0.0
 41
0.8142320476326169
 10
0.4576159898122384
 20
186.6702356391235
 30
0.0
 41
1.0
  0
SPLINE
  5
96
330
1F
100
AcDbEntity
  8
PREDEFINITO
100
AcDbSpline
210
0.0
220
0.0
230
1.0
 70
    28
 71
     3
 72
    10
 73
     6
 74
     0
 42
0.0000000001
 43
0.0000000001
 40
817.5521430002993
 40
817.5521430002993
 40
817.5521430002993
 40
817.5521430002993
 40
826.0318652178577
 40
826.0318652178577
 40
1097.38297617973
 40
1097.38297617973
 40
1097.38297617973
 40
1097.38297617973
 10
0.4576159898122384
 20
186.6702356391235
 30
0.0
 41
1.0
 10
0.4479188214510389
 20
186.6702356391235
 30
0.0
 41
1.0
 10
0.445536879220335
 20
186.6702356391235
 30
0.0
 41
1.0
 10
0.6140218421600565
 20
186.6702356391235
 30
0.0
 41
1.0
 10
8.384338944883808
 20
186.6702356391234
 30
0.0
 41
1.0
 10
17.91647214009119
 20
186.6702356391235
 30
0.0
 41
1.0
  0
SPLINE
  5
97
330
1F
100
AcDbEntity
  8
PREDEFINITO
100
AcDbSpline
210
0.0
220
0.0
230
1.0
 70
    24
 71
     2
 72
     6
 73
     3
 74
     0
 42
0.0000000001
 43
0.0000000001
 40
0.0
 40
0.0
 40
0.0
 40
17.45681647374402
 40
17.45681647374402
 40
17.45681647374402
 10
17.91647214009119
 20
186.6702356391235
 30
0.0
 10
26.64638257399475
 20
186.6702356391234
 30
0.0
 10
35.3762930078983
 20
186.6702356391234
 30
0.0
  0
SPLINE
  5
98
330
1F
100
AcDbEntity
  8
LINEE VISIBILI 2D
100
AcDbSpline
210
0.0
220
0.0
230
1.0
 70
    12
 71
     2
 72
     6
 73
     3
 74
     0
 42
0.0000000001
 43
0.0000000001
 40
0.0
 40
0.0
 40
0.0
 40
0.4979365303628671
 40
0.4979365303628671
 40
0.4979365303628671
 10
61.33501792048456
 20
187.2114924819676
 30
0.0
 41
1.0
 10
61.26262888465192
 20
186.973253349235
 30
0.0
 41
0.9998444321414844
 10
61.18188190628094
 20
186.7377157039255
 30
0.0
 41
1.0
  0
SPLINE
  5
99
330
1F
100
AcDbEntity
  8
LINEE VISIBILI 2D
100
AcDbSpline
210
0.0
220
0.0
230
1.0
 70
    12
 71
     2
 72
     6
 73
     3
 74
     0
 42
0.0000000001
 43
0.0000000001
 40
0.0
 40
0.0
 40
0.0
 40
0.1238460439410495
 40
0.1238460439410495
 40
0.1238460439410495
 10
61.18188190628094
 20
186.7377157039255
 30
0.0
 41
1.0
 10
61.15874744314077
 20
186.6702747542152
 30
0.0
 41
0.8139385547300622
 10
61.08744889089311
 20
186.6702356391233
 30
0.0
 41
1.0
  0
SPLINE
  5
9A
330
1F
100
AcDbEntity
  8
PREDEFINITO
100
AcDbSpline
210
0.0
220
0.0
230
1.0
 70
    24
 71
     2
 72
     6
 73
     3
 74
     0
 42
0.0000000001
 43
0.0000000001
 40
0.0
 40
0.0
 40
0.0
 40
0.4766234305654109
 40
0.4766234305654109
 40
0.4766234305654109
 10
60.85839447994294
 20
187.2190287830854
 30
0.0
 10
61.09726251582853
 20
187.2190287830854
 30
0.0
 10
61.33613055171412
 20
187.2190287830854
 30
0.0
  0
SPLINE
  5
9B
330
1F
100
AcDbEntity
  8
PREDEFINITO
100
AcDbSpline
210
0.0
220
0.0
230
1.0
 70
    24
 71
     2
 72
     6
 73
     3
 74
     0
 42
0.0000000001
 43
0.0000000001
 40
0.0
 40
0.0
 40
0.0
 40
22.15545593963429
 40
22.15545593963429
 40
22.15545593963429
 10
61.33613055171412
 20
187.2190287830854
 30
0.0
 10
64.93915682946383
 20
197.6946322111044
 30
0.0
 10
68.54218310721353
 20
208.1702356391234
 30
0.0
  0
SPLINE
  5
9C
330
1F
100
AcDbEntity
  8
PREDEFINITO
100
AcDbSpline
210
0.0
220
0.0
230
1.0
 70
    24
 71
     2
 72
     6
 73
     3
 74
     0
 42
0.0000000001
 43
0.0000000001
 40
-19.79015748638609
 40
-19.79015748638609
 40
-19.79015748638609
 40
0.0
 40
0.0
 40
0.0
 10
68.54218310721353
 20
208.1702356391234
 30
0.0
 10
78.43972247881004
 20
208.1702356391234
 30
0.0
 10
88.33726185040656
 20
208.1702356391234
 30
0.0
  0
SPLINE
  5
9D
330
1F
100
AcDbEntity
  8
PREDEFINITO
100
AcDbSpline
210
0.0
220
0.0
230
1.0
 70
    24
 71
     2
 72
     6
 73
     3
 74
     0
 42
0.0000000001
 43
0.0000000001
 40
0.0
 40
0.0
 40
0.0
 40
22.66443429070356
 40
22.66443429070356
 40
22.66443429070356
 10
88.33726185040656
 20
208.1702356391234
 30
0.0
 10
92.02495215092553
 20
197.4539756715244
 30
0.0
 10
95.7126424514445
 20
186.7377157039255
 30
0.0
  0
SPLINE
  5
9E
330
1F
100
AcDbEntity
  8
PREDEFINITO
100
AcDbSpline
210
0.0
220
0.0
230
1.0
 70
    12
 71
     2
 72
     6
 73
     3
 74
     0
 42
0.0000000001
 43
0.0000000001
 40
0.0
 40
0.0
 40
0.0
 40
0.1075253674214125
 40
0.1075253674214125
 40
0.1075253674214125
 10
95.7126424514445
 20
186.7377157039255
 30
0.0
 41
1.0
 10
95.7320311074264
 20
186.681335533242
 30
0.0
 41
0.8589263934107801
 10
95.7908488349882
 20
186.6715826592271
 30
0.0
 41
1.0
  0
POLYLINE
  5
9F
330
1F
100
AcDbEntity
  8
PREDEFINITO
100
AcDb2dPolyline
 66
     1
 10
0.0
 20
0.0
 30
0.0
  0
VERTEX
  5
A1
330
9F
100
AcDbEntity
  8
PREDEFINITO
100
AcDbVertex
100
AcDb2dVertex
 10
95.7908488349882
 20
186.6715826592271
 30
0.0
  0
VERTEX
  5
A2
330
9F
100
AcDbEntity
  8
PREDEFINITO
100
AcDbVertex
100
AcDb2dVertex
 10
95.80002070876431
 20
186.6702356391235
 30
0.0
  0
SEQEND
  5
A0
330
9F
100
AcDbEntity
  8
PREDEFINITO
  0
SPLINE
  5
A3
330
1F
100
AcDbEntity
  8
LINEE VISIBILI 2D
100
AcDbSpline
210
0.0
220
0.0
230
1.0
 70
    24
 71
     2
 72
     6
 73
     3
 74
     0
 42
0.0000000001
 43
0.0000000001
 40
0.0
 40
0.0
 40
0.0
 40
0.2000000000000171
 40
0.2000000000000171
 40
0.2000000000000171
 10
19.08846774602804
 20
68.17836146388842
 30
0.0
 10
19.08846774602804
 20
68.07836146388841
 30
0.0
 10
19.08846774602804
 20
67.9783614638884
 30
0.0
  0
SPLINE
  5
A4
330
1F
100
AcDbEntity
  8
LINEE VISIBILI 2D
100
AcDbSpline
210
0.0
220
0.0
230
1.0
 70
    24
 71
     2
 72
     6
 73
     3
 74
     0
 42
0.0000000001
 43
0.0000000001
 40
0.0
 40
0.0
 40
0.0
 40
1.174999999999997
 40
1.174999999999997
 40
1.174999999999997
 10
19.08846774602804
 20
67.9783614638884
 30
0.0
 10
18.50096774602805
 20
67.9783614638884
 30
0.0
 10
17.91346774602805
 20
67.9783614638884
 30
0.0
  0
SPLINE
  5
A5
330
1F
100
AcDbEntity
  8
LINEE VISIBILI 2D
100
AcDbSpline
210
0.0
220
0.0
230
1.0
 70
    24
 71
     2
 72
     6
 73
     3
 74
     0
 42
0.0000000001
 43
0.0000000001
 40
0.0
 40
0.0
 40
0.0
 40
1.174999999999997
 40
1.174999999999997
 40
1.174999999999997
 10
17.91346774602805
 20
67.9783614638884
 30
0.0
 10
17.32596774602805
 20
67.9783614638884
 30
0.0
 10
16.73846774602805
 20
67.9783614638884
 30
0.0
  0
SPLINE
  5
A6
330
1F
100
AcDbEntity
  8
LINEE VISIBILI 2D
100
AcDbSpline
210
0.0
220
0.0
230
1.0
 70
    24
 71
     2
 72
     6
 73
     3
 74
     0
 42
0.0000000001
 43
0.0000000001
 40
0.0
 40
0.0
 40
0.0
 40
0.2000000000000171
 40
0.2000000000000171
 40
0.2000000000000171
 10
16.73846774602805
 20
67.9783614638884
 30
0.0
 10
16.73846774602805
 20
68.07836146388841
 30
0.0
 10
16.73846774602805
 20
68.17836146388842
 30
0.0
  0
POLYLINE
  5
A7
330
1F
100
AcDbEntity
  8
PREDEFINITO
100
AcDb2dPolyline
 66
     1
 10
0.0
 20
0.0
 30
0.0
  0
VERTEX
  5
A9
330
A7
100
AcDbEntity
  8
PREDEFINITO
100
AcDbVertex
100
AcDb2dVertex
 10
0.5643501730053249
 20
186.6702356391235
 30
0.0
  0
VERTEX
  5
AA
330
A7
100
AcDbEntity
  8
PREDEFINITO
100
AcDbVertex
100
AcDb2dVertex
 10
0.5794892045132423
 20
186.6752124635668
 30
0.0
  0
SEQEND
  5
A8
330
A7
100
AcDbEntity
  8
PREDEFINITO
  0
SPLINE
  5
AB
330
1F
100
AcDbEntity
  8
PREDEFINITO
100
AcDbSpline
210
0.0
220
0.0
230
1.0
 70
    12
 71
     2
 72
     6
 73
     3
 74
     0
 42
0.0000000001
 43
0.0000000001
 40
0.0
 40
0.0
 40
0.0
 40
0.0923323769779943
 40
0.0923323769779943
 40
0.0923323769779943
 10
0.5794892045132423
 20
186.6752124635668
 30
0.0
 41
1.0
 10
0.6267216621400936
 20
186.6907397216688
 30
0.0
 41
0.8961747251487187
 10
0.6430084017971203
 20
186.7377157039255
 30
0.0
 41
1.0
  0
SPLINE
  5
AC
330
1F
100
AcDbEntity
  8
PREDEFINITO
100
AcDbSpline
210
0.0
220
0.0
230
1.0
 70
    24
 71
     2
 72
     6
 73
     3
 74
     0
 42
0.0000000001
 43
0.0000000001
 40
0.0
 40
0.0
 40
0.0
 40
22.66443429070356
 40
22.66443429070356
 40
22.66443429070356
 10
0.6430084017971203
 20
186.7377157039255
 30
0.0
 10
4.330698702316083
 20
197.4539756715245
 30
0.0
 10
8.018389002835047
 20
208.1702356391234
 30
0.0
  0
SPLINE
  5
AD
330
1F
100
AcDbEntity
  8
PREDEFINITO
100
AcDbSpline
210
0.0
220
0.0
230
1.0
 70
    24
 71
     2
 72
     6
 73
     3
 74
     0
 42
0.0000000001
 43
0.0000000001
 40
-9.890157486386123
 40
-9.890157486386123
 40
-9.890157486386123
 40
0.0
 40
0.0
 40
0.0
 10
8.018389002835047
 20
208.1702356391234
 30
0.0
 10
12.96592837443158
 20
208.1702356391234
 30
0.0
 10
17.9134677460281
 20
208.1702356391234
 30
0.0
  0
SPLINE
  5
AE
330
1F
100
AcDbEntity
  8
PREDEFINITO
100
AcDbSpline
210
0.0
220
0.0
230
1.0
 70
    28
 71
     2
 72
     8
 73
     5
 74
     0
 42
0.0000000001
 43
0.0000000001
 40
-596.82423019953
 40
-596.82423019953
 40
-596.82423019953
 40
-295.756514840147
 40
-295.756514840147
 40
-289.0867365028973
 40
-289.0867365028973
 40
-289.0867365028973
 10
17.9134677460281
 20
208.1702356391234
 30
0.0
 41
1.0
 10
27.81346774602808
 20
208.1702356391234
 30
0.0
 41
0.707106781186548
 10
27.81346774602808
 20
208.1702356391234
 30
0.0
 41
1.0
 10
27.81346774602808
 20
208.1702356391234
 30
0.0
 41
0.9935113174003484
 10
27.80854648922115
 20
208.1702356391234
 30
0.0
 41
0.9873101320807607
  0
SPLINE
  5
AF
330
1F
100
AcDbEntity
  8
PREDEFINITO
100
AcDbSpline
210
0.0
220
0.0
230
1.0
 70
    24
 71
     2
 72
     6
 73
     3
 74
     0
 42
0.0000000001
 43
0.0000000001
 40
0.0
 40
0.0
 40
0.0
 40
22.66443429070357
 40
22.66443429070357
 40
22.66443429070357
 10
27.80854648922115
 20
208.1702356391234
 30
0.0
 10
31.49623678974012
 20
197.4539756715244
 30
0.0
 10
35.18392709025908
 20
186.7377157039255
 30
0.0
  0
SPLINE
  5
B0
330
1F
100
AcDbEntity
  8
PREDEFINITO
100
AcDbSpline
210
0.0
220
0.0
230
1.0
 70
    12
 71
     2
 72
     6
 73
     3
 74
     0
 42
0.0000000001
 43
0.0000000001
 40
0.0
 40
0.0
 40
0.0
 40
0.0923441740914022
 40
0.0923441740914022
 40
0.0923441740914022
 10
35.18392709025908
 20
186.7377157039255
 30
0.0
 41
1.0
 10
35.20017070116251
 20
186.6906929180328
 30
0.0
 41
0.8955506364070891
 10
35.24745784056937
 20
186.6752357599819
 30
0.0
 41
1.0
  0
POLYLINE
  5
B1
330
1F
100
AcDbEntity
  8
PREDEFINITO
100
AcDb2dPolyline
 66
     1
 10
0.0
 20
0.0
 30
0.0
  0
VERTEX
  5
B3
330
B1
100
AcDbEntity
  8
PREDEFINITO
100
AcDbVertex
100
AcDb2dVertex
 10
35.24745784056937
 20
186.6752357599819
 30
0.0
  0
VERTEX
  5
B4
330
B1
100
AcDbEntity
  8
PREDEFINITO
100
AcDbVertex
100
AcDb2dVertex
 10
35.26494109604126
 20
186.6702356391234
 30
0.0
  0
SEQEND
  5
B2
330
B1
100
AcDbEntity
  8
PREDEFINITO
  0
SPLINE
  5
B5
330
1F
100
AcDbEntity
  8
LINEE VISIBILI 2D
100
AcDbSpline
210
0.0
220
0.0
230
1.0
 70
    24
 71
     2
 72
     6
 73
     3
 74
     0
 42
0.0000000001
 43
0.0000000001
 40
0.0
 40
0.0
 40
0.0
 40
0.551488051311253
 40
0.551488051311253
 40
0.551488051311253
 10
28.76990797821637
 20
68.72984951519967
 30
0.0
 10
28.76990176573744
 20
68.45410548954405
 30
0.0
 10
28.7698955532585
 20
68.17836146388842
 30
0.0
  0
SPLINE
  5
B6
330
1F
100
AcDbEntity
  8
LINEE VISIBILI 2D
100
AcDbSpline
210
0.0
220
0.0
230
1.0
 70
    28
 71
     2
 72
     6
 73
     3
 74
     0
 42
0.0000000001
 43
0.0000000001
 40
-50.62685505265662
 40
-50.62685505265662
 40
-50.62685505265662
 40
-34.1065128775792
 40
-34.1065128775792
 40
-34.1065128775792
 10
28.7698955532585
 20
68.17836146388842
 30
0.0
 41
0.9820273325923615
 10
28.78559412101783
 20
68.17836146388842
 30
0.0
 41
0.716387165877119
 10
18.42065478825745
 20
68.17836146388842
 30
0.0
 41
1.0
  0
SPLINE
  5
B7
330
1F
100
AcDbEntity
  8
LINEE VISIBILI 2D
100
AcDbSpline
210
0.0
220
0.0
230
1.0
 70
    24
 71
     2
 72
     6
 73
     3
 74
     0
 42
0.0000000001
 43
0.0000000001
 40
0.0
 40
0.0
 40
0.0
 40
11.36360242450188
 40
11.36360242450188
 40
11.36360242450188
 10
18.42065478825745
 20
68.17836146388842
 30
0.0
 10
12.73884736352758
 20
68.17836146388842
 30
0.0
 10
7.057039938797704
 20
68.17836146388842
 30
0.0
  0
SPLINE
  5
B8
330
1F
100
AcDbEntity
  8
LINEE VISIBILI 2D
100
AcDbSpline
210
0.0
220
0.0
230
1.0
 70
    24
 71
     2
 72
     6
 73
     3
 74
     0
 42
0.0000000001
 43
0.0000000001
 40
0.0
 40
0.0
 40
0.0
 40
0.5519202817633015
 40
0.5519202817633015
 40
0.5519202817633015
 10
7.057039938797704
 20
68.17836146388842
 30
0.0
 10
7.057033726318773
 20
68.45432160477007
 30
0.0
 10
7.057027513839842
 20
68.73028174565172
 30
0.0
  0
SPLINE
  5
B9
330
1F
100
AcDbEntity
  8
LINEE VISIBILI 2D
100
AcDbSpline
210
0.0
220
0.0
230
1.0
 70
    24
 71
     2
 72
     6
 73
     3
 74
     0
 42
0.0000000001
 43
0.0000000001
 40
0.0
 40
0.0
 40
0.0
 40
1.621576005272035
 40
1.621576005272035
 40
1.621576005272035
 10
61.29389924938687
 20
185.5702356391239
 30
0.0
 10
61.03128604119395
 20
184.8031559510139
 30
0.0
 10
60.76867283300103
 20
184.0360762629039
 30
0.0
  0
SPLINE
  5
BA
330
1F
100
AcDbEntity
  8
LINEE VISIBILI 2D
100
AcDbSpline
210
0.0
220
0.0
230
1.0
 70
    12
 71
     2
 72
     6
 73
     3
 74
     0
 42
0.0000000001
 43
0.0000000001
 40
-0.5373438242145228
 40
-0.5373438242145228
 40
-0.5373438242145228
 40
0.0
 40
0.0
 40
0.0
 10
60.76867283300103
 20
184.0360762629039
 30
0.0
 41
1.0
 10
60.68829099035039
 20
183.7797104243175
 30
0.0
 41
0.9999995706146826
 10
60.60835637000551
 20
183.5232048264754
 30
0.0
 41
1.0
  0
SPLINE
  5
BB
330
1F
100
AcDbEntity
  8
LINEE VISIBILI 2D
100
AcDbSpline
210
0.0
220
0.0
230
1.0
 70
    12
 71
     2
 72
     6
 73
     3
 74
     0
 42
0.0000000001
 43
0.0000000001
 40
0.0
 40
0.0
 40
0.0
 40
0.0150200416214861
 40
0.0150200416214861
 40
0.0150200416214861
 10
60.60835637000551
 20
183.5232048264754
 30
0.0
 41
1.0
 10
60.60613270658324
 20
183.516031544159
 30
0.0
 41
0.9999998058471382
 10
60.60248934617682
 20
183.5040807210214
 30
0.0
 41
1.0
  0
SPLINE
  5
BC
330
1F
100
AcDbEntity
  8
LINEE VISIBILI 2D
100
AcDbSpline
210
0.0
220
0.0
230
1.0
 70
    24
 71
     2
 72
     6
 73
     3
 74
     0
 42
0.0000000001
 43
0.0000000001
 40
0.0
 40
0.0
 40
0.0
 40
1.0
 40
1.0
 40
1.0
 10
60.60248934617682
 20
183.5040807210214
 30
0.0
 10
60.10176799854723
 20
183.501695487155
 30
0.0
 10
59.60104665091765
 20
183.4993102532886
 30
0.0
  0
SPLINE
  5
BD
330
1F
100
AcDbEntity
  8
LINEE VISIBILI 2D
100
AcDbSpline
210
0.0
220
0.0
230
1.0
 70
    12
 71
     2
 72
     8
 73
     5
 74
     0
 42
0.0000000001
 43
0.0000000001
 40
0.0
 40
0.0
 40
0.0
 40
0.0474200445352859
 40
0.0474200445352859
 40
0.0948400891305623
 40
0.0948400891305623
 40
0.0948400891305623
 10
59.60104665091765
 20
183.4993102532886
 30
0.0
 41
0.999999999723177
 10
59.57540252903642
 20
183.4994646196289
 30
0.0
 41
0.8905916045935999
 10
59.56049225596398
 20
183.5203291486897
 30
0.0
 41
1.0
 10
59.54558198287035
 20
183.5411936777803
 30
0.0
 41
0.8905916044551884
 10
59.55374238129895
 20
183.5655056621074
 30
0.0
 41
1.0
  0
SPLINE
  5
BE
330
1F
100
AcDbEntity
  8
LINEE VISIBILI 2D
100
AcDbSpline
210
0.0
220
0.0
230
1.0
 70
    12
 71
     2
 72
     6
 73
     3
 74
     0
 42
0.0000000001
 43
0.0000000001
 40
0.0
 40
0.0
 40
0.0
 40
0.5161917741061188
 40
0.5161917741061188
 40
0.5161917741061188
 10
59.55374238129895
 20
183.5655056621074
 30
0.0
 41
1.0
 10
59.63734439981046
 20
183.8096867192218
 30
0.0
 41
1.0
 10
59.72094601236476
 20
184.0538675049602
 30
0.0
 41
1.0
  0
SPLINE
  5
BF
330
1F
100
AcDbEntity
  8
LINEE VISIBILI 2D
100
AcDbSpline
210
0.0
220
0.0
230
1.0
 70
    24
 71
     2
 72
     6
 73
     3
 74
     0
 42
0.0000000001
 43
0.0000000001
 40
-2.763840103930417
 40
-2.763840103930417
 40
-2.763840103930417
 40
0.0
 40
0.0
 40
0.0
 10
59.72094601236476
 20
184.0538675049602
 30
0.0
 10
60.16857391695507
 20
185.3612818550423
 30
0.0
 10
60.61620182154537
 20
186.6686962051244
 30
0.0
  0
SPLINE
  5
C0
330
1F
100
AcDbEntity
  8
LINEE VISIBILI 2D
100
AcDbSpline
210
0.0
220
0.0
230
1.0
 70
    24
 71
     2
 72
     6
 73
     3
 74
     0
 42
0.0000000001
 43
0.0000000001
 40
0.0
 40
0.0
 40
0.0
 40
0.5491196303511737
 40
0.5491196303511737
 40
0.5491196303511737
 10
60.61620182154537
 20
186.6686962051244
 30
0.0
 10
60.70513652801811
 20
186.9284532263844
 30
0.0
 10
60.79407123449084
 20
187.1882102476444
 30
0.0
  0
SPLINE
  5
C1
330
1F
100
AcDbEntity
  8
LINEE VISIBILI 2D
100
AcDbSpline
210
0.0
220
0.0
230
1.0
 70
    24
 71
     2
 72
     6
 73
     3
 74
     0
 42
0.0000000001
 43
0.0000000001
 40
0.0
 40
0.0
 40
0.0
 40
0.2000000000000171
 40
0.2000000000000171
 40
0.2000000000000171
 10
71.93152261432581
 20
68.17836146388842
 30
0.0
 10
71.93152261432581
 20
68.07836146388841
 30
0.0
 10
71.93152261432581
 20
67.9783614638884
 30
0.0
  0
SPLINE
  5
C2
330
1F
100
AcDbEntity
  8
LINEE VISIBILI 2D
100
AcDbSpline
210
0.0
220
0.0
230
1.0
 70
    24
 71
     2
 72
     6
 73
     3
 74
     0
 42
0.0000000001
 43
0.0000000001
 40
0.0
 40
0.0
 40
0.0
 40
1.174999999999997
 40
1.174999999999997
 40
1.174999999999997
 10
71.93152261432581
 20
67.9783614638884
 30
0.0
 10
71.34402261432581
 20
67.9783614638884
 30
0.0
 10
70.75652261432582
 20
67.9783614638884
 30
0.0
  0
SPLINE
  5
C3
330
1F
100
AcDbEntity
  8
LINEE VISIBILI 2D
100
AcDbSpline
210
0.0
220
0.0
230
1.0
 70
    24
 71
     2
 72
     6
 73
     3
 74
     0
 42
0.0000000001
 43
0.0000000001
 40
0.0
 40
0.0
 40
0.0
 40
1.175000000000011
 40
1.175000000000011
 40
1.175000000000011
 10
70.75652261432582
 20
67.9783614638884
 30
0.0
 10
70.16902261432581
 20
67.9783614638884
 30
0.0
 10
69.5815226143258
 20
67.9783614638884
 30
0.0
  0
SPLINE
  5
C4
330
1F
100
AcDbEntity
  8
LINEE VISIBILI 2D
100
AcDbSpline
210
0.0
220
0.0
230
1.0
 70
    24
 71
     2
 72
     6
 73
     3
 74
     0
 42
0.0000000001
 43
0.0000000001
 40
0.0
 40
0.0
 40
0.0
 40
0.2000000000000171
 40
0.2000000000000171
 40
0.2000000000000171
 10
69.5815226143258
 20
67.9783614638884
 30
0.0
 10
69.5815226143258
 20
68.07836146388841
 30
0.0
 10
69.5815226143258
 20
68.17836146388842
 30
0.0
  0
POLYLINE
  5
C5
330
1F
100
AcDbEntity
  8
PREDEFINITO
100
AcDb2dPolyline
 66
     1
 10
0.0
 20
0.0
 30
0.0
  0
VERTEX
  5
C7
330
C5
100
AcDbEntity
  8
PREDEFINITO
100
AcDbVertex
100
AcDb2dVertex
 10
95.90200315285139
 20
186.6702356391235
 30
0.0
  0
VERTEX
  5
C8
330
C5
100
AcDbEntity
  8
PREDEFINITO
100
AcDbVertex
100
AcDb2dVertex
 10
95.90757561960355
 20
186.6702356391235
 30
0.0
  0
SEQEND
  5
C6
330
C5
100
AcDbEntity
  8
PREDEFINITO
  0
SPLINE
  5
C9
330
1F
100
AcDbEntity
  8
PREDEFINITO
100
AcDbSpline
210
0.0
220
0.0
230
1.0
 70
    12
 71
     2
 72
     6
 73
     3
 74
     0
 42
0.0000000001
 43
0.0000000001
 40
-0.1240929098165777
 40
-0.1240929098165777
 40
-0.1240929098165777
 40
0.0
 40
0.0
 40
0.0
 10
95.90757561960355
 20
186.6702356391235
 30
0.0
 41
1.0
 10
95.97903667493975
 20
186.6702356391233
 30
0.0
 41
0.813608449502829
 10
96.00218415548629
 20
186.6026273809434
 30
0.0
 41
1.0
  0
SPLINE
  5
CA
330
1F
100
AcDbEntity
  8
PREDEFINITO
100
AcDbSpline
210
0.0
220
0.0
230
1.0
 70
    24
 71
     2
 72
     6
 73
     3
 74
     0
 42
0.0000000001
 43
0.0000000001
 40
0.0
 40
0.0
 40
0.0
 40
1.091224731666301
 40
1.091224731666301
 40
1.091224731666301
 10
96.00218415548629
 20
186.6026273809434
 30
0.0
 10
96.17891750436397
 20
186.0864315100334
 30
0.0
 10
96.35565085324164
 20
185.5702356391234
 30
0.0
  0
SPLINE
  5
CB
330
1F
100
AcDbEntity
  8
PREDEFINITO
100
AcDbSpline
210
0.0
220
0.0
230
1.0
 70
    24
 71
     2
 72
     6
 73
     3
 74
     0
 42
0.0000000001
 43
0.0000000001
 40
-35.8169141247298
 40
-35.8169141247298
 40
-35.8169141247298
 40
0.0
 40
0.0
 40
0.0
 10
96.35565085324164
 20
185.5702356391234
 30
0.0
 10
78.44719379087674
 20
185.5702356391234
 30
0.0
 10
60.53873672851184
 20
185.5702356391234
 30
0.0
  0
SPLINE
  5
CC
330
1F
100
AcDbEntity
  8
PREDEFINITO
100
AcDbSpline
210
0.0
220
0.0
230
1.0
 70
    12
 71
     2
 72
     6
 73
     3
 74
     0
 42
0.0000000001
 43
0.0000000001
 40
-1.091290135327061
 40
-1.091290135327061
 40
-1.091290135327061
 40
0.0
 40
0.0
 40
0.0
 10
60.53873672301422
 20
185.5702356391151
 30
0.0
 41
1.0
 10
60.71556920151814
 20
186.086432127297
 30
0.0
 41
0.9999999999939075
 10
60.89240528377564
 20
186.6026273809382
 30
0.0
 41
1.0
  0
SPLINE
  5
CD
330
1F
100
AcDbEntity
  8
PREDEFINITO
100
AcDbSpline
210
0.0
220
0.0
230
1.0
 70
    12
 71
     2
 72
     6
 73
     3
 74
     0
 42
0.0000000001
 43
0.0000000001
 40
0.0
 40
0.0
 40
0.0
 40
0.0633795360393292
 40
0.0633795360393292
 40
0.0633795360393292
 10
60.89240528377564
 20
186.6026273809382
 30
0.0
 41
1.0
 10
60.90203814610522
 20
186.6342430204421
 30
0.0
 41
0.9393686469929395
 10
60.92977354602705
 20
186.6522176772924
 30
0.0
 41
1.0
  0
SPLINE
  5
CE
330
1F
100
AcDbEntity
  8
PREDEFINITO
100
AcDbSpline
210
0.0
220
0.0
230
1.0
 70
    12
 71
     2
 72
     6
 73
     3
 74
     0
 42
0.0000000001
 43
0.0000000001
 40
0.0
 40
0.0
 40
0.0
 40
0.0611681525519931
 40
0.0611681525519931
 40
0.0611681525519931
 10
60.92977354602705
 20
186.6522176772924
 30
0.0
 41
1.0
 10
60.95524805478983
 20
186.6712403828876
 30
0.0
 41
0.943913480856251
 10
60.98702547467937
 20
186.6702356391235
 30
0.0
 41
1.0
  0
SPLINE
  5
CF
330
1F
100
AcDbEntity
  8
PREDEFINITO
100
AcDbSpline
210
0.0
220
0.0
230
1.0
 70
    24
 71
     2
 72
     6
 73
     3
 74
     0
 42
0.0000000001
 43
0.0000000001
 40
0.0
 40
0.0
 40
0.0
 40
34.91497767817202
 40
34.91497767817202
 40
34.91497767817202
 10
60.98702547467937
 20
186.6702356391235
 30
0.0
 10
78.44451431376538
 20
186.6702356391235
 30
0.0
 10
95.90200315285139
 20
186.6702356391235
 30
0.0
  0
SPLINE
  5
D0
330
1F
100
AcDbEntity
  8
LINEE VISIBILI 2D
100
AcDbSpline
210
0.0
220
0.0
230
1.0
 70
    24
 71
     2
 72
     6
 73
     3
 74
     0
 42
0.0000000001
 43
0.0000000001
 40
0.0
 40
0.0
 40
0.0
 40
1.600000000000009
 40
1.600000000000009
 40
1.600000000000009
 10
18.7134677460281
 20
70.67836146388842
 30
0.0
 10
17.9134677460281
 20
70.67836146388842
 30
0.0
 10
17.11346774602809
 20
70.67836146388842
 30
0.0
  0
SPLINE
  5
D1
330
1F
100
AcDbEntity
  8
LINEE VISIBILI 2D
100
AcDbSpline
210
0.0
220
0.0
230
1.0
 70
    24
 71
     2
 72
     6
 73
     3
 74
     0
 42
0.0000000001
 43
0.0000000001
 40
0.0
 40
0.0
 40
0.0
 40
114.8918741752351
 40
114.8918741752351
 40
114.8918741752351
 10
17.11346774602809
 20
70.67836146388842
 30
0.0
 10
17.11346774602843
 20
128.1242985515059
 30
0.0
 10
17.11346774602877
 20
185.5702356391235
 30
0.0
  0
SPLINE
  5
D2
330
1F
100
AcDbEntity
  8
LINEE VISIBILI 2D
100
AcDbSpline
210
0.0
220
0.0
230
1.0
 70
    24
 71
     2
 72
     6
 73
     3
 74
     0
 42
0.0000000001
 43
0.0000000001
 40
0.0
 40
0.0
 40
0.0
 40
0.2000000000000171
 40
0.2000000000000171
 40
0.2000000000000171
 10
13.50450784924963
 20
68.17836146388842
 30
0.0
 10
13.50450784924963
 20
68.07836146388841
 30
0.0
 10
13.50450784924963
 20
67.9783614638884
 30
0.0
  0
SPLINE
  5
D3
330
1F
100
AcDbEntity
  8
LINEE VISIBILI 2D
100
AcDbSpline
210
0.0
220
0.0
230
1.0
 70
    24
 71
     2
 72
     6
 73
     3
 74
     0
 42
0.0000000001
 43
0.0000000001
 40
0.0
 40
0.0
 40
0.0
 40
1.174999999999997
 40
1.174999999999997
 40
1.174999999999997
 10
13.50450784924963
 20
67.9783614638884
 30
0.0
 10
12.91700784924964
 20
67.9783614638884
 30
0.0
 10
12.32950784924964
 20
67.9783614638884
 30
0.0
  0
SPLINE
  5
D4
330
1F
100
AcDbEntity
  8
LINEE VISIBILI 2D
100
AcDbSpline
210
0.0
220
0.0
230
1.0
 70
    24
 71
     2
 72
     6
 73
     3
 74
     0
 42
0.0000000001
 43
0.0000000001
 40
0.0
 40
0.0
 40
0.0
 40
1.175000000000011
 40
1.175000000000011
 40
1.175000000000011
 10
12.32950784924964
 20
67.9783614638884
 30
0.0
 10
11.74200784924963
 20
67.9783614638884
 30
0.0
 10
11.15450784924963
 20
67.9783614638884
 30
0.0
  0
SPLINE
  5
D5
330
1F
100
AcDbEntity
  8
LINEE VISIBILI 2D
100
AcDbSpline
210
0.0
220
0.0
230
1.0
 70
    24
 71
     2
 72
     6
 73
     3
 74
     0
 42
0.0000000001
 43
0.0000000001
 40
0.0
 40
0.0
 40
0.0
 40
0.2000000000000171
 40
0.2000000000000171
 40
0.2000000000000171
 10
11.15450784924963
 20
67.9783614638884
 30
0.0
 10
11.15450784924963
 20
68.07836146388841
 30
0.0
 10
11.15450784924963
 20
68.17836146388842
 30
0.0
  0
SPLINE
  5
D6
330
1F
100
AcDbEntity
  8
LINEE VISIBILI 2D
100
AcDbSpline
210
0.0
220
0.0
230
1.0
 70
    24
 71
     2
 72
     6
 73
     3
 74
     0
 42
0.0000000001
 43
0.0000000001
 40
0.0
 40
0.0
 40
0.0
 40
0.2000000000000171
 40
0.2000000000000171
 40
0.2000000000000171
 10
28.1235046508321
 20
68.17836146388842
 30
0.0
 10
28.1235046508321
 20
68.07836146388841
 30
0.0
 10
28.1235046508321
 20
67.9783614638884
 30
0.0
  0
SPLINE
  5
D7
330
1F
100
AcDbEntity
  8
LINEE VISIBILI 2D
100
AcDbSpline
210
0.0
220
0.0
230
1.0
 70
    24
 71
     2
 72
     6
 73
     3
 74
     0
 42
0.0000000001
 43
0.0000000001
 40
0.0
 40
0.0
 40
0.0
 40
1.17500000000004
 40
1.17500000000004
 40
1.17500000000004
 10
28.1235046508321
 20
67.9783614638884
 30
0.0
 10
27.53600465083208
 20
67.9783614638884
 30
0.0
 10
26.94850465083206
 20
67.9783614638884
 30
0.0
  0
SPLINE
  5
D8
330
1F
100
AcDbEntity
  8
LINEE VISIBILI 2D
100
AcDbSpline
210
0.0
220
0.0
230
1.0
 70
    24
 71
     2
 72
     6
 73
     3
 74
     0
 42
0.0000000001
 43
0.0000000001
 40
0.0
 40
0.0
 40
0.0
 40
1.174999999999997
 40
1.174999999999997
 40
1.174999999999997
 10
26.94850465083206
 20
67.9783614638884
 30
0.0
 10
26.36100465083207
 20
67.9783614638884
 30
0.0
 10
25.77350465083207
 20
67.9783614638884
 30
0.0
  0
SPLINE
  5
D9
330
1F
100
AcDbEntity
  8
LINEE VISIBILI 2D
100
AcDbSpline
210
0.0
220
0.0
230
1.0
 70
    24
 71
     2
 72
     6
 73
     3
 74
     0
 42
0.0000000001
 43
0.0000000001
 40
0.0
 40
0.0
 40
0.0
 40
0.2000000000000171
 40
0.2000000000000171
 40
0.2000000000000171
 10
25.77350465083207
 20
67.9783614638884
 30
0.0
 10
25.77350465083207
 20
68.07836146388841
 30
0.0
 10
25.77350465083207
 20
68.17836146388842
 30
0.0
  0
SPLINE
  5
DA
330
1F
100
AcDbEntity
  8
PREDEFINITO
100
AcDbSpline
210
0.0
220
0.0
230
1.0
 70
    24
 71
     2
 72
     6
 73
     3
 74
     0
 42
0.0000000001
 43
0.0000000001
 40
0.0
 40
0.0
 40
0.0
 40
114.8918741752351
 40
114.8918741752351
 40
114.8918741752351
 10
18.71346774602878
 20
185.5702356391235
 30
0.0
 10
18.71346774602844
 20
128.1242985515059
 30
0.0
 10
18.7134677460281
 20
70.67836146388842
 30
0.0
  0
SPLINE
  5
DB
330
1F
100
AcDbEntity
  8
PREDEFINITO
100
AcDbSpline
210
0.0
220
0.0
230
1.0
 70
    12
 71
     2
 72
     6
 73
     3
 74
     0
 42
0.0000000001
 43
0.0000000001
 40
0.0
 40
0.0
 40
0.0
 40
1.016257258295479
 40
1.016257258295479
 40
1.016257258295479
 10
18.7134677460281
 20
70.67836146388842
 30
0.0
 41
1.0
 10
18.66575231149951
 20
70.03582199480758
 30
0.0
 41
0.7111304675513753
 10
19.30770535085901
 20
69.98077631127069
 30
0.0
 41
1.0
  0
POLYLINE
  5
DC
330
1F
100
AcDbEntity
  8
PREDEFINITO
100
AcDb2dPolyline
 66
     1
 10
0.0
 20
0.0
 30
0.0
  0
VERTEX
  5
DE
330
DC
100
AcDbEntity
  8
PREDEFINITO
100
AcDbVertex
100
AcDb2dVertex
 10
19.30770535085901
 20
69.98077631127069
 30
0.0
  0
VERTEX
  5
DF
330
DC
100
AcDbEntity
  8
PREDEFINITO
100
AcDbVertex
100
AcDb2dVertex
 10
19.33586775192364
 20
69.9783614638884
 30
0.0
  0
SEQEND
  5
DD
330
DC
100
AcDbEntity
  8
PREDEFINITO
  0
SPLINE
  5
E0
330
1F
100
AcDbEntity
  8
LINEE VISIBILI 2D
100
AcDbSpline
210
0.0
220
0.0
230
1.0
 70
    24
 71
     2
 72
     6
 73
     3
 74
     0
 42
0.0000000001
 43
0.0000000001
 40
0.0
 40
0.0
 40
0.0
 40
0.2000000000000171
 40
0.2000000000000171
 40
0.2000000000000171
 10
24.67242764280662
 20
68.17836146388842
 30
0.0
 10
24.67242764280662
 20
68.07836146388841
 30
0.0
 10
24.67242764280662
 20
67.9783614638884
 30
0.0
  0
SPLINE
  5
E1
330
1F
100
AcDbEntity
  8
LINEE VISIBILI 2D
100
AcDbSpline
210
0.0
220
0.0
230
1.0
 70
    24
 71
     2
 72
     6
 73
     3
 74
     0
 42
0.0000000001
 43
0.0000000001
 40
0.0
 40
0.0
 40
0.0
 40
1.174999999999997
 40
1.174999999999997
 40
1.174999999999997
 10
24.67242764280662
 20
67.9783614638884
 30
0.0
 10
24.08492764280663
 20
67.9783614638884
 30
0.0
 10
23.49742764280663
 20
67.9783614638884
 30
0.0
  0
SPLINE
  5
E2
330
1F
100
AcDbEntity
  8
LINEE VISIBILI 2D
100
AcDbSpline
210
0.0
220
0.0
230
1.0
 70
    24
 71
     2
 72
     6
 73
     3
 74
     0
 42
0.0000000001
 43
0.0000000001
 40
0.0
 40
0.0
 40
0.0
 40
1.175000000000011
 40
1.175000000000011
 40
1.175000000000011
 10
23.49742764280663
 20
67.9783614638884
 30
0.0
 10
22.90992764280662
 20
67.9783614638884
 30
0.0
 10
22.32242764280662
 20
67.9783614638884
 30
0.0
  0
SPLINE
  5
E3
330
1F
100
AcDbEntity
  8
LINEE VISIBILI 2D
100
AcDbSpline
210
0.0
220
0.0
230
1.0
 70
    24
 71
     2
 72
     6
 73
     3
 74
     0
 42
0.0000000001
 43
0.0000000001
 40
0.0
 40
0.0
 40
0.0
 40
0.2000000000000171
 40
0.2000000000000171
 40
0.2000000000000171
 10
22.32242764280662
 20
67.9783614638884
 30
0.0
 10
22.32242764280662
 20
68.07836146388841
 30
0.0
 10
22.32242764280662
 20
68.17836146388842
 30
0.0
  0
SPLINE
  5
E4
330
1F
100
AcDbEntity
  8
LINEE VISIBILI 2D
100
AcDbSpline
210
0.0
220
0.0
230
1.0
 70
    24
 71
     2
 72
     6
 73
     3
 74
     0
 42
0.0000000001
 43
0.0000000001
 40
0.0
 40
0.0
 40
0.0
 40
1.148078887353904
 40
1.148078887353904
 40
1.148078887353904
 10
29.39377738003112
 20
69.8783614638884
 30
0.0
 10
29.39362191040625
 20
69.30352991035377
 30
0.0
 10
29.39346644078136
 20
68.72869835681917
 30
0.0
  0
SPLINE
  5
E5
330
1F
100
AcDbEntity
  8
LINEE VISIBILI 2D
100
AcDbSpline
210
0.0
220
0.0
230
1.0
 70
    12
 71
     2
 72
     8
 73
     5
 74
     0
 42
0.0000000001
 43
0.0000000001
 40
0.0
 40
0.0
 40
0.0
 40
0.8735779881912875
 40
0.8735779881912875
 40
11.47999831348387
 40
11.47999831348387
 40
11.47999831348387
 10
29.39346644078136
 20
68.72869835681917
 30
0.0
 41
1.0
 10
28.95667796335585
 20
68.7294574088093
 30
0.0
 41
0.9999995093611869
 10
28.519888839327
 20
68.72935109924182
 30
0.0
 41
1.0
 10
23.21667883149726
 20
68.73074258981084
 30
0.0
 41
0.9999999921544908
 10
17.91346819375719
 20
68.73080547993298
 30
0.0
 41
1.0
  0
SPLINE
  5
E6
330
1F
100
AcDbEntity
  8
LINEE VISIBILI 2D
100
AcDbSpline
210
0.0
220
0.0
230
1.0
 70
    12
 71
     2
 72
     6
 73
     3
 74
     0
 42
0.0000000001
 43
0.0000000001
 40
0.0
 40
0.0
 40
0.0
 40
11.48030677905109
 40
11.48030677905109
 40
11.48030677905109
 10
17.91346819375719
 20
68.73080547993298
 30
0.0
 41
1.0
 10
12.17331430874638
 20
68.73185329257916
 30
0.0
 41
0.9999999625296196
 10
6.433161158123695
 20
68.72975833557206
 30
0.0
 41
1.0
  0
SPLINE
  5
E7
330
1F
100
AcDbEntity
  8
LINEE VISIBILI 2D
100
AcDbSpline
210
0.0
220
0.0
230
1.0
 70
    24
 71
     2
 72
     6
 73
     3
 74
     0
 42
0.0000000001
 43
0.0000000001
 40
-1.148952176451191
 40
-1.148952176451191
 40
-1.148952176451191
 40
0.0
 40
0.0
 40
0.0
 10
6.433161158123695
 20
68.72975833557206
 30
0.0
 10
6.43315963507527
 20
69.30423442379461
 30
0.0
 10
6.433158112026845
 20
69.87871051201716
 30
0.0
  0
SPLINE
  5
E8
330
1F
100
AcDbEntity
  8
LINEE VISIBILI 2D
100
AcDbSpline
210
0.0
220
0.0
230
1.0
 70
    12
 71
     2
 72
     6
 73
     3
 74
     0
 42
0.0000000001
 43
0.0000000001
 40
0.0
 40
0.0
 40
0.0
 40
0.1567294031086264
 40
0.1567294031086264
 40
0.1567294031086264
 10
6.433158112026845
 20
69.87871051201716
 30
0.0
 41
1.0
 10
6.433503015488241
 20
69.9783619655896
 30
0.0
 41
0.7083276229676183
 10
6.533155065930004
 20
69.9783614638884
 30
0.0
 41
1.0
  0
SPLINE
  5
E9
330
1F
100
AcDbEntity
  8
LINEE VISIBILI 2D
100
AcDbSpline
210
0.0
220
0.0
230
1.0
 70
    24
 71
     2
 72
     6
 73
     3
 74
     0
 42
0.0000000001
 43
0.0000000001
 40
0.0
 40
0.0
 40
0.0
 40
11.38031268009811
 40
11.38031268009811
 40
11.38031268009811
 10
6.533155065930004
 20
69.9783614638884
 30
0.0
 10
12.22331140597906
 20
69.9783614638884
 30
0.0
 10
17.91346774602812
 20
69.9783614638884
 30
0.0
  0
SPLINE
  5
EA
330
1F
100
AcDbEntity
  8
LINEE VISIBILI 2D
100
AcDbSpline
210
0.0
220
0.0
230
1.0
 70
    24
 71
     2
 72
     6
 73
     3
 74
     0
 42
0.0000000001
 43
0.0000000001
 40
0.0
 40
0.0
 40
0.0
 40
11.38031268009809
 40
11.38031268009809
 40
11.38031268009809
 10
17.91346774602812
 20
69.9783614638884
 30
0.0
 10
23.60362408607716
 20
69.9783614638884
 30
0.0
 10
29.2937804261262
 20
69.9783614638884
 30
0.0
  0
SPLINE
  5
EB
330
1F
100
AcDbEntity
  8
LINEE VISIBILI 2D
100
AcDbSpline
210
0.0
220
0.0
230
1.0
 70
    12
 71
     2
 72
     6
 73
     3
 74
     0
 42
0.0000000001
 43
0.0000000001
 40
-0.1570796326794848
 40
-0.1570796326794848
 40
-0.1570796326794848
 40
0.0
 40
0.0
 40
0.0
 10
29.2937804261262
 20
69.9783614638884
 30
0.0
 41
1.0
 10
29.3937804261262
 20
69.97836146388838
 30
0.0
 41
0.7071067811865727
 10
29.39377738003112
 20
69.8783614638884
 30
0.0
 41
1.0
  0
SPLINE
  5
EC
330
1F
100
AcDbEntity
  8
LINEE VISIBILI 2D
100
AcDbSpline
210
0.0
220
0.0
230
1.0
 70
    24
 71
     2
 72
     6
 73
     3
 74
     0
 42
0.0000000001
 43
0.0000000001
 40
0.0
 40
0.0
 40
0.0
 40
0.2199999999999989
 40
0.2199999999999989
 40
0.2199999999999989
 10
82.55284550744979
 20
68.17836146388842
 30
0.0
 10
82.55284550744979
 20
68.06836146388842
 30
0.0
 10
82.55284550744979
 20
67.95836146388842
 30
0.0
  0
SPLINE
  5
ED
330
1F
100
AcDbEntity
  8
LINEE VISIBILI 2D
100
AcDbSpline
210
0.0
220
0.0
230
1.0
 70
    24
 71
     2
 72
     6
 73
     3
 74
     0
 42
0.0000000001
 43
0.0000000001
 40
0.0
 40
0.0
 40
0.0
 40
1.174999999999983
 40
1.174999999999983
 40
1.174999999999983
 10
82.55284550744979
 20
67.95836146388842
 30
0.0
 10
81.9653455074498
 20
67.95836146388842
 30
0.0
 10
81.3778455074498
 20
67.95836146388842
 30
0.0
  0
SPLINE
  5
EE
330
1F
100
AcDbEntity
  8
LINEE VISIBILI 2D
100
AcDbSpline
210
0.0
220
0.0
230
1.0
 70
    24
 71
     2
 72
     6
 73
     3
 74
     0
 42
0.0000000001
 43
0.0000000001
 40
0.0
 40
0.0
 40
0.0
 40
1.175000000000011
 40
1.175000000000011
 40
1.175000000000011
 10
81.3778455074498
 20
67.95836146388842
 30
0.0
 10
80.7903455074498
 20
67.95836146388842
 30
0.0
 10
80.2028455074498
 20
67.95836146388842
 30
0.0
  0
SPLINE
  5
EF
330
1F
100
AcDbEntity
  8
LINEE VISIBILI 2D
100
AcDbSpline
210
0.0
220
0.0
230
1.0
 70
    24
 71
     2
 72
     6
 73
     3
 74
     0
 42
0.0000000001
 43
0.0000000001
 40
0.0
 40
0.0
 40
0.0
 40
0.2199999999999989
 40
0.2199999999999989
 40
0.2199999999999989
 10
80.2028455074498
 20
67.95836146388842
 30
0.0
 10
80.2028455074498
 20
68.06836146388842
 30
0.0
 10
80.2028455074498
 20
68.17836146388842
 30
0.0
  0
SPLINE
  5
F0
330
1F
100
AcDbEntity
  8
LINEE VISIBILI 2D
100
AcDbSpline
210
0.0
220
0.0
230
1.0
 70
    24
 71
     2
 72
     6
 73
     3
 74
     0
 42
0.0000000001
 43
0.0000000001
 40
0.0
 40
0.0
 40
0.0
 40
0.2199999999999989
 40
0.2199999999999989
 40
0.2199999999999989
 10
10.05343084122413
 20
68.17836146388842
 30
0.0
 10
10.05343084122413
 20
68.06836146388842
 30
0.0
 10
10.05343084122413
 20
67.95836146388842
 30
0.0
  0
SPLINE
  5
F1
330
1F
100
AcDbEntity
  8
LINEE VISIBILI 2D
100
AcDbSpline
210
0.0
220
0.0
230
1.0
 70
    24
 71
     2
 72
     6
 73
     3
 74
     0
 42
0.0000000001
 43
0.0000000001
 40
0.0
 40
0.0
 40
0.0
 40
1.175000000000011
 40
1.175000000000011
 40
1.175000000000011
 10
10.05343084122413
 20
67.95836146388842
 30
0.0
 10
9.465930841224122
 20
67.95836146388842
 30
0.0
 10
8.878430841224116
 20
67.95836146388842
 30
0.0
  0
SPLINE
  5
F2
330
1F
100
AcDbEntity
  8
LINEE VISIBILI 2D
100
AcDbSpline
210
0.0
220
0.0
230
1.0
 70
    24
 71
     2
 72
     6
 73
     3
 74
     0
 42
0.0000000001
 43
0.0000000001
 40
0.0
 40
0.0
 40
0.0
 40
1.175000000000011
 40
1.175000000000011
 40
1.175000000000011
 10
8.878430841224116
 20
67.95836146388842
 30
0.0
 10
8.29093084122411
 20
67.95836146388842
 30
0.0
 10
7.703430841224105
 20
67.95836146388842
 30
0.0
  0
SPLINE
  5
F3
330
1F
100
AcDbEntity
  8
LINEE VISIBILI 2D
100
AcDbSpline
210
0.0
220
0.0
230
1.0
 70
    24
 71
     2
 72
     6
 73
     3
 74
     0
 42
0.0000000001
 43
0.0000000001
 40
0.0
 40
0.0
 40
0.0
 40
0.2199999999999989
 40
0.2199999999999989
 40
0.2199999999999989
 10
7.703430841224105
 20
67.95836146388842
 30
0.0
 10
7.703430841224105
 20
68.06836146388842
 30
0.0
 10
7.703430841224105
 20
68.17836146388842
 30
0.0
  0
SPLINE
  5
F4
330
1F
100
AcDbEntity
  8
PREDEFINITO
100
AcDbSpline
210
0.0
220
0.0
230
1.0
 70
    12
 71
     2
 72
     6
 73
     3
 74
     0
 42
0.0000000001
 43
0.0000000001
 40
-0.9710784829443722
 40
-0.9710784829443722
 40
-0.9710784829443722
 40
0.0
 40
0.0
 40
0.0
 10
17.11346774602807
 20
70.67836146388842
 30
0.0
 41
1.0
 10
17.15795641763535
 20
70.07890885758214
 30
0.0
 41
0.7350710266680904
 10
16.5640453707325
 20
69.9862139953969
 30
0.0
 41
1.0
  0
POLYLINE
  5
F5
330
1F
100
AcDbEntity
  8
PREDEFINITO
100
AcDb2dPolyline
 66
     1
 10
0.0
 20
0.0
 30
0.0
  0
VERTEX
  5
F7
330
F5
100
AcDbEntity
  8
PREDEFINITO
100
AcDbVertex
100
AcDb2dVertex
 10
16.5640453707325
 20
69.9862139953969
 30
0.0
  0
VERTEX
  5
F8
330
F5
100
AcDbEntity
  8
PREDEFINITO
100
AcDbVertex
100
AcDb2dVertex
 10
16.51536854135301
 20
69.9783614638884
 30
0.0
  0
SEQEND
  5
F6
330
F5
100
AcDbEntity
  8
PREDEFINITO
  0
SPLINE
  5
F9
330
1F
100
AcDbEntity
  8
LINEE VISIBILI 2D
100
AcDbSpline
210
0.0
220
0.0
230
1.0
 70
    24
 71
     2
 72
     6
 73
     3
 74
     0
 42
0.0000000001
 43
0.0000000001
 40
0.0
 40
0.0
 40
0.0
 40
0.2000000000000171
 40
0.2000000000000171
 40
0.2000000000000171
 10
89.11718406088785
 20
68.17836146388842
 30
0.0
 10
89.11718406088785
 20
68.07836146388841
 30
0.0
 10
89.11718406088785
 20
67.9783614638884
 30
0.0
  0
SPLINE
  5
FA
330
1F
100
AcDbEntity
  8
LINEE VISIBILI 2D
100
AcDbSpline
210
0.0
220
0.0
230
1.0
 70
    24
 71
     2
 72
     6
 73
     3
 74
     0
 42
0.0000000001
 43
0.0000000001
 40
0.0
 40
0.0
 40
0.0
 40
1.175000000000011
 40
1.175000000000011
 40
1.175000000000011
 10
89.11718406088785
 20
67.9783614638884
 30
0.0
 10
88.52968406088785
 20
67.9783614638884
 30
0.0
 10
87.94218406088784
 20
67.9783614638884
 30
0.0
  0
SPLINE
  5
FB
330
1F
100
AcDbEntity
  8
LINEE VISIBILI 2D
100
AcDbSpline
210
0.0
220
0.0
230
1.0
 70
    24
 71
     2
 72
     6
 73
     3
 74
     0
 42
0.0000000001
 43
0.0000000001
 40
0.0
 40
0.0
 40
0.0
 40
1.175000000000011
 40
1.175000000000011
 40
1.175000000000011
 10
87.94218406088784
 20
67.9783614638884
 30
0.0
 10
87.35468406088783
 20
67.9783614638884
 30
0.0
 10
86.76718406088783
 20
67.9783614638884
 30
0.0
  0
SPLINE
  5
FC
330
1F
100
AcDbEntity
  8
LINEE VISIBILI 2D
100
AcDbSpline
210
0.0
220
0.0
230
1.0
 70
    24
 71
     2
 72
     6
 73
     3
 74
     0
 42
0.0000000001
 43
0.0000000001
 40
0.0
 40
0.0
 40
0.0
 40
0.2000000000000171
 40
0.2000000000000171
 40
0.2000000000000171
 10
86.76718406088783
 20
67.9783614638884
 30
0.0
 10
86.76718406088783
 20
68.07836146388841
 30
0.0
 10
86.76718406088783
 20
68.17836146388842
 30
0.0
  0
SPLINE
  5
FD
330
1F
100
AcDbEntity
  8
LINEE VISIBILI 2D
100
AcDbSpline
210
0.0
220
0.0
230
1.0
 70
    12
 71
     2
 72
     6
 73
     3
 74
     0
 42
0.0000000001
 43
0.0000000001
 40
0.0
 40
0.0
 40
0.0
 40
0.1569551070565661
 40
0.1569551070565661
 40
0.1569551070565661
 10
66.96186990549397
 20
69.87818693899489
 30
0.0
 41
1.0
 10
66.96215721224831
 20
69.97807385004332
 30
0.0
 41
0.709137132763002
 10
67.06187048703387
 20
69.97836146388042
 30
0.0
 41
1.0
  0
SPLINE
  5
FE
330
1F
100
AcDbEntity
  8
LINEE VISIBILI 2D
100
AcDbSpline
210
0.0
220
0.0
230
1.0
 70
    24
 71
     2
 72
     6
 73
     3
 74
     0
 42
0.0000000001
 43
0.0000000001
 40
0.0
 40
0.0
 40
0.0
 40
11.3803126800981
 40
11.3803126800981
 40
11.3803126800981
 10
67.06187048703387
 20
69.97836146388042
 30
0.0
 10
72.75202727396086
 20
69.97836146388441
 30
0.0
 10
78.44218406088784
 20
69.9783614638884
 30
0.0
  0
SPLINE
  5
FF
330
1F
100
AcDbEntity
  8
LINEE VISIBILI 2D
100
AcDbSpline
210
0.0
220
0.0
230
1.0
 70
    24
 71
     2
 72
     6
 73
     3
 74
     0
 42
0.0000000001
 43
0.0000000001
 40
0.0
 40
0.0
 40
0.0
 40
11.38031268009809
 40
11.38031268009809
 40
11.38031268009809
 10
78.44218406088784
 20
69.9783614638884
 30
0.0
 10
84.13234084781482
 20
69.97836146388441
 30
0.0
 10
89.82249763474181
 20
69.97836146388042
 30
0.0
  0
SPLINE
  5
100
330
1F
100
AcDbEntity
  8
LINEE VISIBILI 2D
100
AcDbSpline
210
0.0
220
0.0
230
1.0
 70
    12
 71
     2
 72
     6
 73
     3
 74
     0
 42
0.0000000001
 43
0.0000000001
 40
0.0
 40
0.0
 40
0.0
 40
0.1552009544473265
 40
0.1552009544473265
 40
0.1552009544473265
 10
89.82249763474181
 20
69.97836146388042
 30
0.0
 41
1.0
 10
89.9204650214743
 20
69.97805293015521
 30
0.0
 41
0.7154442789150084
 10
89.92248097571763
 20
69.88010669455275
 30
0.0
 41
1.0
  0
SPLINE
  5
101
330
1F
100
AcDbEntity
  8
LINEE VISIBILI 2D
100
AcDbSpline
210
0.0
220
0.0
230
1.0
 70
    24
 71
     2
 72
     6
 73
     3
 74
     0
 42
0.0000000001
 43
0.0000000001
 40
-1.149301229356819
 40
-1.149301229356819
 40
-1.149301229356819
 40
0.0
 40
0.0
 40
0.0
 10
89.92248097571763
 20
69.88010669455275
 30
0.0
 10
89.92253365831624
 20
69.3054560872549
 30
0.0
 10
89.92258634091483
 20
68.73080547995704
 30
0.0
  0
SPLINE
  5
102
330
1F
100
AcDbEntity
  8
LINEE VISIBILI 2D
100
AcDbSpline
210
0.0
220
0.0
230
1.0
 70
    12
 71
     2
 72
     6
 73
     3
 74
     0
 42
0.0000000001
 43
0.0000000001
 40
0.0
 40
0.0
 40
0.0
 40
11.48029747887208
 40
11.48029747887208
 40
11.48029747887208
 10
89.92258634091483
 20
68.73080547995704
 30
0.0
 41
1.0
 10
84.18243758551934
 20
68.73080614972383
 30
0.0
 41
0.9999999958295082
 10
78.44228890852978
 20
68.72975833557808
 30
0.0
 41
1.0
  0
SPLINE
  5
103
330
1F
100
AcDbEntity
  8
LINEE VISIBILI 2D
100
AcDbSpline
210
0.0
220
0.0
230
1.0
 70
    12
 71
     2
 72
     8
 73
     5
 74
     0
 42
0.0000000001
 43
0.0000000001
 40
0.0
 40
0.0
 40
0.0
 40
10.60642673889792
 40
10.60642673889792
 40
11.47508525712315
 40
11.47508525712315
 40
11.47508525712315
 10
78.44228890852978
 20
68.72975833557808
 30
0.0
 41
1.0
 10
73.13907556059408
 20
68.72909225895316
 30
0.0
 41
0.9999999991267932
 10
67.83586230408113
 20
68.72798293852071
 30
0.0
 41
1.0
 10
67.4015330409917
 20
68.72792888700569
 30
0.0
 41
0.9999999746501577
 10
66.96197321279409
 20
68.72923543131901
 30
0.0
 41
1.0
  0
SPLINE
  5
104
330
1F
100
AcDbEntity
  8
LINEE VISIBILI 2D
100
AcDbSpline
210
0.0
220
0.0
230
1.0
 70
    24
 71
     2
 72
     6
 73
     3
 74
     0
 42
0.0000000001
 43
0.0000000001
 40
0.0
 40
0.0
 40
0.0
 40
1.148776987561082
 40
1.148776987561082
 40
1.148776987561082
 10
66.96197321279409
 20
68.72923543131901
 30
0.0
 10
66.96192155914403
 20
69.30371118515694
 30
0.0
 10
66.96186990549397
 20
69.87818693899489
 30
0.0
  0
SPLINE
  5
105
330
1F
100
AcDbEntity
  8
PREDEFINITO
100
AcDbSpline
210
0.0
220
0.0
230
1.0
 70
    24
 71
     2
 72
     6
 73
     3
 74
     0
 42
0.0000000001
 43
0.0000000001
 40
0.0
 40
0.0
 40
0.0
 40
114.8918741752349
 40
114.8918741752349
 40
114.8918741752349
 10
79.24218406088788
 20
185.5702356391233
 30
0.0
 10
79.24218406088787
 20
128.1242985515059
 30
0.0
 10
79.24218406088785
 20
70.67836146388842
 30
0.0
  0
SPLINE
  5
106
330
1F
100
AcDbEntity
  8
PREDEFINITO
100
AcDbSpline
210
0.0
220
0.0
230
1.0
 70
    24
 71
     2
 72
     6
 73
     3
 74
     0
 42
0.0000000001
 43
0.0000000001
 40
0.0
 40
0.0
 40
0.0
 40
1.600000000000023
 40
1.600000000000023
 40
1.600000000000023
 10
79.24218406088785
 20
70.67836146388842
 30
0.0
 10
78.44218406088784
 20
70.67836146388842
 30
0.0
 10
77.64218406088783
 20
70.67836146388842
 30
0.0
  0
SPLINE
  5
107
330
1F
100
AcDbEntity
  8
PREDEFINITO
100
AcDbSpline
210
0.0
220
0.0
230
1.0
 70
    12
 71
     2
 72
     8
 73
     5
 74
     0
 42
0.0000000001
 43
0.0000000001
 40
0.0
 40
0.0
 40
0.0
 40
0.5360404855965524
 40
0.5360404855965524
 40
1.016246439697257
 40
1.016246439697257
 40
1.016246439697257
 10
77.64218406088783
 20
70.67836146388842
 30
0.0
 41
1.0
 10
77.66320884095326
 20
70.39491628078461
 30
0.0
 41
0.9166381781726063
 10
77.46980839025142
 20
70.18663887233652
 30
0.0
 41
1.0
 10
77.29861535075946
 20
70.00227713749904
 30
0.0
 41
0.9329129579452667
 10
77.04795032891487
 20
69.9807515047228
 30
0.0
 41
1.0
  0
POLYLINE
  5
108
330
1F
100
AcDbEntity
  8
PREDEFINITO
100
AcDb2dPolyline
 66
     1
 10
0.0
 20
0.0
 30
0.0
  0
VERTEX
  5
10A
330
108
100
AcDbEntity
  8
PREDEFINITO
100
AcDbVertex
100
AcDb2dVertex
 10
77.04795032891487
 20
69.9807515047228
 30
0.0
  0
VERTEX
  5
10B
330
108
100
AcDbEntity
  8
PREDEFINITO
100
AcDbVertex
100
AcDb2dVertex
 10
77.02011841130333
 20
69.9783614638884
 30
0.0
  0
SEQEND
  5
109
330
108
100
AcDbEntity
  8
PREDEFINITO
  0
SPLINE
  5
10C
330
1F
100
AcDbEntity
  8
PREDEFINITO
100
AcDbSpline
210
0.0
220
0.0
230
1.0
 70
    12
 71
     2
 72
     8
 73
     5
 74
     0
 42
0.0000000001
 43
0.0000000001
 40
-1.016292045132525
 40
-1.016292045132525
 40
-1.016292045132525
 40
-0.4802515595359847
 40
-0.4802515595359847
 40
0.0
 40
0.0
 40
0.0
 10
79.24218406088787
 20
70.67836146388842
 30
0.0
 41
1.0
 10
79.22115928082243
 20
70.39491628078461
 30
0.0
 41
0.9166381781726031
 10
79.41455973152428
 20
70.18663887233654
 30
0.0
 41
1.0
 10
79.58577059920171
 20
70.00225793791466
 30
0.0
 41
0.9329003592108231
 10
79.83646323120145
 20
69.98074760434764
 30
0.0
 41
1.0
  0
POLYLINE
  5
10D
330
1F
100
AcDbEntity
  8
PREDEFINITO
100
AcDb2dPolyline
 66
     1
 10
0.0
 20
0.0
 30
0.0
  0
VERTEX
  5
10F
330
10D
100
AcDbEntity
  8
PREDEFINITO
100
AcDbVertex
100
AcDb2dVertex
 10
79.83646323120145
 20
69.98074760434764
 30
0.0
  0
VERTEX
  5
110
330
10D
100
AcDbEntity
  8
PREDEFINITO
100
AcDbVertex
100
AcDb2dVertex
 10
79.86036766036656
 20
69.9783614638884
 30
0.0
  0
SEQEND
  5
10E
330
10D
100
AcDbEntity
  8
PREDEFINITO
  0
SPLINE
  5
111
330
1F
100
AcDbEntity
  8
LINEE VISIBILI 2D
100
AcDbSpline
210
0.0
220
0.0
230
1.0
 70
    24
 71
     2
 72
     6
 73
     3
 74
     0
 42
0.0000000001
 43
0.0000000001
 40
0.0
 40
0.0
 40
0.0
 40
0.5519211134756858
 40
0.5519211134756858
 40
0.5519211134756858
 10
89.298624293076
 20
68.73028257736411
 30
0.0
 10
89.29861808059707
 20
68.45432202062626
 30
0.0
 10
89.29861186811814
 20
68.17836146388842
 30
0.0
  0
SPLINE
  5
112
330
1F
100
AcDbEntity
  8
LINEE VISIBILI 2D
100
AcDbSpline
210
0.0
220
0.0
230
1.0
 70
    28
 71
     2
 72
     8
 73
     5
 74
     0
 42
0.0000000001
 43
0.0000000001
 40
-33.57359861386702
 40
-33.57359861386702
 40
-33.57359861386702
 40
-17.05702709465853
 40
-17.05702709465853
 40
0.0
 40
0.0
 40
0.0
 10
89.29861186811813
 20
68.17836146388842
 30
0.0
 41
0.982027332591997
 10
89.31431043586764
 20
68.17836146388842
 30
0.0
 41
0.7163871658773135
 10
78.94937110311717
 20
68.17836146388842
 30
0.0
 41
1.0
 10
68.10478462786283
 20
68.17836146388842
 30
0.0
 41
0.707106781186548
 10
67.59759758563344
 20
68.17836146388842
 30
0.0
 41
1.0
  0
SPLINE
  5
113
330
1F
100
AcDbEntity
  8
LINEE VISIBILI 2D
100
AcDbSpline
210
0.0
220
0.0
230
1.0
 70
    24
 71
     2
 72
     6
 73
     3
 74
     0
 42
0.0000000001
 43
0.0000000001
 40
0.0
 40
0.0
 40
0.0
 40
0.0118289070181419
 40
0.0118289070181419
 40
0.0118289070181419
 10
67.59759758563344
 20
68.17836146388842
 30
0.0
 10
67.59167691964544
 20
68.17836146388842
 30
0.0
 10
67.58575625365744
 20
68.17836146388842
 30
0.0
  0
SPLINE
  5
114
330
1F
100
AcDbEntity
  8
LINEE VISIBILI 2D
100
AcDbSpline
210
0.0
220
0.0
230
1.0
 70
    24
 71
     2
 72
     6
 73
     3
 74
     0
 42
0.0000000001
 43
0.0000000001
 40
0.0
 40
0.0
 40
0.0
 40
0.5508951577983225
 40
0.5508951577983225
 40
0.5508951577983225
 10
67.58575625365744
 20
68.17836146388842
 30
0.0
 10
67.5857500411785
 20
68.45380904278758
 30
0.0
 10
67.58574382869958
 20
68.72925662168674
 30
0.0
  0
SPLINE
  5
115
330
1F
100
AcDbEntity
  8
LINEE VISIBILI 2D
100
AcDbSpline
210
0.0
220
0.0
230
1.0
 70
     8
 71
     3
 72
    21
 73
    17
 74
     0
 42
0.0000000001
 43
0.0000000001
 40
0.0
 40
0.0
 40
0.0
 40
0.0
 40
1.777749357161108
 40
2.924321377083141
 40
3.586756659947923
 40
3.732703747657706
 40
4.089642897424757
 40
4.385502444987488
 40
4.902707008261331
 40
5.453413758517256
 40
5.58845448091777
 40
5.836820930392
 40
6.405346838817576
 40
7.539241823225519
 40
12.56942477008463
 40
17.26175416335718
 40
17.26175416335718
 40
17.26175416335718
 40
17.26175416335718
 10
78.44219865804256
 20
22.11642639916835
 30
0.0
 10
78.1482646485297
 20
22.63096902449624
 30
0.0
 10
77.66186320274491
 20
23.47573341361116
 30
0.0
 10
77.07651886783246
 20
24.51824498201366
 30
0.0
 10
76.7505035332045
 20
25.08250234551272
 30
0.0
 10
76.55814214627922
 20
25.41975515974472
 30
0.0
 10
76.46512898459977
 20
25.67335094409762
 30
0.0
 10
76.46529327632878
 20
26.06909372818205
 30
0.0
 10
76.66359755829026
 20
26.49554802545046
 30
0.0
 10
77.01153759765644
 20
26.72767010005408
 30
0.0
 10
77.31162158713532
 20
26.80495468626972
 30
0.0
 10
77.62956721073972
 20
26.83317002264424
 30
0.0
 10
78.27695749997642
 20
26.88112417287736
 30
0.0
 10
80.52732290280561
 20
26.83378921171306
 30
0.0
 10
84.03554881617508
 20
25.47541887339784
 30
0.0
 10
86.09513999558425
 20
22.82674885841448
 30
0.0
 10
86.6986235207776
 20
21.38398491629432
 30
0.0
  0
SPLINE
  5
116
330
1F
100
AcDbEntity
  8
LINEE VISIBILI 2D
100
AcDbSpline
210
0.0
220
0.0
230
1.0
 70
     8
 71
     3
 72
    19
 73
    15
 74
     0
 42
0.0000000001
 43
0.0000000001
 40
0.0
 40
0.0
 40
0.0
 40
0.0
 40
0.4003514240692465
 40
0.8492759749798615
 40
1.236559700999364
 40
1.65999675637903
 40
2.056249219144602
 40
2.836059701116893
 40
4.063130782547173
 40
5.852118485231365
 40
6.438914275201358
 40
8.258457335307773
 40
9.084330755818444
 40
10.1252188725649
 40
10.1252188725649
 40
10.1252188725649
 40
10.1252188725649
 10
86.6986235207776
 20
21.38398491629432
 30
0.0
 10
86.75418609336523
 20
21.26021963302738
 30
0.0
 10
86.800286603979
 20
20.97916417660418
 30
0.0
 10
86.70381920930615
 20
20.56470686342258
 30
0.0
 10
86.43905949727599
 20
20.23062612680621
 30
0.0
 10
86.06612777792238
 20
20.04377232532523
 30
0.0
 10
85.53018722443572
 20
20.030619176604
 30
0.0
 10
84.73102919590383
 20
20.03608011394428
 30
0.0
 10
83.46355744659716
 20
20.01830378394808
 30
0.0
 10
82.26551640971235
 20
20.01295862002544
 30
0.0
 10
80.86213327734752
 20
20.00758886272011
 30
0.0
 10
79.82320763771918
 20
20.42046221466834
 30
0.0
 10
78.9185146972794
 20
21.26451454502427
 30
0.0
 10
78.61209397601459
 20
21.81614334274256
 30
0.0
 10
78.44219865804256
 20
22.11642639916835
 30
0.0
  0
SPLINE
  5
117
330
1F
100
AcDbEntity
  8
LINEE VISIBILI 2D
100
AcDbSpline
210
0.0
220
0.0
230
1.0
 70
    12
 71
     2
 72
     8
 73
     5
 74
     0
 42
0.0000000001
 43
0.0000000001
 40
0.0
 40
0.0
 40
0.0
 40
14.94763750982166
 40
14.94763750982166
 40
29.89527501964277
 40
29.89527501964277
 40
29.89527501964277
 10
68.92623706910726
 20
17.91346774602808
 30
0.0
 41
1.0
 10
68.92623706910724
 20
8.397506157092039
 30
0.0
 41
0.7071067811865214
 10
78.44219865804328
 20
8.39750615709275
 30
0.0
 41
1.0
 10
87.958160246979
 20
8.397506157093092
 30
0.0
 41
0.7071067811865195
 10
87.95816024697791
 20
17.9134677460288
 30
0.0
 41
1.0
  0
SPLINE
  5
118
330
1F
100
AcDbEntity
  8
LINEE VISIBILI 2D
100
AcDbSpline
210
0.0
220
0.0
230
1.0
 70
    12
 71
     2
 72
     8
 73
     5
 74
     0
 42
0.0000000001
 43
0.0000000001
 40
0.0
 40
0.0
 40
0.0
 40
14.94763750982039
 40
14.94763750982039
 40
29.8952750196413
 40
29.8952750196413
 40
29.8952750196413
 10
87.9581602469779
 20
17.9134677460288
 30
0.0
 41
1.0
 10
87.95816024697751
 20
27.42942933496377
 30
0.0
 41
0.7071067811865481
 10
78.44219865804256
 20
27.42942933496341
 30
0.0
 41
1.0
 10
68.92623706910727
 20
27.42942933496338
 30
0.0
 41
0.7071067811865489
 10
68.92623706910726
 20
17.91346774602808
 30
0.0
 41
1.0
  0
SPLINE
  5
119
330
1F
100
AcDbEntity
  8
LINEE VISIBILI 2D
100
AcDbSpline
210
0.0
220
0.0
230
1.0
 70
    12
 71
     2
 72
     8
 73
     5
 74
     0
 42
0.0000000001
 43
0.0000000001
 40
0.0
 40
0.0
 40
0.0
 40
15.55088363526945
 40
15.55088363526945
 40
31.10176727053889
 40
31.10176727053889
 40
31.10176727053889
 10
88.34219865804255
 20
17.91346774602808
 30
0.0
 41
1.0
 10
88.34219865804253
 20
8.013467746028104
 30
0.0
 41
0.707106781186548
 10
78.44219865804256
 20
8.013467746028091
 30
0.0
 41
1.0
 10
68.5421986580426
 20
8.013467746028114
 30
0.0
 41
0.7071067811865486
 10
68.54219865804258
 20
17.91346774602808
 30
0.0
 41
1.0
  0
SPLINE
  5
11A
330
1F
100
AcDbEntity
  8
LINEE VISIBILI 2D
100
AcDbSpline
210
0.0
220
0.0
230
1.0
 70
    12
 71
     2
 72
     8
 73
     5
 74
     0
 42
0.0000000001
 43
0.0000000001
 40
0.0
 40
0.0
 40
0.0
 40
15.55088363526946
 40
15.55088363526946
 40
31.10176727053891
 40
31.10176727053891
 40
31.10176727053891
 10
68.54219865804257
 20
17.91346774602808
 30
0.0
 41
1.0
 10
68.54219865804255
 20
27.81346774602808
 30
0.0
 41
0.707106781186546
 10
78.44219865804256
 20
27.81346774602805
 30
0.0
 41
1.0
 10
88.34219865804253
 20
27.81346774602808
 30
0.0
 41
0.7071067811865468
 10
88.34219865804255
 20
17.91346774602808
 30
0.0
 41
1.0
  0
SPLINE
  5
11B
330
1F
100
AcDbEntity
  8
LINEE VISIBILI 2D
100
AcDbSpline
210
0.0
220
0.0
230
1.0
 70
     8
 71
     3
 72
    16
 73
    12
 74
     0
 42
0.0000000001
 43
0.0000000001
 40
0.0
 40
0.0
 40
0.0
 40
0.0
 40
4.079718186771597
 40
4.595107492171822
 40
6.465150513355508
 40
7.602099735036395
 40
7.858290934018211
 40
11.75957587034214
 40
12.16434926211042
 40
13.00174782828642
 40
13.85794773334612
 40
13.85794773334612
 40
13.85794773334612
 40
13.85794773334612
 10
85.81715628503936
 20
15.78854370729995
 30
0.0
 10
84.45636146499649
 20
15.79288982678007
 30
0.0
 10
82.92725184183872
 20
15.8248332524728
 30
0.0
 10
80.76893913196565
 20
15.80409918310899
 30
0.0
 10
79.64296753854619
 20
15.31362399176664
 30
0.0
 10
78.8996118211749
 20
14.51118944051756
 30
0.0
 10
78.01894966765931
 20
12.9741959361268
 30
0.0
 10
77.27377530220305
 20
11.6592603688791
 30
0.0
 10
76.41799320157739
 20
10.16200950205604
 30
0.0
 10
76.50248101815946
 20
9.398236858974382
 30
0.0
 10
77.04369861036685
 20
9.06711481136631
 30
0.0
 10
77.31954226039566
 20
9.027935485328968
 30
0.0
  0
SPLINE
  5
11C
330
1F
100
AcDbEntity
  8
LINEE VISIBILI 2D
100
AcDbSpline
210
0.0
220
0.0
230
1.0
 70
     8
 71
     3
 72
    21
 73
    17
 74
     0
 42
0.0000000001
 43
0.0000000001
 40
0.0
 40
0.0
 40
0.0
 40
0.0
 40
1.751464963134024
 40
3.485884444955518
 40
7.150719284560276
 40
8.199784322544408
 40
9.40408569578747
 40
10.91872987290422
 40
11.64793728511801
 40
11.84971351058756
 40
12.11127052562229
 40
12.33825050392218
 40
12.58856367887028
 40
12.83055384408778
 40
13.07286300278102
 40
13.5291425953388
 40
13.5291425953388
 40
13.5291425953388
 40
13.5291425953388
 10
77.31954226039566
 20
9.027935485328968
 30
0.0
 10
77.89884845856068
 20
8.954561147419517
 30
0.0
 10
79.06580240125032
 20
8.922104335040766
 30
0.0
 10
81.42828450506651
 20
9.31806224856545
 30
0.0
 10
83.38588990163143
 20
10.30883308181557
 30
0.0
 10
84.85887279014106
 20
11.62696629463048
 30
0.0
 10
85.68429109072007
 20
12.5769311487911
 30
0.0
 10
86.29254969810614
 20
13.55781066843934
 30
0.0
 10
86.64276170550676
 20
14.29408859774826
 30
0.0
 10
86.77976135334788
 20
14.66800179197734
 30
0.0
 10
86.771755071231
 20
14.90479960927885
 30
0.0
 10
86.72861826110686
 20
15.14417361676045
 30
0.0
 10
86.62041106487317
 20
15.36468204013731
 30
0.0
 10
86.45952835163055
 20
15.54837532861633
 30
0.0
 10
86.20369240273594
 20
15.73657600555872
 30
0.0
 10
85.96904824805885
 20
15.78888719295495
 30
0.0
 10
85.81715628503936
 20
15.78854370729995
 30
0.0
  0
SPLINE
  5
11D
330
1F
100
AcDbEntity
  8
LINEE VISIBILI 2D
100
AcDbSpline
210
0.0
220
0.0
230
1.0
 70
     8
 71
     3
 72
    11
 73
     7
 74
     0
 42
0.0000000001
 43
0.0000000001
 40
0.0
 40
0.0
 40
0.0
 40
0.0
 40
4.096897611313423
 40
4.481821875283634
 40
5.230174214366124
 40
5.98147974524875
 40
5.98147974524875
 40
5.98147974524875
 40
5.98147974524875
 10
72.91448164589336
 20
12.58902910857911
 30
0.0
 10
73.60939409523891
 20
13.76482109630269
 30
0.0
 10
74.36239500422204
 20
15.05463551758463
 30
0.0
 10
75.23933547705504
 20
16.56196633479655
 30
0.0
 10
75.43626968781312
 20
17.1654235482174
 30
0.0
 10
75.49489458965567
 20
17.66200786474709
 30
0.0
 10
75.49400136719683
 20
17.91346774497065
 30
0.0
  0
SPLINE
  5
11E
330
1F
100
AcDbEntity
  8
LINEE VISIBILI 2D
100
AcDbSpline
210
0.0
220
0.0
230
1.0
 70
     8
 71
     3
 72
    21
 73
    17
 74
     0
 42
0.0000000001
 43
0.0000000001
 40
-7.878353949148217
 40
-7.878353949148217
 40
-7.878353949148217
 40
-7.878353949148217
 40
-7.145692095781487
 40
-6.736140020764764
 40
-6.378134655522751
 40
-5.972200476457972
 40
-5.440423380234384
 40
-4.695796026544132
 40
-2.672877621570848
 40
-2.114275799557988
 40
-1.884358263467059
 40
-1.773041736760493
 40
-1.345300994525193
 40
-0.9027237450267546
 40
-0.441885579471349
 40
0.0
 40
0.0
 40
0.0
 40
0.0
 10
75.49400136719683
 20
17.9134677449707
 30
0.0
 10
75.49383486390296
 20
18.15746890839844
 30
0.0
 10
75.45802435888727
 20
18.53920238184435
 30
0.0
 10
75.31842525207585
 20
19.02054434427169
 30
0.0
 10
75.16954093668933
 20
19.38281165769603
 30
0.0
 10
74.9570717149623
 20
19.75940804024387
 30
0.0
 10
74.6714642092151
 20
20.2419167991394
 30
0.0
 10
74.11998076484603
 20
21.19342625963575
 30
0.0
 10
73.5543430308457
 20
22.14702919202119
 30
0.0
 10
73.08397414367452
 20
22.95757884296469
 30
0.0
 10
72.9318209485769
 20
23.21607126180588
 30
0.0
 10
72.78410048537228
 20
23.42607604946468
 30
0.0
 10
72.52932177958543
 20
23.64260962864975
 30
0.0
 10
72.08430040019068
 20
23.75083652305869
 30
0.0
 10
71.63822996283955
 20
23.63735918934871
 30
0.0
 10
71.39745805673655
 20
23.44677337851479
 30
0.0
 10
71.3084301929544
 20
23.32848283646097
 30
0.0
  0
SPLINE
  5
11F
330
1F
100
AcDbEntity
  8
LINEE VISIBILI 2D
100
AcDbSpline
210
0.0
220
0.0
230
1.0
 70
    12
 71
     2
 72
     6
 73
     3
 74
     0
 42
0.0000000001
 43
0.0000000001
 40
-5.815058757798489
 40
-5.815058757798489
 40
-5.815058757798489
 40
0.0
 40
0.0
 40
0.0
 10
71.3084301929544
 20
23.32848283646097
 30
0.0
 41
1.0
 10
69.48602531542016
 20
20.9276373671756
 30
0.0
 41
0.9477657135742494
 10
69.48602531542012
 20
17.91346774602808
 30
0.0
 41
1.0
  0
SPLINE
  5
120
330
1F
100
AcDbEntity
  8
LINEE VISIBILI 2D
100
AcDbSpline
210
0.0
220
0.0
230
1.0
 70
     8
 71
     3
 72
    15
 73
    11
 74
     0
 42
0.0000000001
 43
0.0000000001
 40
0.0
 40
0.0
 40
0.0
 40
0.0
 40
1.231209206216678
 40
2.663024995635782
 40
5.122156765653815
 40
5.720343825063989
 40
5.959960125743904
 40
6.495455156641843
 40
7.102625735639182
 40
7.711382221205848
 40
7.711382221205848
 40
7.711382221205848
 40
7.711382221205848
 10
69.48602531542012
 20
17.91346774602808
 30
0.0
 10
69.4855660556491
 20
17.50278596522513
 30
0.0
 10
69.54793418205023
 20
16.61586376514045
 30
0.0
 10
69.91516179794648
 20
14.94197306643992
 30
0.0
 10
70.55353178041223
 20
13.57334876078526
 30
0.0
 10
71.17717681535814
 20
12.66787990619243
 30
0.0
 10
71.45780858500451
 20
12.30521517969302
 30
0.0
 10
71.88381811490488
 20
12.07988652582266
 30
0.0
 10
72.49059421365071
 20
12.12918281873711
 30
0.0
 10
72.81267191720022
 20
12.41539797215525
 30
0.0
 10
72.91448164589336
 20
12.58902910857911
 30
0.0
  0
SPLINE
  5
121
330
1F
100
AcDbEntity
  8
LINEE VISIBILI 2D
100
AcDbSpline
210
0.0
220
0.0
230
1.0
 70
    12
 71
     2
 72
     6
 73
     3
 74
     0
 42
0.0000000001
 43
0.0000000001
 40
0.0
 40
0.0
 40
0.0
 40
15.079644737231
 40
15.079644737231
 40
15.079644737231
 10
68.84219865804256
 20
17.91346774602808
 30
0.0
 41
1.0
 10
68.84219865804255
 20
27.51346774602807
 30
0.0
 41
0.7071067811865474
 10
78.44219865804256
 20
27.51346774602808
 30
0.0
 41
1.0
  0
SPLINE
  5
122
330
1F
100
AcDbEntity
  8
LINEE VISIBILI 2D
100
AcDbSpline
210
0.0
220
0.0
230
1.0
 70
    12
 71
     2
 72
     6
 73
     3
 74
     0
 42
0.0000000001
 43
0.0000000001
 40
0.0
 40
0.0
 40
0.0
 40
15.07964473723101
 40
15.07964473723101
 40
15.07964473723101
 10
78.44219865804256
 20
27.51346774602808
 30
0.0
 41
1.0
 10
88.04219865804257
 20
27.51346774602808
 30
0.0
 41
0.7071067811865472
 10
88.04219865804255
 20
17.91346774602808
 30
0.0
 41
1.0
  0
SPLINE
  5
123
330
1F
100
AcDbEntity
  8
LINEE VISIBILI 2D
100
AcDbSpline
210
0.0
220
0.0
230
1.0
 70
    12
 71
     2
 72
     8
 73
     5
 74
     0
 42
0.0000000001
 43
0.0000000001
 40
0.0
 40
0.0
 40
0.0
 40
15.07964473723101
 40
15.07964473723101
 40
30.15928947446201
 40
30.15928947446201
 40
30.15928947446201
 10
88.04219865804255
 20
17.91346774602808
 30
0.0
 41
1.0
 10
88.04219865804257
 20
8.313467746028058
 30
0.0
 41
0.7071067811865457
 10
78.44219865804254
 20
8.313467746028088
 30
0.0
 41
1.0
 10
68.84219865804252
 20
8.313467746028062
 30
0.0
 41
0.707106781186546
 10
68.84219865804256
 20
17.91346774602808
 30
0.0
 41
1.0
  0
ENDSEC
  0
SECTION
  2
OBJECTS
  0
DICTIONARY
  5
C
330
0
100
AcDbDictionary
281
     1
  3
ACAD_GROUP
350
D
  3
ACAD_LAYOUT
350
1A
  3
ACAD_MLEADERSTYLE
350
125
  3
ACAD_MLINESTYLE
350
17
  3
ACAD_PLOTSETTINGS
350
19
  3
ACAD_PLOTSTYLENAME
350
E
  3
ACAD_SCALELIST
350
3B
  3
ACAD_TABLESTYLE
350
124
  3
ACAD_VISUALSTYLE
350
2A
  0
DICTIONARY
  5
D
102
{ACAD_REACTORS
330
C
102
}
330
C
100
AcDbDictionary
281
     1
  0
DICTIONARY
  5
1A
102
{ACAD_REACTORS
330
C
102
}
330
C
100
AcDbDictionary
281
     1
  3
Layout1
350
1E
  3
Layout2
350
26
  3
Model
350
22
  0
DICTIONARY
  5
125
102
{ACAD_REACTORS
330
C
102
}
330
C
100
AcDbDictionary
281
     1
  0
DICTIONARY
  5
17
102
{ACAD_REACTORS
330
C
102
}
330
C
100
AcDbDictionary
281
     1
  3
Standard
350
18
  0
DICTIONARY
  5
19
102
{ACAD_REACTORS
330
C
102
}
330
C
100
AcDbDictionary
281
     1
  0
ACDBDICTIONARYWDFLT
  5
E
102
{ACAD_REACTORS
330
C
102
}
330
C
100
AcDbDictionary
281
     1
  3
Normal
350
F
100
AcDbDictionaryWithDefault
340
F
  0
DICTIONARY
  5
3B
102
{ACAD_REACTORS
330
C
102
}
330
C
100
AcDbDictionary
281
     1
  3
A0
350
3C
  3
A1
350
3D
  3
A2
350
3E
  3
A3
350
3F
  3
A4
350
40
  3
A5
350
41
  3
A6
350
42
  3
A7
350
43
  3
A8
350
44
  3
A9
350
45
  3
B0
350
46
  3
B1
350
47
  3
B2
350
48
  3
B3
350
49
  3
B4
350
4A
  3
B5
350
4B
  3
B6
350
4C
  3
B7
350
4D
  3
B8
350
4E
  3
B9
350
4F
  3
C0
350
50
  3
C1
350
51
  3
C2
350
52
  3
C3
350
53
  3
C4
350
54
  3
C5
350
55
  3
C6
350
56
  3
C7
350
57
  3
C8
350
58
  3
C9
350
59
  3
D0
350
5A
  3
D1
350
5B
  3
D2
350
5C
  0
DICTIONARY
  5
124
102
{ACAD_REACTORS
330
C
102
}
330
C
100
AcDbDictionary
281
     1
  0
DICTIONARY
  5
2A
102
{ACAD_REACTORS
330
C
102
}
330
C
100
AcDbDictionary
281
     1
  3
2dWireframe
350
2F
  3
3D Hidden
350
31
  3
3dWireframe
350
30
  3
Basic
350
32
  3
Brighten
350
36
  3
ColorChange
350
3A
  3
Conceptual
350
34
  3
Dim
350
35
  3
Facepattern
350
39
  3
Flat
350
2B
  3
FlatWithEdges
350
2C
  3
Gouraud
350
2D
  3
GouraudWithEdges
350
2E
  3
Linepattern
350
38
  3
Realistic
350
33
  3
Thicken
350
37
  0
LAYOUT
  5
1E
102
{ACAD_REACTORS
330
1A
102
}
330
1A
100
AcDbPlotSettings
  1

  2
none_device
  4

  6

 40
0.0
 41
0.0
 42
0.0
 43
0.0
 44
0.0
 45
0.0
 46
0.0
 47
0.0
 48
0.0
 49
0.0
140
0.0
141
0.0
142
1.0
143
1.0
 70
   688
 72
     0
 73
     0
 74
     5
  7

 75
    16
 76
     0
 77
     2
 78
   300
147
1.0
148
0.0
149
0.0
100
AcDbLayout
  1
Layout1
 70
     1
 71
     1
 10
0.0
 20
0.0
 11
12.0
 21
9.0
 12
0.0
 22
0.0
 32
0.0
 14
1.000000000000000E+20
 24
1.000000000000000E+20
 34
1.000000000000000E+20
 15
-1.000000000000000E+20
 25
-1.000000000000000E+20
 35
-1.000000000000000E+20
146
0.0
 13
0.0
 23
0.0
 33
0.0
 16
1.0
 26
0.0
 36
0.0
 17
0.0
 27
1.0
 37
0.0
 76
     0
330
1B
  0
LAYOUT
  5
26
102
{ACAD_REACTORS
330
1A
102
}
330
1A
100
AcDbPlotSettings
  1

  2
none_device
  4

  6

 40
0.0
 41
0.0
 42
0.0
 43
0.0
 44
0.0
 45
0.0
 46
0.0
 47
0.0
 48
0.0
 49
0.0
140
0.0
141
0.0
142
1.0
143
1.0
 70
   688
 72
     0
 73
     0
 74
     5
  7

 75
    16
 76
     0
 77
     2
 78
   300
147
1.0
148
0.0
149
0.0
100
AcDbLayout
  1
Layout2
 70
     1
 71
     2
 10
0.0
 20
0.0
 11
0.0
 21
0.0
 12
0.0
 22
0.0
 32
0.0
 14
0.0
 24
0.0
 34
0.0
 15
0.0
 25
0.0
 35
0.0
146
0.0
 13
0.0
 23
0.0
 33
0.0
 16
1.0
 26
0.0
 36
0.0
 17
0.0
 27
1.0
 37
0.0
 76
     0
330
23
  0
LAYOUT
  5
22
102
{ACAD_REACTORS
330
1A
102
}
330
1A
100
AcDbPlotSettings
  1

  2
none_device
  4

  6

 40
0.0
 41
0.0
 42
0.0
 43
0.0
 44
0.0
 45
0.0
 46
0.0
 47
0.0
 48
0.0
 49
0.0
140
0.0
141
0.0
142
1.0
143
1.0
 70
  1712
 72
     0
 73
     0
 74
     0
  7

 75
     0
 76
     0
 77
     2
 78
   300
147
1.0
148
0.0
149
0.0
100
AcDbLayout
  1
Model
 70
     1
 71
     0
 10
0.0
 20
0.0
 11
12.0
 21
9.0
 12
0.0
 22
0.0
 32
0.0
 14
0.0025055156736045
 24
0.002505515673576
 34
0.0
 15
96.3556664040707
 25
208.1702356391234
 35
0.0
146
0.0
 13
0.0
 23
0.0
 33
0.0
 16
1.0
 26
0.0
 36
0.0
 17
0.0
 27
1.0
 37
0.0
 76
     0
330
1F
331
29
  0
MLINESTYLE
  5
18
102
{ACAD_REACTORS
330
17
102
}
330
17
100
AcDbMlineStyle
  2
Standard
 70
     0
  3

 62
   256
 51
90.0
 52
90.0
 71
     2
 49
0.5
 62
   256
  6
BYLAYER
 49
-0.5
 62
   256
  6
BYLAYER
  0
ACDBPLACEHOLDER
  5
F
102
{ACAD_REACTORS
330
E
102
}
330
E
  0
SCALE
  5
3C
102
{ACAD_REACTORS
330
3B
102
}
330
3B
100
AcDbScale
 70
     0
300
1:1
140
1.0
141
1.0
290
     1
  0
SCALE
  5
3D
102
{ACAD_REACTORS
330
3B
102
}
330
3B
100
AcDbScale
 70
     0
300
1:2
140
1.0
141
2.0
290
     0
  0
SCALE
  5
3E
102
{ACAD_REACTORS
330
3B
102
}
330
3B
100
AcDbScale
 70
     0
300
1:4
140
1.0
141
4.0
290
     0
  0
SCALE
  5
3F
102
{ACAD_REACTORS
330
3B
102
}
330
3B
100
AcDbScale
 70
     0
300
1:5
140
1.0
141
5.0
290
     0
  0
SCALE
  5
40
102
{ACAD_REACTORS
330
3B
102
}
330
3B
100
AcDbScale
 70
     0
300
1:8
140
1.0
141
8.0
290
     0
  0
SCALE
  5
41
102
{ACAD_REACTORS
330
3B
102
}
330
3B
100
AcDbScale
 70
     0
300
1:10
140
1.0
141
10.0
290
     0
  0
SCALE
  5
42
102
{ACAD_REACTORS
330
3B
102
}
330
3B
100
AcDbScale
 70
     0
300
1:16
140
1.0
141
16.0
290
     0
  0
SCALE
  5
43
102
{ACAD_REACTORS
330
3B
102
}
330
3B
100
AcDbScale
 70
     0
300
1:20
140
1.0
141
20.0
290
     0
  0
SCALE
  5
44
102
{ACAD_REACTORS
330
3B
102
}
330
3B
100
AcDbScale
 70
     0
300
1:30
140
1.0
141
30.0
290
     0
  0
SCALE
  5
45
102
{ACAD_REACTORS
330
3B
102
}
330
3B
100
AcDbScale
 70
     0
300
1:40
140
1.0
141
40.0
290
     0
  0
SCALE
  5
46
102
{ACAD_REACTORS
330
3B
102
}
330
3B
100
AcDbScale
 70
     0
300
1:50
140
1.0
141
50.0
290
     0
  0
SCALE
  5
47
102
{ACAD_REACTORS
330
3B
102
}
330
3B
100
AcDbScale
 70
     0
300
1:100
140
1.0
141
100.0
290
     0
  0
SCALE
  5
48
102
{ACAD_REACTORS
330
3B
102
}
330
3B
100
AcDbScale
 70
     0
300
2:1
140
2.0
141
1.0
290
     0
  0
SCALE
  5
49
102
{ACAD_REACTORS
330
3B
102
}
330
3B
100
AcDbScale
 70
     0
300
4:1
140
4.0
141
1.0
290
     0
  0
SCALE
  5
4A
102
{ACAD_REACTORS
330
3B
102
}
330
3B
100
AcDbScale
 70
     0
300
8:1
140
8.0
141
1.0
290
     0
  0
SCALE
  5
4B
102
{ACAD_REACTORS
330
3B
102
}
330
3B
100
AcDbScale
 70
     0
300
10:1
140
10.0
141
1.0
290
     0
  0
SCALE
  5
4C
102
{ACAD_REACTORS
330
3B
102
}
330
3B
100
AcDbScale
 70
     0
300
100:1
140
100.0
141
1.0
290
     0
  0
SCALE
  5
4D
102
{ACAD_REACTORS
330
3B
102
}
330
3B
100
AcDbScale
 70
     0
300
1/128" = 1'-0"
140
0.0078125
141
12.0
290
     0
  0
SCALE
  5
4E
102
{ACAD_REACTORS
330
3B
102
}
330
3B
100
AcDbScale
 70
     0
300
1/64" = 1'-0"
140
0.015625
141
12.0
290
     0
  0
SCALE
  5
4F
102
{ACAD_REACTORS
330
3B
102
}
330
3B
100
AcDbScale
 70
     0
300
1/32" = 1'-0"
140
0.03125
141
12.0
290
     0
  0
SCALE
  5
50
102
{ACAD_REACTORS
330
3B
102
}
330
3B
100
AcDbScale
 70
     0
300
1/16" = 1'-0"
140
0.0625
141
12.0
290
     0
  0
SCALE
  5
51
102
{ACAD_REACTORS
330
3B
102
}
330
3B
100
AcDbScale
 70
     0
300
3/32" = 1'-0"
140
0.09375
141
12.0
290
     0
  0
SCALE
  5
52
102
{ACAD_REACTORS
330
3B
102
}
330
3B
100
AcDbScale
 70
     0
300
1/8" = 1'-0"
140
0.125
141
12.0
290
     0
  0
SCALE
  5
53
102
{ACAD_REACTORS
330
3B
102
}
330
3B
100
AcDbScale
 70
     0
300
3/16" = 1'-0"
140
0.1875
141
12.0
290
     0
  0
SCALE
  5
54
102
{ACAD_REACTORS
330
3B
102
}
330
3B
100
AcDbScale
 70
     0
300
1/4" = 1'-0"
140
0.25
141
12.0
290
     0
  0
SCALE
  5
55
102
{ACAD_REACTORS
330
3B
102
}
330
3B
100
AcDbScale
 70
     0
300
3/8" = 1'-0"
140
0.375
141
12.0
290
     0
  0
SCALE
  5
56
102
{ACAD_REACTORS
330
3B
102
}
330
3B
100
AcDbScale
 70
     0
300
1/2" = 1'-0"
140
0.5
141
12.0
290
     0
  0
SCALE
  5
57
102
{ACAD_REACTORS
330
3B
102
}
330
3B
100
AcDbScale
 70
     0
300
3/4" = 1'-0"
140
0.75
141
12.0
290
     0
  0
SCALE
  5
58
102
{ACAD_REACTORS
330
3B
102
}
330
3B
100
AcDbScale
 70
     0
300
1" = 1'-0"
140
1.0
141
12.0
290
     0
  0
SCALE
  5
59
102
{ACAD_REACTORS
330
3B
102
}
330
3B
100
AcDbScale
 70
     0
300
1-1/2" = 1'-0"
140
1.5
141
12.0
290
     0
  0
SCALE
  5
5A
102
{ACAD_REACTORS
330
3B
102
}
330
3B
100
AcDbScale
 70
     0
300
3" = 1'-0"
140
3.0
141
12.0
290
     0
  0
SCALE
  5
5B
102
{ACAD_REACTORS
330
3B
102
}
330
3B
100
AcDbScale
 70
     0
300
6" = 1'-0"
140
6.0
141
12.0
290
     0
  0
SCALE
  5
5C
102
{ACAD_REACTORS
330
3B
102
}
330
3B
100
AcDbScale
 70
     0
300
1'-0" = 1'-0"
140
12.0
141
12.0
290
     0
  0
VISUALSTYLE
  5
2F
102
{ACAD_REACTORS
330
2A
102
}
330
2A
100
AcDbVisualStyle
  2
2dWireframe
 70
     4
 71
     0
 72
     2
 73
     0
 90
        0
 40
-0.6
 41
-30.0
 62
     5
 63
     7
421
 16777215
 74
     1
 91
        4
 64
     7
 65
   257
 75
     1
175
     1
 42
1.0
 92
        0
 66
   257
 43
1.0
 76
     1
 77
     6
 78
     2
 67
     7
 79
     5
170
     0
171
     0
290
     0
174
     0
 93
        1
 44
0.0
173
     0
291
     0
 45
0.0
1001
ACAD
1000
AcDbSavedByObjectVersion
1070
     0
  0
VISUALSTYLE
  5
31
102
{ACAD_REACTORS
330
2A
102
}
330
2A
100
AcDbVisualStyle
  2
3D Hidden
 70
     6
 71
     1
 72
     2
 73
     2
 90
        0
 40
-0.6
 41
-30.0
 62
     5
 63
     7
421
 16777215
 74
     2
 91
        2
 64
     7
 65
   257
 75
     2
175
     1
 42
40.0
 92
        0
 66
   257
 43
1.0
 76
     1
 77
     6
 78
     2
 67
     7
 79
     3
170
     0
171
     0
290
     0
174
     0
 93
        1
 44
0.0
173
     0
291
     0
 45
0.0
1001
ACAD
1000
AcDbSavedByObjectVersion
1070
     0
  0
VISUALSTYLE
  5
30
102
{ACAD_REACTORS
330
2A
102
}
330
2A
100
AcDbVisualStyle
  2
3dWireframe
 70
     5
 71
     0
 72
     2
 73
     0
 90
        0
 40
-0.6
 41
-30.0
 62
     5
 63
     7
421
 16777215
 74
     1
 91
        4
 64
     7
 65
   257
 75
     1
175
     1
 42
1.0
 92
        0
 66
   257
 43
1.0
 76
     1
 77
     6
 78
     2
 67
     7
 79
     5
170
     0
171
     0
290
     0
174
     0
 93
        1
 44
0.0
173
     0
291
     0
 45
0.0
1001
ACAD
1000
AcDbSavedByObjectVersion
1070
     0
  0
VISUALSTYLE
  5
32
102
{ACAD_REACTORS
330
2A
102
}
330
2A
100
AcDbVisualStyle
  2
Basic
 70
     7
 71
     1
 72
     0
 73
     1
 90
        0
 40
-0.6
 41
-30.0
 62
     5
 63
     7
421
 16777215
 74
     0
 91
        4
 64
     7
 65
   257
 75
     1
175
     1
 42
1.0
 92
        8
 66
     7
 43
1.0
 76
     1
 77
     6
 78
     2
 67
     7
 79
     5
170
     0
171
     0
290
     0
174
     0
 93
        1
 44
0.0
173
     0
291
     1
 45
0.0
1001
ACAD
1000
AcDbSavedByObjectVersion
1070
     0
  0
VISUALSTYLE
  5
36
102
{ACAD_REACTORS
330
2A
102
}
330
2A
100
AcDbVisualStyle
  2
Brighten
 70
    12
 71
     2
 72
     2
 73
     0
 90
        0
 40
-0.6
 41
-30.0
 62
     5
 63
     7
421
 16777215
 74
     1
 91
        4
 64
     7
 65
   257
 75
     1
175
     1
 42
1.0
 92
        8
 66
     7
 43
1.0
 76
     1
 77
     6
 78
     2
 67
     7
 79
     5
170
     0
171
     0
290
     0
174
     0
 93
        1
 44
50.0
173
     0
291
     1
 45
0.0
1001
ACAD
1000
AcDbSavedByObjectVersion
1070
     0
  0
VISUALSTYLE
  5
3A
102
{ACAD_REACTORS
330
2A
102
}
330
2A
100
AcDbVisualStyle
  2
ColorChange
 70
    16
 71
     2
 72
     2
 73
     3
 90
        0
 40
-0.6
 41
-30.0
 62
     5
 63
     8
421
  8421504
 74
     1
 91
        4
 64
     7
 65
   257
 75
     1
175
     1
 42
1.0
 92
        8
 66
     8
424
  8421504
 43
1.0
 76
     1
 77
     6
 78
     2
 67
     7
 79
     5
170
     0
171
     0
290
     0
174
     0
 93
        1
 44
0.0
173
     0
291
     1
 45
0.0
1001
ACAD
1000
AcDbSavedByObjectVersion
1070
     0
  0
VISUALSTYLE
  5
34
102
{ACAD_REACTORS
330
2A
102
}
330
2A
100
AcDbVisualStyle
  2
Conceptual
 70
     9
 71
     3
 72
     2
 73
     0
 90
        0
 40
-0.6
 41
-30.0
 62
     5
 63
     7
421
 16777215
 74
     2
 91
        2
 64
     7
 65
   257
 75
     1
175
     1
 42
40.0
 92
        8
 66
     7
 43
1.0
 76
     1
 77
     6
 78
     2
 67
     7
 79
     3
170
     0
171
     0
290
     0
174
     0
 93
        1
 44
0.0
173
     0
291
     0
 45
0.0
1001
ACAD
1000
AcDbSavedByObjectVersion
1070
     0
  0
VISUALSTYLE
  5
35
102
{ACAD_REACTORS
330
2A
102
}
330
2A
100
AcDbVisualStyle
  2
Dim
 70
    11
 71
     2
 72
     2
 73
     0
 90
        0
 40
-0.6
 41
-30.0
 62
     5
 63
     7
421
 16777215
 74
     1
 91
        4
 64
     7
 65
   257
 75
     1
175
     1
 42
1.0
 92
        8
 66
     7
 43
1.0
 76
     1
 77
     6
 78
     2
 67
     7
 79
     5
170
     0
171
     0
290
     0
174
     0
 93
        1
 44
-50.0
173
     0
291
     1
 45
0.0
1001
ACAD
1000
AcDbSavedByObjectVersion
1070
     0
  0
VISUALSTYLE
  5
39
102
{ACAD_REACTORS
330
2A
102
}
330
2A
100
AcDbVisualStyle
  2
Facepattern
 70
    15
 71
     2
 72
     2
 73
     0
 90
        0
 40
-0.6
 41
-30.0
 62
     5
 63
     7
421
 16777215
 74
     1
 91
        4
 64
     7
 65
   257
 75
     1
175
     1
 42
1.0
 92
        8
 66
     7
 43
1.0
 76
     1
 77
     6
 78
     2
 67
     7
 79
     5
170
     0
171
     0
290
     0
174
     0
 93
        1
 44
0.0
173
     0
291
     1
 45
0.0
1001
ACAD
1000
AcDbSavedByObjectVersion
1070
     0
  0
VISUALSTYLE
  5
2B
102
{ACAD_REACTORS
330
2A
102
}
330
2A
100
AcDbVisualStyle
  2
Flat
 70
     0
 71
     2
 72
     1
 73
     1
 90
        2
 40
-0.6
 41
30.0
 62
     5
 63
     7
421
 16777215
 74
     0
 91
        4
 64
     7
 65
   257
 75
     1
175
     1
 42
1.0
 92
        8
 66
     7
 43
1.0
 76
     1
 77
     6
 78
     2
 67
     7
 79
     5
170
     0
171
     0
290
     0
174
     0
 93
       13
 44
0.0
173
     0
291
     1
 45
0.0
1001
ACAD
1000
AcDbSavedByObjectVersion
1070
     0
  0
VISUALSTYLE
  5
2C
102
{ACAD_REACTORS
330
2A
102
}
330
2A
100
AcDbVisualStyle
  2
FlatWithEdges
 70
     1
 71
     2
 72
     1
 73
     1
 90
        2
 40
-0.6
 41
30.0
 62
     5
 63
     7
421
 16777215
 74
     1
 91
        4
 64
     7
 65
   257
 75
     1
175
     1
 42
1.0
 92
        0
 66
   257
 43
1.0
 76
     1
 77
     6
 78
     2
 67
     7
 79
     5
170
     0
171
     0
290
     0
174
     0
 93
       13
 44
0.0
173
     0
291
     1
 45
0.0
1001
ACAD
1000
AcDbSavedByObjectVersion
1070
     0
  0
VISUALSTYLE
  5
2D
102
{ACAD_REACTORS
330
2A
102
}
330
2A
100
AcDbVisualStyle
  2
Gouraud
 70
     2
 71
     2
 72
     2
 73
     1
 90
        2
 40
-0.6
 41
30.0
 62
     5
 63
     7
421
 16777215
 74
     0
 91
        4
 64
     7
 65
   257
 75
     1
175
     1
 42
1.0
 92
        0
 66
     7
 43
1.0
 76
     1
 77
     6
 78
     2
 67
     7
 79
     5
170
     0
171
     0
290
     0
174
     0
 93
       13
 44
0.0
173
     0
291
     1
 45
0.0
1001
ACAD
1000
AcDbSavedByObjectVersion
1070
     0
  0
VISUALSTYLE
  5
2E
102
{ACAD_REACTORS
330
2A
102
}
330
2A
100
AcDbVisualStyle
  2
GouraudWithEdges
 70
     3
 71
     2
 72
     2
 73
     1
 90
        2
 40
-0.6
 41
30.0
 62
     5
 63
     7
421
 16777215
 74
     1
 91
        4
 64
     7
 65
   257
 75
     1
175
     1
 42
1.0
 92
        0
 66
   257
 43
1.0
 76
     1
 77
     6
 78
     2
 67
     7
 79
     5
170
     0
171
     0
290
     0
174
     0
 93
       13
 44
0.0
173
     0
291
     1
 45
0.0
1001
ACAD
1000
AcDbSavedByObjectVersion
1070
     0
  0
VISUALSTYLE
  5
38
102
{ACAD_REACTORS
330
2A
102
}
330
2A
100
AcDbVisualStyle
  2
Linepattern
 70
    14
 71
     2
 72
     2
 73
     0
 90
        0
 40
-0.6
 41
-30.0
 62
     5
 63
     7
421
 16777215
 74
     1
 91
        4
 64
     7
 65
   257
 75
     7
175
     7
 42
1.0
 92
        8
 66
     7
 43
1.0
 76
     1
 77
     6
 78
     2
 67
     7
 79
     5
170
     0
171
     0
290
     0
174
     0
 93
        1
 44
0.0
173
     0
291
     1
 45
0.0
1001
ACAD
1000
AcDbSavedByObjectVersion
1070
     0
  0
VISUALSTYLE
  5
33
102
{ACAD_REACTORS
330
2A
102
}
330
2A
100
AcDbVisualStyle
  2
Realistic
 70
     8
 71
     2
 72
     2
 73
     0
 90
        0
 40
-0.6
 41
-30.0
 62
     5
 63
     7
421
 16777215
 74
     1
 91
        0
 64
     7
 65
   257
 75
     1
175
     1
 42
1.0
 92
        8
 66
     8
424
  7895160
 43
1.0
 76
     1
 77
     6
 78
     2
 67
     7
 79
     5
170
     0
171
     0
290
     0
174
     0
 93
       13
 44
0.0
173
     0
291
     0
 45
0.0
1001
ACAD
1000
AcDbSavedByObjectVersion
1070
     0
  0
VISUALSTYLE
  5
37
102
{ACAD_REACTORS
330
2A
102
}
330
2A
100
AcDbVisualStyle
  2
Thicken
 70
    13
 71
     2
 72
     2
 73
     0
 90
        0
 40
-0.6
 41
-30.0
 62
     5
 63
     7
421
 16777215
 74
     1
 91
        4
 64
     7
 65
   257
 75
     1
175
     1
 42
1.0
 92
       12
 66
     7
 43
1.0
 76
     1
 77
     6
 78
     2
 67
     7
 79
     5
170
     0
171
     0
290
     0
174
     0
 93
        1
 44
0.0
173
     0
291
     1
 45
0.0
1001
ACAD
1000
AcDbSavedByObjectVersion
1070
     0
  0
ENDSEC
  0
EOF
