  0
SECTION
  2
HEADER
  9
$ACADVER
  1
AC1018
  9
$ACADMAINTVER
 70
     0
  9
$DWGCODEPAGE
  3
ANSI_1252
  9
$INSBASE
 10
0.0
 20
0.0
 30
0.0
  9
$EXTMIN
 10
-0.0019692707248995
 20
0.0014781995315076
 30
0.0
  9
$EXTMAX
 10
84.23135215835838
 20
287.8793047572063
 30
0.0
  9
$LIMMIN
 10
0.0
 20
0.0
  9
$LIMMAX
 10
12.0
 20
9.0
  9
$ORTHOMODE
 70
     0
  9
$REGENMODE
 70
     1
  9
$FILLMODE
 70
     1
  9
$QTEXTMODE
 70
     0
  9
$MIRRTEXT
 70
     1
  9
$LTSCALE
 40
1.0
  9
$ATTMODE
 70
     1
  9
$TEXTSIZE
 40
0.2
  9
$TRACEWID
 40
0.05
  9
$TEXTSTYLE
  7
Standard
  9
$CLAYER
  8
PREDEFINITO
  9
$CELTYPE
  6
ByLayer
  9
$CECOLOR
 62
   256
  9
$CELTSCALE
 40
1.0
  9
$DISPSILH
 70
     0
  9
$DIMSCALE
 40
1.0
  9
$DIMASZ
 40
0.18
  9
$DIMEXO
 40
0.0625
  9
$DIMDLI
 40
0.38
  9
$DIMRND
 40
0.0
  9
$DIMDLE
 40
0.0
  9
$DIMEXE
 40
0.18
  9
$DIMTP
 40
0.0
  9
$DIMTM
 40
0.0
  9
$DIMTXT
 40
0.18
  9
$DIMCEN
 40
0.09
  9
$DIMTSZ
 40
0.0
  9
$DIMTOL
 70
     0
  9
$DIMLIM
 70
     0
  9
$DIMTIH
 70
     1
  9
$DIMTOH
 70
     1
  9
$DIMSE1
 70
     0
  9
$DIMSE2
 70
     0
  9
$DIMTAD
 70
     0
  9
$DIMZIN
 70
     0
  9
$DIMBLK
  1

  9
$DIMASO
 70
     1
  9
$DIMSHO
 70
     1
  9
$DIMPOST
  1

  9
$DIMAPOST
  1

  9
$DIMALT
 70
     0
  9
$DIMALTD
 70
     2
  9
$DIMALTF
 40
25.4
  9
$DIMLFAC
 40
1.0
  9
$DIMTOFL
 70
     0
  9
$DIMTVP
 40
0.0
  9
$DIMTIX
 70
     0
  9
$DIMSOXD
 70
     0
  9
$DIMSAH
 70
     0
  9
$DIMBLK1
  1

  9
$DIMBLK2
  1

  9
$DIMSTYLE
  2
Standard
  9
$DIMCLRD
 70
     0
  9
$DIMCLRE
 70
     0
  9
$DIMCLRT
 70
     0
  9
$DIMTFAC
 40
1.0
  9
$DIMGAP
 40
0.09
  9
$DIMJUST
 70
     0
  9
$DIMSD1
 70
     0
  9
$DIMSD2
 70
     0
  9
$DIMTOLJ
 70
     1
  9
$DIMTZIN
 70
     0
  9
$DIMALTZ
 70
     0
  9
$DIMALTTZ
 70
     0
  9
$DIMUPT
 70
     0
  9
$DIMDEC
 70
     4
  9
$DIMTDEC
 70
     4
  9
$DIMALTU
 70
     2
  9
$DIMALTTD
 70
     2
  9
$DIMTXSTY
  7
Standard
  9
$DIMAUNIT
 70
     0
  9
$DIMADEC
 70
     0
  9
$DIMALTRND
 40
0.0
  9
$DIMAZIN
 70
     0
  9
$DIMDSEP
 70
    46
  9
$DIMATFIT
 70
     3
  9
$DIMFRAC
 70
     0
  9
$DIMLDRBLK
  1

  9
$DIMLUNIT
 70
     2
  9
$DIMLWD
 70
    -2
  9
$DIMLWE
 70
    -2
  9
$DIMTMOVE
 70
     0
  9
$LUNITS
 70
     2
  9
$LUPREC
 70
     3
  9
$SKETCHINC
 40
0.1
  9
$FILLETRAD
 40
0.5
  9
$AUNITS
 70
     0
  9
$AUPREC
 70
     0
  9
$MENU
  1
.
  9
$ELEVATION
 40
0.0
  9
$PELEVATION
 40
0.0
  9
$THICKNESS
 40
0.0
  9
$LIMCHECK
 70
     0
  9
$CHAMFERA
 40
0.5
  9
$CHAMFERB
 40
0.5
  9
$CHAMFERC
 40
1.0
  9
$CHAMFERD
 40
0.0
  9
$SKPOLY
 70
     0
  9
$TDCREATE
 40
2455869.464816319
  9
$TDUCREATE
 40
2455869.423149653
  9
$TDUPDATE
 40
2455869.464816331
  9
$TDUUPDATE
 40
2455869.423149664
  9
$TDINDWG
 40
0.0000000116
  9
$TDUSRTIMER
 40
0.0000000116
  9
$USRTIMER
 70
     1
  9
$ANGBASE
 50
0.0
  9
$ANGDIR
 70
     0
  9
$PDMODE
 70
     0
  9
$PDSIZE
 40
0.0
  9
$PLINEWID
 40
0.0
  9
$SPLFRAME
 70
     0
  9
$SPLINETYPE
 70
     6
  9
$SPLINESEGS
 70
     8
  9
$HANDSEED
  5
230
  9
$SURFTAB1
 70
     6
  9
$SURFTAB2
 70
     6
  9
$SURFTYPE
 70
     6
  9
$SURFU
 70
     6
  9
$SURFV
 70
     6
  9
$UCSBASE
  2

  9
$UCSNAME
  2

  9
$UCSORG
 10
0.0
 20
0.0
 30
0.0
  9
$UCSXDIR
 10
1.0
 20
0.0
 30
0.0
  9
$UCSYDIR
 10
0.0
 20
1.0
 30
0.0
  9
$UCSORTHOREF
  2

  9
$UCSORTHOVIEW
 70
     0
  9
$UCSORGTOP
 10
0.0
 20
0.0
 30
0.0
  9
$UCSORGBOTTOM
 10
0.0
 20
0.0
 30
0.0
  9
$UCSORGLEFT
 10
0.0
 20
0.0
 30
0.0
  9
$UCSORGRIGHT
 10
0.0
 20
0.0
 30
0.0
  9
$UCSORGFRONT
 10
0.0
 20
0.0
 30
0.0
  9
$UCSORGBACK
 10
0.0
 20
0.0
 30
0.0
  9
$PUCSBASE
  2

  9
$PUCSNAME
  2

  9
$PUCSORG
 10
0.0
 20
0.0
 30
0.0
  9
$PUCSXDIR
 10
1.0
 20
0.0
 30
0.0
  9
$PUCSYDIR
 10
0.0
 20
1.0
 30
0.0
  9
$PUCSORTHOREF
  2

  9
$PUCSORTHOVIEW
 70
     0
  9
$PUCSORGTOP
 10
0.0
 20
0.0
 30
0.0
  9
$PUCSORGBOTTOM
 10
0.0
 20
0.0
 30
0.0
  9
$PUCSORGLEFT
 10
0.0
 20
0.0
 30
0.0
  9
$PUCSORGRIGHT
 10
0.0
 20
0.0
 30
0.0
  9
$PUCSORGFRONT
 10
0.0
 20
0.0
 30
0.0
  9
$PUCSORGBACK
 10
0.0
 20
0.0
 30
0.0
  9
$USERI1
 70
     0
  9
$USERI2
 70
     0
  9
$USERI3
 70
     0
  9
$USERI4
 70
     0
  9
$USERI5
 70
     0
  9
$USERR1
 40
0.0
  9
$USERR2
 40
0.0
  9
$USERR3
 40
0.0
  9
$USERR4
 40
0.0
  9
$USERR5
 40
0.0
  9
$WORLDVIEW
 70
     1
  9
$SHADEDGE
 70
     3
  9
$SHADEDIF
 70
    70
  9
$TILEMODE
 70
     1
  9
$MAXACTVP
 70
    64
  9
$PINSBASE
 10
0.0
 20
0.0
 30
0.0
  9
$PLIMCHECK
 70
     0
  9
$PEXTMIN
 10
1.000000000000000E+20
 20
1.000000000000000E+20
 30
1.000000000000000E+20
  9
$PEXTMAX
 10
-1.000000000000000E+20
 20
-1.000000000000000E+20
 30
-1.000000000000000E+20
  9
$PLIMMIN
 10
0.0
 20
0.0
  9
$PLIMMAX
 10
12.0
 20
9.0
  9
$UNITMODE
 70
     0
  9
$VISRETAIN
 70
     1
  9
$PLINEGEN
 70
     0
  9
$PSLTSCALE
 70
     1
  9
$TREEDEPTH
 70
  3020
  9
$CMLSTYLE
  2
Standard
  9
$CMLJUST
 70
     0
  9
$CMLSCALE
 40
1.0
  9
$PROXYGRAPHICS
 70
     1
  9
$MEASUREMENT
 70
     0
  9
$CELWEIGHT
370
    -1
  9
$ENDCAPS
280
     0
  9
$JOINSTYLE
280
     0
  9
$LWDISPLAY
290
     0
  9
$INSUNITS
 70
     4
  9
$HYPERLINKBASE
  1

  9
$STYLESHEET
  1

  9
$XEDIT
290
     1
  9
$CEPSNTYPE
380
     0
  9
$PSTYLEMODE
290
     1
  9
$FINGERPRINTGUID
  2
{122AA41B-D276-4D64-82F8-7EFE26F1FC64}
  9
$VERSIONGUID
  2
{FAEB1C32-E019-11D5-929B-00C0DF256EC4}
  9
$EXTNAMES
290
     1
  9
$PSVPSCALE
 40
0.0
  9
$OLESTARTUP
290
     0
  9
$SORTENTS
280
   127
  9
$INDEXCTL
280
     0
  9
$HIDETEXT
280
     1
  9
$XCLIPFRAME
290
     0
  9
$HALOGAP
280
     0
  9
$OBSCOLOR
 70
   257
  9
$OBSLTYPE
280
     0
  9
$INTERSECTIONDISPLAY
280
     0
  9
$INTERSECTIONCOLOR
 70
   257
  9
$DIMASSOC
280
     2
  9
$PROJECTNAME
  1

  0
ENDSEC
  0
SECTION
  2
CLASSES
  0
CLASS
  1
ACDBDICTIONARYWDFLT
  2
AcDbDictionaryWithDefault
  3
ObjectDBX Classes
 90
        0
 91
        3
280
     0
281
     0
  0
CLASS
  1
VISUALSTYLE
  2
AcDbVisualStyle
  3
ObjectDBX Classes
 90
     4095
 91
        3
280
     0
281
     0
  0
CLASS
  1
SCALE
  2
AcDbScale
  3
ObjectDBX Classes
 90
     1153
 91
        3
280
     0
281
     0
  0
ENDSEC
  0
SECTION
  2
TABLES
  0
TABLE
  2
VPORT
  5
8
330
0
100
AcDbSymbolTable
 70
     1
  0
VPORT
  5
29
330
8
100
AcDbSymbolTableRecord
100
AcDbViewportTableRecord
  2
*Active
 70
     0
 10
0.0
 20
0.0
 11
1.0
 21
1.0
 12
0.0
 22
0.0
 13
0.0
 23
0.0
 14
0.5
 24
0.5
 15
0.5
 25
0.5
 16
0.0
 26
0.0
 36
1.0
 17
42.11469144381674
 27
143.9403914783689
 37
0.0
 40
293.6353830888283
 41
0.2926009357382985
 42
50.0
 43
0.0
 44
0.0
 50
0.0
 51
0.0
 71
     0
 72
   100
 73
     1
 74
     3
 75
     0
 76
     0
 77
     0
 78
     0
281
     0
 65
     1
110
0.0
120
0.0
130
0.0
111
1.0
121
0.0
131
0.0
112
0.0
122
1.0
132
0.0
 79
     0
146
0.0
  0
ENDTAB
  0
TABLE
  2
LTYPE
  5
5
330
0
100
AcDbSymbolTable
 70
     1
  0
LTYPE
  5
14
330
5
100
AcDbSymbolTableRecord
100
AcDbLinetypeTableRecord
  2
ByBlock
 70
     0
  3

 72
    65
 73
     0
 40
0.0
  0
LTYPE
  5
15
330
5
100
AcDbSymbolTableRecord
100
AcDbLinetypeTableRecord
  2
ByLayer
 70
     0
  3

 72
    65
 73
     0
 40
0.0
  0
LTYPE
  5
16
330
5
100
AcDbSymbolTableRecord
100
AcDbLinetypeTableRecord
  2
Continuous
 70
     0
  3
Solid line
 72
    65
 73
     0
 40
0.0
  0
ENDTAB
  0
TABLE
  2
LAYER
  5
2
330
0
100
AcDbSymbolTable
 70
     3
  0
LAYER
  5
10
330
2
100
AcDbSymbolTableRecord
100
AcDbLayerTableRecord
  2
0
 70
     0
 62
     7
  6
Continuous
370
    -3
390
F
  0
LAYER
  5
5D
330
2
100
AcDbSymbolTableRecord
100
AcDbLayerTableRecord
  2
LINEE VISIBILI 2D
 70
     0
 62
     7
  6
Continuous
370
    -3
390
F
  0
LAYER
  5
60
330
2
100
AcDbSymbolTableRecord
100
AcDbLayerTableRecord
  2
PREDEFINITO
 70
     0
 62
     7
  6
Continuous
370
    -3
390
F
  0
ENDTAB
  0
TABLE
  2
STYLE
  5
3
330
0
100
AcDbSymbolTable
 70
     1
  0
STYLE
  5
11
330
3
100
AcDbSymbolTableRecord
100
AcDbTextStyleTableRecord
  2
Standard
 70
     0
 40
0.0
 41
1.0
 50
0.0
 71
     0
 42
0.2
  3
txt
  4

  0
ENDTAB
  0
TABLE
  2
VIEW
  5
6
330
0
100
AcDbSymbolTable
 70
     0
  0
ENDTAB
  0
TABLE
  2
UCS
  5
7
330
0
100
AcDbSymbolTable
 70
     0
  0
ENDTAB
  0
TABLE
  2
APPID
  5
9
330
0
100
AcDbSymbolTable
 70
     1
  0
APPID
  5
12
330
9
100
AcDbSymbolTableRecord
100
AcDbRegAppTableRecord
  2
ACAD
 70
     0
  0
ENDTAB
  0
TABLE
  2
DIMSTYLE
  5
A
330
0
100
AcDbSymbolTable
 70
     1
100
AcDbDimStyleTable
  0
DIMSTYLE
105
27
330
A
100
AcDbSymbolTableRecord
100
AcDbDimStyleTableRecord
  2
Standard
 70
     0
340
11
  0
ENDTAB
  0
TABLE
  2
BLOCK_RECORD
  5
1
330
0
100
AcDbSymbolTable
 70
     1
  0
BLOCK_RECORD
  5
1F
330
1
100
AcDbSymbolTableRecord
100
AcDbBlockTableRecord
  2
*Model_Space
340
22
  0
BLOCK_RECORD
  5
1B
330
1
100
AcDbSymbolTableRecord
100
AcDbBlockTableRecord
  2
*Paper_Space
340
1E
  0
BLOCK_RECORD
  5
23
330
1
100
AcDbSymbolTableRecord
100
AcDbBlockTableRecord
  2
*Paper_Space0
340
26
  0
ENDTAB
  0
ENDSEC
  0
SECTION
  2
BLOCKS
  0
BLOCK
  5
20
330
1F
100
AcDbEntity
  8
0
100
AcDbBlockBegin
  2
*Model_Space
 70
     0
 10
0.0
 20
0.0
 30
0.0
  3
*Model_Space
  1

  0
ENDBLK
  5
21
330
1F
100
AcDbEntity
  8
0
100
AcDbBlockEnd
  0
BLOCK
  5
1C
330
1B
100
AcDbEntity
 67
     1
  8
0
100
AcDbBlockBegin
  2
*Paper_Space
 70
     0
 10
0.0
 20
0.0
 30
0.0
  3
*Paper_Space
  1

  0
ENDBLK
  5
1D
330
1B
100
AcDbEntity
 67
     1
  8
0
100
AcDbBlockEnd
  0
BLOCK
  5
24
330
23
100
AcDbEntity
  8
0
100
AcDbBlockBegin
  2
*Paper_Space0
 70
     0
 10
0.0
 20
0.0
 30
0.0
  3
*Paper_Space0
  1

  0
ENDBLK
  5
25
330
23
100
AcDbEntity
  8
0
100
AcDbBlockEnd
  0
ENDSEC
  0
SECTION
  2
ENTITIES
  0
SPLINE
  5
5E
330
1F
100
AcDbEntity
  8
LINEE VISIBILI 2D
100
AcDbSpline
210
0.0
220
0.0
230
1.0
 70
    12
 71
     2
 72
     6
 73
     3
 74
     0
 42
0.0000000001
 43
0.0000000001
 40
0.0
 40
0.0
 40
0.0
 40
0.0050769966056096
 40
0.0050769966056096
 40
0.0050769966056096
 10
73.27193505947062
 20
127.7596377956579
 30
0.0
 41
1.0
 10
73.26985383002491
 20
127.7610913200998
 30
0.0
 41
0.9999679160590702
 10
73.26779615361082
 20
127.7625779999859
 30
0.0
 41
1.0
  0
SPLINE
  5
5F
330
1F
100
AcDbEntity
  8
LINEE VISIBILI 2D
100
AcDbSpline
210
0.0
220
0.0
230
1.0
 70
    12
 71
     2
 72
     6
 73
     3
 74
     0
 42
0.0000000001
 43
0.0000000001
 40
0.0
 40
0.0
 40
0.0
 40
0.0120884747463546
 40
0.0120884747463546
 40
0.0120884747463546
 10
73.39052932839888
 20
190.5236211485473
 30
0.0
 41
1.0
 10
73.39079373692047
 20
190.5296595998026
 30
0.0
 41
0.9999999998803822
 10
73.39105795864555
 20
190.5356980592344
 30
0.0
 41
1.0
  0
ARC
  5
61
330
1F
100
AcDbEntity
  8
PREDEFINITO
100
AcDbCircle
 10
72.80390735915317
 20
250.2500380354802
 30
0.0
 40
0.051228769806119
100
AcDbArc
 50
82.79565177131734
 51
176.4667601057791
  0
SPLINE
  5
62
330
1F
100
AcDbEntity
  8
PREDEFINITO
100
AcDbSpline
210
0.0
220
0.0
230
1.0
 70
    24
 71
     2
 72
     6
 73
     3
 74
     0
 42
0.0000000001
 43
0.0000000001
 40
0.0
 40
0.0
 40
0.0
 40
0.2940296994597085
 40
0.2940296994597085
 40
0.2940296994597085
 10
72.81033188364736
 20
250.3008623637185
 30
0.0
 10
72.95732628622557
 20
250.2959057213192
 30
0.0
 10
73.10432068880375
 20
250.2909490789199
 30
0.0
  0
SPLINE
  5
63
330
1F
100
AcDbEntity
  8
PREDEFINITO
100
AcDbSpline
210
0.0
220
0.0
230
1.0
 70
    24
 71
     2
 72
     6
 73
     3
 74
     0
 42
0.0000000001
 43
0.0000000001
 40
0.0
 40
0.0
 40
0.0
 40
0.2938698484961443
 40
0.2938698484961443
 40
0.2938698484961443
 10
73.10432068880375
 20
250.2909490789199
 30
0.0
 10
73.25123521128245
 20
250.2859951295385
 30
0.0
 10
73.39814973376116
 20
250.2810411801572
 30
0.0
  0
ARC
  5
64
330
1F
100
AcDbEntity
  8
PREDEFINITO
100
AcDbCircle
 10
73.39518360153592
 20
250.2249144968856
 30
0.0
 40
0.0562050043630291
100
AcDbArc
 50
357.8802018139365
 51
86.97489852253149
  0
SPLINE
  5
65
330
1F
100
AcDbEntity
  8
PREDEFINITO
100
AcDbSpline
210
0.0
220
0.0
230
1.0
 70
     8
 71
     3
 72
    39
 73
    35
 74
     0
 42
0.0000000001
 43
0.0000000001
 40
-132.2610078020346
 40
-132.2610078020346
 40
-132.2610078020346
 40
-132.2610078020346
 40
-126.2427428075002
 40
-123.724717043675
 40
-121.087870523853
 40
-117.8651633918761
 40
-114.415571679844
 40
-105.9893462994615
 40
-103.0268643550777
 40
-99.47671620813043
 40
-93.5703781861129
 40
-89.28675900300694
 40
-84.81363770265233
 40
-82.36446685834454
 40
-80.25690258325314
 40
-76.4901709897963
 40
-69.50948193584782
 40
-65.77791005562122
 40
-64.37241262548548
 40
-61.7976557312103
 40
-56.99443562191619
 40
-53.43165998779365
 40
-50.81406343960534
 40
-47.80763854252949
 40
-43.63025716057412
 40
-37.29925031022069
 40
-32.65233111832414
 40
-28.5158844248693
 40
-23.47261007571627
 40
-18.77885051056936
 40
-13.76720020278995
 40
-8.568027383771742
 40
-5.67245142844272
 40
0.0
 40
0.0
 40
0.0
 40
0.0
 10
73.45135014324758
 20
250.2228355289689
 30
0.0
 10
73.33423424586346
 20
248.2201687418058
 30
0.0
 10
73.18969008320492
 20
245.3762033545241
 30
0.0
 10
72.67397106552924
 20
241.6854509192082
 30
0.0
 10
72.20380265542651
 20
238.9328930557511
 30
0.0
 10
71.55452485078116
 20
235.8978761213815
 30
0.0
 10
70.34479889044972
 20
231.0116980892107
 30
0.0
 10
68.92589115309636
 20
226.2716495328051
 30
0.0
 10
67.76489426640349
 20
221.4274156872725
 30
0.0
 10
66.99815221823155
 20
217.3590942206202
 30
0.0
 10
66.44294339369507
 20
212.8065263132836
 30
0.0
 10
66.38242365986962
 20
207.9117802231749
 30
0.0
 10
66.77689954739432
 20
204.1913416995274
 30
0.0
 10
67.25562920863904
 20
201.2208397803512
 30
0.0
 10
67.76634496184668
 20
198.4927775571506
 30
0.0
 10
68.66830517783531
 20
194.3043984217028
 30
0.0
 10
69.65309126438002
 20
189.5780042580937
 30
0.0
 10
70.25268863325023
 20
185.5822493985419
 30
0.0
 10
70.57826695514923
 20
183.0324398801894
 30
0.0
 10
70.89269497533475
 20
180.1213294837824
 30
0.0
 10
71.18077474615808
 20
176.485022585775
 30
0.0
 10
71.32879136023367
 20
172.8263401530877
 30
0.0
 10
71.33584407194337
 20
169.7632240836006
 30
0.0
 10
71.1552567595509
 20
166.4995141980359
 30
0.0
 10
70.55993902568939
 20
162.0296298053314
 30
0.0
 10
69.47380278034868
 20
157.0927795658266
 30
0.0
 10
68.21726180299986
 20
152.2141409115132
 30
0.0
 10
67.05794880565044
 20
147.7534789036866
 30
0.0
 10
66.02912356039907
 20
143.2435439274913
 30
0.0
 10
65.16603816131702
 20
138.4026566952515
 30
0.0
 10
64.51711911456651
 20
133.4746901678837
 30
0.0
 10
64.2662644423832
 20
129.110063155077
 30
0.0
 10
64.18695405056945
 20
124.5220924582388
 30
0.0
 10
64.16829650641763
 20
121.6658547016659
 30
0.0
 10
64.17296528253257
 20
119.775043322895
 30
0.0
  0
POLYLINE
  5
66
330
1F
100
AcDbEntity
  8
PREDEFINITO
100
AcDb2dPolyline
 66
     1
 10
0.0
 20
0.0
 30
0.0
  0
VERTEX
  5
68
330
66
100
AcDbEntity
  8
PREDEFINITO
100
AcDbVertex
100
AcDb2dVertex
 10
64.17296528253257
 20
119.775043322895
 30
0.0
  0
VERTEX
  5
69
330
66
100
AcDbEntity
  8
PREDEFINITO
100
AcDbVertex
100
AcDb2dVertex
 10
63.46341392957129
 20
119.774391796923
 30
0.0
  0
SEQEND
  5
67
330
66
100
AcDbEntity
  8
PREDEFINITO
  0
SPLINE
  5
6A
330
1F
100
AcDbEntity
  8
PREDEFINITO
100
AcDbSpline
210
0.0
220
0.0
230
1.0
 70
    12
 71
     3
 72
     9
 73
     5
 74
     0
 42
0.0000000001
 43
0.0000000001
 40
-71.76355737115662
 40
-71.76355737115662
 40
-71.76355737115662
 40
-71.76355737115662
 40
-69.4447273924717
 40
-67.0883364090576
 40
-67.0883364090576
 40
-67.0883364090576
 40
-67.0883364090576
 10
63.46341392957129
 20
119.774391796923
 30
0.0
 41
1.0
 10
63.46485474613745
 20
122.6949893499307
 30
0.0
 41
1.0
 10
63.49260583883613
 20
125.5464788871623
 30
0.0
 41
1.0
 10
63.57946041547441
 20
129.4175735385364
 30
0.0
 41
1.0
 10
63.70463969336999
 20
131.3234510085845
 30
0.0
 41
1.0
  0
SPLINE
  5
6B
330
1F
100
AcDbEntity
  8
PREDEFINITO
100
AcDbSpline
210
0.0
220
0.0
230
1.0
 70
    12
 71
     2
 72
     6
 73
     3
 74
     0
 42
0.0000000001
 43
0.0000000001
 40
0.0
 40
0.0
 40
0.0
 40
5.551406558592955
 40
5.551406558592955
 40
5.551406558592955
 10
63.70463969336999
 20
131.3234510085845
 30
0.0
 41
1.0
 10
63.89419552490941
 20
134.0937602749739
 30
0.0
 41
0.9994161751372698
 10
64.27249846706935
 20
136.8446563427753
 30
0.0
 41
1.0
  0
SPLINE
  5
6C
330
1F
100
AcDbEntity
  8
PREDEFINITO
100
AcDbSpline
210
0.0
220
0.0
230
1.0
 70
    12
 71
     2
 72
     6
 73
     3
 74
     0
 42
0.0000000001
 43
0.0000000001
 40
0.0
 40
0.0
 40
0.0
 40
4.950207658069492
 40
4.950207658069492
 40
4.950207658069492
 10
64.27249846706935
 20
136.8446563427753
 30
0.0
 41
1.0
 10
64.59991653135064
 20
139.2986207283758
 30
0.0
 41
0.9996335688031321
 10
65.0596589228596
 20
141.7312715192463
 30
0.0
 41
1.0
  0
SPLINE
  5
6D
330
1F
100
AcDbEntity
  8
PREDEFINITO
100
AcDbSpline
210
0.0
220
0.0
230
1.0
 70
    12
 71
     2
 72
     6
 73
     3
 74
     0
 42
0.0000000001
 43
0.0000000001
 40
0.0
 40
0.0
 40
0.0
 40
4.947663815309116
 40
4.947663815309116
 40
4.947663815309116
 10
65.0596589228596
 20
141.7312715192463
 30
0.0
 41
1.0
 10
65.52313636283884
 20
144.1616180838831
 30
0.0
 41
0.9998122961104432
 10
66.08042513810875
 20
146.5721983884621
 30
0.0
 41
1.0
  0
SPLINE
  5
6E
330
1F
100
AcDbEntity
  8
PREDEFINITO
100
AcDbSpline
210
0.0
220
0.0
230
1.0
 70
    12
 71
     3
 72
    10
 73
     6
 74
     0
 42
0.0000000001
 43
0.0000000001
 40
-60.2833802780817
 40
-60.2833802780817
 40
-60.2833802780817
 40
-60.2833802780817
 40
-58.5453823720364
 40
-56.8090474265022
 40
-55.0743313897488
 40
-55.0743313897488
 40
-55.0743313897488
 40
-55.0743313897488
 10
66.08042513810875
 20
146.5721983884621
 30
0.0
 41
1.0
 10
66.33553709137486
 20
147.6754261788675
 30
0.0
 41
1.0
 10
66.78056652217921
 20
149.4501929733925
 30
0.0
 41
1.0
 10
67.55174281158206
 20
152.442363611214
 30
0.0
 41
1.0
 10
68.04902891983411
 20
154.3690493606062
 30
0.0
 41
1.0
 10
68.29153006258574
 20
155.3384387963542
 30
0.0
 41
1.0
  0
SPLINE
  5
6F
330
1F
100
AcDbEntity
  8
PREDEFINITO
100
AcDbSpline
210
0.0
220
0.0
230
1.0
 70
    12
 71
     2
 72
     6
 73
     3
 74
     0
 42
0.0000000001
 43
0.0000000001
 40
0.0
 40
0.0
 40
0.0
 40
2.953955134226452
 40
2.953955134226452
 40
2.953955134226452
 10
68.29153006258574
 20
155.3384387963542
 30
0.0
 41
0.9999999999999476
 10
68.65115463152131
 20
156.7710137339383
 30
0.0
 41
0.9999525401542522
 10
68.98279844655227
 20
158.2103240606051
 30
0.0
 41
1.0
  0
SPLINE
  5
70
330
1F
100
AcDbEntity
  8
PREDEFINITO
100
AcDbSpline
210
0.0
220
0.0
230
1.0
 70
    12
 71
     2
 72
     6
 73
     3
 74
     0
 42
0.0000000001
 43
0.0000000001
 40
0.0
 40
0.0
 40
0.0
 40
5.747222371785516
 40
5.747222371785516
 40
5.747222371785516
 10
68.98279844655227
 20
158.2103240606051
 30
0.0
 41
1.0
 10
69.63674500704869
 20
161.0099664990917
 30
0.0
 41
0.9992740326169579
 10
70.07563019938729
 20
163.8512728229429
 30
0.0
 41
1.0
  0
SPLINE
  5
71
330
1F
100
AcDbEntity
  8
PREDEFINITO
100
AcDbSpline
210
0.0
220
0.0
230
1.0
 70
    12
 71
     2
 72
     6
 73
     3
 74
     0
 42
0.0000000001
 43
0.0000000001
 40
0.0
 40
0.0
 40
0.0
 40
2.831985932497617
 40
2.831985932497617
 40
2.831985932497617
 10
70.07563019938729
 20
163.8512728229429
 30
0.0
 41
1.0
 10
70.29084499162431
 20
165.2512499918966
 30
0.0
 41
0.9995448915559377
 10
70.42124207595937
 20
166.6616577625695
 30
0.0
 41
1.0
  0
SPLINE
  5
72
330
1F
100
AcDbEntity
  8
PREDEFINITO
100
AcDbSpline
210
0.0
220
0.0
230
1.0
 70
    12
 71
     2
 72
     6
 73
     3
 74
     0
 42
0.0000000001
 43
0.0000000001
 40
0.0
 40
0.0
 40
0.0
 40
2.03474394432624
 40
2.03474394432624
 40
2.03474394432624
 10
70.42124207595937
 20
166.6616577625695
 30
0.0
 41
1.0
 10
70.51507067477353
 20
167.6748372465427
 30
0.0
 41
0.9997893830837336
 10
70.56724222837184
 20
168.6910137084295
 30
0.0
 41
0.9999999999998297
  0
SPLINE
  5
73
330
1F
100
AcDbEntity
  8
PREDEFINITO
100
AcDbSpline
210
0.0
220
0.0
230
1.0
 70
    12
 71
     2
 72
     6
 73
     3
 74
     0
 42
0.0000000001
 43
0.0000000001
 40
0.0
 40
0.0
 40
0.0
 40
2.162566626851421
 40
2.162566626851421
 40
2.162566626851421
 10
70.56724222837184
 20
168.6910137084295
 30
0.0
 41
0.9999999999998008
 10
70.62232415797587
 20
169.7710821391337
 30
0.0
 41
0.9997382176334453
 10
70.62793735479781
 20
170.8525422328823
 30
0.0
 41
1.0
  0
SPLINE
  5
74
330
1F
100
AcDbEntity
  8
PREDEFINITO
100
AcDbSpline
210
0.0
220
0.0
230
1.0
 70
     8
 71
     3
 72
    26
 73
    22
 74
     0
 42
0.0000000001
 43
0.0000000001
 40
0.0
 40
0.0
 40
0.0
 40
0.0
 40
6.272363357599938
 40
9.459977110038754
 40
12.83034395492479
 40
19.17699888835147
 40
21.37869439240279
 40
28.40743705591781
 40
32.42245932228356
 40
36.53459409740623
 40
40.2538589801532
 40
44.94634703598988
 40
50.46903702835371
 40
54.53648719893501
 40
61.93364399660396
 40
64.80221333372187
 40
70.46286556528347
 40
72.91988415581284
 40
75.26525045953139
 40
77.01161362005482
 40
80.5181015433436
 40
80.5181015433436
 40
80.5181015433436
 40
80.5181015433436
 10
70.62793735479781
 20
170.8525422328823
 30
0.0
 10
70.63655339847004
 20
172.9435030489222
 30
0.0
 10
70.50832530601939
 20
176.0960390251441
 30
0.0
 10
70.16556087433332
 20
180.3589462385073
 30
0.0
 10
69.70582485666706
 20
184.636833433436
 30
0.0
 10
69.10039326750596
 20
188.5648103892143
 30
0.0
 10
68.10480594999207
 20
193.6611751630455
 30
0.0
 10
67.1332014883758
 20
197.9687736183105
 30
0.0
 10
66.23578124950221
 20
202.9418129710082
 30
0.0
 10
65.77062333372174
 20
206.8663358977721
 30
0.0
 10
65.67164462782051
 20
211.0447151474162
 30
0.0
 10
66.0465065025313
 20
215.680545520532
 30
0.0
 10
66.80801501509889
 20
220.3827456275833
 30
0.0
 10
68.09999792768079
 20
225.8987011143679
 30
0.0
 10
69.45576799458969
 20
230.4813269807778
 30
0.0
 10
70.78223957940338
 20
235.6220563533142
 30
0.0
 10
71.56415194719709
 20
239.201480833953
 30
0.0
 10
72.10943670953762
 20
242.6471740786219
 30
0.0
 10
72.38303501943182
 20
244.8132462671412
 30
0.0
 10
72.5896614556375
 20
247.3378892612407
 30
0.0
 10
72.68160155668853
 20
249.0865558755256
 30
0.0
 10
72.75277596430563
 20
250.2531951412423
 30
0.0
  0
SPLINE
  5
75
330
1F
100
AcDbEntity
  8
LINEE VISIBILI 2D
100
AcDbSpline
210
0.0
220
0.0
230
1.0
 70
    12
 71
     2
 72
     6
 73
     3
 74
     0
 42
0.0000000001
 43
0.0000000001
 40
0.0
 40
0.0
 40
0.0
 40
7.987835255660381
 40
7.987835255660381
 40
7.987835255660381
 10
18.63735289871693
 20
127.7622270518589
 30
0.0
 41
1.0
 10
18.63735287501191
 20
123.7683094240287
 30
0.0
 41
0.9999999999999991
 10
18.63735251913615
 20
119.7743917961985
 30
0.0
 41
1.0
  0
SPLINE
  5
76
330
1F
100
AcDbEntity
  8
LINEE VISIBILI 2D
100
AcDbSpline
210
0.0
220
0.0
230
1.0
 70
    12
 71
     2
 72
     6
 73
     3
 74
     0
 42
0.0000000001
 43
0.0000000001
 40
0.0
 40
0.0
 40
0.0
 40
7.957245776638348
 40
7.957245776638348
 40
7.957245776638348
 10
17.93737121461891
 20
119.7743917968955
 30
0.0
 41
1.0
 10
17.93737571653902
 20
123.7530146852191
 30
0.0
 41
0.9999999999973523
 10
17.93736190762239
 20
127.7316375735214
 30
0.0
 41
1.0
  0
SPLINE
  5
77
330
1F
100
AcDbEntity
  8
LINEE VISIBILI 2D
100
AcDbSpline
210
0.0
220
0.0
230
1.0
 70
    12
 71
     2
 72
     6
 73
     3
 74
     0
 42
0.0000000001
 43
0.0000000001
 40
0.0
 40
0.0
 40
0.0
 40
0.2336088127182158
 40
0.2336088127182158
 40
0.2336088127182158
 10
70.02173190498024
 20
279.3938678254744
 30
0.0
 41
1.0
 10
70.01803378221712
 20
279.5106136798867
 30
0.0
 41
0.999999929113191
 10
70.01442357674873
 20
279.627362286092
 30
0.0
 41
1.0
  0
SPLINE
  5
78
330
1F
100
AcDbEntity
  8
LINEE VISIBILI 2D
100
AcDbSpline
210
0.0
220
0.0
230
1.0
 70
    12
 71
     2
 72
     6
 73
     3
 74
     0
 42
0.0000000001
 43
0.0000000001
 40
0.0
 40
0.0
 40
0.0
 40
0.4682546003048043
 40
0.4682546003048043
 40
0.4682546003048043
 10
61.65432721741141
 20
119.4770097562845
 30
0.0
 41
1.0
 10
61.65776759866612
 20
119.7735380337296
 30
0.0
 41
0.712207731031416
 10
61.95436664169377
 20
119.774391796936
 30
0.0
 41
1.0
  0
SPLINE
  5
79
330
1F
100
AcDbEntity
  8
LINEE VISIBILI 2D
100
AcDbSpline
210
0.0
220
0.0
230
1.0
 70
    28
 71
     2
 72
     6
 73
     3
 74
     0
 42
0.0000000001
 43
0.0000000001
 40
283.6456394541467
 40
283.6456394541467
 40
283.6456394541467
 40
342.515489152177
 40
342.515489152177
 40
342.515489152177
 10
61.95436664169377
 20
119.774391796936
 30
0.0
 41
0.867999996761064
 10
61.94537742779777
 20
119.7743917969369
 30
0.0
 41
0.899549656645065
 10
63.41498833169214
 20
119.7743917969369
 30
0.0
 41
1.0
  0
SPLINE
  5
7A
330
1F
100
AcDbEntity
  8
LINEE VISIBILI 2D
100
AcDbSpline
210
0.0
220
0.0
230
1.0
 70
    24
 71
     2
 72
     6
 73
     3
 74
     0
 42
0.0000000001
 43
0.0000000001
 40
0.0
 40
0.0
 40
0.0
 40
20.34443756730266
 40
20.34443756730266
 40
20.34443756730266
 10
63.41498833169214
 20
119.7743917969369
 30
0.0
 10
73.58723313414093
 20
119.7743917969364
 30
0.0
 10
83.75947793658972
 20
119.7743917969359
 30
0.0
  0
SPLINE
  5
7B
330
1F
100
AcDbEntity
  8
LINEE VISIBILI 2D
100
AcDbSpline
210
0.0
220
0.0
230
1.0
 70
    12
 71
     2
 72
     6
 73
     3
 74
     0
 42
0.0000000001
 43
0.0000000001
 40
0.0
 40
0.0
 40
0.0
 40
0.4685429615055982
 40
0.4685429615055982
 40
0.4685429615055982
 10
83.75947793658972
 20
119.7743917969359
 30
0.0
 41
1.0
 10
84.05674454683722
 20
119.7742114491473
 30
0.0
 41
0.7106108927849726
 10
84.05951737014041
 20
119.4770097563727
 30
0.0
 41
1.0
  0
SPLINE
  5
7C
330
1F
100
AcDbEntity
  8
LINEE VISIBILI 2D
100
AcDbSpline
210
0.0
220
0.0
230
1.0
 70
    24
 71
     2
 72
     6
 73
     3
 74
     0
 42
0.0000000001
 43
0.0000000001
 40
0.0
 40
0.0
 40
0.0
 40
19.70336726655059
 40
19.70336726655059
 40
19.70336726655059
 10
84.05951737014041
 20
119.4770097563727
 30
0.0
 10
84.14543476424939
 20
109.6257007766548
 30
0.0
 10
84.23135215835838
 20
99.77439179693684
 30
0.0
  0
SPLINE
  5
7D
330
1F
100
AcDbEntity
  8
LINEE VISIBILI 2D
100
AcDbSpline
210
0.0
220
0.0
230
1.0
 70
    24
 71
     2
 72
     6
 73
     3
 74
     0
 42
0.0000000001
 43
0.0000000001
 40
-21.22506780266598
 40
-21.22506780266598
 40
-21.22506780266598
 40
0.0
 40
0.0
 40
0.0
 10
84.23135215835838
 20
99.77439179693684
 30
0.0
 10
73.6188182570254
 20
99.77439179693687
 30
0.0
 10
63.0062843556924
 20
99.7743917969369
 30
0.0
  0
SPLINE
  5
7E
330
1F
100
AcDbEntity
  8
LINEE VISIBILI 2D
100
AcDbSpline
210
0.0
220
0.0
230
1.0
 70
    12
 71
     2
 72
     6
 73
     3
 74
     0
 42
0.0000000001
 43
0.0000000001
 40
357.881802120497
 40
357.881802120497
 40
357.881802120497
 40
419.3927368599576
 40
419.3927368599576
 40
419.3927368599576
 10
63.0062843556924
 20
99.7743917969369
 30
0.0
 41
1.0
 10
61.47301162935153
 20
99.7743917969369
 30
0.0
 41
0.8995468172370301
 10
61.48243868071846
 20
99.77439226591186
 30
0.0
 41
0.8679982132013516
  0
SPLINE
  5
7F
330
1F
100
AcDbEntity
  8
LINEE VISIBILI 2D
100
AcDbSpline
210
0.0
220
0.0
230
1.0
 70
    24
 71
     2
 72
     6
 73
     3
 74
     0
 42
0.0000000001
 43
0.0000000001
 40
0.0
 40
0.0
 40
0.0
 40
19.70336726655059
 40
19.70336726655059
 40
19.70336726655059
 10
61.48243868071846
 20
99.77439226591187
 30
0.0
 10
61.56838294906493
 20
109.6257010110982
 30
0.0
 10
61.65432721741141
 20
119.4770097562845
 30
0.0
  0
SPLINE
  5
80
330
1F
100
AcDbEntity
  8
LINEE VISIBILI 2D
100
AcDbSpline
210
0.0
220
0.0
230
1.0
 70
    24
 71
     2
 72
     6
 73
     3
 74
     0
 42
0.0000000001
 43
0.0000000001
 40
0.0
 40
0.0
 40
0.0
 40
1.070000457763655
 40
1.070000457763655
 40
1.070000457763655
 10
83.35692228914192
 20
99.77439179693687
 30
0.0
 10
83.3568974835334
 20
99.23939156805504
 30
0.0
 10
83.35687267792487
 20
98.70439133917321
 30
0.0
  0
SPLINE
  5
81
330
1F
100
AcDbEntity
  8
LINEE VISIBILI 2D
100
AcDbSpline
210
0.0
220
0.0
230
1.0
 70
    24
 71
     2
 72
     6
 73
     3
 74
     0
 42
0.0000000001
 43
0.0000000001
 40
0.0
 40
0.0
 40
0.0
 40
5.249900181212581
 40
5.249900181212581
 40
5.249900181212581
 10
83.35687267792487
 20
98.70439133917321
 30
0.0
 10
80.73189778171005
 20
98.70439133917321
 30
0.0
 10
78.10692288549524
 20
98.70439133917321
 30
0.0
  0
SPLINE
  5
82
330
1F
100
AcDbEntity
  8
LINEE VISIBILI 2D
100
AcDbSpline
210
0.0
220
0.0
230
1.0
 70
    24
 71
     2
 72
     6
 73
     3
 74
     0
 42
0.0000000001
 43
0.0000000001
 40
0.0
 40
0.0
 40
0.0
 40
14.34326699178516
 40
14.34326699178516
 40
14.34326699178516
 10
78.10692288549524
 20
98.70439133917321
 30
0.0
 10
70.93528938960266
 20
98.70439133917321
 30
0.0
 10
63.76365589371008
 20
98.70439133917321
 30
0.0
  0
SPLINE
  5
83
330
1F
100
AcDbEntity
  8
LINEE VISIBILI 2D
100
AcDbSpline
210
0.0
220
0.0
230
1.0
 70
    24
 71
     2
 72
     6
 73
     3
 74
     0
 42
0.0000000001
 43
0.0000000001
 40
0.0
 40
0.0
 40
0.0
 40
1.406634382134115
 40
1.406634382134115
 40
1.406634382134115
 10
63.76365589371008
 20
98.70439133917321
 30
0.0
 10
63.0603138970345
 20
98.70439133917321
 30
0.0
 10
62.35697190035891
 20
98.70439133917321
 30
0.0
  0
SPLINE
  5
84
330
1F
100
AcDbEntity
  8
LINEE VISIBILI 2D
100
AcDbSpline
210
0.0
220
0.0
230
1.0
 70
    24
 71
     2
 72
     6
 73
     3
 74
     0
 42
0.0000000001
 43
0.0000000001
 40
0.0
 40
0.0
 40
0.0
 40
1.070000457763712
 40
1.070000457763712
 40
1.070000457763712
 10
62.35697190035891
 20
98.70439133917321
 30
0.0
 10
62.35694709475039
 20
99.23939156805507
 30
0.0
 10
62.35692228914186
 20
99.77439179693692
 30
0.0
  0
SPLINE
  5
85
330
1F
100
AcDbEntity
  8
LINEE VISIBILI 2D
100
AcDbSpline
210
0.0
220
0.0
230
1.0
 70
    24
 71
     2
 72
     6
 73
     3
 74
     0
 42
0.0000000001
 43
0.0000000001
 40
0.0
 40
0.0
 40
0.0
 40
1.070000457763626
 40
1.070000457763626
 40
1.070000457763626
 10
28.78735347037586
 20
99.77439179693684
 30
0.0
 10
28.78732866476734
 20
99.23939156805503
 30
0.0
 10
28.78730385915881
 20
98.70439133917321
 30
0.0
  0
SPLINE
  5
86
330
1F
100
AcDbEntity
  8
LINEE VISIBILI 2D
100
AcDbSpline
210
0.0
220
0.0
230
1.0
 70
    24
 71
     2
 72
     6
 73
     3
 74
     0
 42
0.0000000001
 43
0.0000000001
 40
0.0
 40
0.0
 40
0.0
 40
5.249900181212578
 40
5.249900181212578
 40
5.249900181212578
 10
28.78730385915881
 20
98.70439133917321
 30
0.0
 10
26.162328962944
 20
98.70439133917321
 30
0.0
 10
23.53735406672918
 20
98.70439133917321
 30
0.0
  0
SPLINE
  5
87
330
1F
100
AcDbEntity
  8
LINEE VISIBILI 2D
100
AcDbSpline
210
0.0
220
0.0
230
1.0
 70
    24
 71
     2
 72
     6
 73
     3
 74
     0
 42
0.0000000001
 43
0.0000000001
 40
0.0
 40
0.0
 40
0.0
 40
14.34326699178516
 40
14.34326699178516
 40
14.34326699178516
 10
23.53735406672918
 20
98.70439133917321
 30
0.0
 10
16.3657205708366
 20
98.70439133917321
 30
0.0
 10
9.194087074944022
 20
98.70439133917321
 30
0.0
  0
SPLINE
  5
88
330
1F
100
AcDbEntity
  8
LINEE VISIBILI 2D
100
AcDbSpline
210
0.0
220
0.0
230
1.0
 70
    24
 71
     2
 72
     6
 73
     3
 74
     0
 42
0.0000000001
 43
0.0000000001
 40
0.0
 40
0.0
 40
0.0
 40
1.406634382134112
 40
1.406634382134112
 40
1.406634382134112
 10
9.194087074944022
 20
98.70439133917321
 30
0.0
 10
8.49074507826844
 20
98.70439133917321
 30
0.0
 10
7.787403081592858
 20
98.70439133917321
 30
0.0
  0
SPLINE
  5
89
330
1F
100
AcDbEntity
  8
LINEE VISIBILI 2D
100
AcDbSpline
210
0.0
220
0.0
230
1.0
 70
    24
 71
     2
 72
     6
 73
     3
 74
     0
 42
0.0000000001
 43
0.0000000001
 40
0.0
 40
0.0
 40
0.0
 40
1.070000457763655
 40
1.070000457763655
 40
1.070000457763655
 10
7.787403081592858
 20
98.70439133917321
 30
0.0
 10
7.787378275984332
 20
99.23939156805504
 30
0.0
 10
7.787353470375805
 20
99.77439179693687
 30
0.0
  0
SPLINE
  5
8A
330
1F
100
AcDbEntity
  8
PREDEFINITO
100
AcDbSpline
210
0.0
220
0.0
230
1.0
 70
     8
 71
     3
 72
    23
 73
    19
 74
     0
 42
0.0000000001
 43
0.0000000001
 40
-90.20070829521359
 40
-90.20070829521359
 40
-90.20070829521359
 40
-90.20070829521359
 40
-79.36382674616725
 40
-71.40024545965923
 40
-55.03823768969273
 40
-46.84934836057027
 40
-39.03952477242248
 40
-30.6485281894522
 40
-26.79394568207882
 40
-20.99197427481158
 40
-17.9505459213103
 40
-14.0789615416201
 40
-6.15838696295398
 40
-3.209990332964239
 40
-1.887904887767562
 40
-1.118086298483588
 40
-0.4710105984805515
 40
0.0
 40
0.0
 40
0.0
 40
0.0
 10
81.10424461409158
 20
216.8184164219821
 30
0.0
 10
81.77707819878555
 20
213.2685619231003
 30
0.0
 10
82.91832815740241
 20
207.1078237990429
 30
0.0
 10
84.38935590569335
 20
195.4653881876701
 30
0.0
 10
84.21026674972389
 20
184.5925705040846
 30
0.0
 10
83.06900906390915
 20
173.8682614238691
 30
0.0
 10
81.89170150788276
 20
165.8202210848603
 30
0.0
 10
80.54663203525183
 20
159.2696629845176
 30
0.0
 10
79.09182372536162
 20
153.4307471738509
 30
0.0
 10
77.8632143719265
 20
149.3791322658045
 30
0.0
 10
76.90284023517204
 20
145.2477130465826
 30
0.0
 10
76.17565918489143
 20
140.354458408725
 30
0.0
 10
75.73903973952535
 20
135.4588027591045
 30
0.0
 10
75.21897799834198
 20
131.4281553992476
 30
0.0
 10
74.95752867500897
 20
129.768421313346
 30
0.0
 10
74.77925186192523
 20
128.8724701614231
 30
0.0
 10
74.609642868806
 20
128.2661030699147
 30
0.0
 10
74.45129896657365
 20
127.9253920202179
 30
0.0
 10
74.34982264475823
 20
127.8041001191175
 30
0.0
  0
SPLINE
  5
8B
330
1F
100
AcDbEntity
  8
PREDEFINITO
100
AcDbSpline
210
0.0
220
0.0
230
1.0
 70
     8
 71
     3
 72
    20
 73
    16
 74
     0
 42
0.0000000001
 43
0.0000000001
 40
-62.54555525556502
 40
-62.54555525556502
 40
-62.54555525556502
 40
-62.54555525556502
 40
-62.27236062797111
 40
-62.05506951218511
 40
-61.74864211037075
 40
-60.77989484654566
 40
-59.52029461359528
 40
-56.70916947456117
 40
-52.5208014187275
 40
-44.6396495943249
 40
-36.39158415937847
 40
-25.8678705562235
 40
-19.37613983955903
 40
-11.2012984274385
 40
0.0
 40
0.0
 40
0.0
 40
0.0
 10
74.34982264475823
 20
127.8041001191175
 30
0.0
 10
74.2933550926805
 20
127.7104799865447
 30
0.0
 10
74.10275692108742
 20
127.7164195203181
 30
0.0
 10
73.94284405790664
 20
127.9451030856199
 30
0.0
 10
73.73702994637547
 20
128.3952267369483
 30
0.0
 10
73.50843753748602
 20
129.2120937269806
 30
0.0
 10
73.2152709905937
 20
130.8681334339039
 30
0.0
 10
73.04886923426591
 20
133.6190060558986
 30
0.0
 10
73.0005831111729
 20
138.5789556328975
 30
0.0
 10
73.07991165552407
 20
145.3514245567845
 30
0.0
 10
73.22942791133838
 20
154.2342786288525
 30
0.0
 10
73.34230044144195
 20
162.654827714166
 30
0.0
 10
73.49029866232165
 20
171.0502699340368
 30
0.0
 10
73.74103926780883
 20
179.6695095629653
 30
0.0
 10
74.03421408718923
 20
186.1217492737952
 30
0.0
 10
74.19660377971073
 20
189.8519495936927
 30
0.0
  0
SPLINE
  5
8C
330
1F
100
AcDbEntity
  8
PREDEFINITO
100
AcDbSpline
210
0.0
220
0.0
230
1.0
 70
    24
 71
     2
 72
     6
 73
     3
 74
     0
 42
0.0000000001
 43
0.0000000001
 40
0.0
 40
0.0
 40
0.0
 40
1.0
 40
1.0
 40
1.0
 10
74.19660377971073
 20
189.8519495936927
 30
0.0
 10
74.21158686558105
 20
190.1938238399734
 30
0.0
 10
74.22656995145138
 20
190.5356980862542
 30
0.0
  0
SPLINE
  5
8D
330
1F
100
AcDbEntity
  8
PREDEFINITO
100
AcDbSpline
210
0.0
220
0.0
230
1.0
 70
     8
 71
     3
 72
    24
 73
    20
 74
     0
 42
0.0000000001
 43
0.0000000001
 40
-99.54177244675628
 40
-99.54177244675628
 40
-99.54177244675628
 40
-99.54177244675628
 40
-94.16661426080476
 40
-86.46168630434506
 40
-83.01899713325078
 40
-75.09768750869345
 40
-67.52609763821212
 40
-47.14051863766303
 40
-34.58105270239177
 40
-30.16226615856333
 40
-25.56176036169094
 40
-13.89656759750582
 40
-8.088539962024518
 40
-4.740860636648913
 40
-3.094213224683055
 40
-2.054901990286953
 40
-1.249610506828897
 40
-0.5202561657954489
 40
0.0
 40
0.0
 40
0.0
 40
0.0
 10
74.22656995145138
 20
190.5356980862542
 30
0.0
 10
74.30394266969243
 20
192.3257389844441
 30
0.0
 10
74.49582046598701
 20
196.681580511017
 30
0.0
 10
74.68247912290637
 20
202.1865829033723
 30
0.0
 10
74.97667114008918
 20
208.5344118317574
 30
0.0
 10
75.37451808879992
 20
214.8387520423738
 30
0.0
 10
76.96147736640053
 20
226.6949134004879
 30
0.0
 10
79.7343127038838
 20
239.9314129420008
 30
0.0
 10
80.64096099286094
 20
252.3875153193367
 30
0.0
 10
80.25095056406595
 20
259.5763818867589
 30
0.0
 10
79.29844892548671
 20
266.414345426655
 30
0.0
 10
77.51811953801594
 20
273.5606128896279
 30
0.0
 10
75.68681690350937
 20
280.2540190688799
 30
0.0
 10
74.56928954685539
 20
283.6784579083229
 30
0.0
 10
73.91427045815271
 20
285.5796708921982
 30
0.0
 10
73.41406162319583
 20
286.6353999170321
 30
0.0
 10
72.89845350261201
 20
287.3262940479004
 30
0.0
 10
72.35320056635648
 20
287.7565382778033
 30
0.0
 10
71.94600490928552
 20
287.8795612590339
 30
0.0
 10
71.7714890552758
 20
287.879304757172
 30
0.0
  0
SPLINE
  5
8E
330
1F
100
AcDbEntity
  8
PREDEFINITO
100
AcDbSpline
210
0.0
220
0.0
230
1.0
 70
    24
 71
     2
 72
     6
 73
     3
 74
     0
 42
0.0000000001
 43
0.0000000001
 40
-0.7696219290709223
 40
-0.7696219290709223
 40
-0.7696219290709223
 40
0.0
 40
0.0
 40
0.0
 10
71.7714890552758
 20
287.879304757172
 30
0.0
 10
71.38667809273782
 20
287.8793047571892
 30
0.0
 10
71.00186713019986
 20
287.8793047572063
 30
0.0
  0
POLYLINE
  5
8F
330
1F
100
AcDbEntity
  8
PREDEFINITO
100
AcDb2dPolyline
 66
     1
 10
0.0
 20
0.0
 30
0.0
  0
VERTEX
  5
91
330
8F
100
AcDbEntity
  8
PREDEFINITO
100
AcDbVertex
100
AcDb2dVertex
 10
71.00186713019986
 20
287.8793047572063
 30
0.0
  0
VERTEX
  5
92
330
8F
100
AcDbEntity
  8
PREDEFINITO
100
AcDbVertex
100
AcDb2dVertex
 10
70.95585162618204
 20
287.8793047572063
 30
0.0
  0
SEQEND
  5
90
330
8F
100
AcDbEntity
  8
PREDEFINITO
  0
SPLINE
  5
93
330
1F
100
AcDbEntity
  8
LINEE VISIBILI 2D
100
AcDbSpline
210
0.0
220
0.0
230
1.0
 70
    24
 71
     2
 72
     6
 73
     3
 74
     0
 42
0.0000000001
 43
0.0000000001
 40
0.0
 40
0.0
 40
0.0
 40
0.0318189758781102
 40
0.0318189758781102
 40
0.0318189758781102
 10
12.74756675665422
 20
119.7743917969369
 30
0.0
 10
12.74756675665422
 20
119.790301284876
 30
0.0
 10
12.74756675665422
 20
119.806210772815
 30
0.0
  0
SPLINE
  5
94
330
1F
100
AcDbEntity
  8
LINEE VISIBILI 2D
100
AcDbSpline
210
0.0
220
0.0
230
1.0
 70
    24
 71
     2
 72
     6
 73
     3
 74
     0
 42
0.0000000001
 43
0.0000000001
 40
-0.3000000044399087
 40
-0.3000000044399087
 40
-0.3000000044399087
 40
0.0
 40
0.0
 40
0.0
 10
12.74756675665422
 20
119.806210772815
 30
0.0
 10
12.59756675443427
 20
119.806210772815
 30
0.0
 10
12.44756675221431
 20
119.806210772815
 30
0.0
  0
SPLINE
  5
95
330
1F
100
AcDbEntity
  8
LINEE VISIBILI 2D
100
AcDbSpline
210
0.0
220
0.0
230
1.0
 70
    24
 71
     2
 72
     6
 73
     3
 74
     0
 42
0.0000000001
 43
0.0000000001
 40
0.0
 40
0.0
 40
0.0
 40
0.0318189758781102
 40
0.0318189758781102
 40
0.0318189758781102
 10
12.44756675221431
 20
119.806210772815
 30
0.0
 10
12.44756675221431
 20
119.790301284876
 30
0.0
 10
12.44756675221431
 20
119.7743917969369
 30
0.0
  0
SPLINE
  5
96
330
1F
100
AcDbEntity
  8
LINEE VISIBILI 2D
100
AcDbSpline
210
0.0
220
0.0
230
1.0
 70
    24
 71
     2
 72
     6
 73
     3
 74
     0
 42
0.0000000001
 43
0.0000000001
 40
-0.1277044876999619
 40
-0.1277044876999619
 40
-0.1277044876999619
 40
0.0
 40
0.0
 40
0.0
 10
12.8488740789456
 20
119.806210772815
 30
0.0
 10
12.89386438946404
 20
119.8515206062304
 30
0.0
 10
12.93885469998249
 20
119.8968304396458
 30
0.0
  0
SPLINE
  5
97
330
1F
100
AcDbEntity
  8
LINEE VISIBILI 2D
100
AcDbSpline
210
0.0
220
0.0
230
1.0
 70
    24
 71
     2
 72
     6
 73
     3
 74
     0
 42
0.0000000001
 43
0.0000000001
 40
-0.3000000044399371
 40
-0.3000000044399371
 40
-0.3000000044399371
 40
0.0
 40
0.0
 40
0.0
 10
12.93885469998249
 20
119.8968304396458
 30
0.0
 10
13.08885470220245
 20
119.8968304396458
 30
0.0
 10
13.23885470442242
 20
119.8968304396458
 30
0.0
  0
SPLINE
  5
98
330
1F
100
AcDbEntity
  8
LINEE VISIBILI 2D
100
AcDbSpline
210
0.0
220
0.0
230
1.0
 70
    24
 71
     2
 72
     6
 73
     3
 74
     0
 42
0.0000000001
 43
0.0000000001
 40
0.0
 40
0.0
 40
0.0
 40
0.0472226036084005
 40
0.0472226036084005
 40
0.0472226036084005
 10
13.23885470442242
 20
119.8968304396458
 30
0.0
 10
13.25308563135411
 20
119.8779896782081
 30
0.0
 10
13.2673165582858
 20
119.8591489167703
 30
0.0
  0
SPLINE
  5
99
330
1F
100
AcDbEntity
  8
LINEE VISIBILI 2D
100
AcDbSpline
210
0.0
220
0.0
230
1.0
 70
    24
 71
     2
 72
     6
 73
     3
 74
     0
 42
0.0000000001
 43
0.0000000001
 40
0.0
 40
0.0
 40
0.0
 40
0.1194427734716262
 40
0.1194427734716262
 40
0.1194427734716262
 10
13.2673165582858
 20
119.8591489167703
 30
0.0
 10
13.225236851858
 20
119.8167703568538
 30
0.0
 10
13.1831571454302
 20
119.7743917969373
 30
0.0
  0
SPLINE
  5
9A
330
1F
100
AcDbEntity
  8
LINEE VISIBILI 2D
100
AcDbSpline
210
0.0
220
0.0
230
1.0
 70
    24
 71
     2
 72
     6
 73
     3
 74
     0
 42
0.0000000001
 43
0.0000000001
 40
0.0
 40
0.0
 40
0.0
 40
0.4013073267312848
 40
0.4013073267312848
 40
0.4013073267312848
 10
12.74756675665422
 20
119.806210772815
 30
0.0
 10
12.94822042001987
 20
119.806210772815
 30
0.0
 10
13.14887408338551
 20
119.8062107728149
 30
0.0
  0
SPLINE
  5
9B
330
1F
100
AcDbEntity
  8
LINEE VISIBILI 2D
100
AcDbSpline
210
0.0
220
0.0
230
1.0
 70
    24
 71
     2
 72
     6
 73
     3
 74
     0
 42
0.0000000001
 43
0.0000000001
 40
0.0
 40
0.0
 40
0.0
 40
0.1277044877000425
 40
0.1277044877000425
 40
0.1277044877000425
 10
13.14887408338551
 20
119.8062107728149
 30
0.0
 10
13.19386439390397
 20
119.8515206062304
 30
0.0
 10
13.23885470442242
 20
119.8968304396458
 30
0.0
  0
SPLINE
  5
9C
330
1F
100
AcDbEntity
  8
LINEE VISIBILI 2D
100
AcDbSpline
210
0.0
220
0.0
230
1.0
 70
    24
 71
     2
 72
     6
 73
     3
 74
     0
 42
0.0000000001
 43
0.0000000001
 40
0.0
 40
0.0
 40
0.0
 40
0.0318189758781671
 40
0.0318189758781671
 40
0.0318189758781671
 10
24.12714062712924
 20
119.7743917969368
 30
0.0
 10
24.12714062712924
 20
119.7903012848759
 30
0.0
 10
24.12714062712924
 20
119.806210772815
 30
0.0
  0
SPLINE
  5
9D
330
1F
100
AcDbEntity
  8
LINEE VISIBILI 2D
100
AcDbSpline
210
0.0
220
0.0
230
1.0
 70
    24
 71
     2
 72
     6
 73
     3
 74
     0
 42
0.0000000001
 43
0.0000000001
 40
-0.3000000044398803
 40
-0.3000000044398803
 40
-0.3000000044398803
 40
0.0
 40
0.0
 40
0.0
 10
24.12714062712924
 20
119.806210772815
 30
0.0
 10
23.9771406249093
 20
119.806210772815
 30
0.0
 10
23.82714062268936
 20
119.806210772815
 30
0.0
  0
SPLINE
  5
9E
330
1F
100
AcDbEntity
  8
LINEE VISIBILI 2D
100
AcDbSpline
210
0.0
220
0.0
230
1.0
 70
    24
 71
     2
 72
     6
 73
     3
 74
     0
 42
0.0000000001
 43
0.0000000001
 40
0.0
 40
0.0
 40
0.0
 40
0.0318189758781671
 40
0.0318189758781671
 40
0.0318189758781671
 10
23.82714062268936
 20
119.806210772815
 30
0.0
 10
23.82714062268936
 20
119.7903012848759
 30
0.0
 10
23.82714062268936
 20
119.7743917969368
 30
0.0
  0
SPLINE
  5
9F
330
1F
100
AcDbEntity
  8
LINEE VISIBILI 2D
100
AcDbSpline
210
0.0
220
0.0
230
1.0
 70
    24
 71
     2
 72
     6
 73
     3
 74
     0
 42
0.0000000001
 43
0.0000000001
 40
0.0
 40
0.0
 40
0.0
 40
0.1194427785433749
 40
0.1194427785433749
 40
0.1194427785433749
 10
23.39155023674029
 20
119.7743917969382
 30
0.0
 10
23.34947052671299
 20
119.8167703568543
 30
0.0
 10
23.3073908166857
 20
119.8591489167703
 30
0.0
  0
SPLINE
  5
A0
330
1F
100
AcDbEntity
  8
LINEE VISIBILI 2D
100
AcDbSpline
210
0.0
220
0.0
230
1.0
 70
    24
 71
     2
 72
     6
 73
     3
 74
     0
 42
0.0000000001
 43
0.0000000001
 40
0.0
 40
0.0
 40
0.0
 40
0.0472226062435454
 40
0.0472226062435454
 40
0.0472226062435454
 10
23.3073908166857
 20
119.8591489167703
 30
0.0
 10
23.32162174580344
 20
119.8779896782081
 30
0.0
 10
23.33585267492118
 20
119.8968304396458
 30
0.0
  0
SPLINE
  5
A1
330
1F
100
AcDbEntity
  8
LINEE VISIBILI 2D
100
AcDbSpline
210
0.0
220
0.0
230
1.0
 70
    24
 71
     2
 72
     6
 73
     3
 74
     0
 42
0.0000000001
 43
0.0000000001
 40
-0.3000000044398803
 40
-0.3000000044398803
 40
-0.3000000044398803
 40
0.0
 40
0.0
 40
0.0
 10
23.33585267492118
 20
119.8968304396458
 30
0.0
 10
23.48585267714112
 20
119.8968304396458
 30
0.0
 10
23.63585267936107
 20
119.8968304396458
 30
0.0
  0
SPLINE
  5
A2
330
1F
100
AcDbEntity
  8
LINEE VISIBILI 2D
100
AcDbSpline
210
0.0
220
0.0
230
1.0
 70
    24
 71
     2
 72
     6
 73
     3
 74
     0
 42
0.0000000001
 43
0.0000000001
 40
-0.1277044877000224
 40
-0.1277044877000224
 40
-0.1277044877000224
 40
0.0
 40
0.0
 40
0.0
 10
23.63585267936107
 20
119.8968304396458
 30
0.0
 10
23.68084298987951
 20
119.8515206062304
 30
0.0
 10
23.72583330039795
 20
119.8062107728149
 30
0.0
  0
SPLINE
  5
A3
330
1F
100
AcDbEntity
  8
LINEE VISIBILI 2D
100
AcDbSpline
210
0.0
220
0.0
230
1.0
 70
    24
 71
     2
 72
     6
 73
     3
 74
     0
 42
0.0000000001
 43
0.0000000001
 40
0.0
 40
0.0
 40
0.0
 40
0.1277044876999619
 40
0.1277044876999619
 40
0.1277044876999619
 10
23.33585267492118
 20
119.8968304396458
 30
0.0
 10
23.38084298543963
 20
119.8515206062304
 30
0.0
 10
23.42583329595807
 20
119.806210772815
 30
0.0
  0
SPLINE
  5
A4
330
1F
100
AcDbEntity
  8
LINEE VISIBILI 2D
100
AcDbSpline
210
0.0
220
0.0
230
1.0
 70
    24
 71
     2
 72
     6
 73
     3
 74
     0
 42
0.0000000001
 43
0.0000000001
 40
0.0
 40
0.0
 40
0.0
 40
0.4013073267312848
 40
0.4013073267312848
 40
0.4013073267312848
 10
23.42583329595807
 20
119.806210772815
 30
0.0
 10
23.62648695932371
 20
119.806210772815
 30
0.0
 10
23.82714062268936
 20
119.806210772815
 30
0.0
  0
POLYLINE
  5
A5
330
1F
100
AcDbEntity
  8
PREDEFINITO
100
AcDb2dPolyline
 66
     1
 10
0.0
 20
0.0
 30
0.0
  0
VERTEX
  5
A7
330
A5
100
AcDbEntity
  8
PREDEFINITO
100
AcDbVertex
100
AcDb2dVertex
 10
17.36865159410481
 20
287.8790976693081
 30
0.0
  0
VERTEX
  5
A8
330
A5
100
AcDbEntity
  8
PREDEFINITO
100
AcDbVertex
100
AcDb2dVertex
 10
17.46757010096978
 20
287.8793047572063
 30
0.0
  0
SEQEND
  5
A6
330
A5
100
AcDbEntity
  8
PREDEFINITO
  0
SPLINE
  5
A9
330
1F
100
AcDbEntity
  8
PREDEFINITO
100
AcDbSpline
210
0.0
220
0.0
230
1.0
 70
    24
 71
     2
 72
     6
 73
     3
 74
     0
 42
0.0000000001
 43
0.0000000001
 40
0.0
 40
0.0
 40
0.0
 40
0.1262247395992837
 40
0.1262247395992837
 40
0.1262247395992837
 10
17.46757010096978
 20
287.8793047572063
 30
0.0
 10
17.53068247076942
 20
287.8793047572063
 30
0.0
 10
17.59379484056906
 20
287.8793047572063
 30
0.0
  0
SPLINE
  5
AA
330
1F
100
AcDbEntity
  8
PREDEFINITO
100
AcDbSpline
210
0.0
220
0.0
230
1.0
 70
    24
 71
     2
 72
     6
 73
     3
 74
     0
 42
0.0000000001
 43
0.0000000001
 40
0.0
 40
0.0
 40
0.0
 40
1.0
 40
1.0
 40
1.0
 10
17.59379484056906
 20
287.8793047572063
 30
0.0
 10
17.59559819492992
 20
287.8793037976045
 30
0.0
 10
17.59740154929079
 20
287.8793028380026
 30
0.0
  0
SPLINE
  5
AB
330
1F
100
AcDbEntity
  8
PREDEFINITO
100
AcDbSpline
210
0.0
220
0.0
230
1.0
 70
    12
 71
     2
 72
     6
 73
     3
 74
     0
 42
0.0000000001
 43
0.0000000001
 40
0.0
 40
0.0
 40
0.0
 40
0.4509324023505864
 40
0.4509324023505864
 40
0.4509324023505864
 10
17.59740154929079
 20
287.8793028380026
 30
0.0
 41
0.9999988517384991
 10
17.82318699103471
 20
287.8791845520284
 30
0.0
 41
0.997532015874787
 10
18.04673019191242
 20
287.8474431431689
 30
0.0
 41
1.0
  0
SPLINE
  5
AC
330
1F
100
AcDbEntity
  8
PREDEFINITO
100
AcDbSpline
210
0.0
220
0.0
230
1.0
 70
     8
 71
     3
 72
    39
 73
    35
 74
     0
 42
0.0000000001
 43
0.0000000001
 40
-166.6442685072939
 40
-166.6442685072939
 40
-166.6442685072939
 40
-166.6442685072939
 40
-165.2544559337398
 40
-163.3956256013839
 40
-161.526078952507
 40
-160.337055597193
 40
-158.6388552066346
 40
-155.4239690727859
 40
-154.4111300736796
 40
-149.8687833417041
 40
-141.8293001337097
 40
-137.3119482675574
 40
-133.1566197125504
 40
-121.3794104949757
 40
-116.355399386749
 40
-107.4694842768455
 40
-100.2731155343466
 40
-90.52270313132189
 40
-81.1979453955413
 40
-73.78055492827973
 40
-66.72621515463227
 40
-48.94505261526371
 40
-39.27135529005884
 40
-26.6308570304666
 40
-21.19086784766083
 40
-14.25983823726922
 40
-9.18968715261391
 40
-8.314963367560633
 40
-7.617551801297612
 40
-5.025729543621764
 40
-2.407334794036031
 40
-1.73291875627541
 40
-1.082435138804122
 40
0.0
 40
0.0
 40
0.0
 40
0.0
 10
18.04673019191242
 20
287.8474431431689
 30
0.0
 10
18.50925956776284
 20
287.7826966524165
 30
0.0
 10
19.50675763356545
 20
287.3098176819473
 30
0.0
 10
20.71857971578025
 20
286.0806262426972
 30
0.0
 10
21.57221276553268
 20
284.6750678183168
 30
0.0
 10
22.23079684000086
 20
283.2318980994589
 30
0.0
 10
23.01728180928153
 20
281.355893736345
 30
0.0
 10
23.67933635038297
 20
279.4930224064339
 30
0.0
 10
24.50845334209615
 20
276.6897078599827
 30
0.0
 10
25.79574326815884
 20
272.3447161842189
 30
0.0
 10
27.50313756828979
 20
266.9065891768372
 30
0.0
 10
29.06163472265544
 20
261.5578450713064
 30
0.0
 10
30.7587627246058
 20
254.9547335427078
 30
0.0
 10
32.18592989339814
 20
248.1143077277739
 30
0.0
 10
33.7518215152168
 20
239.696798459372
 30
0.0
 10
35.0604999484219
 20
232.7836061125347
 30
0.0
 10
36.52247726089814
 20
224.2979222789336
 30
0.0
 10
37.65631632946214
 20
215.6094247826283
 30
0.0
 10
38.0983916123995
 20
206.781168509782
 30
0.0
 10
37.87694972432018
 20
198.8480787325226
 30
0.0
 10
36.68501066196076
 20
188.149132439254
 30
0.0
 10
34.19728591893445
 20
176.9066789526069
 30
0.0
 10
30.89576432989357
 20
163.9569827433139
 30
0.0
 10
28.45209521037997
 20
155.0339966439136
 30
0.0
 10
26.20727067938784
 20
147.0041619350133
 30
0.0
 10
24.4791752878934
 20
141.4527609610775
 30
0.0
 10
23.30507238372605
 20
137.3240495405208
 30
0.0
 10
22.67951140240595
 20
135.2005738202313
 30
0.0
 10
22.27921783156929
 20
133.8703696761499
 30
0.0
 10
21.63312057850477
 20
132.0114641609047
 30
0.0
 10
20.87091041735886
 20
130.1996162190331
 30
0.0
 10
20.22338479123984
 20
129.054125637952
 30
0.0
 10
19.74303265734972
 20
128.4097132814983
 30
0.0
 10
19.2920293289689
 20
128.033221644233
 30
0.0
 10
18.96401249405348
 20
127.8790144737076
 30
0.0
  0
SPLINE
  5
AD
330
1F
100
AcDbEntity
  8
PREDEFINITO
100
AcDbSpline
210
0.0
220
0.0
230
1.0
 70
    12
 71
     2
 72
     6
 73
     3
 74
     0
 42
0.0000000001
 43
0.0000000001
 40
0.0
 40
0.0
 40
0.0
 40
0.1941745387588358
 40
0.1941745387588358
 40
0.1941745387588358
 10
18.96401249405348
 20
127.8790144737076
 30
0.0
 41
1.0
 10
18.87626699101814
 20
127.8372880743427
 30
0.0
 41
0.9989304922075366
 10
18.78499715325459
 20
127.8039737138966
 30
0.0
 41
1.0
  0
SPLINE
  5
AE
330
1F
100
AcDbEntity
  8
PREDEFINITO
100
AcDbSpline
210
0.0
220
0.0
230
1.0
 70
    12
 71
     2
 72
     6
 73
     3
 74
     0
 42
0.0000000001
 43
0.0000000001
 40
0.0
 40
0.0
 40
0.0
 40
0.1536348211534884
 40
0.1536348211534884
 40
0.1536348211534884
 10
18.78499715325459
 20
127.8039737138966
 30
0.0
 41
1.0
 10
18.71274142011927
 20
127.7776297912907
 30
0.0
 41
0.9982911843959958
 10
18.6379445855503
 20
127.7597244683841
 30
0.0
 41
1.0
  0
SPLINE
  5
AF
330
1F
100
AcDbEntity
  8
PREDEFINITO
100
AcDbSpline
210
0.0
220
0.0
230
1.0
 70
    12
 71
     2
 72
     6
 73
     3
 74
     0
 42
0.0000000001
 43
0.0000000001
 40
0.0
 40
0.0
 40
0.0
 40
0.0376940878076644
 40
0.0376940878076644
 40
0.0376940878076644
 10
18.6379445855503
 20
127.7597244683841
 30
0.0
 41
1.0
 10
18.61959625800831
 20
127.7553919453141
 30
0.0
 41
0.9999238872736518
 10
18.60114320898104
 20
127.7515537038955
 30
0.0
 41
1.0
  0
SPLINE
  5
B0
330
1F
100
AcDbEntity
  8
PREDEFINITO
100
AcDbSpline
210
0.0
220
0.0
230
1.0
 70
    24
 71
     2
 72
     6
 73
     3
 74
     0
 42
0.0000000001
 43
0.0000000001
 40
0.0
 40
0.0
 40
0.0
 40
1.0
 40
1.0
 40
1.0
 10
18.60114320898104
 20
127.7515537038955
 30
0.0
 10
18.59857423189616
 20
127.7510251458656
 30
0.0
 10
18.59600525481128
 20
127.7504965878356
 30
0.0
  0
SPLINE
  5
B1
330
1F
100
AcDbEntity
  8
PREDEFINITO
100
AcDbSpline
210
0.0
220
0.0
230
1.0
 70
    12
 71
     2
 72
     6
 73
     3
 74
     0
 42
0.0000000001
 43
0.0000000001
 40
0.0
 40
0.0
 40
0.0
 40
0.2625002526780875
 40
0.2625002526780875
 40
0.2625002526780875
 10
18.59600525481128
 20
127.7504965878356
 30
0.0
 41
1.0
 10
18.46694451787154
 20
127.7242873667987
 30
0.0
 41
0.9949395696624616
 10
18.33521817687755
 20
127.7244108711494
 30
0.0
 41
1.0
  0
SPLINE
  5
B2
330
1F
100
AcDbEntity
  8
PREDEFINITO
100
AcDbSpline
210
0.0
220
0.0
230
1.0
 70
    24
 71
     2
 72
     6
 73
     3
 74
     0
 42
0.0000000001
 43
0.0000000001
 40
0.0
 40
0.0
 40
0.0
 40
0.119661574134085
 40
0.119661574134085
 40
0.119661574134085
 10
18.33521817687755
 20
127.7244108711494
 30
0.0
 10
18.2753717360345
 20
127.7244108707862
 30
0.0
 10
18.21552529519145
 20
127.7244108704231
 30
0.0
  0
SPLINE
  5
B3
330
1F
100
AcDbEntity
  8
PREDEFINITO
100
AcDbSpline
210
0.0
220
0.0
230
1.0
 70
    24
 71
     2
 72
     6
 73
     3
 74
     0
 42
0.0000000001
 43
0.0000000001
 40
0.0
 40
0.0
 40
0.0
 40
1.0
 40
1.0
 40
1.0
 10
18.21552529519145
 20
127.7244108704231
 30
0.0
 10
18.16344468204458
 20
127.7244355583221
 30
0.0
 10
18.1113640688977
 20
127.7244602462211
 30
0.0
  0
SPLINE
  5
B4
330
1F
100
AcDbEntity
  8
LINEE VISIBILI 2D
100
AcDbSpline
210
0.0
220
0.0
230
1.0
 70
    12
 71
     2
 72
     6
 73
     3
 74
     0
 42
0.0000000001
 43
0.0000000001
 40
-0.0557572024963256
 40
-0.0557572024963256
 40
-0.0557572024963256
 40
0.0
 40
0.0
 40
0.0
 10
18.34419084453565
 20
127.7515537038954
 30
0.0
 41
1.0
 10
18.37149149144645
 20
127.7572178218556
 30
0.0
 41
0.999815591285557
 10
18.39854095440413
 20
127.7640016679028
 30
0.0
 41
1.0
  0
SPLINE
  5
B5
330
1F
100
AcDbEntity
  8
LINEE VISIBILI 2D
100
AcDbSpline
210
0.0
220
0.0
230
1.0
 70
    12
 71
     2
 72
     6
 73
     3
 74
     0
 42
0.0000000001
 43
0.0000000001
 40
0.0
 40
0.0
 40
0.0
 40
0.1355726619718076
 40
0.1355726619718076
 40
0.1355726619718076
 10
18.39854095440413
 20
127.7640016679028
 30
0.0
 41
1.0
 10
18.46429246951543
 20
127.7807528356872
 30
0.0
 41
0.9986748898224745
 10
18.52799508734155
 20
127.8041001191174
 30
0.0
 41
1.0
  0
SPLINE
  5
B6
330
1F
100
AcDbEntity
  8
LINEE VISIBILI 2D
100
AcDbSpline
210
0.0
220
0.0
230
1.0
 70
    12
 71
     2
 72
     6
 73
     3
 74
     0
 42
0.0000000001
 43
0.0000000001
 40
0.0
 40
0.0
 40
0.0
 40
0.1187197972247082
 40
0.1187197972247082
 40
0.1187197972247082
 10
18.52799508734155
 20
127.8041001191174
 30
0.0
 41
1.0
 10
18.58374947158842
 20
127.8245170301275
 30
0.0
 41
0.999616197393417
 10
18.63831586066753
 20
127.8479341577311
 30
0.0
 41
1.0
  0
SPLINE
  5
B7
330
1F
100
AcDbEntity
  8
LINEE VISIBILI 2D
100
AcDbSpline
210
0.0
220
0.0
230
1.0
 70
    12
 71
     2
 72
     6
 73
     3
 74
     0
 42
0.0000000001
 43
0.0000000001
 40
-0.0754393516597897
 40
-0.0754393516597897
 40
-0.0754393516597897
 40
0.0
 40
0.0
 40
0.0
 10
18.63831586066753
 20
127.8479341577311
 30
0.0
 41
1.0
 10
18.67294698440146
 20
127.862899825785
 30
0.0
 41
0.9998740921810009
 10
18.70706012960165
 20
127.8790144737042
 30
0.0
 41
1.0
  0
SPLINE
  5
B8
330
1F
100
AcDbEntity
  8
LINEE VISIBILI 2D
100
AcDbSpline
210
0.0
220
0.0
230
1.0
 70
     8
 71
     3
 72
    39
 73
    35
 74
     0
 42
0.0000000001
 43
0.0000000001
 40
0.0
 40
0.0
 40
0.0
 40
0.0
 40
1.082435138806744
 40
1.732918756279569
 40
2.407334794042011
 40
5.025729543630137
 40
7.617551801305985
 40
8.314963367569087
 40
9.18968715262234
 40
14.25983823727768
 40
21.19086784766932
 40
26.63085703047516
 40
39.27135529006734
 40
48.94505261527228
 40
66.72621515464077
 40
73.7805549282884
 40
81.1979453955503
 40
90.52270313133033
 40
100.2731155343548
 40
107.469484276854
 40
116.3553993867577
 40
121.3794104949841
 40
133.156619712559
 40
137.3119482675659
 40
141.8293001337178
 40
149.8687833417122
 40
154.411130073688
 40
155.4239690727946
 40
158.6388552066431
 40
160.3370555972011
 40
161.5260789525149
 40
163.3956256013913
 40
165.254455933748
 40
166.6442685073021
 40
166.6442685073021
 40
166.6442685073021
 40
166.6442685073021
 10
18.70706012960165
 20
127.8790144737042
 30
0.0
 10
19.03507696451851
 20
128.0332216442287
 30
0.0
 10
19.48608029290138
 20
128.4097132814942
 30
0.0
 10
19.96643242679325
 20
129.0541256379484
 30
0.0
 10
20.61395805291367
 20
130.1996162190315
 30
0.0
 10
21.37616821406011
 20
132.0114641609042
 30
0.0
 10
22.02226546712491
 20
133.8703696761499
 30
0.0
 10
22.42255903796159
 20
135.2005738202319
 30
0.0
 10
23.0481200192817
 20
137.3240495405212
 30
0.0
 10
24.22222292344899
 20
141.4527609610778
 30
0.0
 10
25.95031831494353
 20
147.0041619350138
 30
0.0
 10
28.19514284593559
 20
155.0339966439138
 30
0.0
 10
30.63881196544932
 20
163.9569827433141
 30
0.0
 10
33.94033355449017
 20
176.9066789526076
 30
0.0
 10
36.42805829751634
 20
188.1491324392543
 30
0.0
 10
37.61999735987584
 20
198.8480787325234
 30
0.0
 10
37.84143924795512
 20
206.7811685097825
 30
0.0
 10
37.3993639650178
 20
215.6094247826287
 30
0.0
 10
36.26552489645377
 20
224.2979222789339
 30
0.0
 10
34.80354758397763
 20
232.7836061125355
 30
0.0
 10
33.49486915077252
 20
239.6967984593728
 30
0.0
 10
31.92897752895374
 20
248.1143077277745
 30
0.0
 10
30.50181036016158
 20
254.9547335427081
 30
0.0
 10
28.80468235821115
 20
261.5578450713064
 30
0.0
 10
27.24618520384533
 20
266.9065891768378
 30
0.0
 10
25.5387909037145
 20
272.3447161842186
 30
0.0
 10
24.25150097765166
 20
276.6897078599828
 30
0.0
 10
23.42238398593874
 20
279.4930224064348
 30
0.0
 10
22.76032944483721
 20
281.355893736345
 30
0.0
 10
21.97384447555646
 20
283.2318980994587
 30
0.0
 10
21.31526040108841
 20
284.675067818317
 30
0.0
 10
20.46162735133605
 20
286.080626242697
 30
0.0
 10
19.24980526912105
 20
287.3098176819475
 30
0.0
 10
18.25230720331828
 20
287.7826966524165
 30
0.0
 10
17.78977782746786
 20
287.8474431431689
 30
0.0
  0
SPLINE
  5
B9
330
1F
100
AcDbEntity
  8
LINEE VISIBILI 2D
100
AcDbSpline
210
0.0
220
0.0
230
1.0
 70
     8
 71
     3
 72
    38
 73
    34
 74
     0
 42
0.0000000001
 43
0.0000000001
 40
0.0
 40
0.0
 40
0.0
 40
0.0
 40
2.17586905953827
 40
3.115526180680769
 40
4.230693334835227
 40
4.891273271981547
 40
5.738152193110282
 40
7.274188442030489
 40
8.795311634963833
 40
13.89408959869056
 40
19.03498359556286
 40
29.25777068579829
 40
33.87115628432226
 40
53.46060880976365
 40
60.64085041896955
 40
75.51158113322693
 40
82.43745270106365
 40
90.86707958771571
 40
98.17968909848437
 40
114.3892137582298
 40
121.6081366996271
 40
129.8463754265364
 40
150.6270680211929
 40
155.2483998588276
 40
157.2076351215362
 40
158.4584866216307
 40
160.2322815410069
 40
161.6277978054351
 40
163.7490432986636
 40
164.8337507916997
 40
165.876885041094
 40
166.6616601625063
 40
167.3825964575552
 40
167.3825964575552
 40
167.3825964575552
 40
167.3825964575552
 10
17.78977782746786
 20
287.8474431431689
 30
0.0
 10
17.06960259896016
 20
287.9499045516113
 30
0.0
 10
16.00300787353706
 20
287.7363578319782
 30
0.0
 10
14.84675063886712
 20
286.9092754355867
 30
0.0
 10
14.29153816232679
 20
286.1805755026984
 30
0.0
 10
13.87682123196091
 20
285.4129409363373
 30
0.0
 10
13.47108573021678
 20
284.4809783662159
 30
0.0
 10
13.01279160966314
 20
283.2637786949815
 30
0.0
 10
12.07664610471902
 20
280.7104060272464
 30
0.0
 10
10.98927452631539
 20
276.9397042823555
 30
0.0
 10
9.605399114756583
 20
270.2576974135977
 30
0.0
 10
8.677992693210403
 20
263.6604197405094
 30
0.0
 10
6.504560211123215
 20
252.3900588889144
 30
0.0
 10
3.761943819117453
 20
242.2848832140747
 30
0.0
 10
0.8813384749726989
 20
228.7081704335715
 30
0.0
 10
-0.2822103761372097
 20
219.0827013879791
 30
0.0
 10
0.2894300171017899
 20
208.9940170809327
 30
0.0
 10
1.337682509695708
 20
201.5157961029795
 30
0.0
 10
3.345088962307181
 20
191.048832250758
 30
0.0
 10
5.618439494697284
 20
181.0600879547254
 30
0.0
 10
7.674022473110441
 20
170.7037478546428
 30
0.0
 10
9.734921893994914
 20
158.8020028976258
 30
0.0
 10
11.50502503749296
 20
147.7284193220227
 30
0.0
 10
13.07911684104003
 20
138.744880344945
 30
0.0
 10
13.55539681020687
 20
136.1781566635572
 30
0.0
 10
13.87149435219348
 20
134.5472213425697
 30
0.0
 10
14.19243154731791
 20
133.1088889236767
 30
0.0
 10
14.66649069455515
 20
131.4093263355902
 30
0.0
 10
15.28933761757106
 20
129.9971795123432
 30
0.0
 10
16.14189673426637
 20
128.8566091125022
 30
0.0
 10
16.83821954652639
 20
128.1765452212504
 30
0.0
 10
17.58862110266162
 20
127.753435210521
 30
0.0
 10
18.1025764990884
 20
127.7000971283338
 30
0.0
 10
18.34419084453565
 20
127.7515537038954
 30
0.0
  0
SPLINE
  5
BA
330
1F
100
AcDbEntity
  8
PREDEFINITO
100
AcDbSpline
210
0.0
220
0.0
230
1.0
 70
     8
 71
     3
 72
    17
 73
    13
 74
     0
 42
0.0000000001
 43
0.0000000001
 40
0.0
 40
0.0
 40
0.0
 40
0.0
 40
0.8111560546460815
 40
1.945292513561081
 40
4.653169745316657
 40
9.236833486711944
 40
15.4502617540733
 40
20.76415878797508
 40
22.85170331981175
 40
29.73634460688456
 40
33.92032070673711
 40
45.62511143353196
 40
45.62511143353196
 40
45.62511143353196
 40
45.62511143353196
 10
73.03153416456288
 20
128.0893417827266
 30
0.0
 10
72.91293191224678
 20
128.3330894528354
 30
0.0
 10
72.70719430638982
 20
128.9485362697656
 30
0.0
 10
72.34952226170779
 20
130.4604851014685
 30
0.0
 10
72.03163726935203
 20
133.2542771283549
 30
0.0
 10
71.80884301133548
 20
137.7506392038143
 30
0.0
 10
71.63429847722287
 20
143.1186338640813
 30
0.0
 10
71.62870629734311
 20
147.6574387446285
 30
0.0
 10
71.7033606667582
 20
152.4188248113032
 30
0.0
 10
71.76733598320375
 20
156.8038454140446
 30
0.0
 10
71.89559669867351
 20
164.3937055970826
 30
0.0
 10
72.06322085298982
 20
169.688157157748
 30
0.0
 10
72.292298882951
 20
173.5832061233168
 30
0.0
  0
SPLINE
  5
BB
330
1F
100
AcDbEntity
  8
PREDEFINITO
100
AcDbSpline
210
0.0
220
0.0
230
1.0
 70
    12
 71
     2
 72
     6
 73
     3
 74
     0
 42
0.0000000001
 43
0.0000000001
 40
0.0
 40
0.0
 40
0.0
 40
0.5975191231294325
 40
0.5975191231294325
 40
0.5975191231294325
 10
72.292298882951
 20
173.5832061233168
 30
0.0
 41
1.0
 10
72.30955017653825
 20
173.8814671983399
 30
0.0
 41
0.9999999968273174
 10
72.32684902492136
 20
174.1797255201131
 30
0.0
 41
1.0
  0
SPLINE
  5
BC
330
1F
100
AcDbEntity
  8
PREDEFINITO
100
AcDbSpline
210
0.0
220
0.0
230
1.0
 70
    12
 71
     2
 72
     6
 73
     3
 74
     0
 42
0.0000000001
 43
0.0000000001
 40
0.0
 40
0.0
 40
0.0
 40
0.1246437103262362
 40
0.1246437103262362
 40
0.1246437103262362
 10
72.32684902492136
 20
174.1797255201131
 30
0.0
 41
1.0
 10
72.33044017797164
 20
174.241943826598
 30
0.0
 41
0.9999999445148309
 10
72.33398984010128
 20
174.3041645129072
 30
0.0
 41
0.9999999999999998
  0
SPLINE
  5
BD
330
1F
100
AcDbEntity
  8
PREDEFINITO
100
AcDbSpline
210
0.0
220
0.0
230
1.0
 70
    12
 71
     2
 72
     6
 73
     3
 74
     0
 42
0.0000000001
 43
0.0000000001
 40
0.0
 40
0.0
 40
0.0
 40
0.0347347424686731
 40
0.0347347424686731
 40
0.0347347424686731
 10
72.33398984010128
 20
174.3041645129072
 30
0.0
 41
0.9999999999999998
 10
72.33497832703415
 20
174.3215037296201
 30
0.0
 41
0.9999999891690546
 10
72.33596167427305
 20
174.3388432385762
 30
0.0
 41
0.9999999999999984
  0
SPLINE
  5
BE
330
1F
100
AcDbEntity
  8
PREDEFINITO
100
AcDbSpline
210
0.0
220
0.0
230
1.0
 70
    12
 71
     2
 72
     6
 73
     3
 74
     0
 42
0.0000000001
 43
0.0000000001
 40
0.0
 40
0.0
 40
0.0
 40
0.0709054426786089
 40
0.0709054426786089
 40
0.0709054426786089
 10
72.33596167427305
 20
174.3388432385762
 30
0.0
 41
0.9999999999999944
 10
72.33796987252308
 20
174.3742390383753
 30
0.0
 41
0.9999999171703619
 10
72.33994926330779
 20
174.4096364608289
 30
0.0
 41
1.0
  0
SPLINE
  5
BF
330
1F
100
AcDbEntity
  8
PREDEFINITO
100
AcDbSpline
210
0.0
220
0.0
230
1.0
 70
    12
 71
     2
 72
     6
 73
     3
 74
     0
 42
0.0000000001
 43
0.0000000001
 40
0.0
 40
0.0
 40
0.0
 40
0.0217863809875671
 40
0.0217863809875671
 40
0.0217863809875671
 10
72.33994926330779
 20
174.4096364608289
 30
0.0
 41
1.0
 10
72.34055701204906
 20
174.4205126845827
 30
0.0
 41
0.9999999852531453
 10
72.34116105455232
 20
174.4313891147932
 30
0.0
 41
1.0
  0
SPLINE
  5
C0
330
1F
100
AcDbEntity
  8
PREDEFINITO
100
AcDbSpline
210
0.0
220
0.0
230
1.0
 70
    24
 71
     2
 72
     6
 73
     3
 74
     0
 42
0.0000000001
 43
0.0000000001
 40
-1.0
 40
-1.0
 40
-1.0
 40
0.0
 40
0.0
 40
0.0
 10
72.34116105455232
 20
174.4313891147932
 30
0.0
 10
72.57296516346577
 20
177.1003312018609
 30
0.0
 10
72.80476927237922
 20
179.7692732889285
 30
0.0
  0
SPLINE
  5
C1
330
1F
100
AcDbEntity
  8
PREDEFINITO
100
AcDbSpline
210
0.0
220
0.0
230
1.0
 70
     8
 71
     3
 72
    11
 73
     7
 74
     0
 42
0.0000000001
 43
0.0000000001
 40
0.0
 40
0.0
 40
0.0
 40
0.0
 40
1.342312493206879
 40
3.25135162100623
 40
6.009971127112745
 40
8.91320081425585
 40
8.91320081425585
 40
8.91320081425585
 40
8.91320081425585
 10
72.80476927237922
 20
179.7692732889285
 30
0.0
 10
72.84063253964274
 20
180.215276037653
 30
0.0
 10
72.91389683102479
 20
181.2966069821378
 30
0.0
 10
73.03083013068022
 20
183.2965195922826
 30
0.0
 10
73.16458746068177
 20
185.8166128941915
 30
0.0
 10
73.2593097559452
 20
187.7015132692568
 30
0.0
 10
73.3053625956336
 20
188.6681633658409
 30
0.0
  0
POLYLINE
  5
C2
330
1F
100
AcDbEntity
  8
PREDEFINITO
100
AcDb2dPolyline
 66
     1
 10
0.0
 20
0.0
 30
0.0
  0
VERTEX
  5
C4
330
C2
100
AcDbEntity
  8
PREDEFINITO
100
AcDbVertex
100
AcDb2dVertex
 10
73.3053625956336
 20
188.6681633658409
 30
0.0
  0
VERTEX
  5
C5
330
C2
100
AcDbEntity
  8
PREDEFINITO
100
AcDbVertex
100
AcDb2dVertex
 10
73.31694310070863
 20
188.8390917712295
 30
0.0
  0
SEQEND
  5
C3
330
C2
100
AcDbEntity
  8
PREDEFINITO
  0
POLYLINE
  5
C6
330
1F
100
AcDbEntity
  8
PREDEFINITO
100
AcDb2dPolyline
 66
     1
 10
0.0
 20
0.0
 30
0.0
  0
VERTEX
  5
C8
330
C6
100
AcDbEntity
  8
PREDEFINITO
100
AcDbVertex
100
AcDb2dVertex
 10
65.84373291675166
 20
206.7125801170348
 30
0.0
  0
VERTEX
  5
C9
330
C6
100
AcDbEntity
  8
PREDEFINITO
100
AcDbVertex
100
AcDb2dVertex
 10
65.84215907907031
 20
206.7275572226669
 30
0.0
  0
SEQEND
  5
C7
330
C6
100
AcDbEntity
  8
PREDEFINITO
  0
SPLINE
  5
CA
330
1F
100
AcDbEntity
  8
PREDEFINITO
100
AcDbSpline
210
0.0
220
0.0
230
1.0
 70
    12
 71
     2
 72
     6
 73
     3
 74
     0
 42
0.0000000001
 43
0.0000000001
 40
0.0
 40
0.0
 40
0.0
 40
1.87343877173011
 40
1.87343877173011
 40
1.87343877173011
 10
65.84215907907031
 20
206.7275572226669
 30
0.0
 41
1.0
 10
65.72717277759041
 20
207.6572080464504
 30
0.0
 41
0.9999749600201998
 10
65.62535527384028
 20
208.5883931529017
 30
0.0
 41
1.0
  0
SPLINE
  5
CB
330
1F
100
AcDbEntity
  8
PREDEFINITO
100
AcDbSpline
210
0.0
220
0.0
230
1.0
 70
    12
 71
     2
 72
     6
 73
     3
 74
     0
 42
0.0000000001
 43
0.0000000001
 40
0.0
 40
0.0
 40
0.0
 40
0.591488457768844
 40
0.591488457768844
 40
0.591488457768844
 10
65.62535527384028
 20
208.5883931529017
 30
0.0
 41
1.0
 10
65.59339924053857
 20
208.8824068103414
 30
0.0
 41
0.9999951175992463
 10
65.56328205312545
 20
209.1766145141332
 30
0.0
 41
0.99999999999998
  0
SPLINE
  5
CC
330
1F
100
AcDbEntity
  8
PREDEFINITO
100
AcDbSpline
210
0.0
220
0.0
230
1.0
 70
    12
 71
     2
 72
     6
 73
     3
 74
     0
 42
0.0000000001
 43
0.0000000001
 40
0.0
 40
0.0
 40
0.0
 40
0.3868562212079503
 40
0.3868562212079503
 40
0.3868562212079503
 10
65.56328205312545
 20
209.1766145141332
 30
0.0
 41
0.9999999999999845
 10
65.54359222280928
 20
209.3690381917889
 30
0.0
 41
0.9999974462431904
 10
65.5247732193759
 20
209.5615489940622
 30
0.0
 41
1.0
  0
SPLINE
  5
CD
330
1F
100
AcDbEntity
  8
PREDEFINITO
100
AcDbSpline
210
0.0
220
0.0
230
1.0
 70
    12
 71
     2
 72
     6
 73
     3
 74
     0
 42
0.0000000001
 43
0.0000000001
 40
0.0
 40
0.0
 40
0.0
 40
0.5908269916071571
 40
0.5908269916071571
 40
0.5908269916071571
 10
65.5247732193759
 20
209.5615489940622
 30
0.0
 41
1.0
 10
65.49602582567955
 20
209.8555618266861
 30
0.0
 41
0.9999929467274037
 10
65.46948251345432
 20
210.1497818242052
 30
0.0
 41
1.0
  0
SPLINE
  5
CE
330
1F
100
AcDbEntity
  8
PREDEFINITO
100
AcDbSpline
210
0.0
220
0.0
230
1.0
 70
    12
 71
     2
 72
     6
 73
     3
 74
     0
 42
0.0000000001
 43
0.0000000001
 40
0.0
 40
0.0
 40
0.0
 40
0.3879461890125502
 40
0.3879461890125502
 40
0.3879461890125502
 10
65.46948251345432
 20
210.1497818242052
 30
0.0
 41
1.0
 10
65.45205935724559
 20
210.3429712980308
 30
0.0
 41
0.9999964397431697
 10
65.43567364177746
 20
210.5362515284124
 30
0.0
 41
0.9999999999999167
  0
SPLINE
  5
CF
330
1F
100
AcDbEntity
  8
PREDEFINITO
100
AcDbSpline
210
0.0
220
0.0
230
1.0
 70
    12
 71
     2
 72
     6
 73
     3
 74
     0
 42
0.0000000001
 43
0.0000000001
 40
0.0
 40
0.0
 40
0.0
 40
0.5888080716491855
 40
0.5888080716491855
 40
0.5888080716491855
 10
65.43567364177746
 20
210.5362515284124
 30
0.0
 41
0.9999999999998508
 10
65.41078904765577
 20
210.8296038480453
 30
0.0
 41
0.9999905551027688
 10
65.3884533539119
 20
211.1231612414831
 30
0.0
 41
1.0
  0
SPLINE
  5
D0
330
1F
100
AcDbEntity
  8
PREDEFINITO
100
AcDbSpline
210
0.0
220
0.0
230
1.0
 70
    12
 71
     2
 72
     6
 73
     3
 74
     0
 42
0.0000000001
 43
0.0000000001
 40
0.0
 40
0.0
 40
0.0
 40
0.3903181901555796
 40
0.3903181901555796
 40
0.3903181901555796
 10
65.3884533539119
 20
211.1231612414831
 30
0.0
 41
1.0
 10
65.37365487689443
 20
211.3177590812071
 30
0.0
 41
0.9999952369125473
 10
65.36005643519485
 20
211.5124444595001
 30
0.0
 41
0.9999999999999827
  0
SPLINE
  5
D1
330
1F
100
AcDbEntity
  8
PREDEFINITO
100
AcDbSpline
210
0.0
220
0.0
230
1.0
 70
    12
 71
     2
 72
     6
 73
     3
 74
     0
 42
0.0000000001
 43
0.0000000001
 40
0.0
 40
0.0
 40
0.0
 40
0.5858920683580074
 40
0.5858920683580074
 40
0.5858920683580074
 10
65.36005643519485
 20
211.5124444595001
 30
0.0
 41
0.9999999999999716
 10
65.33963607387584
 20
211.8046802901555
 30
0.0
 41
0.9999878249204621
 10
65.32210257015667
 20
212.0971035247444
 30
0.0
 41
1.0
  0
SPLINE
  5
D2
330
1F
100
AcDbEntity
  8
PREDEFINITO
100
AcDbSpline
210
0.0
220
0.0
230
1.0
 70
    12
 71
     2
 72
     6
 73
     3
 74
     0
 42
0.0000000001
 43
0.0000000001
 40
0.0
 40
0.0
 40
0.0
 40
2.349188064466956
 40
2.349188064466956
 40
2.349188064466956
 10
65.32210257015667
 20
212.0971035247444
 30
0.0
 41
0.9999999999998341
 10
65.25072850699584
 20
213.2697417284539
 30
0.0
 41
0.9997264049643473
 10
65.23427138103676
 20
214.4444347867169
 30
0.0
 41
1.0
  0
SPLINE
  5
D3
330
1F
100
AcDbEntity
  8
PREDEFINITO
100
AcDbSpline
210
0.0
220
0.0
230
1.0
 70
    12
 71
     2
 72
     6
 73
     3
 74
     0
 42
0.0000000001
 43
0.0000000001
 40
0.0
 40
0.0
 40
0.0
 40
0.0944932710107408
 40
0.0944932710107408
 40
0.0944932710107408
 10
65.23427138103676
 20
214.444434786717
 30
0.0
 41
0.9999999999999936
 10
65.23365236928291
 20
214.4916773845363
 30
0.0
 41
0.9999994366537188
 10
65.23313788187792
 20
214.5389212381565
 30
0.0
 41
1.0
  0
SPLINE
  5
D4
330
1F
100
AcDbEntity
  8
PREDEFINITO
100
AcDbSpline
210
0.0
220
0.0
230
1.0
 70
    12
 71
     2
 72
     6
 73
     3
 74
     0
 42
0.0000000001
 43
0.0000000001
 40
0.0
 40
0.0
 40
0.0
 40
1.955701019750946
 40
1.955701019750946
 40
1.955701019750946
 10
65.23313788187792
 20
214.5389212381565
 30
0.0
 41
1.0
 10
65.22163149070181
 20
215.5168934941738
 30
0.0
 41
0.9997094681769578
 10
65.25731486181799
 20
216.4942822749701
 30
0.0
 41
0.9999999999892335
  0
SPLINE
  5
D5
330
1F
100
AcDbEntity
  8
PREDEFINITO
100
AcDbSpline
210
0.0
220
0.0
230
1.0
 70
    12
 71
     2
 72
     6
 73
     3
 74
     0
 42
0.0000000001
 43
0.0000000001
 40
0.0
 40
0.0
 40
0.0
 40
0.6115764543587883
 40
0.6115764543587883
 40
0.6115764543587883
 10
65.25731486181799
 20
216.4942822749701
 30
0.0
 41
0.999999999998874
 10
65.26867466631862
 20
216.7998663655048
 30
0.0
 41
0.9999659664733574
 10
65.28500985235337
 20
217.1052249111652
 30
0.0
 41
0.9999999999997278
  0
SPLINE
  5
D6
330
1F
100
AcDbEntity
  8
PREDEFINITO
100
AcDbSpline
210
0.0
220
0.0
230
1.0
 70
    12
 71
     2
 72
     6
 73
     3
 74
     0
 42
0.0000000001
 43
0.0000000001
 40
0.0
 40
0.0
 40
0.0
 40
0.0291966684014398
 40
0.0291966684014398
 40
0.0291966684014398
 10
65.28500985235337
 20
217.1052249111652
 30
0.0
 41
0.9999999999999998
 10
65.28577012486008
 20
217.119803447162
 30
0.0
 41
0.9999999280987939
 10
65.2865795201549
 20
217.1343793429586
 30
0.0
 41
1.0
  0
SPLINE
  5
D7
330
1F
100
AcDbEntity
  8
PREDEFINITO
100
AcDbSpline
210
0.0
220
0.0
230
1.0
 70
    12
 71
     2
 72
     6
 73
     3
 74
     0
 42
0.0000000001
 43
0.0000000001
 40
0.0
 40
0.0
 40
0.0
 40
1.19413457996062
 40
1.19413457996062
 40
1.19413457996062
 10
65.2865795201549
 20
217.1343793429586
 30
0.0
 41
1.0
 10
65.31910325905892
 20
217.7306044595047
 30
0.0
 41
0.9998888778734749
 10
65.36931768699661
 20
218.3256008333973
 30
0.0
 41
0.999999999998864
  0
SPLINE
  5
D8
330
1F
100
AcDbEntity
  8
PREDEFINITO
100
AcDbSpline
210
0.0
220
0.0
230
1.0
 70
    12
 71
     2
 72
     6
 73
     3
 74
     0
 42
0.0000000001
 43
0.0000000001
 40
0.0
 40
0.0
 40
0.0
 40
1.496727272143907
 40
1.496727272143907
 40
1.496727272143907
 10
65.36931768699661
 20
218.3256008333973
 30
0.0
 41
0.9999999999959945
 10
65.43251446283422
 20
219.0713580633322
 30
0.0
 41
0.9998666769073304
 10
65.52007636193707
 20
219.8146484438773
 30
0.0
 41
0.9999999999969755
  0
SPLINE
  5
D9
330
1F
100
AcDbEntity
  8
PREDEFINITO
100
AcDbSpline
210
0.0
220
0.0
230
1.0
 70
    12
 71
     2
 72
     6
 73
     3
 74
     0
 42
0.0000000001
 43
0.0000000001
 40
0.0
 40
0.0
 40
0.0
 40
0.5838825515270034
 40
0.5838825515270034
 40
0.5838825515270034
 10
65.52007636193707
 20
219.8146484438774
 30
0.0
 41
0.999999999999152
 10
65.55409720743737
 20
220.1046036908588
 30
0.0
 41
0.9999845184702896
 10
65.59135295847045
 20
220.394161067852
 30
0.0
 41
1.0
  0
SPLINE
  5
DA
330
1F
100
AcDbEntity
  8
PREDEFINITO
100
AcDbSpline
210
0.0
220
0.0
230
1.0
 70
    12
 71
     2
 72
     6
 73
     3
 74
     0
 42
0.0000000001
 43
0.0000000001
 40
0.0
 40
0.0
 40
0.0
 40
0.3944610486738048
 40
0.3944610486738048
 40
0.3944610486738048
 10
65.59135295847045
 20
220.394161067852
 30
0.0
 41
1.0
 10
65.61651849008089
 20
220.5897803270694
 30
0.0
 41
0.9999938823930007
 10
65.64303534280576
 20
220.7852209937436
 30
0.0
 41
1.0
  0
SPLINE
  5
DB
330
1F
100
AcDbEntity
  8
PREDEFINITO
100
AcDbSpline
210
0.0
220
0.0
230
1.0
 70
    12
 71
     2
 72
     6
 73
     3
 74
     0
 42
0.0000000001
 43
0.0000000001
 40
0.0
 40
0.0
 40
0.0
 40
0.5840068253253291
 40
0.5840068253253291
 40
0.5840068253253291
 10
65.64303534280576
 20
220.7852209937436
 30
0.0
 41
1.0
 10
65.68231124096909
 20
221.0745732266826
 30
0.0
 41
0.9999884141334601
 10
65.7243849806454
 20
221.3635318932265
 30
0.0
 41
1.0
  0
SPLINE
  5
DC
330
1F
100
AcDbEntity
  8
PREDEFINITO
100
AcDbSpline
210
0.0
220
0.0
230
1.0
 70
    12
 71
     2
 72
     6
 73
     3
 74
     0
 42
0.0000000001
 43
0.0000000001
 40
0.0
 40
0.0
 40
0.0
 40
0.3934300328189654
 40
0.3934300328189654
 40
0.3934300328189654
 10
65.7243849806454
 20
221.3635318932265
 30
0.0
 41
1.0
 10
65.75271984492159
 20
221.5581961284357
 30
0.0
 41
0.9999955189654448
 10
65.782210992009
 20
221.7526885504674
 30
0.0
 41
1.0
  0
SPLINE
  5
DD
330
1F
100
AcDbEntity
  8
PREDEFINITO
100
AcDbSpline
210
0.0
220
0.0
230
1.0
 70
    12
 71
     2
 72
     6
 73
     3
 74
     0
 42
0.0000000001
 43
0.0000000001
 40
0.0
 40
0.0
 40
0.0
 40
1.220947847847835
 40
1.220947847847835
 40
1.220947847847835
 10
65.782210992009
 20
221.7526885504674
 30
0.0
 41
1.0
 10
65.87392533893193
 20
222.3562468814814
 30
0.0
 41
0.9999682709902233
 10
65.97524884406498
 20
222.9582665867291
 30
0.0
 41
0.9999999999999545
  0
SPLINE
  5
DE
330
1F
100
AcDbEntity
  8
PREDEFINITO
100
AcDbSpline
210
0.0
220
0.0
230
1.0
 70
    12
 71
     2
 72
     6
 73
     3
 74
     0
 42
0.0000000001
 43
0.0000000001
 40
0.0
 40
0.0
 40
0.0
 40
1.315443200258781
 40
1.315443200258781
 40
1.315443200258781
 10
65.97524884406498
 20
222.9582665867292
 30
0.0
 41
0.9999999999999758
 10
66.08444149645682
 20
223.6068699327521
 30
0.0
 41
0.999979832171829
 10
66.20186252437496
 20
224.2540342383226
 30
0.0
 41
1.0
  0
SPLINE
  5
DF
330
1F
100
AcDbEntity
  8
PREDEFINITO
100
AcDbSpline
210
0.0
220
0.0
230
1.0
 70
    12
 71
     2
 72
     6
 73
     3
 74
     0
 42
0.0000000001
 43
0.0000000001
 40
0.0
 40
0.0
 40
0.0
 40
0.3906941116695588
 40
0.3906941116695588
 40
0.3906941116695588
 10
66.20186252437496
 20
224.2540342383226
 30
0.0
 41
1.0
 10
66.23667005910308
 20
224.4462553635331
 30
0.0
 41
0.9999989540380269
 10
66.27203259752126
 20
224.6383751605963
 30
0.0
 41
1.0
  0
SPLINE
  5
E0
330
1F
100
AcDbEntity
  8
PREDEFINITO
100
AcDbSpline
210
0.0
220
0.0
230
1.0
 70
    12
 71
     2
 72
     6
 73
     3
 74
     0
 42
0.0000000001
 43
0.0000000001
 40
0.0
 40
0.0
 40
0.0
 40
0.5832229916749827
 40
0.5832229916749827
 40
0.5832229916749827
 10
66.27203259752126
 20
224.6383751605963
 30
0.0
 41
1.0
 10
66.32483288019321
 20
224.9251670299162
 30
0.0
 41
0.9999983991868285
 10
66.37865972234792
 20
225.2117680017717
 30
0.0
 41
1.0
  0
SPLINE
  5
E1
330
1F
100
AcDbEntity
  8
PREDEFINITO
100
AcDbSpline
210
0.0
220
0.0
230
1.0
 70
    12
 71
     2
 72
     6
 73
     3
 74
     0
 42
0.0000000001
 43
0.0000000001
 40
0.0
 40
0.0
 40
0.0
 40
0.39002414303314
 40
0.39002414303314
 40
0.39002414303314
 10
66.37865972234792
 20
225.2117680017717
 30
0.0
 41
1.0
 10
66.41464818964242
 20
225.4034306250182
 30
0.0
 41
0.9999995484193739
 10
66.4510002819346
 20
225.595024613283
 30
0.0
 41
1.0
  0
SPLINE
  5
E2
330
1F
100
AcDbEntity
  8
PREDEFINITO
100
AcDbSpline
210
0.0
220
0.0
230
1.0
 70
    12
 71
     2
 72
     6
 73
     3
 74
     0
 42
0.0000000001
 43
0.0000000001
 40
0.0
 40
0.0
 40
0.0
 40
0.5825910322838267
 40
0.5825910322838267
 40
0.5825910322838267
 10
66.4510002819346
 20
225.595024613283
 30
0.0
 41
1.0
 10
66.50531110194154
 20
225.8812124470946
 30
0.0
 41
0.9999994373960517
 10
66.56023027594755
 20
226.1672841613276
 30
0.0
 41
0.9999999999999998
  0
SPLINE
  5
E3
330
1F
100
AcDbEntity
  8
PREDEFINITO
100
AcDbSpline
210
0.0
220
0.0
230
1.0
 70
    12
 71
     2
 72
     6
 73
     3
 74
     0
 42
0.0000000001
 43
0.0000000001
 40
0.0
 40
0.0
 40
0.0
 40
0.3893711581417116
 40
0.3893711581417116
 40
0.3893711581417116
 10
66.56023027594755
 20
226.1672841613276
 30
0.0
 41
1.0
 10
66.59692863658985
 20
226.3584796373711
 30
0.0
 41
0.9999998892462761
 10
66.63380605038742
 20
226.549640658721
 30
0.0
 41
0.9999999999999984
  0
SPLINE
  5
E4
330
1F
100
AcDbEntity
  8
PREDEFINITO
100
AcDbSpline
210
0.0
220
0.0
230
1.0
 70
    12
 71
     2
 72
     6
 73
     3
 74
     0
 42
0.0000000001
 43
0.0000000001
 40
0.0
 40
0.0
 40
0.0
 40
0.5809992683484941
 40
0.5809992683484941
 40
0.5809992683484941
 10
66.63380605038742
 20
226.549640658721
 30
0.0
 41
0.9999999999999993
 10
66.68884819953821
 20
226.8348781144261
 30
0.0
 41
0.9999999309924171
 10
66.7440972970149
 20
227.1200755575611
 30
0.0
 41
1.0
  0
SPLINE
  5
E5
330
1F
100
AcDbEntity
  8
PREDEFINITO
100
AcDbSpline
210
0.0
220
0.0
230
1.0
 70
    12
 71
     2
 72
     6
 73
     3
 74
     0
 42
0.0000000001
 43
0.0000000001
 40
0.0
 40
0.0
 40
0.0
 40
2.329143439652456
 40
2.329143439652456
 40
2.329143439652456
 10
66.7440972970149
 20
227.1200755575611
 30
0.0
 41
0.99999999999999
 10
66.96660805341386
 20
228.2631944676783
 30
0.0
 41
0.9999974594944306
 10
67.18397184883338
 20
229.4073032392206
 30
0.0
 41
1.0
  0
SPLINE
  5
E6
330
1F
100
AcDbEntity
  8
PREDEFINITO
100
AcDbSpline
210
0.0
220
0.0
230
1.0
 70
    12
 71
     2
 72
     6
 73
     3
 74
     0
 42
0.0000000001
 43
0.0000000001
 40
0.0
 40
0.0
 40
0.0
 40
0.5713489966390907
 40
0.5713489966390907
 40
0.5713489966390907
 10
67.18397184883338
 20
229.4073032392206
 30
0.0
 41
1.0
 10
67.23706325633232
 20
229.6880011523845
 30
0.0
 41
0.9999991387514224
 10
67.28942048757867
 20
229.9688369287294
 30
0.0
 41
1.0
  0
SPLINE
  5
E7
330
1F
100
AcDbEntity
  8
PREDEFINITO
100
AcDbSpline
210
0.0
220
0.0
230
1.0
 70
    12
 71
     2
 72
     6
 73
     3
 74
     0
 42
0.0000000001
 43
0.0000000001
 40
0.0
 40
0.0
 40
0.0
 40
2.335900164107129
 40
2.335900164107129
 40
2.335900164107129
 10
67.28942048757867
 20
229.9688369287294
 30
0.0
 41
1.0
 10
67.50397112239024
 20
231.1169326676115
 30
0.0
 41
0.9999733910390337
 10
67.70174274774621
 20
232.2680374335547
 30
0.0
 41
1.0
  0
SPLINE
  5
E8
330
1F
100
AcDbEntity
  8
PREDEFINITO
100
AcDbSpline
210
0.0
220
0.0
230
1.0
 70
    12
 71
     2
 72
     6
 73
     3
 74
     0
 42
0.0000000001
 43
0.0000000001
 40
0.0
 40
0.0
 40
0.0
 40
0.563477689712503
 40
0.563477689712503
 40
0.563477689712503
 10
67.70174274774621
 20
232.2680374335547
 30
0.0
 41
1.0
 10
67.7493504252968
 20
232.5457252049399
 30
0.0
 41
0.9999980014577315
 10
67.7958473683305
 20
232.8236011170126
 30
0.0
 41
1.0
  0
SPLINE
  5
E9
330
1F
100
AcDbEntity
  8
PREDEFINITO
100
AcDbSpline
210
0.0
220
0.0
230
1.0
 70
    12
 71
     2
 72
     6
 73
     3
 74
     0
 42
0.0000000001
 43
0.0000000001
 40
0.0
 40
0.0
 40
0.0
 40
0.407907220267566
 40
0.407907220267566
 40
0.407907220267566
 10
67.7958473683305
 20
232.8236011170126
 30
0.0
 41
1.0
 10
67.82950707832423
 20
233.0247581673525
 30
0.0
 41
0.9999989201870575
 10
67.86257401541133
 20
233.2260135102773
 30
0.0
 41
1.0
  0
SPLINE
  5
EA
330
1F
100
AcDbEntity
  8
PREDEFINITO
100
AcDbSpline
210
0.0
220
0.0
230
1.0
 70
    12
 71
     2
 72
     6
 73
     3
 74
     0
 42
0.0000000001
 43
0.0000000001
 40
0.0
 40
0.0
 40
0.0
 40
0.5611978344420788
 40
0.5611978344420788
 40
0.5611978344420788
 10
67.86257401541133
 20
233.2260135102773
 30
0.0
 41
1.0
 10
67.90806572756561
 20
233.5029006156661
 30
0.0
 41
0.9999979796696403
 10
67.95244496213745
 20
233.7799682030546
 30
0.0
 41
1.0
  0
SPLINE
  5
EB
330
1F
100
AcDbEntity
  8
PREDEFINITO
100
AcDbSpline
210
0.0
220
0.0
230
1.0
 70
    12
 71
     2
 72
     6
 73
     3
 74
     0
 42
0.0000000001
 43
0.0000000001
 40
0.0
 40
0.0
 40
0.0
 40
0.4108734253660331
 40
0.4108734253660331
 40
0.4108734253660331
 10
67.95244496213745
 20
233.7799682030546
 30
0.0
 41
1.0
 10
67.98493686455865
 20
233.9828193273872
 30
0.0
 41
0.9999989435735467
 10
68.01683827623708
 20
234.1857641532765
 30
0.0
 41
1.0
  0
SPLINE
  5
EC
330
1F
100
AcDbEntity
  8
PREDEFINITO
100
AcDbSpline
210
0.0
220
0.0
230
1.0
 70
    12
 71
     2
 72
     6
 73
     3
 74
     0
 42
0.0000000001
 43
0.0000000001
 40
0.0
 40
0.0
 40
0.0
 40
0.5615432627742862
 40
0.5615432627742862
 40
0.5615432627742862
 10
68.01683827623708
 20
234.1857641532765
 30
0.0
 41
1.0
 10
68.06043584040209
 20
234.4631306249388
 30
0.0
 41
0.999998114991736
 10
68.10295689620813
 20
234.7406641670435
 30
0.0
 41
1.0
  0
SPLINE
  5
ED
330
1F
100
AcDbEntity
  8
PREDEFINITO
100
AcDbSpline
210
0.0
220
0.0
230
1.0
 70
    12
 71
     2
 72
     6
 73
     3
 74
     0
 42
0.0000000001
 43
0.0000000001
 40
0.0
 40
0.0
 40
0.0
 40
0.4123630157423782
 40
0.4123630157423782
 40
0.4123630157423782
 10
68.10295689620813
 20
234.7406641670435
 30
0.0
 41
1.0
 10
68.13418341791633
 20
234.9444674364476
 30
0.0
 41
0.9999990464697407
 10
68.16484489171482
 20
235.1483564809882
 30
0.0
 41
1.0
  0
SPLINE
  5
EE
330
1F
100
AcDbEntity
  8
PREDEFINITO
100
AcDbSpline
210
0.0
220
0.0
230
1.0
 70
    12
 71
     2
 72
     6
 73
     3
 74
     0
 42
0.0000000001
 43
0.0000000001
 40
0.0
 40
0.0
 40
0.0
 40
1.953034195883085
 40
1.953034195883085
 40
1.953034195883085
 10
68.16484489171482
 20
235.1483564809882
 30
0.0
 41
1.0
 10
68.3098865362211
 20
236.114053350337
 30
0.0
 41
0.9999827931766644
 10
68.44358870794424
 20
237.0813853781703
 30
0.0
 41
1.0
  0
SPLINE
  5
EF
330
1F
100
AcDbEntity
  8
PREDEFINITO
100
AcDbSpline
210
0.0
220
0.0
230
1.0
 70
    12
 71
     2
 72
     6
 73
     3
 74
     0
 42
0.0000000001
 43
0.0000000001
 40
0.0
 40
0.0
 40
0.0
 40
1.467418286738086
 40
1.467418286738086
 40
1.467418286738086
 10
68.44358870794424
 20
237.0813853781703
 30
0.0
 41
1.0
 10
68.54409435702487
 20
237.808181364889
 30
0.0
 41
0.9999934737706948
 10
68.63936021053166
 20
238.5356827103162
 30
0.0
 41
0.9999999999999856
  0
SPLINE
  5
F0
330
1F
100
AcDbEntity
  8
PREDEFINITO
100
AcDbSpline
210
0.0
220
0.0
230
1.0
 70
    12
 71
     2
 72
     6
 73
     3
 74
     0
 42
0.0000000001
 43
0.0000000001
 40
0.0
 40
0.0
 40
0.0
 40
6.356933724387939
 40
6.356933724387939
 40
6.356933724387939
 10
68.63936021053166
 20
238.5356827103162
 30
0.0
 41
0.9999999999997482
 10
69.04747959606502
 20
241.6879187834969
 30
0.0
 41
0.9999627218996969
 10
69.40109224081243
 20
244.8467337193176
 30
0.0
 41
1.0
  0
SPLINE
  5
F1
330
1F
100
AcDbEntity
  8
PREDEFINITO
100
AcDbSpline
210
0.0
220
0.0
230
1.0
 70
    12
 71
     2
 72
     6
 73
     3
 74
     0
 42
0.0000000001
 43
0.0000000001
 40
0.0
 40
0.0
 40
0.0
 40
1.049039700711379
 40
1.049039700711379
 40
1.049039700711379
 10
69.40109224081243
 20
244.8467337193176
 30
0.0
 41
1.0
 10
69.45965117633939
 20
245.3679748421699
 30
0.0
 41
0.9999989595629629
 10
69.51670671373199
 20
245.8893826679971
 30
0.0
 41
1.0
  0
SPLINE
  5
F2
330
1F
100
AcDbEntity
  8
PREDEFINITO
100
AcDbSpline
210
0.0
220
0.0
230
1.0
 70
    12
 71
     2
 72
     6
 73
     3
 74
     0
 42
0.0000000001
 43
0.0000000001
 40
0.0
 40
0.0
 40
0.0
 40
0.9020184429660723
 40
0.9020184429660723
 40
0.9020184429660723
 10
69.51670671373199
 20
245.8893826679971
 30
0.0
 41
1.0
 10
69.56576439705933
 20
246.33771615669
 30
0.0
 41
0.999999057982274
 10
69.61358947855155
 20
246.7861828052598
 30
0.0
 41
0.9999999999999998
  0
SPLINE
  5
F3
330
1F
100
AcDbEntity
  8
PREDEFINITO
100
AcDbSpline
210
0.0
220
0.0
230
1.0
 70
    12
 71
     2
 72
     6
 73
     3
 74
     0
 42
0.0000000001
 43
0.0000000001
 40
0.0
 40
0.0
 40
0.0
 40
1.0481140801414
 40
1.0481140801414
 40
1.0481140801414
 10
69.61358947855155
 20
246.7861828052598
 30
0.0
 41
0.9999999999999998
 10
69.66916879265744
 20
247.3072848163963
 30
0.0
 41
0.9999984025106862
 10
69.72288534502115
 20
247.8285821387933
 30
0.0
 41
1.0
  0
SPLINE
  5
F4
330
1F
100
AcDbEntity
  8
PREDEFINITO
100
AcDbSpline
210
0.0
220
0.0
230
1.0
 70
    12
 71
     2
 72
     6
 73
     3
 74
     0
 42
0.0000000001
 43
0.0000000001
 40
0.0
 40
0.0
 40
0.0
 40
2.845644515201661
 40
2.845644515201661
 40
2.845644515201661
 10
69.72288534502115
 20
247.8285821387933
 30
0.0
 41
1.0
 10
69.86911891834863
 20
249.2438874251488
 30
0.0
 41
0.9999814272517547
 10
69.99808895217521
 20
250.6608701493234
 30
0.0
 41
1.0
  0
SPLINE
  5
F5
330
1F
100
AcDbEntity
  8
PREDEFINITO
100
AcDbSpline
210
0.0
220
0.0
230
1.0
 70
    12
 71
     2
 72
     6
 73
     3
 74
     0
 42
0.0000000001
 43
0.0000000001
 40
0.0
 40
0.0
 40
0.0
 40
1.530425439035982
 40
1.530425439035982
 40
1.530425439035982
 10
69.99808895217521
 20
250.6608701493234
 30
0.0
 41
1.0
 10
70.0672830671486
 20
251.4229521514555
 30
0.0
 41
0.9999919342009614
 10
70.1303584173067
 20
252.1855649659838
 30
0.0
 41
1.0
  0
SPLINE
  5
F6
330
1F
100
AcDbEntity
  8
PREDEFINITO
100
AcDbSpline
210
0.0
220
0.0
230
1.0
 70
    12
 71
     2
 72
     6
 73
     3
 74
     0
 42
0.0000000001
 43
0.0000000001
 40
0.0
 40
0.0
 40
0.0
 40
3.320588322353825
 40
3.320588322353825
 40
3.320588322353825
 10
70.1303584173067
 20
252.1855649659838
 30
0.0
 41
1.0
 10
70.26780872487595
 20
253.8402229107643
 30
0.0
 41
0.9999431966569222
 10
70.3699522413336
 20
255.4974350862442
 30
0.0
 41
0.9999999999999676
  0
SPLINE
  5
F7
330
1F
100
AcDbEntity
  8
PREDEFINITO
100
AcDbSpline
210
0.0
220
0.0
230
1.0
 70
    12
 71
     2
 72
     6
 73
     3
 74
     0
 42
0.0000000001
 43
0.0000000001
 40
0.0
 40
0.0
 40
0.0
 40
0.0685224547691016
 40
0.0685224547691016
 40
0.0685224547691016
 10
70.3699522413336
 20
255.4974350862442
 30
0.0
 41
0.9999999999999991
 10
70.37204341127872
 20
255.5316324359922
 30
0.0
 41
0.9999999687424764
 10
70.3741175487246
 20
255.5658308230899
 30
0.0
 41
1.0
  0
SPLINE
  5
F8
330
1F
100
AcDbEntity
  8
PREDEFINITO
100
AcDbSpline
210
0.0
220
0.0
230
1.0
 70
    12
 71
     2
 72
     6
 73
     3
 74
     0
 42
0.0000000001
 43
0.0000000001
 40
0.0
 40
0.0
 40
0.0
 40
1.86681386757723
 40
1.86681386757723
 40
1.86681386757723
 10
70.3741175487246
 20
255.5658308230899
 30
0.0
 41
1.0
 10
70.4307709947928
 20
256.4975335677731
 30
0.0
 41
0.9999732166991735
 10
70.47378033865564
 20
257.429965771018
 30
0.0
 41
0.9999999999999682
  0
SPLINE
  5
F9
330
1F
100
AcDbEntity
  8
PREDEFINITO
100
AcDbSpline
210
0.0
220
0.0
230
1.0
 70
    12
 71
     2
 72
     6
 73
     3
 74
     0
 42
0.0000000001
 43
0.0000000001
 40
0.0
 40
0.0
 40
0.0
 40
0.0638234879070764
 40
0.0638234879070764
 40
0.0638234879070764
 10
70.47378033865564
 20
257.429965771018
 30
0.0
 41
0.9999999999999989
 10
70.47524534074135
 20
257.4618438698729
 30
0.0
 41
0.9999999644529856
 10
70.47669396377682
 20
257.4937227172311
 30
0.0
 41
1.0
  0
SPLINE
  5
FA
330
1F
100
AcDbEntity
  8
PREDEFINITO
100
AcDbSpline
210
0.0
220
0.0
230
1.0
 70
    12
 71
     2
 72
     6
 73
     3
 74
     0
 42
0.0000000001
 43
0.0000000001
 40
0.0
 40
0.0
 40
0.0
 40
1.869690540446982
 40
1.869690540446982
 40
1.869690540446982
 10
70.47669396377682
 20
257.4937227172311
 30
0.0
 41
1.0
 10
70.51927036752163
 20
258.427619506888
 30
0.0
 41
0.9999654298541981
 10
70.54631064262517
 20
259.3620951822359
 30
0.0
 41
1.0
  0
SPLINE
  5
FB
330
1F
100
AcDbEntity
  8
PREDEFINITO
100
AcDbSpline
210
0.0
220
0.0
230
1.0
 70
    12
 71
     2
 72
     6
 73
     3
 74
     0
 42
0.0000000001
 43
0.0000000001
 40
0.0
 40
0.0
 40
0.0
 40
0.0565053973657006
 40
0.0565053973657006
 40
0.0565053973657006
 10
70.54631064262517
 20
259.3620951822359
 30
0.0
 41
1.0
 10
70.54712338171346
 20
259.3903361893404
 30
0.0
 41
0.9999999650028992
 10
70.54792108949789
 20
259.41857762479
 30
0.0
 41
0.9999999999999998
  0
SPLINE
  5
FC
330
1F
100
AcDbEntity
  8
PREDEFINITO
100
AcDbSpline
210
0.0
220
0.0
230
1.0
 70
    12
 71
     2
 72
     6
 73
     3
 74
     0
 42
0.0000000001
 43
0.0000000001
 40
0.0
 40
0.0
 40
0.0
 40
1.873697375150146
 40
1.873697375150146
 40
1.873697375150146
 10
70.54792108949789
 20
259.41857762479
 30
0.0
 41
0.9999999999999898
 10
70.57448937252254
 20
260.3550760993102
 30
0.0
 41
0.9999574444770439
 10
70.58377646163432
 20
261.2919053352516
 30
0.0
 41
1.0
  0
SPLINE
  5
FD
330
1F
100
AcDbEntity
  8
PREDEFINITO
100
AcDbSpline
210
0.0
220
0.0
230
1.0
 70
    12
 71
     2
 72
     6
 73
     3
 74
     0
 42
0.0000000001
 43
0.0000000001
 40
0.0
 40
0.0
 40
0.0
 40
0.0504212677724518
 40
0.0504212677724518
 40
0.0504212677724518
 10
70.58377646163432
 20
261.2919053352516
 30
0.0
 41
1.0
 10
70.58402865957706
 20
261.3171147083218
 30
0.0
 41
0.9999999707994314
 10
70.58426513886917
 20
261.342324233221
 30
0.0
 41
0.9999999999999991
  0
SPLINE
  5
FE
330
1F
100
AcDbEntity
  8
PREDEFINITO
100
AcDbSpline
210
0.0
220
0.0
230
1.0
 70
    12
 71
     2
 72
     6
 73
     3
 74
     0
 42
0.0000000001
 43
0.0000000001
 40
0.0
 40
0.0
 40
0.0
 40
0.9148133196872025
 40
0.9148133196872025
 40
0.9148133196872025
 10
70.58426513886917
 20
261.342324233221
 30
0.0
 41
0.9999999999999856
 10
70.58856390104214
 20
261.7997134287209
 30
0.0
 41
0.9999910261662521
 10
70.58898886654191
 20
262.2571226273631
 30
0.0
 41
1.0
  0
SPLINE
  5
FF
330
1F
100
AcDbEntity
  8
PREDEFINITO
100
AcDbSpline
210
0.0
220
0.0
230
1.0
 70
    12
 71
     2
 72
     6
 73
     3
 74
     0
 42
0.0000000001
 43
0.0000000001
 40
0.0
 40
0.0
 40
0.0
 40
0.0473586956071755
 40
0.0473586956071755
 40
0.0473586956071755
 10
70.58898886654191
 20
262.2571226273631
 30
0.0
 41
1.0
 10
70.58901185483377
 20
262.2808019643776
 30
0.0
 41
0.999999977866201
 10
70.58902482457766
 20
262.3044813089052
 30
0.0
 41
0.9999999999999998
  0
SPLINE
  5
100
330
1F
100
AcDbEntity
  8
PREDEFINITO
100
AcDbSpline
210
0.0
220
0.0
230
1.0
 70
    12
 71
     2
 72
     6
 73
     3
 74
     0
 42
0.0000000001
 43
0.0000000001
 40
0.0
 40
0.0
 40
0.0
 40
1.880503092668252
 40
1.880503092668252
 40
1.880503092668252
 10
70.58902482457766
 20
262.3044813089052
 30
0.0
 41
0.9999999999999956
 10
70.589316028484
 20
263.2447513744907
 30
0.0
 41
0.9999703847072954
 10
70.57513485113947
 20
264.1849145395872
 30
0.0
 41
1.0
  0
SPLINE
  5
101
330
1F
100
AcDbEntity
  8
PREDEFINITO
100
AcDbSpline
210
0.0
220
0.0
230
1.0
 70
    12
 71
     2
 72
     6
 73
     3
 74
     0
 42
0.0000000001
 43
0.0000000001
 40
0.0
 40
0.0
 40
0.0
 40
0.0442400510864045
 40
0.0442400510864045
 40
0.0442400510864045
 10
70.57513485113947
 20
264.1849145395872
 30
0.0
 41
1.0
 10
70.57480617147651
 20
264.2070321236714
 30
0.0
 41
0.9999999866538242
 10
70.57447025606555
 20
264.2291495981114
 30
0.0
 41
0.9999999999999993
  0
SPLINE
  5
102
330
1F
100
AcDbEntity
  8
PREDEFINITO
100
AcDbSpline
210
0.0
220
0.0
230
1.0
 70
    12
 71
     2
 72
     6
 73
     3
 74
     0
 42
0.0000000001
 43
0.0000000001
 40
0.0
 40
0.0
 40
0.0
 40
1.885957039650092
 40
1.885957039650092
 40
1.885957039650092
 10
70.57447025606555
 20
264.2291495981113
 30
0.0
 41
0.9999999999999796
 10
70.55984501403385
 20
265.1720258809138
 30
0.0
 41
0.999982208290183
 10
70.53397223623229
 20
266.1146605846295
 30
0.0
 41
1.0
  0
SPLINE
  5
103
330
1F
100
AcDbEntity
  8
PREDEFINITO
100
AcDbSpline
210
0.0
220
0.0
230
1.0
 70
    12
 71
     2
 72
     6
 73
     3
 74
     0
 42
0.0000000001
 43
0.0000000001
 40
0.0
 40
0.0
 40
0.0
 40
1.969241825358985
 40
1.969241825358985
 40
1.969241825358985
 10
70.53397223623229
 20
266.1146605846295
 30
0.0
 41
1.0
 10
70.5069654260895
 20
267.0989171511061
 30
0.0
 41
0.9999907073179386
 10
70.47147329217412
 20
268.0829042759426
 30
0.0
 41
0.9999999999999953
  0
SPLINE
  5
104
330
1F
100
AcDbEntity
  8
PREDEFINITO
100
AcDbSpline
210
0.0
220
0.0
230
1.0
 70
    12
 71
     2
 72
     6
 73
     3
 74
     0
 42
0.0000000001
 43
0.0000000001
 40
0.0
 40
0.0
 40
0.0
 40
2.873199441083721
 40
2.873199441083721
 40
2.873199441083721
 10
70.47147329217412
 20
268.0829042759426
 30
0.0
 41
0.999999999999998
 10
70.41934227610889
 20
269.5185631650252
 30
0.0
 41
0.9999944282251049
 10
70.35762717385145
 20
270.953842000388
 30
0.0
 41
1.0
  0
SPLINE
  5
105
330
1F
100
AcDbEntity
  8
PREDEFINITO
100
AcDbSpline
210
0.0
220
0.0
230
1.0
 70
    12
 71
     2
 72
     6
 73
     3
 74
     0
 42
0.0000000001
 43
0.0000000001
 40
0.0
 40
0.0
 40
0.0
 40
0.0323947210834858
 40
0.0323947210834858
 40
0.0323947210834858
 10
70.35762717385145
 20
270.953842000388
 30
0.0
 41
1.0
 10
70.35694017280333
 20
270.9700247849773
 30
0.0
 41
0.9999999998373823
 10
70.35625315105597
 20
270.9862075686873
 30
0.0
 41
1.0
  0
SPLINE
  5
106
330
1F
100
AcDbEntity
  8
PREDEFINITO
100
AcDbSpline
210
0.0
220
0.0
230
1.0
 70
    12
 71
     2
 72
     6
 73
     3
 74
     0
 42
0.0000000001
 43
0.0000000001
 40
0.0
 40
0.0
 40
0.0
 40
0.9389008018158476
 40
0.9389008018158476
 40
0.9389008018158476
 10
70.35625315105597
 20
270.9862075686873
 30
0.0
 41
1.0
 10
70.33630283520978
 20
271.4552338783562
 30
0.0
 41
0.9999999476270888
 10
70.31604872079988
 20
271.9242471672014
 30
0.0
 41
1.0
  0
SPLINE
  5
107
330
1F
100
AcDbEntity
  8
PREDEFINITO
100
AcDbSpline
210
0.0
220
0.0
230
1.0
 70
    12
 71
     2
 72
     6
 73
     3
 74
     0
 42
0.0000000001
 43
0.0000000001
 40
0.0
 40
0.0
 40
0.0
 40
0.0321399919114109
 40
0.0321399919114109
 40
0.0321399919114109
 10
70.31604872079988
 20
271.9242471672014
 30
0.0
 41
1.0
 10
70.31535646501743
 20
271.9403022458663
 30
0.0
 41
0.999999999990686
 10
70.3146639619575
 20
271.9563573138682
 30
0.0
 41
1.0
  0
SPLINE
  5
108
330
1F
100
AcDbEntity
  8
PREDEFINITO
100
AcDbSpline
210
0.0
220
0.0
230
1.0
 70
    12
 71
     2
 72
     6
 73
     3
 74
     0
 42
0.0000000001
 43
0.0000000001
 40
0.0
 40
0.0
 40
0.0
 40
0.9420214472645105
 40
0.9420214472645105
 40
0.9420214472645105
 10
70.3146639619575
 20
271.9563573138682
 30
0.0
 41
1.0
 10
70.29434020394524
 20
272.4269293563088
 30
0.0
 41
0.9999999982482979
 10
70.27407220445599
 20
272.8975038036211
 30
0.0
 41
1.0
  0
SPLINE
  5
109
330
1F
100
AcDbEntity
  8
PREDEFINITO
100
AcDbSpline
210
0.0
220
0.0
230
1.0
 70
    12
 71
     2
 72
     6
 73
     3
 74
     0
 42
0.0000000001
 43
0.0000000001
 40
0.0
 40
0.0
 40
0.0
 40
0.0311296243108292
 40
0.0311296243108292
 40
0.0311296243108292
 10
70.27407220445599
 20
272.8975038036211
 30
0.0
 41
1.0
 10
70.27340336866186
 20
272.913054238777
 30
0.0
 41
0.9999999999675605
 10
70.27273479333107
 20
272.9286046851337
 30
0.0
 41
1.0
  0
SPLINE
  5
10A
330
1F
100
AcDbEntity
  8
PREDEFINITO
100
AcDbSpline
210
0.0
220
0.0
230
1.0
 70
    12
 71
     2
 72
     6
 73
     3
 74
     0
 42
0.0000000001
 43
0.0000000001
 40
0.0
 40
0.0
 40
0.0
 40
0.9439553342364154
 40
0.9439553342364154
 40
0.9439553342364154
 10
70.27273479333107
 20
272.9286046851337
 30
0.0
 41
1.0
 10
70.25243998427982
 20
273.400145842175
 30
0.0
 41
0.9999999176371209
 10
70.23252805463173
 20
273.8717033223575
 30
0.0
 41
0.9999999999999998
  0
SPLINE
  5
10B
330
1F
100
AcDbEntity
  8
PREDEFINITO
100
AcDbSpline
210
0.0
220
0.0
230
1.0
 70
    12
 71
     2
 72
     6
 73
     3
 74
     0
 42
0.0000000001
 43
0.0000000001
 40
0.0
 40
0.0
 40
0.0
 40
0.0310584656099333
 40
0.0310584656099333
 40
0.0310584656099333
 10
70.23252805463173
 20
273.8717033223576
 30
0.0
 41
1.0
 10
70.23187373620821
 20
273.88721876369
 30
0.0
 41
0.9999999998388098
 10
70.23121973547853
 20
273.9027342184169
 30
0.0
 41
1.0
  0
SPLINE
  5
10C
330
1F
100
AcDbEntity
  8
PREDEFINITO
100
AcDbSpline
210
0.0
220
0.0
230
1.0
 70
    12
 71
     2
 72
     6
 73
     3
 74
     0
 42
0.0000000001
 43
0.0000000001
 40
0.0
 40
0.0
 40
0.0
 40
0.9769079081227539
 40
0.9769079081227539
 40
0.9769079081227539
 10
70.23121973547853
 20
273.9027342184169
 30
0.0
 41
1.0
 10
70.21064832955962
 20
274.3907548514982
 30
0.0
 41
0.9999998245360119
 10
70.1906552551586
 20
274.8787995195743
 30
0.0
 41
1.0
  0
SPLINE
  5
10D
330
1F
100
AcDbEntity
  8
PREDEFINITO
100
AcDbSpline
210
0.0
220
0.0
230
1.0
 70
    12
 71
     2
 72
     6
 73
     3
 74
     0
 42
0.0000000001
 43
0.0000000001
 40
0.0
 40
0.0
 40
0.0
 40
0.4884425873471729
 40
0.4884425873471729
 40
0.4884425873471729
 10
70.1906552551586
 20
274.8787995195743
 30
0.0
 41
1.0
 10
70.18066000750278
 20
275.1228161977372
 30
0.0
 41
0.9999999508291538
 10
70.1708179052881
 20
275.3668391024414
 30
0.0
 41
1.0
  0
SPLINE
  5
10E
330
1F
100
AcDbEntity
  8
PREDEFINITO
100
AcDbSpline
210
0.0
220
0.0
230
1.0
 70
    12
 71
     2
 72
     6
 73
     3
 74
     0
 42
0.0000000001
 43
0.0000000001
 40
0.0
 40
0.0
 40
0.0
 40
0.9470089560411543
 40
0.9470089560411543
 40
0.9470089560411543
 10
70.1708179052881
 20
275.3668391024414
 30
0.0
 41
1.0
 10
70.15173623494361
 20
275.8399590001952
 30
0.0
 41
0.9999998142367161
 10
70.13323136980591
 20
276.3131018077156
 30
0.0
 41
1.0
  0
SPLINE
  5
10F
330
1F
100
AcDbEntity
  8
PREDEFINITO
100
AcDbSpline
210
0.0
220
0.0
230
1.0
 70
    12
 71
     2
 72
     6
 73
     3
 74
     0
 42
0.0000000001
 43
0.0000000001
 40
0.0
 40
0.0
 40
0.0
 40
0.0314448487432398
 40
0.0314448487432398
 40
0.0314448487432398
 10
70.13323136980591
 20
276.3131018077156
 30
0.0
 41
1.0
 10
70.13261697384542
 20
276.3288122230264
 30
0.0
 41
0.999999999800946
 10
70.13200298745738
 20
276.3445226548126
 30
0.0
 41
1.0
  0
SPLINE
  5
110
330
1F
100
AcDbEntity
  8
PREDEFINITO
100
AcDbSpline
210
0.0
220
0.0
230
1.0
 70
    12
 71
     2
 72
     6
 73
     3
 74
     0
 42
0.0000000001
 43
0.0000000001
 40
0.0
 40
0.0
 40
0.0
 40
0.9478185908314488
 40
0.9478185908314488
 40
0.9478185908314488
 10
70.13200298745738
 20
276.3445226548126
 30
0.0
 41
1.0
 10
70.11349943193223
 20
276.8180706362488
 30
0.0
 41
0.9999998281353418
 10
70.09555123918645
 20
277.2916399913853
 30
0.0
 41
1.0
  0
SPLINE
  5
111
330
1F
100
AcDbEntity
  8
PREDEFINITO
100
AcDbSpline
210
0.0
220
0.0
230
1.0
 70
    12
 71
     2
 72
     6
 73
     3
 74
     0
 42
0.0000000001
 43
0.0000000001
 40
0.0
 40
0.0
 40
0.0
 40
0.0303415175587482
 40
0.0303415175587482
 40
0.0303415175587482
 10
70.09555123918645
 20
277.2916399913853
 30
0.0
 41
1.0
 10
70.09497749896082
 20
277.3067998971795
 30
0.0
 41
0.9999999996728747
 10
70.09440454572666
 20
277.3219598327377
 30
0.0
 41
1.0
  0
SPLINE
  5
112
330
1F
100
AcDbEntity
  8
PREDEFINITO
100
AcDbSpline
210
0.0
220
0.0
230
1.0
 70
    12
 71
     2
 72
     6
 73
     3
 74
     0
 42
0.0000000001
 43
0.0000000001
 40
0.0
 40
0.0
 40
0.0
 40
1.436950391285696
 40
1.436950391285696
 40
1.436950391285696
 10
70.09440454572666
 20
277.3219598327377
 30
0.0
 41
1.0
 10
70.06710881578205
 20
278.0399172441668
 30
0.0
 41
0.9999981188041203
 10
70.0425985027351
 20
278.7579751429839
 30
0.0
 41
1.0
  0
SPLINE
  5
113
330
1F
100
AcDbEntity
  8
PREDEFINITO
100
AcDbSpline
210
0.0
220
0.0
230
1.0
 70
    12
 71
     2
 72
     6
 73
     3
 74
     0
 42
0.0000000001
 43
0.0000000001
 40
0.0
 40
0.0
 40
0.0
 40
0.0286536603441714
 40
0.0286536603441714
 40
0.0286536603441714
 10
70.0425985027351
 20
278.7579751429839
 30
0.0
 41
1.0
 10
70.04211253321773
 20
278.7722937286837
 30
0.0
 41
0.9999999987871626
 10
70.04162799313269
 20
278.7866123628268
 30
0.0
 41
1.0
  0
SPLINE
  5
114
330
1F
100
AcDbEntity
  8
PREDEFINITO
100
AcDbSpline
210
0.0
220
0.0
230
1.0
 70
    12
 71
     2
 72
     6
 73
     3
 74
     0
 42
0.0000000001
 43
0.0000000001
 40
0.0
 40
0.0
 40
0.0
 40
0.9686445800414014
 40
0.9686445800414014
 40
0.9686445800414014
 10
70.04162799313269
 20
278.7866123628268
 30
0.0
 41
1.0
 10
70.02525785082939
 20
279.2706583664329
 30
0.0
 41
0.9999986040465388
 10
70.01050535368265
 20
279.7547563719998
 30
0.0
 41
0.9999999999999878
  0
SPLINE
  5
115
330
1F
100
AcDbEntity
  8
PREDEFINITO
100
AcDbSpline
210
0.0
220
0.0
230
1.0
 70
    12
 71
     2
 72
     6
 73
     3
 74
     0
 42
0.0000000001
 43
0.0000000001
 40
0.0
 40
0.0
 40
0.0
 40
0.1775878722724464
 40
0.1775878722724464
 40
0.1775878722724464
 10
70.01050535368265
 20
279.7547563719998
 30
0.0
 41
0.9999999999999993
 10
70.00779229026833
 20
279.8435088468532
 30
0.0
 41
0.9999999865627806
 10
70.00510835112627
 20
279.9322622072198
 30
0.0
 41
0.9999999999999993
  0
SPLINE
  5
116
330
1F
100
AcDbEntity
  8
PREDEFINITO
100
AcDbSpline
210
0.0
220
0.0
230
1.0
 70
    12
 71
     2
 72
     6
 73
     3
 74
     0
 42
0.0000000001
 43
0.0000000001
 40
0.0
 40
0.0
 40
0.0
 40
0.0860700969893716
 40
0.0860700969893716
 40
0.0860700969893716
 10
70.00510835112627
 20
279.9322622072199
 30
0.0
 41
1.0
 10
70.00380693095133
 20
279.9752775711357
 30
0.0
 41
0.9999999996091508
 10
70.002507905663
 20
280.0182930074417
 30
0.0
 41
1.0
  0
SPLINE
  5
117
330
1F
100
AcDbEntity
  8
PREDEFINITO
100
AcDbSpline
210
0.0
220
0.0
230
1.0
 70
    24
 71
     2
 72
     6
 73
     3
 74
     0
 42
0.0000000001
 43
0.0000000001
 40
-1.0
 40
-1.0
 40
-1.0
 40
0.0
 40
0.0
 40
0.0
 10
70.002507905663
 20
280.0182930074417
 30
0.0
 10
69.99303332080095
 20
280.1440229299409
 30
0.0
 10
69.98355873593889
 20
280.2697528524401
 30
0.0
  0
SPLINE
  5
118
330
1F
100
AcDbEntity
  8
PREDEFINITO
100
AcDbSpline
210
0.0
220
0.0
230
1.0
 70
    12
 71
     2
 72
     6
 73
     3
 74
     0
 42
0.0000000001
 43
0.0000000001
 40
0.0
 40
0.0
 40
0.0
 40
2.717573147399782
 40
2.717573147399782
 40
2.717573147399782
 10
69.98355873593889
 20
280.2697528524401
 30
0.0
 41
1.0
 10
69.8929597754612
 20
281.6255484253595
 30
0.0
 41
0.9999639075019667
 10
69.82541100432854
 20
282.9826877781165
 30
0.0
 41
1.0
  0
SPLINE
  5
119
330
1F
100
AcDbEntity
  8
PREDEFINITO
100
AcDbSpline
210
0.0
220
0.0
230
1.0
 70
    12
 71
     3
 72
    10
 73
     6
 74
     0
 42
0.0000000001
 43
0.0000000001
 40
37.09761551410811
 40
37.09761551410811
 40
37.09761551410811
 40
37.09761551410811
 40
37.12048114088289
 40
37.91343942454239
 40
38.55170501324888
 40
38.55170501324888
 40
38.55170501324888
 40
38.55170501324888
 10
69.82541100432854
 20
282.9826877781165
 30
0.0
 41
1.0
 10
69.82387197266208
 20
283.01272242934
 30
0.0
 41
1.0
 10
69.76942838526615
 20
284.083978605189
 30
0.0
 41
1.0
 10
69.70103551318678
 20
285.971328491045
 30
0.0
 41
1.0
 10
70.13436856310125
 20
287.403344316701
 30
0.0
 41
1.0
 10
70.4537819746124
 20
287.6977426220502
 30
0.0
 41
1.0
  0
SPLINE
  5
11A
330
1F
100
AcDbEntity
  8
PREDEFINITO
100
AcDbSpline
210
0.0
220
0.0
230
1.0
 70
    12
 71
     2
 72
     6
 73
     3
 74
     0
 42
0.0000000001
 43
0.0000000001
 40
0.0
 40
0.0
 40
0.0
 40
0.1550937045740043
 40
0.1550937045740043
 40
0.1550937045740043
 10
70.4537819746124
 20
287.6977426220502
 30
0.0
 41
1.0
 10
70.51076573555436
 20
287.7507218011348
 30
0.0
 41
0.9949906798222912
 10
70.58113242214256
 20
287.7937101728253
 30
0.0
 41
1.0
  0
SPLINE
  5
11B
330
1F
100
AcDbEntity
  8
PREDEFINITO
100
AcDbSpline
210
0.0
220
0.0
230
1.0
 70
    12
 71
     2
 72
     6
 73
     3
 74
     0
 42
0.0000000001
 43
0.0000000001
 40
0.0
 40
0.0
 40
0.0
 40
0.1491450478146914
 40
0.1491450478146914
 40
0.1491450478146914
 10
70.58113242214256
 20
287.7937101728253
 30
0.0
 41
1.0
 10
70.6482199715243
 20
287.8376597517419
 30
0.0
 41
0.9806449825739115
 10
70.72245553253674
 20
287.8517223070522
 30
0.0
 41
1.0
  0
SPLINE
  5
11C
330
1F
100
AcDbEntity
  8
PREDEFINITO
100
AcDbSpline
210
0.0
220
0.0
230
1.0
 70
    12
 71
     2
 72
     6
 73
     3
 74
     0
 42
0.0000000001
 43
0.0000000001
 40
0.0
 40
0.0
 40
0.0
 40
0.041398081309083
 40
0.041398081309083
 40
0.041398081309083
 10
70.72245553253676
 20
287.8517223070522
 30
0.0
 41
0.9999999166609851
 10
70.7424213973465
 20
287.8572085155578
 30
0.0
 41
0.9994058010725866
 10
70.76270445188325
 20
287.8613711519645
 30
0.0
 41
1.0
  0
SPLINE
  5
11D
330
1F
100
AcDbEntity
  8
LINEE VISIBILI 2D
100
AcDbSpline
210
0.0
220
0.0
230
1.0
 70
    12
 71
     2
 72
     6
 73
     3
 74
     0
 42
0.0000000001
 43
0.0000000001
 40
0.0
 40
0.0
 40
0.0
 40
5.173066042411938
 40
5.173066042411938
 40
5.173066042411938
 10
69.89198799047949
 20
182.8395660487859
 30
0.0
 41
1.0
 10
69.28485262433108
 20
185.3538651206159
 30
0.0
 41
0.9999820517661784
 10
68.70788576955476
 20
187.8752580847222
 30
0.0
 41
1.0
  0
SPLINE
  5
11E
330
1F
100
AcDbEntity
  8
LINEE VISIBILI 2D
100
AcDbSpline
210
0.0
220
0.0
230
1.0
 70
    12
 71
     2
 72
     6
 73
     3
 74
     0
 42
0.0000000001
 43
0.0000000001
 40
0.0
 40
0.0
 40
0.0
 40
0.9785678674697142
 40
0.9785678674697142
 40
0.9785678674697142
 10
68.70788576955476
 20
187.8752580847222
 30
0.0
 41
1.0
 10
68.60032852812228
 20
188.3525756130445
 30
0.0
 41
0.9999943192859151
 10
68.49599506435356
 20
188.8306081532058
 30
0.0
 41
1.0
  0
SPLINE
  5
11F
330
1F
100
AcDbEntity
  8
LINEE VISIBILI 2D
100
AcDbSpline
210
0.0
220
0.0
230
1.0
 70
    12
 71
     2
 72
     6
 73
     3
 74
     0
 42
0.0000000001
 43
0.0000000001
 40
0.0
 40
0.0
 40
0.0
 40
0.1193491796591378
 40
0.1193491796591378
 40
0.1193491796591378
 10
68.49599506435356
 20
188.8306081532058
 30
0.0
 41
1.0
 10
68.48327736652887
 20
188.8889118180774
 30
0.0
 41
0.9999998972114895
 10
68.47061046924051
 20
188.9472265406916
 30
0.0
 41
1.0
  0
SPLINE
  5
120
330
1F
100
AcDbEntity
  8
LINEE VISIBILI 2D
100
AcDbSpline
210
0.0
220
0.0
230
1.0
 70
    12
 71
     2
 72
     6
 73
     3
 74
     0
 42
0.0000000001
 43
0.0000000001
 40
0.0
 40
0.0
 40
0.0
 40
0.8596721168669382
 40
0.8596721168669382
 40
0.8596721168669382
 10
68.47061046924051
 20
188.9472265406916
 30
0.0
 41
1.0
 10
68.37934624803614
 20
189.3672639326525
 30
0.0
 41
0.9999937830894362
 10
68.29105423055003
 20
189.7879361213248
 30
0.0
 41
1.0
  0
SPLINE
  5
121
330
1F
100
AcDbEntity
  8
LINEE VISIBILI 2D
100
AcDbSpline
210
0.0
220
0.0
230
1.0
 70
    12
 71
     2
 72
     6
 73
     3
 74
     0
 42
0.0000000001
 43
0.0000000001
 40
0.0
 40
0.0
 40
0.0
 40
0.1190684266332543
 40
0.1190684266332543
 40
0.1190684266332543
 10
68.29105423055003
 20
189.7879361213248
 30
0.0
 41
1.0
 10
68.27883604888255
 20
189.8462030898337
 30
0.0
 41
0.9999998644385926
 10
68.26666481470147
 20
189.9044798802839
 30
0.0
 41
1.0
  0
SPLINE
  5
122
330
1F
100
AcDbEntity
  8
LINEE VISIBILI 2D
100
AcDbSpline
210
0.0
220
0.0
230
1.0
 70
    12
 71
     2
 72
     6
 73
     3
 74
     0
 42
0.0000000001
 43
0.0000000001
 40
0.0
 40
0.0
 40
0.0
 40
0.8604562562175675
 40
0.8604562562175675
 40
0.8604562562175675
 10
68.26666481470147
 20
189.9044798802839
 30
0.0
 41
1.0
 10
68.17872308734792
 20
190.3256265021118
 30
0.0
 41
0.999991965322434
 10
68.09417005191956
 20
190.7474665289372
 30
0.0
 41
0.9999999999999509
  0
SPLINE
  5
123
330
1F
100
AcDbEntity
  8
LINEE VISIBILI 2D
100
AcDbSpline
210
0.0
220
0.0
230
1.0
 70
    12
 71
     2
 72
     6
 73
     3
 74
     0
 42
0.0000000001
 43
0.0000000001
 40
0.0
 40
0.0
 40
0.0
 40
0.1176933845138813
 40
0.1176933845138813
 40
0.1176933845138813
 10
68.09417005191956
 20
190.7474665289372
 30
0.0
 41
0.9999999999999929
 10
68.08260944222286
 20
190.8051664947189
 30
0.0
 41
0.9999998325263082
 10
68.0711121070838
 20
190.8628791019049
 30
0.0
 41
0.9999999999999964
  0
SPLINE
  5
124
330
1F
100
AcDbEntity
  8
LINEE VISIBILI 2D
100
AcDbSpline
210
0.0
220
0.0
230
1.0
 70
    12
 71
     2
 72
     6
 73
     3
 74
     0
 42
0.0000000001
 43
0.0000000001
 40
0.0
 40
0.0
 40
0.0
 40
0.8620766916485298
 40
0.8620766916485298
 40
0.8620766916485298
 10
68.0711121070838
 20
190.8628791019049
 30
0.0
 41
0.9999999999999731
 10
67.98688937902249
 20
191.2856118738156
 30
0.0
 41
0.9999902743918095
 10
67.9063998444206
 20
191.7090713160844
 30
0.0
 41
1.0
  0
SPLINE
  5
125
330
1F
100
AcDbEntity
  8
LINEE VISIBILI 2D
100
AcDbSpline
210
0.0
220
0.0
230
1.0
 70
    12
 71
     2
 72
     6
 73
     3
 74
     0
 42
0.0000000001
 43
0.0000000001
 40
0.0
 40
0.0
 40
0.0
 40
0.1155390662272601
 40
0.1155390662272601
 40
0.1155390662272601
 10
67.9063998444206
 20
191.7090713160844
 30
0.0
 41
1.0
 10
67.8956155908033
 20
191.7658253438825
 30
0.0
 41
0.9999998115669987
 10
67.88490104933724
 20
191.8225925737846
 30
0.0
 41
0.9999999999999998
  0
SPLINE
  5
126
330
1F
100
AcDbEntity
  8
LINEE VISIBILI 2D
100
AcDbSpline
210
0.0
220
0.0
230
1.0
 70
    12
 71
     2
 72
     6
 73
     3
 74
     0
 42
0.0000000001
 43
0.0000000001
 40
0.0
 40
0.0
 40
0.0
 40
0.8632654460986734
 40
0.8632654460986734
 40
0.8632654460986734
 10
67.88490104933724
 20
191.8225925737846
 30
0.0
 41
0.9999999999999978
 10
67.80483147489585
 20
192.2467369047552
 30
0.0
 41
0.9999889566855574
 10
67.72875131148115
 20
192.6716149566491
 30
0.0
 41
0.9999999999999631
  0
SPLINE
  5
127
330
1F
100
AcDbEntity
  8
LINEE VISIBILI 2D
100
AcDbSpline
210
0.0
220
0.0
230
1.0
 70
    12
 71
     2
 72
     6
 73
     3
 74
     0
 42
0.0000000001
 43
0.0000000001
 40
0.0
 40
0.0
 40
0.0
 40
0.1149546077940921
 40
0.1149546077940921
 40
0.1149546077940921
 10
67.72875131148115
 20
192.671614956649
 30
0.0
 41
0.9999999999999947
 10
67.7186213907787
 20
192.7281925669756
 30
0.0
 41
0.9999997947703059
 10
67.70856565020566
 20
192.7847834094934
 30
0.0
 41
1.0
  0
SPLINE
  5
128
330
1F
100
AcDbEntity
  8
LINEE VISIBILI 2D
100
AcDbSpline
210
0.0
220
0.0
230
1.0
 70
    12
 71
     2
 72
     6
 73
     3
 74
     0
 42
0.0000000001
 43
0.0000000001
 40
0.0
 40
0.0
 40
0.0
 40
0.8634038184754722
 40
0.8634038184754722
 40
0.8634038184754722
 10
67.70856565020566
 20
192.7847834094934
 30
0.0
 41
1.0
 10
67.63301909428424
 20
193.2098272671493
 30
0.0
 41
0.9999878219706207
 10
67.56166431714779
 20
193.6355948777086
 30
0.0
 41
0.9999999999998557
  0
SPLINE
  5
129
330
1F
100
AcDbEntity
  8
LINEE VISIBILI 2D
100
AcDbSpline
210
0.0
220
0.0
230
1.0
 70
    12
 71
     2
 72
     6
 73
     3
 74
     0
 42
0.0000000001
 43
0.0000000001
 40
0.0
 40
0.0
 40
0.0
 40
0.1142132660638731
 40
0.1142132660638731
 40
0.1142132660638731
 10
67.56166431714779
 20
193.6355948777086
 30
0.0
 41
0.9999999999999798
 10
67.5522206094089
 20
193.6919152503785
 30
0.0
 41
0.9999997778449571
 10
67.54286580677265
 20
193.7482504585583
 30
0.0
 41
0.9999999999999829
  0
SPLINE
  5
12A
330
1F
100
AcDbEntity
  8
LINEE VISIBILI 2D
100
AcDbSpline
210
0.0
220
0.0
230
1.0
 70
    12
 71
     2
 72
     6
 73
     3
 74
     0
 42
0.0000000001
 43
0.0000000001
 40
0.0
 40
0.0
 40
0.0
 40
1.107444179434994
 40
1.107444179434994
 40
1.107444179434994
 10
67.54286580677265
 20
193.7482504585583
 30
0.0
 41
0.9999999999998705
 10
67.45214201137009
 20
194.2944969594901
 30
0.0
 41
0.9999806854702938
 10
67.36820759675683
 20
194.8418278145595
 30
0.0
 41
1.0
  0
SPLINE
  5
12B
330
1F
100
AcDbEntity
  8
LINEE VISIBILI 2D
100
AcDbSpline
210
0.0
220
0.0
230
1.0
 70
    12
 71
     2
 72
     6
 73
     3
 74
     0
 42
0.0000000001
 43
0.0000000001
 40
0.0
 40
0.0
 40
0.0
 40
0.1130954506973432
 40
0.1130954506973432
 40
0.1130954506973432
 10
67.36820759675683
 20
194.8418278145595
 30
0.0
 41
1.0
 10
67.35963403319475
 20
194.8977218255165
 30
0.0
 41
0.999999813273547
 10
67.35112695326467
 20
194.9536259902042
 30
0.0
 41
0.9999999999999998
  0
SPLINE
  5
12C
330
1F
100
AcDbEntity
  8
LINEE VISIBILI 2D
100
AcDbSpline
210
0.0
220
0.0
230
1.0
 70
    12
 71
     2
 72
     6
 73
     3
 74
     0
 42
0.0000000001
 43
0.0000000001
 40
0.0
 40
0.0
 40
0.0
 40
3.157152416611824
 40
3.157152416611824
 40
3.157152416611824
 10
67.35112695326467
 20
194.9536259902042
 30
0.0
 41
0.9999999999998657
 10
67.11548850441403
 20
196.5146209173875
 30
0.0
 41
0.9999013533383817
 10
66.92379748830835
 20
198.081619715528
 30
0.0
 41
1.0
  0
SPLINE
  5
12D
330
1F
100
AcDbEntity
  8
LINEE VISIBILI 2D
100
AcDbSpline
210
0.0
220
0.0
230
1.0
 70
    12
 71
     2
 72
     6
 73
     3
 74
     0
 42
0.0000000001
 43
0.0000000001
 40
0.0
 40
0.0
 40
0.0
 40
0.9657024171596222
 40
0.9657024171596222
 40
0.9657024171596222
 10
66.92379748830835
 20
198.081619715528
 30
0.0
 41
1.0
 10
66.86432953075452
 20
198.5607952488673
 30
0.0
 41
0.9999989088303842
 10
66.80627780746892
 20
199.0401444197351
 30
0.0
 41
1.0
  0
SPLINE
  5
12E
330
1F
100
AcDbEntity
  8
LINEE VISIBILI 2D
100
AcDbSpline
210
0.0
220
0.0
230
1.0
 70
    12
 71
     2
 72
     6
 73
     3
 74
     0
 42
0.0000000001
 43
0.0000000001
 40
0.0
 40
0.0
 40
0.0
 40
2.306309743961991
 40
2.306309743961991
 40
2.306309743961991
 10
66.80627780746892
 20
199.0401444197351
 30
0.0
 41
1.0
 10
66.6683136800004
 20
200.1850169460862
 30
0.0
 41
0.9999994161979955
 10
66.5278664295763
 20
201.3295875029876
 30
0.0
 41
0.9999999999999982
  0
SPLINE
  5
12F
330
1F
100
AcDbEntity
  8
LINEE VISIBILI 2D
100
AcDbSpline
210
0.0
220
0.0
230
1.0
 70
    12
 71
     2
 72
     6
 73
     3
 74
     0
 42
0.0000000001
 43
0.0000000001
 40
0.0
 40
0.0
 40
0.0
 40
0.2454252104686941
 40
0.2454252104686941
 40
0.2454252104686941
 10
66.5278664295763
 20
201.3295875029876
 30
0.0
 41
0.9999999999999993
 10
66.51283325855579
 20
201.4513757949079
 30
0.0
 41
0.9999999514461066
 10
66.49772695706899
 20
201.5731550375043
 30
0.0
 41
1.0
  0
SPLINE
  5
130
330
1F
100
AcDbEntity
  8
LINEE VISIBILI 2D
100
AcDbSpline
210
0.0
220
0.0
230
1.0
 70
    24
 71
     2
 72
     6
 73
     3
 74
     0
 42
0.0000000001
 43
0.0000000001
 40
0.0
 40
0.0
 40
0.0
 40
0.7976335968938457
 40
0.7976335968938457
 40
0.7976335968938457
 10
74.16899912506348
 20
127.7244108704231
 30
0.0
 10
73.77018257418567
 20
127.7244108773348
 30
0.0
 10
73.37136602330784
 20
127.7244108842465
 30
0.0
  0
SPLINE
  5
131
330
1F
100
AcDbEntity
  8
LINEE VISIBILI 2D
100
AcDbSpline
210
0.0
220
0.0
230
1.0
 70
    12
 71
     2
 72
     6
 73
     3
 74
     0
 42
0.0000000001
 43
0.0000000001
 40
0.0
 40
0.0
 40
0.0
 40
0.1053252443622015
 40
0.1053252443622015
 40
0.1053252443622015
 10
73.37136602330784
 20
127.7244108842465
 30
0.0
 41
0.99999955931192
 10
73.31703087877193
 20
127.7260743806908
 30
0.0
 41
0.9537917652575769
 10
73.27062908947336
 20
127.7605824757462
 30
0.0
 41
1.0
  0
SPLINE
  5
132
330
1F
100
AcDbEntity
  8
LINEE VISIBILI 2D
100
AcDbSpline
210
0.0
220
0.0
230
1.0
 70
     8
 71
     3
 72
    19
 73
    15
 74
     0
 42
0.0000000001
 43
0.0000000001
 40
0.0
 40
0.0
 40
0.0
 40
0.0
 40
0.2187797941546502
 40
0.5251247713145343
 40
1.336670400074604
 40
3.551713836955734
 40
6.418620102287533
 40
10.9685748928426
 40
18.50271182874588
 40
25.87395258968753
 40
36.39766619284255
 40
43.43270935639941
 40
51.61025055180639
 40
62.93785308163758
 40
62.93785308163758
 40
62.93785308163758
 40
62.93785308163758
 10
73.27062908947336
 20
127.7605824757462
 30
0.0
 10
73.20985369084853
 20
127.8072265490706
 30
0.0
 10
73.1030321084346
 20
127.9491337089709
 30
0.0
 10
72.91982716531317
 20
128.3557042419319
 30
0.0
 10
72.60590905717466
 20
129.4247974122372
 30
0.0
 10
72.32744577278807
 20
131.3737488642542
 30
0.0
 10
72.19365747598884
 20
134.5829259757704
 30
0.0
 10
72.1732330720313
 20
139.5667436808866
 30
0.0
 10
72.2565846516125
 20
146.0514521026192
 30
0.0
 10
72.39781880996851
 20
154.5265937209912
 30
0.0
 10
72.50928126821002
 20
162.8358723152165
 30
0.0
 10
72.66152584362153
 20
171.4133512355723
 30
0.0
 10
72.92882227689873
 20
180.2562759363861
 30
0.0
 10
73.22681336172687
 20
186.7513379723383
 30
0.0
 10
73.3907937289759
 20
190.5296596152519
 30
0.0
  0
SPLINE
  5
133
330
1F
100
AcDbEntity
  8
LINEE VISIBILI 2D
100
AcDbSpline
210
0.0
220
0.0
230
1.0
 70
     8
 71
     3
 72
    28
 73
    24
 74
     0
 42
0.0000000001
 43
0.0000000001
 40
0.0
 40
0.0
 40
0.0
 40
0.0
 40
5.37515818574095
 40
13.08008614189436
 40
16.02991399769569
 40
23.94800604893421
 40
27.54690597887744
 40
31.45777320432918
 40
52.94884541263159
 40
65.5091217613777
 40
69.93835399265755
 40
74.85370655997588
 40
80.26154665316933
 40
83.56624303499788
 40
87.54077501873141
 40
92.62462749553637
 40
94.12887895377058
 40
95.472043202506
 40
96.7576930842735
 40
97.7575660184588
 40
98.46787109184449
 40
99.15587956393124
 40
99.71618424757675
 40
99.71618424757675
 40
99.71618424757675
 40
99.71618424757675
 10
73.3907937289759
 20
190.5296596152519
 30
0.0
 10
73.46850260166168
 20
192.3257360367693
 30
0.0
 10
73.66012268862731
 20
196.681588126029
 30
0.0
 10
73.84420860738703
 20
202.0217984319888
 30
0.0
 10
74.11810825337463
 20
208.2066461493812
 30
0.0
 10
74.4265768742919
 20
213.0201412304161
 30
0.0
 10
74.97806191462938
 20
218.1339951365348
 30
0.0
 10
76.32408803936507
 20
227.7065683004807
 30
0.0
 10
78.96649738462816
 20
240.1042587807013
 30
0.0
 10
79.81799338218
 20
252.9404569108817
 30
0.0
 10
79.34873198185217
 20
260.2355556561923
 30
0.0
 10
78.62032608154625
 20
265.1018114271807
 30
0.0
 10
77.65653417211138
 20
269.5429602292362
 30
0.0
 10
76.63079562862819
 20
273.6454910759395
 30
0.0
 10
75.58100279555946
 20
277.63084407233
 30
0.0
 10
74.60579076264547
 20
281.0144070201852
 30
0.0
 10
73.7765197069248
 20
283.5252964579405
 30
0.0
 10
73.34310890427096
 20
284.8327567855525
 30
0.0
 10
72.91409055573962
 20
285.9645530673029
 30
0.0
 10
72.4438132585848
 20
286.8504907296679
 30
0.0
 10
71.91974390058341
 20
287.4599947630567
 30
0.0
 10
71.37144408511676
 20
287.8328821478169
 30
0.0
 10
70.94723517525364
 20
287.9019781250989
 30
0.0
 10
70.76272878827834
 20
287.8612081356333
 30
0.0
  0
SPLINE
  5
134
330
1F
100
AcDbEntity
  8
LINEE VISIBILI 2D
100
AcDbSpline
210
0.0
220
0.0
230
1.0
 70
    12
 71
     2
 72
     6
 73
     3
 74
     0
 42
0.0000000001
 43
0.0000000001
 40
0.0191080320471299
 40
0.0191080320471299
 40
0.0191080320471299
 40
0.4779876814359248
 40
0.4779876814359248
 40
0.4779876814359248
 10
72.13339147864752
 20
170.5325015360885
 30
0.0
 41
0.9999995784961457
 10
72.11031319256986
 20
170.7607785344449
 30
0.0
 41
0.999994728037678
 10
72.08578158181581
 20
170.9889039286782
 30
0.0
 41
0.9999999999999922
  0
SPLINE
  5
135
330
1F
100
AcDbEntity
  8
LINEE VISIBILI 2D
100
AcDbSpline
210
0.0
220
0.0
230
1.0
 70
    12
 71
     2
 72
     6
 73
     3
 74
     0
 42
0.0000000001
 43
0.0000000001
 40
0.0
 40
0.0
 40
0.0
 40
0.3957918201062026
 40
0.3957918201062026
 40
0.3957918201062026
 10
72.08578158181581
 20
170.9889039286782
 30
0.0
 41
0.9999999999999936
 10
72.06462328444748
 20
171.1856659961359
 30
0.0
 41
0.9999962926270604
 10
72.04239515802374
 20
171.3823100786223
 30
0.0
 41
1.0
  0
SPLINE
  5
136
330
1F
100
AcDbEntity
  8
LINEE VISIBILI 2D
100
AcDbSpline
210
0.0
220
0.0
230
1.0
 70
    12
 71
     2
 72
     6
 73
     3
 74
     0
 42
0.0000000001
 43
0.0000000001
 40
0.0
 40
0.0
 40
0.0
 40
0.9656292723963066
 40
0.9656292723963066
 40
0.9656292723963066
 10
72.04239515802374
 20
171.3823100786223
 30
0.0
 41
1.0
 10
71.98816197785125
 20
171.8620762020654
 30
0.0
 41
0.9999781283531497
 10
71.92758715551133
 20
172.3410829471364
 30
0.0
 41
0.9999999999999818
  0
SPLINE
  5
137
330
1F
100
AcDbEntity
  8
LINEE VISIBILI 2D
100
AcDbSpline
210
0.0
220
0.0
230
1.0
 70
    12
 71
     2
 72
     6
 73
     3
 74
     0
 42
0.0000000001
 43
0.0000000001
 40
0.0
 40
0.0
 40
0.0
 40
0.0858712780462635
 40
0.0858712780462635
 40
0.0858712780462635
 10
71.92758715551133
 20
172.3410829471364
 30
0.0
 41
0.9999999999999984
 10
71.92220012895494
 20
172.3836793020552
 30
0.0
 41
0.9999998265502006
 10
71.91676350438163
 20
172.4262693560474
 30
0.0
 41
1.0
  0
SPLINE
  5
138
330
1F
100
AcDbEntity
  8
LINEE VISIBILI 2D
100
AcDbSpline
210
0.0
220
0.0
230
1.0
 70
    12
 71
     2
 72
     6
 73
     3
 74
     0
 42
0.0000000001
 43
0.0000000001
 40
0.0
 40
0.0
 40
0.0
 40
0.9716461743095427
 40
0.9716461743095427
 40
0.9716461743095427
 10
71.91676350438163
 20
172.4262693560474
 30
0.0
 41
1.0
 10
71.85525067426795
 20
172.9081898074868
 30
0.0
 41
0.9999775127307665
 10
71.78727935639574
 20
173.3892418304947
 30
0.0
 41
0.999999999999996
  0
SPLINE
  5
139
330
1F
100
AcDbEntity
  8
LINEE VISIBILI 2D
100
AcDbSpline
210
0.0
220
0.0
230
1.0
 70
    12
 71
     2
 72
     6
 73
     3
 74
     0
 42
0.0000000001
 43
0.0000000001
 40
0.0
 40
0.0
 40
0.0
 40
0.4616531704640555
 40
0.4616531704640555
 40
0.4616531704640555
 10
71.78727935639574
 20
173.3892418304947
 30
0.0
 41
0.999999999999998
 10
71.75498183198145
 20
173.617798504763
 30
0.0
 41
0.9999947776348285
 10
71.72120872104162
 20
173.8461418035864
 30
0.0
 41
1.0
  0
SPLINE
  5
13A
330
1F
100
AcDbEntity
  8
LINEE VISIBILI 2D
100
AcDbSpline
210
0.0
220
0.0
230
1.0
 70
    12
 71
     2
 72
     6
 73
     3
 74
     0
 42
0.0000000001
 43
0.0000000001
 40
0.0
 40
0.0
 40
0.0
 40
1.098612064088602
 40
1.098612064088602
 40
1.098612064088602
 10
71.72120872104162
 20
173.8461418035864
 30
0.0
 41
1.0
 10
71.6408506233112
 20
174.3895495846338
 30
0.0
 41
0.9999693799074082
 10
71.55199955934415
 20
174.9316334603155
 30
0.0
 41
1.0
  0
SPLINE
  5
13B
330
1F
100
AcDbEntity
  8
LINEE VISIBILI 2D
100
AcDbSpline
210
0.0
220
0.0
230
1.0
 70
    12
 71
     2
 72
     6
 73
     3
 74
     0
 42
0.0000000001
 43
0.0000000001
 40
0.0
 40
0.0
 40
0.0
 40
1.038623451613266
 40
1.038623451613266
 40
1.038623451613266
 10
71.55199955934415
 20
174.9316334603155
 30
0.0
 41
1.0
 10
71.46798798675371
 20
175.4441146078582
 30
0.0
 41
0.9999716371763534
 10
71.3762631324601
 20
175.9552715494072
 30
0.0
 41
1.0
  0
SPLINE
  5
13C
330
1F
100
AcDbEntity
  8
LINEE VISIBILI 2D
100
AcDbSpline
210
0.0
220
0.0
230
1.0
 70
    12
 71
     2
 72
     6
 73
     3
 74
     0
 42
0.0000000001
 43
0.0000000001
 40
0.0
 40
0.0
 40
0.0
 40
0.0884587296548377
 40
0.0884587296548377
 40
0.0884587296548377
 10
71.3762631324601
 20
175.9552715494072
 30
0.0
 41
1.0
 10
71.36845498680427
 20
175.9988062489231
 30
0.0
 41
0.9999998162250979
 10
71.36059543359553
 20
176.0423316968362
 30
0.0
 41
1.0
  0
SPLINE
  5
13D
330
1F
100
AcDbEntity
  8
LINEE VISIBILI 2D
100
AcDbSpline
210
0.0
220
0.0
230
1.0
 70
    12
 71
     2
 72
     6
 73
     3
 74
     0
 42
0.0000000001
 43
0.0000000001
 40
0.0
 40
0.0
 40
0.0
 40
1.422518783353706
 40
1.422518783353706
 40
1.422518783353706
 10
71.36059543359553
 20
176.0423316968362
 30
0.0
 41
0.9999999999999882
 10
71.23400065783643
 20
176.7422533524029
 30
0.0
 41
0.9999605086283961
 10
71.09498502258417
 20
177.4398142560777
 30
0.0
 41
1.0
  0
SPLINE
  5
13E
330
1F
100
AcDbEntity
  8
LINEE VISIBILI 2D
100
AcDbSpline
210
0.0
220
0.0
230
1.0
 70
    24
 71
     2
 72
     6
 73
     3
 74
     0
 42
0.0000000001
 43
0.0000000001
 40
0.0
 40
0.0
 40
0.0
 40
0.1044545901524676
 40
0.1044545901524676
 40
0.1044545901524676
 10
75.59846983379066
 20
119.8968304396458
 30
0.0
 10
75.6244450016794
 20
119.8515206062304
 30
0.0
 10
75.65042016956815
 20
119.806210772815
 30
0.0
  0
SPLINE
  5
13F
330
1F
100
AcDbEntity
  8
LINEE VISIBILI 2D
100
AcDbSpline
210
0.0
220
0.0
230
1.0
 70
    24
 71
     2
 72
     6
 73
     3
 74
     0
 42
0.0000000001
 43
0.0000000001
 40
0.0
 40
0.0
 40
0.0
 40
0.2316948931160994
 40
0.2316948931160994
 40
0.2316948931160994
 10
75.65042016956815
 20
119.806210772815
 30
0.0
 10
75.7662676161262
 20
119.806210772815
 30
0.0
 10
75.88211506268425
 20
119.806210772815
 30
0.0
  0
SPLINE
  5
140
330
1F
100
AcDbEntity
  8
LINEE VISIBILI 2D
100
AcDbSpline
210
0.0
220
0.0
230
1.0
 70
    24
 71
     2
 72
     6
 73
     3
 74
     0
 42
0.0000000001
 43
0.0000000001
 40
0.0
 40
0.0
 40
0.0
 40
0.0976970099907004
 40
0.0976970099907004
 40
0.0976970099907004
 10
75.63062683520918
 20
119.7743917969369
 30
0.0
 10
75.60633210121873
 20
119.8167703568536
 30
0.0
 10
75.58203736722825
 20
119.8591489167703
 30
0.0
  0
SPLINE
  5
141
330
1F
100
AcDbEntity
  8
LINEE VISIBILI 2D
100
AcDbSpline
210
0.0
220
0.0
230
1.0
 70
    24
 71
     2
 72
     6
 73
     3
 74
     0
 42
0.0000000001
 43
0.0000000001
 40
0.0
 40
0.0
 40
0.0
 40
0.0411086745534385
 40
0.0411086745534385
 40
0.0411086745534385
 10
75.58203736722825
 20
119.8591489167703
 30
0.0
 10
75.59025360050946
 20
119.8779896782081
 30
0.0
 10
75.59846983379066
 20
119.8968304396458
 30
0.0
  0
SPLINE
  5
142
330
1F
100
AcDbEntity
  8
LINEE VISIBILI 2D
100
AcDbSpline
210
0.0
220
0.0
230
1.0
 70
    24
 71
     2
 72
     6
 73
     3
 74
     0
 42
0.0000000001
 43
0.0000000001
 40
-0.5196152499607649
 40
-0.5196152499607649
 40
-0.5196152499607649
 40
0.0
 40
0.0
 40
0.0
 10
75.59846983379066
 20
119.8968304396458
 30
0.0
 10
75.85827745877104
 20
119.8968304396458
 30
0.0
 10
76.11808508375142
 20
119.8968304396458
 30
0.0
  0
SPLINE
  5
143
330
1F
100
AcDbEntity
  8
LINEE VISIBILI 2D
100
AcDbSpline
210
0.0
220
0.0
230
1.0
 70
    24
 71
     2
 72
     6
 73
     3
 74
     0
 42
0.0000000001
 43
0.0000000001
 40
-0.1044545901525416
 40
-0.1044545901525416
 40
-0.1044545901525416
 40
0.0
 40
0.0
 40
0.0
 10
76.11808508375142
 20
119.8968304396458
 30
0.0
 10
76.14406025164017
 20
119.8515206062304
 30
0.0
 10
76.17003541952892
 20
119.8062107728149
 30
0.0
  0
SPLINE
  5
144
330
1F
100
AcDbEntity
  8
LINEE VISIBILI 2D
100
AcDbSpline
210
0.0
220
0.0
230
1.0
 70
    24
 71
     2
 72
     6
 73
     3
 74
     0
 42
0.0000000001
 43
0.0000000001
 40
0.0
 40
0.0
 40
0.0
 40
0.0318189758781102
 40
0.0318189758781102
 40
0.0318189758781102
 10
76.40173031264501
 20
119.7743917969369
 30
0.0
 10
76.40173031264501
 20
119.790301284876
 30
0.0
 10
76.40173031264501
 20
119.806210772815
 30
0.0
  0
SPLINE
  5
145
330
1F
100
AcDbEntity
  8
LINEE VISIBILI 2D
100
AcDbSpline
210
0.0
220
0.0
230
1.0
 70
    24
 71
     2
 72
     6
 73
     3
 74
     0
 42
0.0000000001
 43
0.0000000001
 40
-0.5196152499607649
 40
-0.5196152499607649
 40
-0.5196152499607649
 40
0.0
 40
0.0
 40
0.0
 10
76.40173031264501
 20
119.806210772815
 30
0.0
 10
76.14192268766463
 20
119.806210772815
 30
0.0
 10
75.88211506268425
 20
119.806210772815
 30
0.0
  0
SPLINE
  5
146
330
1F
100
AcDbEntity
  8
LINEE VISIBILI 2D
100
AcDbSpline
210
0.0
220
0.0
230
1.0
 70
    24
 71
     2
 72
     6
 73
     3
 74
     0
 42
0.0000000001
 43
0.0000000001
 40
0.0
 40
0.0
 40
0.0
 40
0.0318189758780818
 40
0.0318189758780818
 40
0.0318189758780818
 10
75.88211506268425
 20
119.806210772815
 30
0.0
 10
75.88211506268425
 20
119.790301284876
 30
0.0
 10
75.88211506268425
 20
119.7743917969369
 30
0.0
  0
SPLINE
  5
147
330
1F
100
AcDbEntity
  8
LINEE VISIBILI 2D
100
AcDbSpline
210
0.0
220
0.0
230
1.0
 70
    24
 71
     2
 72
     6
 73
     3
 74
     0
 42
0.0000000001
 43
0.0000000001
 40
0.0
 40
0.0
 40
0.0
 40
0.0318189758781102
 40
0.0318189758781102
 40
0.0318189758781102
 10
66.2869222517599
 20
119.7743917969369
 30
0.0
 10
66.2869222517599
 20
119.790301284876
 30
0.0
 10
66.2869222517599
 20
119.806210772815
 30
0.0
  0
SPLINE
  5
148
330
1F
100
AcDbEntity
  8
LINEE VISIBILI 2D
100
AcDbSpline
210
0.0
220
0.0
230
1.0
 70
    24
 71
     2
 72
     6
 73
     3
 74
     0
 42
0.0000000001
 43
0.0000000001
 40
0.0
 40
0.0
 40
0.0
 40
0.4633897862321703
 40
0.4633897862321703
 40
0.4633897862321703
 10
66.2869222517599
 20
119.806210772815
 30
0.0
 10
66.51861714487599
 20
119.806210772815
 30
0.0
 10
66.75031203799207
 20
119.8062107728149
 30
0.0
  0
SPLINE
  5
149
330
1F
100
AcDbEntity
  8
LINEE VISIBILI 2D
100
AcDbSpline
210
0.0
220
0.0
230
1.0
 70
    24
 71
     2
 72
     6
 73
     3
 74
     0
 42
0.0000000001
 43
0.0000000001
 40
0.0
 40
0.0
 40
0.0
 40
0.1378668689936908
 40
0.1378668689936908
 40
0.1378668689936908
 10
66.75031203799207
 20
119.8062107728149
 30
0.0
 10
66.80226237376958
 20
119.8515206062304
 30
0.0
 10
66.85421270954708
 20
119.8968304396458
 30
0.0
  0
SPLINE
  5
14A
330
1F
100
AcDbEntity
  8
LINEE VISIBILI 2D
100
AcDbSpline
210
0.0
220
0.0
230
1.0
 70
    24
 71
     2
 72
     6
 73
     3
 74
     0
 42
0.0000000001
 43
0.0000000001
 40
0.0
 40
0.0
 40
0.0
 40
0.0500000000000271
 40
0.0500000000000271
 40
0.0500000000000271
 10
66.85421270954708
 20
119.8968304396458
 30
0.0
 10
66.87064516853674
 20
119.8779896782081
 30
0.0
 10
66.8870776275264
 20
119.8591489167703
 30
0.0
  0
SPLINE
  5
14B
330
1F
100
AcDbEntity
  8
LINEE VISIBILI 2D
100
AcDbSpline
210
0.0
220
0.0
230
1.0
 70
    24
 71
     2
 72
     6
 73
     3
 74
     0
 42
0.0000000001
 43
0.0000000001
 40
0.0
 40
0.0
 40
0.0
 40
0.1289477123841265
 40
0.1289477123841265
 40
0.1289477123841265
 10
66.8870776275264
 20
119.8591489167703
 30
0.0
 10
66.83848816578701
 20
119.8167703568591
 30
0.0
 10
66.78989870404763
 20
119.7743917969478
 30
0.0
  0
SPLINE
  5
14C
330
1F
100
AcDbEntity
  8
LINEE VISIBILI 2D
100
AcDbSpline
210
0.0
220
0.0
230
1.0
 70
    24
 71
     2
 72
     6
 73
     3
 74
     0
 42
0.0000000001
 43
0.0000000001
 40
-19.70336726655059
 40
-19.70336726655059
 40
-19.70336726655059
 40
0.0
 40
0.0
 40
0.0
 10
29.66183707879896
 20
99.77439226591181
 30
0.0
 10
29.57589281508671
 20
109.6257010111423
 30
0.0
 10
29.48994855137445
 20
119.4770097563728
 30
0.0
  0
SPLINE
  5
14D
330
1F
100
AcDbEntity
  8
LINEE VISIBILI 2D
100
AcDbSpline
210
0.0
220
0.0
230
1.0
 70
    12
 71
     2
 72
     6
 73
     3
 74
     0
 42
0.0000000001
 43
0.0000000001
 40
-0.4685429616552568
 40
-0.4685429616552568
 40
-0.4685429616552568
 40
0.0
 40
0.0
 40
0.0
 10
29.48994855137445
 20
119.4770097563728
 30
0.0
 41
1.0
 10
29.48717572841788
 20
119.774211449497
 30
0.0
 41
0.7106108919567746
 10
29.18990911782376
 20
119.774391796936
 30
0.0
 41
1.0
  0
SPLINE
  5
14E
330
1F
100
AcDbEntity
  8
LINEE VISIBILI 2D
100
AcDbSpline
210
0.0
220
0.0
230
1.0
 70
    24
 71
     2
 72
     6
 73
     3
 74
     0
 42
0.0000000001
 43
0.0000000001
 40
-5.451199672222714
 40
-5.451199672222714
 40
-5.451199672222714
 40
0.0
 40
0.0
 40
0.0
 10
29.18990911782376
 20
119.774391796936
 30
0.0
 10
26.46428326291495
 20
119.7743917969364
 30
0.0
 10
23.73865740800615
 20
119.7743917969368
 30
0.0
  0
SPLINE
  5
14F
330
1F
100
AcDbEntity
  8
LINEE VISIBILI 2D
100
AcDbSpline
210
0.0
220
0.0
230
1.0
 70
    28
 71
     2
 72
     8
 73
     5
 74
     0
 42
0.0000000001
 43
0.0000000001
 40
-685.030978304355
 40
-685.030978304355
 40
-685.030978304355
 40
-513.6723536628997
 40
-513.6723536628997
 40
-454.9033840302353
 40
-454.9033840302353
 40
-454.9033840302353
 10
23.73865740800615
 20
119.7743917969368
 30
0.0
 41
1.0
 10
14.29672345055655
 20
119.7743917969369
 30
0.0
 41
0.707106781186548
 10
8.84541951292617
 20
119.7743917969369
 30
0.0
 41
1.0
 10
7.375808609032037
 20
119.7743917969369
 30
0.0
 41
0.8995496566450797
 10
7.3847978229278
 20
119.774391796936
 30
0.0
 41
0.8679999967610732
  0
SPLINE
  5
150
330
1F
100
AcDbEntity
  8
LINEE VISIBILI 2D
100
AcDbSpline
210
0.0
220
0.0
230
1.0
 70
    12
 71
     2
 72
     6
 73
     3
 74
     0
 42
0.0000000001
 43
0.0000000001
 40
-0.4682546003152689
 40
-0.4682546003152689
 40
-0.4682546003152689
 40
0.0
 40
0.0
 40
0.0
 10
7.384797822927801
 20
119.774391796936
 30
0.0
 41
1.0
 10
7.088198779875868
 20
119.7735380337541
 30
0.0
 41
0.7122077309732251
 10
7.084758398645448
 20
119.4770097562845
 30
0.0
 41
1.0
  0
SPLINE
  5
151
330
1F
100
AcDbEntity
  8
LINEE VISIBILI 2D
100
AcDbSpline
210
0.0
220
0.0
230
1.0
 70
    24
 71
     2
 72
     6
 73
     3
 74
     0
 42
0.0000000001
 43
0.0000000001
 40
-19.70336726655062
 40
-19.70336726655062
 40
-19.70336726655062
 40
0.0
 40
0.0
 40
0.0
 10
7.084758398645448
 20
119.4770097562845
 30
0.0
 10
6.998840999902242
 20
109.6257007766107
 30
0.0
 10
6.912923601159036
 20
99.7743917969369
 30
0.0
  0
SPLINE
  5
152
330
1F
100
AcDbEntity
  8
LINEE VISIBILI 2D
100
AcDbSpline
210
0.0
220
0.0
230
1.0
 70
    28
 71
     2
 72
     8
 73
     5
 74
     0
 42
0.0000000001
 43
0.0000000001
 40
-240.4518357997092
 40
-240.4518357997092
 40
-240.4518357997092
 40
-178.940901060249
 40
-178.940901060249
 40
0.0
 40
0.0
 40
0.0
 10
6.912923601159036
 20
99.77439179693691
 30
0.0
 41
0.8678548172931496
 10
6.899558493966494
 20
99.77439179693692
 30
0.0
 41
0.8993179560328759
 10
8.436715536926485
 20
99.7743917969369
 30
0.0
 41
1.0
 10
14.12398486085721
 20
99.77439179693683
 30
0.0
 41
0.707106781186548
 10
23.97462279430648
 20
99.77439179693684
 30
0.0
 41
1.0
  0
SPLINE
  5
153
330
1F
100
AcDbEntity
  8
LINEE VISIBILI 2D
100
AcDbSpline
210
0.0
220
0.0
230
1.0
 70
    24
 71
     2
 72
     6
 73
     3
 74
     0
 42
0.0000000001
 43
0.0000000001
 40
0.0
 40
0.0
 40
0.0
 40
5.687160545285973
 40
5.687160545285973
 40
5.687160545285973
 10
23.97462279430648
 20
99.77439179693684
 30
0.0
 10
26.81822993655272
 20
99.77439203142433
 30
0.0
 10
29.66183707879896
 20
99.77439226591181
 30
0.0
  0
SPLINE
  5
154
330
1F
100
AcDbEntity
  8
LINEE VISIBILI 2D
100
AcDbSpline
210
0.0
220
0.0
230
1.0
 70
     8
 71
     3
 72
    17
 73
    13
 74
     0
 42
0.0000000001
 43
0.0000000001
 40
0.0204469127553182
 40
0.0204469127553182
 40
0.0204469127553182
 40
0.0204469127553182
 40
5.216690987216194
 40
9.397651145175208
 40
16.23887520014418
 40
22.8143305010731
 40
30.02827013449784
 40
40.66281324499674
 40
46.14224451380921
 40
53.32617493042573
 40
63.34830614637192
 40
76.88105691987312
 40
76.88105691987312
 40
76.88105691987312
 40
76.88105691987312
 10
80.33800343317654
 20
257.6828688685698
 30
0.0
 10
80.67060255693573
 20
255.9833982549672
 30
0.0
 10
81.25545612786028
 20
252.9116743920703
 30
0.0
 10
82.1626137451135
 20
247.5837972996641
 30
0.0
 10
82.90276782802444
 20
241.7583141493795
 30
0.0
 10
83.10571762588972
 20
234.8775182971043
 30
0.0
 10
82.68191635564439
 20
226.7418219983691
 30
0.0
 10
81.63120432170756
 20
219.0273200861137
 30
0.0
 10
79.95217779843648
 20
211.4412651888294
 30
0.0
 10
78.04009218954174
 20
204.1267059610776
 30
0.0
 10
75.53291940553166
 20
194.1868060072607
 30
0.0
 10
74.3532218681432
 20
186.4110958049649
 30
0.0
 10
73.85671903665852
 20
181.9291367643077
 30
0.0
  0
POLYLINE
  5
155
330
1F
100
AcDbEntity
  8
PREDEFINITO
100
AcDb2dPolyline
 66
     1
 10
0.0
 20
0.0
 30
0.0
  0
VERTEX
  5
157
330
155
100
AcDbEntity
  8
PREDEFINITO
100
AcDbVertex
100
AcDb2dVertex
 10
73.64397561140919
 20
28.38063071479736
 30
0.0
  0
VERTEX
  5
158
330
155
100
AcDbEntity
  8
PREDEFINITO
100
AcDbVertex
100
AcDb2dVertex
 10
73.4971635754711
 20
28.12756923875522
 30
0.0
  0
SEQEND
  5
156
330
155
100
AcDbEntity
  8
PREDEFINITO
  0
SPLINE
  5
159
330
1F
100
AcDbEntity
  8
PREDEFINITO
100
AcDbSpline
210
0.0
220
0.0
230
1.0
 70
     8
 71
     3
 72
    28
 73
    24
 74
     0
 42
0.0000000001
 43
0.0000000001
 40
0.0
 40
0.0
 40
0.0
 40
0.0
 40
2.378657711859689
 40
3.810367779494931
 40
5.31943011458561
 40
6.036549183562455
 40
6.455822811032328
 40
7.446930575817801
 40
9.0407010709173
 40
10.8144525569584
 40
12.59393417049822
 40
15.68389052723437
 40
16.7742304052239
 40
18.83353988269668
 40
19.89633843187601
 40
20.95910493203295
 40
23.42554188702719
 40
25.17799542332034
 40
26.95013456182037
 40
28.46074011849336
 40
29.87921739347317
 40
33.00392015733725
 40
36.87796347297876
 40
36.87796347297876
 40
36.87796347297876
 40
36.87796347297876
 10
73.4971635754711
 20
28.12756923875522
 30
0.0
 10
73.10274121978192
 20
27.43936777990087
 30
0.0
 10
72.57501533206394
 20
26.28026253176904
 30
0.0
 10
72.00564794936705
 20
24.60052742169444
 30
0.0
 10
71.66214811400677
 20
23.43024400953773
 30
0.0
 10
71.45940432227898
 20
22.5719829774915
 30
0.0
 10
71.38798690111557
 20
21.85870046423523
 30
0.0
 10
71.7902925216944
 20
20.90928213584864
 30
0.0
 10
72.6978498988097
 20
19.77404517970682
 30
0.0
 10
74.05249107913203
 20
18.69621794623356
 30
0.0
 10
76.00150688282017
 20
17.643244866235
 30
0.0
 10
77.84360010452838
 20
16.88914692324586
 30
0.0
 10
79.71459246111444
 20
15.98410498640095
 30
0.0
 10
80.90331572523584
 20
15.21669063340629
 30
0.0
 10
81.85485536275485
 20
14.18371926249616
 30
0.0
 10
82.60889329954828
 20
12.83887952548177
 30
0.0
 10
82.99604866285422
 20
11.09928139650795
 30
0.0
 10
83.0451624426813
 20
9.101923327887654
 30
0.0
 10
82.87484223689736
 20
7.426691820101968
 30
0.0
 10
82.48890605618952
 20
5.905726160330978
 30
0.0
 10
81.60142753569083
 20
4.070001600185133
 30
0.0
 10
79.62062552114203
 20
2.03232143109995
 30
0.0
 10
77.60248900336153
 20
0.8361678229651136
 30
0.0
 10
76.44521537256374
 20
0.2637298050753003
 30
0.0
  0
SPLINE
  5
15A
330
1F
100
AcDbEntity
  8
PREDEFINITO
100
AcDbSpline
210
0.0
220
0.0
230
1.0
 70
    24
 71
     2
 72
     6
 73
     3
 74
     0
 42
0.0000000001
 43
0.0000000001
 40
0.0
 40
0.0
 40
0.0
 40
1.0
 40
1.0
 40
1.0
 10
76.44521537256374
 20
0.2637298050753003
 30
0.0
 10
76.34434687604059
 20
0.2151186894444653
 30
0.0
 10
76.24347837951743
 20
0.1665075738136303
 30
0.0
  0
SPLINE
  5
15B
330
1F
100
AcDbEntity
  8
PREDEFINITO
100
AcDbSpline
210
0.0
220
0.0
230
1.0
 70
     8
 71
     3
 72
    12
 73
     8
 74
     0
 42
0.0000000001
 43
0.0000000001
 40
-7.590993988277246
 40
-7.590993988277246
 40
-7.590993988277246
 40
-7.590993988277246
 40
-6.461353004740267
 40
-4.944234806934462
 40
-1.567106126973698
 40
-0.8406880940330876
 40
0.0
 40
0.0
 40
0.0
 40
0.0
 10
71.63710010028039
 20
14.43489024170676
 30
0.0
 10
71.63606015902155
 20
14.05744339607887
 30
0.0
 10
71.70401494518602
 20
13.17867623691109
 30
0.0
 10
71.94813879575139
 20
11.18285738027677
 30
0.0
 10
72.38392146894118
 20
9.358226114940333
 30
0.0
 10
72.66895411192192
 20
7.73510927735987
 30
0.0
 10
72.75043567568648
 20
7.218963337412335
 30
0.0
 10
72.79382480653518
 20
6.942190120696035
 30
0.0
  0
SPLINE
  5
15C
330
1F
100
AcDbEntity
  8
PREDEFINITO
100
AcDbSpline
210
0.0
220
0.0
230
1.0
 70
    12
 71
     3
 72
    12
 73
     8
 74
     0
 42
0.0000000001
 43
0.0000000001
 40
11.69086543521505
 40
11.69086543521505
 40
11.69086543521505
 40
11.69086543521505
 40
14.17839935539533
 40
16.72993316333409
 40
19.00541859890144
 40
21.2809040344687
 40
22.24327121081692
 40
22.24327121081692
 40
22.24327121081692
 40
22.24327121081692
 10
72.79382480653518
 20
6.942190120696035
 30
0.0
 41
1.0
 10
72.90401733148306
 20
6.234667551172969
 30
0.0
 41
1.0
 10
73.20319981077078
 20
4.652429675033374
 30
0.0
 41
1.0
 10
73.67814533864816
 20
2.422457574004355
 30
0.0
 41
1.0
 10
74.01278760380868
 20
0.7092005196980438
 30
0.0
 41
1.0
 10
74.57483314434407
 20
0.1358071126433304
 30
0.0
 41
1.0
 10
75.19651681409071
 20
0.3238536849833023
 30
0.0
 41
1.0
 10
75.39875842345995
 20
0.4191019980951157
 30
0.0
 41
1.0
  0
SPLINE
  5
15D
330
1F
100
AcDbEntity
  8
PREDEFINITO
100
AcDbSpline
210
0.0
220
0.0
230
1.0
 70
    24
 71
     2
 72
     6
 73
     3
 74
     0
 42
0.0000000001
 43
0.0000000001
 40
0.0
 40
0.0
 40
0.0
 40
1.0
 40
1.0
 40
1.0
 10
75.39875842345995
 20
0.4191019980951157
 30
0.0
 10
75.42596207086243
 20
0.4322827114513845
 30
0.0
 10
75.45316571826491
 20
0.4454634248076533
 30
0.0
  0
SPLINE
  5
15E
330
1F
100
AcDbEntity
  8
PREDEFINITO
100
AcDbSpline
210
0.0
220
0.0
230
1.0
 70
     8
 71
     3
 72
    23
 73
    19
 74
     0
 42
0.0000000001
 43
0.0000000001
 40
0.0
 40
0.0
 40
0.0
 40
0.0
 40
1.010760322915508
 40
2.232738596874852
 40
4.867962457023113
 40
7.00823087293707
 40
8.767661341156927
 40
9.483273965665976
 40
10.17731392225428
 40
10.98435571451394
 40
13.09223334795855
 40
14.0830629237041
 40
15.66919302163718
 40
17.53758558514849
 40
18.49714110822342
 40
19.82330617752249
 40
21.15492643725434
 40
22.54768367172773
 40
22.54768367172773
 40
22.54768367172773
 40
22.54768367172773
 10
75.45316571826491
 20
0.4454634248076533
 30
0.0
 10
75.75428461274753
 20
0.5976728404173074
 30
0.0
 10
76.3664098981419
 20
1.0266675147531
 30
0.0
 10
77.5426359058667
 20
2.148265681233985
 30
0.0
 10
78.73648765122249
 20
3.769133883497111
 30
0.0
 10
79.59546012270125
 20
5.789888295723974
 30
0.0
 10
79.69513720460209
 20
7.362003980758838
 30
0.0
 10
79.27169083931079
 20
8.356805967004917
 30
0.0
 10
78.7921585770962
 20
8.921466779871706
 30
0.0
 10
77.86448071173356
 20
9.692129361577452
 30
0.0
 10
76.77768256429505
 20
10.41132335276746
 30
0.0
 10
75.59742034076015
 20
11.4387247703311
 30
0.0
 10
74.54772608059378
 20
12.48362600739852
 30
0.0
 10
73.57525898635525
 20
13.59042051490385
 30
0.0
 10
72.69730335567274
 20
14.66042155078799
 30
0.0
 10
72.0346091255715
 20
15.67079555463798
 30
0.0
 10
71.33855587715149
 20
16.82722410325539
 30
0.0
 10
70.91149044964219
 20
17.62910205870419
 30
0.0
 10
70.70863665417906
 20
18.046730191915
 30
0.0
  0
SPLINE
  5
15F
330
1F
100
AcDbEntity
  8
PREDEFINITO
100
AcDbSpline
210
0.0
220
0.0
230
1.0
 70
     8
 71
     3
 72
    20
 73
    16
 74
     0
 42
0.0000000001
 43
0.0000000001
 40
-22.69652980046747
 40
-22.69652980046747
 40
-22.69652980046747
 40
-22.69652980046747
 40
-20.90502161396922
 40
-19.2678260466638
 40
-18.50329144270904
 40
-17.46260214546222
 40
-16.77434790109918
 40
-15.98054256449622
 40
-14.22618442059146
 40
-12.01054868535916
 40
-9.32731936627275
 40
-8.005530758531798
 40
-5.882249633199642
 40
-2.684490745539979
 40
0.0
 40
0.0
 40
0.0
 40
0.0
 10
70.70863665417906
 20
18.046730191915
 30
0.0
 10
70.4446170828709
 20
18.58494683060854
 30
0.0
 10
70.03907818163769
 20
19.65066002501249
 30
0.0
 10
69.74341181449311
 20
21.03062123781963
 30
0.0
 10
69.79195267903283
 20
22.18120416162751
 30
0.0
 10
69.91178839064301
 20
23.00354100771689
 30
0.0
 10
70.11594158263162
 20
23.82232289472457
 30
0.0
 10
70.56594499704543
 20
24.80518596267599
 30
0.0
 10
71.32368461349621
 20
26.20074208384143
 30
0.0
 10
72.46804622039986
 20
28.10102528428876
 30
0.0
 10
73.57018803835344
 20
29.85726953034881
 30
0.0
 10
74.65289050356802
 20
31.58944526268936
 30
0.0
 10
75.8942622296464
 20
33.42473667717947
 30
0.0
 10
77.62957195053745
 20
35.46126993526804
 30
0.0
 10
79.13414274452367
 20
36.73254673759107
 30
0.0
 10
79.89807285813873
 20
37.20182628231328
 30
0.0
  0
SPLINE
  5
160
330
1F
100
AcDbEntity
  8
PREDEFINITO
100
AcDbSpline
210
0.0
220
0.0
230
1.0
 70
    12
 71
     2
 72
     6
 73
     3
 74
     0
 42
0.0000000001
 43
0.0000000001
 40
0.0
 40
0.0
 40
0.0
 40
0.1032176159540125
 40
0.1032176159540125
 40
0.1032176159540125
 10
79.89807285813873
 20
37.20182628231328
 30
0.0
 41
1.0
 10
79.94234117837216
 20
37.22836159313444
 30
0.0
 41
0.9999999598325287
 10
79.98868615203668
 20
37.25573670976279
 30
0.0
 41
1.0
  0
SPLINE
  5
161
330
1F
100
AcDbEntity
  8
PREDEFINITO
100
AcDbSpline
210
0.0
220
0.0
230
1.0
 70
    12
 71
     3
 72
    10
 73
     6
 74
     0
 42
0.0000000001
 43
0.0000000001
 40
-21.60169309445266
 40
-21.60169309445266
 40
-21.60169309445266
 40
-21.60169309445266
 40
-21.28090403627047
 40
-19.00541860496324
 40
-17.79925830578814
 40
-17.79925830578814
 40
-17.79925830578814
 40
-17.79925830578814
 10
79.98868615203668
 20
37.25573670976279
 30
0.0
 41
1.0
 10
80.07708109180467
 20
37.30788295579583
 30
0.0
 41
1.0
 10
80.77711619382409
 20
37.70206037261614
 30
0.0
 41
1.0
 10
81.79613688734514
 20
38.04231900436682
 30
0.0
 41
1.0
 10
82.5079280201439
 20
37.99682879995672
 30
0.0
 41
1.0
 10
82.71319894609766
 20
37.93370561402776
 30
0.0
 41
1.0
  0
SPLINE
  5
162
330
1F
100
AcDbEntity
  8
PREDEFINITO
100
AcDbSpline
210
0.0
220
0.0
230
1.0
 70
    24
 71
     2
 72
     6
 73
     3
 74
     0
 42
0.0000000001
 43
0.0000000001
 40
0.0
 40
0.0
 40
0.0
 40
0.8373135096499867
 40
0.8373135096499867
 40
0.8373135096499867
 10
82.71319894609766
 20
37.93370561402776
 30
0.0
 10
83.11336670832529
 20
37.81063849634645
 30
0.0
 10
83.51353447055291
 20
37.68757137866514
 30
0.0
  0
SPLINE
  5
163
330
1F
100
AcDbEntity
  8
LINEE VISIBILI 2D
100
AcDbSpline
210
0.0
220
0.0
230
1.0
 70
    12
 71
     2
 72
     6
 73
     3
 74
     0
 42
0.0000000001
 43
0.0000000001
 40
0.0
 40
0.0
 40
0.0
 40
0.0565251451303735
 40
0.0565251451303735
 40
0.0565251451303735
 10
73.34869724768606
 20
19.6843855062301
 30
0.0
 41
1.0
 10
73.3437524277332
 20
19.65655137706007
 30
0.0
 41
0.9996086770978407
 10
73.34038212253932
 20
19.62848254064893
 30
0.0
 41
1.0
  0
SPLINE
  5
164
330
1F
100
AcDbEntity
  8
LINEE VISIBILI 2D
100
AcDbSpline
210
0.0
220
0.0
230
1.0
 70
    12
 71
     2
 72
     6
 73
     3
 74
     0
 42
0.0000000001
 43
0.0000000001
 40
0.0
 40
0.0
 40
0.0
 40
0.0019032627292469
 40
0.0019032627292469
 40
0.0019032627292469
 10
73.34038212253932
 20
19.62848254064893
 30
0.0
 41
1.0
 10
73.34026717357311
 20
19.62753764143331
 30
0.0
 41
0.9999999545106937
 10
73.34013307554085
 20
19.62659565895857
 30
0.0
 41
0.9999999999808113
  0
SPLINE
  5
165
330
1F
100
AcDbEntity
  8
LINEE VISIBILI 2D
100
AcDbSpline
210
0.0
220
0.0
230
1.0
 70
    12
 71
     2
 72
     6
 73
     3
 74
     0
 42
0.0000000001
 43
0.0000000001
 40
0.0
 40
0.0
 40
0.0
 40
0.0128799573955584
 40
0.0128799573955584
 40
0.0128799573955584
 10
73.34013307554085
 20
19.62659565895857
 30
0.0
 41
0.999999999880381
 10
73.3392855634261
 20
19.6202118817435
 30
0.0
 41
0.9999981167326488
 10
73.33847715720191
 20
19.61382214132182
 30
0.0
 41
1.0
  0
SPLINE
  5
166
330
1F
100
AcDbEntity
  8
LINEE VISIBILI 2D
100
AcDbSpline
210
0.0
220
0.0
230
1.0
 70
    12
 71
     2
 72
     6
 73
     3
 74
     0
 42
0.0000000001
 43
0.0000000001
 40
0.0
 40
0.0
 40
0.0
 40
0.0355811228427787
 40
0.0355811228427787
 40
0.0355811228427787
 10
73.33847715720191
 20
19.61382214132182
 30
0.0
 41
1.0
 10
73.3363120442375
 20
19.59684803697424
 30
0.0
 41
0.9999881164209936
 10
73.33430528056208
 20
19.57985531121226
 30
0.0
 41
0.9999990916684741
  0
SPLINE
  5
167
330
1F
100
AcDbEntity
  8
LINEE VISIBILI 2D
100
AcDbSpline
210
0.0
220
0.0
230
1.0
 70
    12
 71
     2
 72
     6
 73
     3
 74
     0
 42
0.0000000001
 43
0.0000000001
 40
0.0
 40
0.0
 40
0.0
 40
0.0389654244493198
 40
0.0389654244493198
 40
0.0389654244493198
 10
73.33430528056206
 20
19.57985531121226
 30
0.0
 41
0.9999993554862491
 10
73.33210049679192
 20
19.56118211509562
 30
0.0
 41
0.9999907658965956
 10
73.33005329732876
 20
19.54249098620845
 30
0.0
 41
0.9999999999999871
  0
SPLINE
  5
168
330
1F
100
AcDbEntity
  8
LINEE VISIBILI 2D
100
AcDbSpline
210
0.0
220
0.0
230
1.0
 70
    12
 71
     2
 72
     6
 73
     3
 74
     0
 42
0.0000000001
 43
0.0000000001
 40
0.0
 40
0.0
 40
0.0
 40
0.0415774721816615
 40
0.0415774721816615
 40
0.0415774721816615
 10
73.33005329732876
 20
19.54249098620845
 30
0.0
 41
0.9999999999999927
 10
73.3277893617987
 20
19.52182578946159
 30
0.0
 41
0.9999926890502546
 10
73.32568369420184
 20
19.5011438536396
 30
0.0
 41
1.0
  0
SPLINE
  5
169
330
1F
100
AcDbEntity
  8
LINEE VISIBILI 2D
100
AcDbSpline
210
0.0
220
0.0
230
1.0
 70
    12
 71
     2
 72
     6
 73
     3
 74
     0
 42
0.0000000001
 43
0.0000000001
 40
0.0
 40
0.0
 40
0.0
 40
0.0757037821467759
 40
0.0757037821467759
 40
0.0757037821467759
 10
73.32568369420184
 20
19.5011438536396
 30
0.0
 41
1.0
 10
73.32185421533138
 20
19.46348576748816
 30
0.0
 41
0.9999844443109184
 10
73.31844477189134
 20
19.42578734490948
 30
0.0
 41
0.9999999999999358
  0
SPLINE
  5
16A
330
1F
100
AcDbEntity
  8
LINEE VISIBILI 2D
100
AcDbSpline
210
0.0
220
0.0
230
1.0
 70
    12
 71
     2
 72
     6
 73
     3
 74
     0
 42
0.0000000001
 43
0.0000000001
 40
0.0
 40
0.0
 40
0.0
 40
0.0311067452781436
 40
0.0311067452781436
 40
0.0311067452781436
 10
73.31844477189134
 20
19.42578734490948
 30
0.0
 41
0.9999999999999898
 10
73.31704026149055
 20
19.41029749844594
 30
0.0
 41
0.9999981458857519
 10
73.31569606388823
 20
19.39480230158553
 30
0.0
 41
0.9999999999999669
  0
SPLINE
  5
16B
330
1F
100
AcDbEntity
  8
LINEE VISIBILI 2D
100
AcDbSpline
210
0.0
220
0.0
230
1.0
 70
    12
 71
     2
 72
     6
 73
     3
 74
     0
 42
0.0000000001
 43
0.0000000001
 40
0.0
 40
0.0
 40
0.0
 40
0.0880872419753754
 40
0.0880872419753754
 40
0.0880872419753754
 10
73.31569606388823
 20
19.39480230158553
 30
0.0
 41
0.9999999999999447
 10
73.31189536437294
 20
19.35092266230301
 30
0.0
 41
0.9999893598471752
 10
73.30849933172318
 20
19.30700985070432
 30
0.0
 41
1.0
  0
SPLINE
  5
16C
330
1F
100
AcDbEntity
  8
PREDEFINITO
100
AcDbSpline
210
0.0
220
0.0
230
1.0
 70
    24
 71
     2
 72
     6
 73
     3
 74
     0
 42
0.0000000001
 43
0.0000000001
 40
-1.0
 40
-1.0
 40
-1.0
 40
0.0
 40
0.0
 40
0.0
 10
71.58216713361378
 20
16.42960430397845
 30
0.0
 10
71.40787750127672
 20
16.6932111927552
 30
0.0
 10
71.23358786893964
 20
16.95681808153196
 30
0.0
  0
SPLINE
  5
16D
330
1F
100
AcDbEntity
  8
PREDEFINITO
100
AcDbSpline
210
0.0
220
0.0
230
1.0
 70
     8
 71
     3
 72
    11
 73
     7
 74
     0
 42
0.0000000001
 43
0.0000000001
 40
0.0
 40
0.0
 40
0.0
 40
0.0
 40
0.5925922664203879
 40
1.253785197717719
 40
1.646899809343316
 40
3.152982267391936
 40
3.152982267391936
 40
3.152982267391936
 40
3.152982267391936
 10
71.23358786893964
 20
16.95681808153196
 30
0.0
 10
71.12171567969564
 20
17.11948017476734
 30
0.0
 10
70.9117691964483
 20
17.48244108926839
 30
0.0
 10
70.55195277312042
 20
17.90029041219071
 30
0.0
 10
70.14269092247869
 20
18.65485530292124
 30
0.0
 10
70.04266626536922
 20
19.29417157754903
 30
0.0
 10
69.96956007134173
 20
19.78727655889212
 30
0.0
  0
SPLINE
  5
16E
330
1F
100
AcDbEntity
  8
PREDEFINITO
100
AcDbSpline
210
0.0
220
0.0
230
1.0
 70
    24
 71
     2
 72
     6
 73
     3
 74
     0
 42
0.0000000001
 43
0.0000000001
 40
0.0
 40
0.0
 40
0.0
 40
1.0
 40
1.0
 40
1.0
 10
69.96956007134173
 20
19.78727655889212
 30
0.0
 10
69.96025085374768
 20
19.96568457461081
 30
0.0
 10
69.95094163615364
 20
20.14409259032949
 30
0.0
  0
SPLINE
  5
16F
330
1F
100
AcDbEntity
  8
PREDEFINITO
100
AcDbSpline
210
0.0
220
0.0
230
1.0
 70
     8
 71
     3
 72
    21
 73
    17
 74
     0
 42
0.0000000001
 43
0.0000000001
 40
0.0
 40
0.0
 40
0.0
 40
0.0
 40
5.04902203120326
 40
7.117467007001282
 40
8.390525985292882
 40
9.0307360124416
 40
10.71998730519203
 40
11.52402428359284
 40
13.45133510633086
 40
17.75093732131357
 40
19.45862939065245
 40
20.70473155490131
 40
21.19174233067693
 40
21.53412929552501
 40
21.87458960217798
 40
22.25054640782504
 40
22.25054640782504
 40
22.25054640782504
 40
22.25054640782504
 10
74.36115587445944
 20
18.56350418870664
 30
0.0
 10
74.86836213703499
 20
20.16969754903251
 30
0.0
 10
75.6466501081982
 20
22.40763520962015
 30
0.0
 10
76.65225739016465
 20
25.02372289419216
 30
0.0
 10
77.44166326919543
 20
26.10895211235108
 30
0.0
 10
78.26384937667233
 20
26.97903860218341
 30
0.0
 10
79.02279854722913
 20
27.70148616556378
 30
0.0
 10
80.03167753782729
 20
28.77347524705012
 30
0.0
 10
81.5421639305814
 20
30.56930035567515
 30
0.0
 10
82.94649262856713
 20
32.82560441060918
 30
0.0
 10
83.90210146057251
 20
35.05092214559792
 30
0.0
 10
84.19735842987791
 20
36.16481927732839
 30
0.0
 10
84.20596970299525
 20
36.86207754640304
 30
0.0
 10
84.10622123523112
 20
37.24415477137623
 30
0.0
 10
83.88902606117166
 20
37.53320075991623
 30
0.0
 10
83.66760898559171
 20
37.63997640873778
 30
0.0
 10
83.54869662219703
 20
37.67675765216251
 30
0.0
  0
SPLINE
  5
170
330
1F
100
AcDbEntity
  8
PREDEFINITO
100
AcDbSpline
210
0.0
220
0.0
230
1.0
 70
    24
 71
     2
 72
     6
 73
     3
 74
     0
 42
0.0000000001
 43
0.0000000001
 40
-0.0011295012592235
 40
-0.0011295012592235
 40
-0.0011295012592235
 40
0.0
 40
0.0
 40
0.0
 10
83.54869662219703
 20
37.67675765216251
 30
0.0
 10
83.54815658192499
 20
37.67692358952613
 30
0.0
 10
83.54761654165296
 20
37.67708952688974
 30
0.0
  0
SPLINE
  5
171
330
1F
100
AcDbEntity
  8
PREDEFINITO
100
AcDbSpline
210
0.0
220
0.0
230
1.0
 70
    12
 71
     3
 72
    10
 73
     6
 74
     0
 42
0.0000000001
 43
0.0000000001
 40
17.80137414447228
 40
17.80137414447228
 40
17.80137414447228
 40
17.80137414447228
 40
19.00541860496329
 40
21.28090403627051
 40
21.60169309445268
 40
21.60169309445268
 40
21.60169309445268
 40
21.60169309445268
 10
83.54761654165296
 20
37.67708952688974
 30
0.0
 41
1.0
 10
83.34257480170113
 20
37.73993159355816
 30
0.0
 41
1.0
 10
82.63108185191169
 20
37.78517730534718
 30
0.0
 41
1.0
 10
81.61262818544647
 20
37.44510800817181
 30
0.0
 41
1.0
 10
80.91259308342705
 20
37.05093059135151
 30
0.0
 41
1.0
 10
80.82610760548606
 20
36.99991151933806
 30
0.0
 41
1.0
  0
SPLINE
  5
172
330
1F
100
AcDbEntity
  8
PREDEFINITO
100
AcDbSpline
210
0.0
220
0.0
230
1.0
 70
    24
 71
     2
 72
     6
 73
     3
 74
     0
 42
0.0000000001
 43
0.0000000001
 40
-1.0
 40
-1.0
 40
-1.0
 40
0.0
 40
0.0
 40
0.0
 10
80.82610760548606
 20
36.99991151933806
 30
0.0
 10
80.77993725941967
 20
36.97223643784561
 30
0.0
 10
80.73376691335328
 20
36.94456135635315
 30
0.0
  0
SPLINE
  5
173
330
1F
100
AcDbEntity
  8
PREDEFINITO
100
AcDbSpline
210
0.0
220
0.0
230
1.0
 70
     8
 71
     3
 72
    20
 73
    16
 74
     0
 42
0.0000000001
 43
0.0000000001
 40
0.0
 40
0.0
 40
0.0
 40
0.0
 40
2.684490745539198
 40
5.882249633198851
 40
8.005530758530977
 40
9.327319366271913
 40
12.01054868535842
 40
14.22618442059071
 40
15.98054256449546
 40
16.77434790109843
 40
17.46260214546147
 40
18.50329144270824
 40
19.26782604666284
 40
20.90502161396862
 40
22.69652980046736
 40
22.69652980046736
 40
22.69652980046736
 40
22.69652980046736
 10
80.73376691335328
 20
36.94456135635315
 30
0.0
 10
79.96965473614567
 20
36.47559437314645
 30
0.0
 10
78.46508394215968
 20
35.20431757082358
 30
0.0
 10
76.7297742212689
 20
33.16778431273515
 30
0.0
 10
75.48840249519067
 20
31.33249289824521
 30
0.0
 10
74.40570002997602
 20
29.6003171659046
 30
0.0
 10
73.30355821202231
 20
27.84407291984448
 30
0.0
 10
72.15919660511868
 20
25.94378971939707
 30
0.0
 10
71.40145698866789
 20
24.54823359823166
 30
0.0
 10
70.95145357425405
 20
23.56537053028025
 30
0.0
 10
70.74730038226528
 20
22.74658864327255
 30
0.0
 10
70.6274646706553
 20
21.92425179718325
 30
0.0
 10
70.5789238061155
 20
20.77366887337531
 30
0.0
 10
70.87459017326005
 20
19.39370766056789
 30
0.0
 10
71.28012907449383
 20
18.32799446616383
 30
0.0
 10
71.54414864580255
 20
17.78977782747037
 30
0.0
  0
SPLINE
  5
174
330
1F
100
AcDbEntity
  8
PREDEFINITO
100
AcDbSpline
210
0.0
220
0.0
230
1.0
 70
     8
 71
     3
 72
    23
 73
    19
 74
     0
 42
0.0000000001
 43
0.0000000001
 40
0.0
 40
0.0
 40
0.0
 40
0.0
 40
1.392757234473757
 40
2.724377494205415
 40
4.050542563504098
 40
5.010098086579302
 40
6.878490650090963
 40
8.464620748023947
 40
9.455450323769329
 40
11.56332795721362
 40
12.37036974947377
 40
13.06440970606221
 40
13.78002233057123
 40
15.53945279879092
 40
17.82843528083858
 40
20.45313322752979
 40
21.62411427376193
 40
22.59795320958839
 40
22.59795320958839
 40
22.59795320958839
 40
22.59795320958839
 10
71.54414864580255
 20
17.78977782747037
 30
0.0
 10
71.7470012436504
 20
17.37214534363617
 30
0.0
 10
72.1740704024317
 20
16.57028094292161
 30
0.0
 10
72.86768999902273
 20
15.41153235792641
 30
0.0
 10
73.53673197649181
 20
14.40726337089072
 30
0.0
 10
74.40570220634784
 20
13.32831640294708
 30
0.0
 10
75.38922681299017
 20
12.23314672783421
 30
0.0
 10
76.42915079662802
 20
11.17711178961331
 30
0.0
 10
77.61678591221794
 20
10.15966778324714
 30
0.0
 10
78.69684268743853
 20
9.42983629479875
 30
0.0
 10
79.62935892004336
 20
8.66810248185362
 30
0.0
 10
80.10613053968127
 20
8.095600209308728
 30
0.0
 10
80.53024949276222
 20
7.110139240660026
 30
0.0
 10
80.42778593330658
 20
5.47824013753532
 30
0.0
 10
79.52396020100508
 20
3.429583473550847
 30
0.0
 10
78.2965531595492
 20
1.796269994214948
 30
0.0
 10
77.12984370950626
 20
0.7122159679256078
 30
0.0
 10
76.53612796297111
 20
0.3080777972904109
 30
0.0
 10
76.24347837951743
 20
0.1665075738136303
 30
0.0
  0
SPLINE
  5
175
330
1F
100
AcDbEntity
  8
PREDEFINITO
100
AcDbSpline
210
0.0
220
0.0
230
1.0
 70
    24
 71
     2
 72
     6
 73
     3
 74
     0
 42
0.0000000001
 43
0.0000000001
 40
0.0
 40
0.0
 40
0.0
 40
0.0011410784303557
 40
0.0011410784303557
 40
0.0011410784303557
 10
76.24347837951743
 20
0.1665075738136303
 30
0.0
 10
76.24091872629899
 20
0.1652956367254758
 30
0.0
 10
76.23835907308055
 20
0.1640836996373214
 30
0.0
  0
SPLINE
  5
176
330
1F
100
AcDbEntity
  8
PREDEFINITO
100
AcDbSpline
210
0.0
220
0.0
230
1.0
 70
    12
 71
     3
 72
     9
 73
     5
 74
     0
 42
0.0000000001
 43
0.0000000001
 40
-22.24327121081692
 40
-22.24327121081692
 40
-22.24327121081692
 40
-22.24327121081692
 40
-21.28090305848203
 40
-20.7120326784436
 40
-20.7120326784436
 40
-20.7120326784436
 40
-20.7120326784436
 10
76.23835907308055
 20
0.1640836996373214
 30
0.0
 41
1.0
 10
76.03202880571415
 20
0.0669013205387418
 30
0.0
 41
1.0
 10
75.73802375398854
 20
-0.0220291837000662
 30
0.0
 41
1.0
 10
75.50923702035963
 20
0.0064093821640161
 30
0.0
 41
1.0
 10
75.43195357259123
 20
0.0315245960561547
 30
0.0
 41
1.0
  0
SPLINE
  5
177
330
1F
100
AcDbEntity
  8
PREDEFINITO
100
AcDbSpline
210
0.0
220
0.0
230
1.0
 70
    24
 71
     2
 72
     6
 73
     3
 74
     0
 42
0.0000000001
 43
0.0000000001
 40
0.0
 40
0.0
 40
0.0
 40
0.8641513229928625
 40
0.8641513229928625
 40
0.8641513229928625
 10
75.43195357259123
 20
0.0315245960561547
 30
0.0
 10
75.01896091820639
 20
0.1585145369859742
 30
0.0
 10
74.60596826382155
 20
0.2855044779157936
 30
0.0
  0
SPLINE
  5
178
330
1F
100
AcDbEntity
  8
PREDEFINITO
100
AcDbSpline
210
0.0
220
0.0
230
1.0
 70
    12
 71
     2
 72
     6
 73
     3
 74
     0
 42
0.0000000001
 43
0.0000000001
 40
0.0
 40
0.0
 40
0.0
 40
7.370045110014376
 40
7.370045110014376
 40
7.370045110014376
 10
72.1123371524007
 20
10.57320458834701
 30
0.0
 41
1.0
 10
68.14041607882497
 20
10.95658238425418
 30
0.0
 41
0.8890699924704715
 10
66.14522566394203
 20
14.41235303021273
 30
0.0
 41
1.0
  0
SPLINE
  5
179
330
1F
100
AcDbEntity
  8
PREDEFINITO
100
AcDbSpline
210
0.0
220
0.0
230
1.0
 70
    12
 71
     2
 72
     6
 73
     3
 74
     0
 42
0.0000000001
 43
0.0000000001
 40
0.0
 40
0.0
 40
0.0
 40
3.698307068969018
 40
3.698307068969018
 40
3.698307068969018
 10
66.14522566394203
 20
14.41235303021273
 30
0.0
 41
1.0
 10
65.20269437954813
 20
16.04486485525429
 30
0.0
 41
0.9716696987221918
 10
65.11526276802593
 20
17.92789852310741
 30
0.0
 41
1.0
  0
POLYLINE
  5
17A
330
1F
100
AcDbEntity
  8
PREDEFINITO
100
AcDb2dPolyline
 66
     1
 10
0.0
 20
0.0
 30
0.0
  0
VERTEX
  5
17C
330
17A
100
AcDbEntity
  8
PREDEFINITO
100
AcDbVertex
100
AcDb2dVertex
 10
65.11526276802593
 20
17.92789852310741
 30
0.0
  0
VERTEX
  5
17D
330
17A
100
AcDbEntity
  8
PREDEFINITO
100
AcDbVertex
100
AcDb2dVertex
 10
65.11526277472421
 20
17.93735317693566
 30
0.0
  0
SEQEND
  5
17B
330
17A
100
AcDbEntity
  8
PREDEFINITO
  0
SPLINE
  5
17E
330
1F
100
AcDbEntity
  8
LINEE VISIBILI 2D
100
AcDbSpline
210
0.0
220
0.0
230
1.0
 70
    12
 71
     2
 72
     6
 73
     3
 74
     0
 42
0.0000000001
 43
0.0000000001
 40
0.0
 40
0.0
 40
0.0
 40
2.667744810958435
 40
2.667744810958435
 40
2.667744810958435
 10
65.11482952588538
 20
18.63735296342686
 30
0.0
 41
1.0
 10
65.1756707889223
 20
19.98317977638259
 30
0.0
 41
0.9852251585779447
 10
65.68711557129527
 20
21.22952471432794
 30
0.0
 41
1.0
  0
SPLINE
  5
17F
330
1F
100
AcDbEntity
  8
LINEE VISIBILI 2D
100
AcDbSpline
210
0.0
220
0.0
230
1.0
 70
    12
 71
     2
 72
     6
 73
     3
 74
     0
 42
0.0000000001
 43
0.0000000001
 40
0.0
 40
0.0
 40
0.0
 40
5.257357025262098
 40
5.257357025262098
 40
5.257357025262098
 10
78.9765180560434
 20
27.67078299735943
 30
0.0
 41
1.0
 10
81.21965230378207
 20
26.20787882855653
 30
0.0
 41
0.9725960121155748
 10
82.55865891155048
 20
23.88865456927681
 30
0.0
 41
1.0
  0
SPLINE
  5
180
330
1F
100
AcDbEntity
  8
LINEE VISIBILI 2D
100
AcDbSpline
210
0.0
220
0.0
230
1.0
 70
    12
 71
     2
 72
     6
 73
     3
 74
     0
 42
0.0000000001
 43
0.0000000001
 40
0.0
 40
0.0
 40
0.0
 40
5.302357826868834
 40
5.302357826868834
 40
5.302357826868834
 10
82.7075602225909
 20
23.97462279430898
 30
0.0
 41
1.0
 10
81.35743243042118
 20
26.31311237288221
 30
0.0
 41
0.9729595715863869
 10
79.10030578151813
 20
27.79525874051814
 30
0.0
 41
1.0
  0
SPLINE
  5
181
330
1F
100
AcDbEntity
  8
LINEE VISIBILI 2D
100
AcDbSpline
210
0.0
220
0.0
230
1.0
 70
    12
 71
     2
 72
     8
 73
     5
 74
     0
 42
0.0000000001
 43
0.0000000001
 40
0.0
 40
0.0
 40
0.0
 40
0.1225927473629094
 40
0.1225927473629094
 40
17.98967424486857
 40
17.98967424486857
 40
17.98967424486857
 10
67.27614965685727
 20
28.19871447104708
 30
0.0
 41
1.0
 10
67.22273769383659
 20
28.16863989083125
 30
0.0
 41
0.9999854798522659
 10
67.1696529652109
 20
28.13799140382751
 30
0.0
 41
1.0
 10
57.31901503176168
 20
22.45072207989677
 30
0.0
 41
0.7071067811865498
 10
63.00628435569237
 20
12.60008414644753
 30
0.0
 41
1.0
  0
SPLINE
  5
182
330
1F
100
AcDbEntity
  8
LINEE VISIBILI 2D
100
AcDbSpline
210
0.0
220
0.0
230
1.0
 70
    12
 71
     2
 72
     8
 73
     5
 74
     0
 42
0.0000000001
 43
0.0000000001
 40
0.0
 40
0.0
 40
0.0
 40
6.448799414874844
 40
6.448799414874844
 40
10.37211779790587
 40
10.37211779790587
 40
10.37211779790587
 10
79.93693393891564
 20
15.81279592627766
 30
0.0
 41
1.0
 10
81.07157834129157
 20
19.05915227241458
 30
0.0
 41
0.9089991126889507
 10
79.35211257159301
 20
22.03735389634495
 30
0.0
 41
1.0
 10
78.3482869471336
 20
23.77603061651726
 30
0.0
 41
0.9659891637290395
 10
76.61010183470918
 20
24.78070724933828
 30
0.0
 41
1.0
  0
SPLINE
  5
183
330
1F
100
AcDbEntity
  8
LINEE VISIBILI 2D
100
AcDbSpline
210
0.0
220
0.0
230
1.0
 70
    12
 71
     2
 72
     6
 73
     3
 74
     0
 42
0.0000000001
 43
0.0000000001
 40
0.0
 40
0.0
 40
0.0
 40
2.601232840420767
 40
2.601232840420767
 40
2.601232840420767
 10
65.16750189434885
 20
18.63735296672586
 30
0.0
 41
1.0
 10
65.22721016314314
 20
19.94913193954124
 30
0.0
 41
0.9857587241345455
 10
65.71845094865049
 20
21.16692159360187
 30
0.0
 41
1.0
  0
SPLINE
  5
184
330
1F
100
AcDbEntity
  8
LINEE VISIBILI 2D
100
AcDbSpline
210
0.0
220
0.0
230
1.0
 70
    12
 71
     2
 72
     8
 73
     5
 74
     0
 42
0.0000000001
 43
0.0000000001
 40
0.0
 40
0.0
 40
0.0
 40
7.057078924803935
 40
7.057078924803935
 40
10.63394260276693
 40
10.63394260276693
 40
10.63394260276693
 10
72.06151870786482
 20
10.82965053027054
 30
0.0
 41
1.0
 10
68.26883124541783
 20
11.23416076814424
 30
0.0
 41
0.8913544590559247
 10
66.3617320066904
 20
14.53735304441162
 30
0.0
 41
1.0
 10
65.45017242719896
 20
16.116220311115
 30
0.0
 41
0.971703456886836
 10
65.36509342911822
 20
17.93735300175444
 30
0.0
 41
1.0
  0
SPLINE
  5
185
330
1F
100
AcDbEntity
  8
LINEE VISIBILI 2D
100
AcDbSpline
210
0.0
220
0.0
230
1.0
 70
    12
 71
     2
 72
     6
 73
     3
 74
     0
 42
0.0000000001
 43
0.0000000001
 40
0.0
 40
0.0
 40
0.0
 40
2.36637628534694
 40
2.36637628534694
 40
2.36637628534694
 10
65.36509338436915
 20
18.63735297913391
 30
0.0
 41
1.0
 10
65.42077142167659
 20
19.82915558896067
 30
0.0
 41
0.9875819274885969
 10
65.84352666604342
 20
20.9448488747649
 30
0.0
 41
1.0
  0
SPLINE
  5
186
330
1F
100
AcDbEntity
  8
LINEE VISIBILI 2D
100
AcDbSpline
210
0.0
220
0.0
230
1.0
 70
    24
 71
     2
 72
     6
 73
     3
 74
     0
 42
0.0000000001
 43
0.0000000001
 40
0.0
 40
0.0
 40
0.0
 40
0.11941507881061
 40
0.11941507881061
 40
0.11941507881061
 10
76.17003465986545
 20
23.4258332959606
 30
0.0
 10
76.118326413943
 20
23.45568706566325
 30
0.0
 10
76.06661816802054
 20
23.4855408353659
 30
0.0
  0
SPLINE
  5
187
330
1F
100
AcDbEntity
  8
LINEE VISIBILI 2D
100
AcDbSpline
210
0.0
220
0.0
230
1.0
 70
    12
 71
     2
 72
     6
 73
     3
 74
     0
 42
0.0000000001
 43
0.0000000001
 40
0.0
 40
0.0
 40
0.0
 40
1.333854280932563
 40
1.333854280932563
 40
1.333854280932563
 10
66.57385356995522
 20
19.95260044004384
 30
0.0
 41
1.0
 10
66.40239015460102
 20
19.30565951108766
 30
0.0
 41
0.9947408079157325
 10
66.36635218336804
 20
18.63735304471687
 30
0.0
 41
1.0
  0
SPLINE
  5
188
330
1F
100
AcDbEntity
  8
PREDEFINITO
100
AcDbSpline
210
0.0
220
0.0
230
1.0
 70
    24
 71
     2
 72
     6
 73
     3
 74
     0
 42
0.0000000001
 43
0.0000000001
 40
0.0
 40
0.0
 40
0.0
 40
2.37120333452919
 40
2.37120333452919
 40
2.37120333452919
 10
70.55064701662408
 20
17.93735331912861
 30
0.0
 10
69.36504534935726
 20
17.93735324137405
 30
0.0
 10
68.17944368209044
 20
17.93735316361948
 30
0.0
  0
SPLINE
  5
189
330
1F
100
AcDbEntity
  8
PREDEFINITO
100
AcDbSpline
210
0.0
220
0.0
230
1.0
 70
    24
 71
     2
 72
     6
 73
     3
 74
     0
 42
0.0000000001
 43
0.0000000001
 40
-0.2816469113305834
 40
-0.2816469113305834
 40
-0.2816469113305834
 40
0.0
 40
0.0
 40
0.0
 10
68.17944368209044
 20
17.93735316361948
 30
0.0
 10
68.03862022642292
 20
17.93735315438449
 30
0.0
 10
67.8977967707554
 20
17.9373531451495
 30
0.0
  0
SPLINE
  5
18A
330
1F
100
AcDbEntity
  8
PREDEFINITO
100
AcDbSpline
210
0.0
220
0.0
230
1.0
 70
    24
 71
     2
 72
     6
 73
     3
 74
     0
 42
0.0000000001
 43
0.0000000001
 40
0.0
 40
0.0
 40
0.0
 40
0.030756597388816
 40
0.030756597388816
 40
0.030756597388816
 10
67.8977967707554
 20
17.9373531451495
 30
0.0
 10
67.88241847214533
 20
17.93735314414102
 30
0.0
 10
67.86704017353526
 20
17.93735314313253
 30
0.0
  0
SPLINE
  5
18B
330
1F
100
AcDbEntity
  8
PREDEFINITO
100
AcDbSpline
210
0.0
220
0.0
230
1.0
 70
    24
 71
     2
 72
     6
 73
     3
 74
     0
 42
0.0000000001
 43
0.0000000001
 40
-0.3747674918680994
 40
-0.3747674918680994
 40
-0.3747674918680994
 40
0.0
 40
0.0
 40
0.0
 10
67.86704017353526
 20
17.93735314313253
 30
0.0
 10
67.67965642768553
 20
17.93735313084376
 30
0.0
 10
67.49227268183581
 20
17.937353118555
 30
0.0
  0
SPLINE
  5
18C
330
1F
100
AcDbEntity
  8
PREDEFINITO
100
AcDbSpline
210
0.0
220
0.0
230
1.0
 70
    24
 71
     2
 72
     6
 73
     3
 74
     0
 42
0.0000000001
 43
0.0000000001
 40
0.0
 40
0.0
 40
0.0
 40
0.0348218396668757
 40
0.0348218396668757
 40
0.0348218396668757
 10
67.49227268183581
 20
17.937353118555
 30
0.0
 10
67.4748617619812
 20
17.93735311741315
 30
0.0
 10
67.45745084212658
 20
17.9373531162713
 30
0.0
  0
SPLINE
  5
18D
330
1F
100
AcDbEntity
  8
PREDEFINITO
100
AcDbSpline
210
0.0
220
0.0
230
1.0
 70
    24
 71
     2
 72
     6
 73
     3
 74
     0
 42
0.0000000001
 43
0.0000000001
 40
-0.3201882518964688
 40
-0.3201882518964688
 40
-0.3201882518964688
 40
0.0
 40
0.0
 40
0.0
 10
67.45745084212658
 20
17.9373531162713
 30
0.0
 10
67.29735671613011
 20
17.93735310577184
 30
0.0
 10
67.13726259013364
 20
17.93735309527239
 30
0.0
  0
SPLINE
  5
18E
330
1F
100
AcDbEntity
  8
PREDEFINITO
100
AcDbSpline
210
0.0
220
0.0
230
1.0
 70
    24
 71
     2
 72
     6
 73
     3
 74
     0
 42
0.0000000001
 43
0.0000000001
 40
0.0
 40
0.0
 40
0.0
 40
0.0596827044043523
 40
0.0596827044043523
 40
0.0596827044043523
 10
67.13726259013364
 20
17.93735309527239
 30
0.0
 10
67.10742123788953
 20
17.93735309331531
 30
0.0
 10
67.07757988564539
 20
17.93735309135823
 30
0.0
  0
SPLINE
  5
18F
330
1F
100
AcDbEntity
  8
PREDEFINITO
100
AcDbSpline
210
0.0
220
0.0
230
1.0
 70
    24
 71
     2
 72
     6
 73
     3
 74
     0
 42
0.0000000001
 43
0.0000000001
 40
-0.1515579139058335
 40
-0.1515579139058335
 40
-0.1515579139058335
 40
0.0
 40
0.0
 40
0.0
 10
67.07757988564539
 20
17.93735309135823
 30
0.0
 10
67.0018009285743
 20
17.93735308638846
 30
0.0
 10
66.9260219715032
 20
17.93735308141869
 30
0.0
  0
SPLINE
  5
190
330
1F
100
AcDbEntity
  8
PREDEFINITO
100
AcDbSpline
210
0.0
220
0.0
230
1.0
 70
    24
 71
     2
 72
     6
 73
     3
 74
     0
 42
0.0000000001
 43
0.0000000001
 40
0.0
 40
0.0
 40
0.0
 40
0.0577638105786208
 40
0.0577638105786208
 40
0.0577638105786208
 10
66.9260219715032
 20
17.93735308141869
 30
0.0
 10
66.89714006610672
 20
17.93735307952455
 30
0.0
 10
66.86825816071023
 20
17.93735307763042
 30
0.0
  0
SPLINE
  5
191
330
1F
100
AcDbEntity
  8
PREDEFINITO
100
AcDbSpline
210
0.0
220
0.0
230
1.0
 70
    24
 71
     2
 72
     6
 73
     3
 74
     0
 42
0.0000000001
 43
0.0000000001
 40
-0.1260094365423899
 40
-0.1260094365423899
 40
-0.1260094365423899
 40
0.0
 40
0.0
 40
0.0
 10
66.86825816071023
 20
17.93735307763042
 30
0.0
 10
66.80525344243509
 20
17.93735307349846
 30
0.0
 10
66.74224872415994
 20
17.93735306936651
 30
0.0
  0
SPLINE
  5
192
330
1F
100
AcDbEntity
  8
PREDEFINITO
100
AcDbSpline
210
0.0
220
0.0
230
1.0
 70
    24
 71
     2
 72
     6
 73
     3
 74
     0
 42
0.0000000001
 43
0.0000000001
 40
0.0
 40
0.0
 40
0.0
 40
0.0349566147452976
 40
0.0349566147452976
 40
0.0349566147452976
 10
66.74224872415994
 20
17.93735306936651
 30
0.0
 10
66.72477041678131
 20
17.93735306822025
 30
0.0
 10
66.70729210940269
 20
17.937353067074
 30
0.0
  0
SPLINE
  5
193
330
1F
100
AcDbEntity
  8
PREDEFINITO
100
AcDbSpline
210
0.0
220
0.0
230
1.0
 70
    24
 71
     2
 72
     6
 73
     3
 74
     0
 42
0.0000000001
 43
0.0000000001
 40
-0.1148154255191971
 40
-0.1148154255191971
 40
-0.1148154255191971
 40
0.0
 40
0.0
 40
0.0
 10
66.70729210940269
 20
17.937353067074
 30
0.0
 10
66.64988439662335
 20
17.93735306330912
 30
0.0
 10
66.59247668384401
 20
17.93735305954425
 30
0.0
  0
SPLINE
  5
194
330
1F
100
AcDbEntity
  8
PREDEFINITO
100
AcDbSpline
210
0.0
220
0.0
230
1.0
 70
    24
 71
     2
 72
     6
 73
     3
 74
     0
 42
0.0000000001
 43
0.0000000001
 40
0.0
 40
0.0
 40
0.0
 40
0.0795104443616738
 40
0.0795104443616738
 40
0.0795104443616738
 10
66.59247668384401
 20
17.93735305954425
 30
0.0
 10
66.55272146198325
 20
17.93735305693705
 30
0.0
 10
66.51296624012248
 20
17.93735305432985
 30
0.0
  0
SPLINE
  5
195
330
1F
100
AcDbEntity
  8
PREDEFINITO
100
AcDbSpline
210
0.0
220
0.0
230
1.0
 70
    24
 71
     2
 72
     6
 73
     3
 74
     0
 42
0.0000000001
 43
0.0000000001
 40
-0.0767502226810565
 40
-0.0767502226810565
 40
-0.0767502226810565
 40
0.0
 40
0.0
 40
0.0
 10
66.51296624012248
 20
17.93735305432985
 30
0.0
 10
66.47459112920697
 20
17.93735305181316
 30
0.0
 10
66.43621601829146
 20
17.93735304929647
 30
0.0
  0
SPLINE
  5
196
330
1F
100
AcDbEntity
  8
PREDEFINITO
100
AcDbSpline
210
0.0
220
0.0
230
1.0
 70
    24
 71
     2
 72
     6
 73
     3
 74
     0
 42
0.0000000001
 43
0.0000000001
 40
0.0
 40
0.0
 40
0.0
 40
0.0150042330656248
 40
0.0150042330656248
 40
0.0150042330656248
 10
66.43621601829146
 20
17.93735304929647
 30
0.0
 10
66.42871390184831
 20
17.93735304880447
 30
0.0
 10
66.42121178540515
 20
17.93735304831246
 30
0.0
  0
SPLINE
  5
197
330
1F
100
AcDbEntity
  8
PREDEFINITO
100
AcDbSpline
210
0.0
220
0.0
230
1.0
 70
    24
 71
     2
 72
     6
 73
     3
 74
     0
 42
0.0000000001
 43
0.0000000001
 40
-0.1193123557008565
 40
-0.1193123557008565
 40
-0.1193123557008565
 40
0.0
 40
0.0
 40
0.0
 10
66.42121178540515
 20
17.93735304831246
 30
0.0
 10
66.36155560738459
 20
17.9373530444001
 30
0.0
 10
66.30189942936401
 20
17.93735304048774
 30
0.0
  0
SPLINE
  5
198
330
1F
100
AcDbEntity
  8
PREDEFINITO
100
AcDbSpline
210
0.0
220
0.0
230
1.0
 70
    24
 71
     2
 72
     6
 73
     3
 74
     0
 42
0.0000000001
 43
0.0000000001
 40
0.0
 40
0.0
 40
0.0
 40
0.034915833606732
 40
0.034915833606732
 40
0.034915833606732
 10
66.30189942936401
 20
17.93735304048774
 30
0.0
 10
66.284441512392
 20
17.93735303934282
 30
0.0
 10
66.26698359541997
 20
17.93735303819789
 30
0.0
  0
SPLINE
  5
199
330
1F
100
AcDbEntity
  8
PREDEFINITO
100
AcDbSpline
210
0.0
220
0.0
230
1.0
 70
    24
 71
     2
 72
     6
 73
     3
 74
     0
 42
0.0000000001
 43
0.0000000001
 40
-0.0150377052860762
 40
-0.0150377052860762
 40
-0.0150377052860762
 40
0.0
 40
0.0
 40
0.0
 10
66.26698359541997
 20
17.93735303819789
 30
0.0
 10
66.25946474270316
 20
17.93735303770479
 30
0.0
 10
66.25194588998633
 20
17.93735303721168
 30
0.0
  0
SPLINE
  5
19A
330
1F
100
AcDbEntity
  8
PREDEFINITO
100
AcDbSpline
210
0.0
220
0.0
230
1.0
 70
    24
 71
     2
 72
     6
 73
     3
 74
     0
 42
0.0000000001
 43
0.0000000001
 40
0.0
 40
0.0
 40
0.0
 40
0.1718966256836726
 40
0.1718966256836726
 40
0.1718966256836726
 10
66.25194588998633
 20
17.93735303721168
 30
0.0
 10
66.16525161842881
 20
17.93735301727504
 30
0.0
 10
66.07855734687129
 20
17.9373529973384
 30
0.0
  0
SPLINE
  5
19B
330
1F
100
AcDbEntity
  8
PREDEFINITO
100
AcDbSpline
210
0.0
220
0.0
230
1.0
 70
    24
 71
     2
 72
     6
 73
     3
 74
     0
 42
0.0000000001
 43
0.0000000001
 40
0.0
 40
0.0
 40
0.0
 40
0.1699553673435792
 40
0.1699553673435792
 40
0.1699553673435792
 10
66.07855734687129
 20
17.9373529973384
 30
0.0
 10
65.99283370458036
 20
17.93735296622912
 30
0.0
 10
65.90711006228945
 20
17.93735293511984
 30
0.0
  0
SPLINE
  5
19C
330
1F
100
AcDbEntity
  8
PREDEFINITO
100
AcDbSpline
210
0.0
220
0.0
230
1.0
 70
    24
 71
     2
 72
     6
 73
     3
 74
     0
 42
0.0000000001
 43
0.0000000001
 40
-0.2387570887986931
 40
-0.2387570887986931
 40
-0.2387570887986931
 40
0.0
 40
0.0
 40
0.0
 10
65.90711006228945
 20
17.93735293511984
 30
0.0
 10
65.78773151791265
 20
17.93735292683417
 30
0.0
 10
65.66835297353583
 20
17.9373529185485
 30
0.0
  0
SPLINE
  5
19D
330
1F
100
AcDbEntity
  8
PREDEFINITO
100
AcDbSpline
210
0.0
220
0.0
230
1.0
 70
    24
 71
     2
 72
     6
 73
     3
 74
     0
 42
0.0000000001
 43
0.0000000001
 40
0.0
 40
0.0
 40
0.0
 40
0.0199267087880202
 40
0.0199267087880202
 40
0.0199267087880202
 10
65.66835297353583
 20
17.9373529185485
 30
0.0
 10
65.65838961914159
 20
17.93735291908617
 30
0.0
 10
65.64842626474734
 20
17.93735291962384
 30
0.0
  0
SPLINE
  5
19E
330
1F
100
AcDbEntity
  8
PREDEFINITO
100
AcDbSpline
210
0.0
220
0.0
230
1.0
 70
    12
 71
     2
 72
     6
 73
     3
 74
     0
 42
0.0000000001
 43
0.0000000001
 40
-0.2447840377066465
 40
-0.2447840377066465
 40
-0.2447840377066465
 40
0.0
 40
0.0
 40
0.0
 10
65.64842626474734
 20
17.93735291962384
 30
0.0
 41
1.0
 10
65.52603424589964
 20
17.93735292546105
 30
0.0
 41
0.9999999999999788
 10
65.40364222705199
 20
17.93735298155653
 30
0.0
 41
1.0
  0
SPLINE
  5
19F
330
1F
100
AcDbEntity
  8
PREDEFINITO
100
AcDbSpline
210
0.0
220
0.0
230
1.0
 70
    24
 71
     2
 72
     6
 73
     3
 74
     0
 42
0.0000000001
 43
0.0000000001
 40
0.0
 40
0.0
 40
0.0
 40
0.2883794525112161
 40
0.2883794525112161
 40
0.2883794525112161
 10
65.40364222705199
 20
17.93735298155653
 30
0.0
 10
65.2594525008881
 20
17.93735307924609
 30
0.0
 10
65.11526277472421
 20
17.93735317693566
 30
0.0
  0
SPLINE
  5
1A0
330
1F
100
AcDbEntity
  8
PREDEFINITO
100
AcDbSpline
210
0.0
220
0.0
230
1.0
 70
    12
 71
     2
 72
     6
 73
     3
 74
     0
 42
0.0000000001
 43
0.0000000001
 40
-0.2293077899292635
 40
-0.2293077899292635
 40
-0.2293077899292635
 40
0.0
 40
0.0
 40
0.0
 10
65.11526277472421
 20
17.93735317693566
 30
0.0
 41
1.0
 10
65.00060887984942
 20
17.93735327286956
 30
0.0
 41
0.9999999999999212
 10
64.88595498497457
 20
17.93735327127069
 30
0.0
 41
1.0
  0
SPLINE
  5
1A1
330
1F
100
AcDbEntity
  8
PREDEFINITO
100
AcDbSpline
210
0.0
220
0.0
230
1.0
 70
    12
 71
     2
 72
     6
 73
     3
 74
     0
 42
0.0000000001
 43
0.0000000001
 40
0.0
 40
0.0
 40
0.0
 40
0.2655411727180566
 40
0.2655411727180566
 40
0.2655411727180566
 10
64.88595498497457
 20
17.93735327127069
 30
0.0
 41
1.0
 10
64.75318439861923
 20
17.93735328538021
 30
0.0
 41
0.9999999999990249
 10
64.61989335671903
 20
17.93735293166003
 30
0.0
 41
1.0
  0
SPLINE
  5
1A2
330
1F
100
AcDbEntity
  8
PREDEFINITO
100
AcDbSpline
210
0.0
220
0.0
230
1.0
 70
    12
 71
     2
 72
     6
 73
     3
 74
     0
 42
0.0000000001
 43
0.0000000001
 40
0.0
 40
0.0
 40
0.0
 40
0.1721213755326281
 40
0.1721213755326281
 40
0.1721213755326281
 10
64.61989335671903
 20
17.93735293166003
 30
0.0
 41
1.0
 10
64.53331221340781
 20
17.93735266257997
 30
0.0
 41
0.9999999999995388
 10
64.44725152560761
 20
17.93735224803634
 30
0.0
 41
1.0
  0
SPLINE
  5
1A3
330
1F
100
AcDbEntity
  8
PREDEFINITO
100
AcDbSpline
210
0.0
220
0.0
230
1.0
 70
    24
 71
     2
 72
     6
 73
     3
 74
     0
 42
0.0000000001
 43
0.0000000001
 40
-0.0187353407985478
 40
-0.0187353407985478
 40
-0.0187353407985478
 40
0.0
 40
0.0
 40
0.0
 10
64.44725152560761
 20
17.93735224803634
 30
0.0
 10
64.43788385512678
 20
17.93735220510865
 30
0.0
 10
64.42851618464596
 20
17.93735216218095
 30
0.0
  0
SPLINE
  5
1A4
330
1F
100
AcDbEntity
  8
PREDEFINITO
100
AcDbSpline
210
0.0
220
0.0
230
1.0
 70
    12
 71
     2
 72
     6
 73
     3
 74
     0
 42
0.0000000001
 43
0.0000000001
 40
0.0
 40
0.0
 40
0.0
 40
0.268908256112553
 40
0.268908256112553
 40
0.268908256112553
 10
64.42851618464596
 20
17.93735216218095
 30
0.0
 41
1.0
 10
64.29406205652285
 20
17.93735122853515
 30
0.0
 41
0.9999999999887963
 10
64.15960792852566
 20
17.93735165000992
 30
0.0
 41
1.0
  0
SPLINE
  5
1A5
330
1F
100
AcDbEntity
  8
PREDEFINITO
100
AcDbSpline
210
0.0
220
0.0
230
1.0
 70
    12
 71
     2
 72
     6
 73
     3
 74
     0
 42
0.0000000001
 43
0.0000000001
 40
-0.1058559392459753
 40
-0.1058559392459753
 40
-0.1058559392459753
 40
0.0
 40
0.0
 40
0.0
 10
64.15960792852566
 20
17.93735165000992
 30
0.0
 41
1.0
 10
64.10667995896127
 20
17.93735185925467
 30
0.0
 41
0.9999999999651534
 10
64.05375198940656
 20
17.93735289301458
 30
0.0
 41
1.0
  0
SPLINE
  5
1A6
330
1F
100
AcDbEntity
  8
PREDEFINITO
100
AcDbSpline
210
0.0
220
0.0
230
1.0
 70
    12
 71
     2
 72
     6
 73
     3
 74
     0
 42
0.0000000001
 43
0.0000000001
 40
0.0
 40
0.0
 40
0.0
 40
0.0771760907127078
 40
0.0771760907127078
 40
0.0771760907127078
 10
64.05375198940656
 20
17.93735289301458
 30
0.0
 41
1.0
 10
64.01516394408283
 20
17.93735377313995
 30
0.0
 41
0.9999999999897513
 10
63.97657589877838
 20
17.9373553081131
 30
0.0
 41
1.0
  0
SPLINE
  5
1A7
330
1F
100
AcDbEntity
  8
PREDEFINITO
100
AcDbSpline
210
0.0
220
0.0
230
1.0
 70
    12
 71
     2
 72
     6
 73
     3
 74
     0
 42
0.0000000001
 43
0.0000000001
 40
-0.0145211007086685
 40
-0.0145211007086685
 40
-0.0145211007086685
 40
0.0
 40
0.0
 40
0.0
 10
63.97657589877838
 20
17.9373553081131
 30
0.0
 41
1.0
 10
63.96931536759276
 20
17.93735599408248
 30
0.0
 41
0.999999999990295
 10
63.96205483636371
 20
17.93735593151985
 30
0.0
 41
1.0
  0
SPLINE
  5
1A8
330
1F
100
AcDbEntity
  8
PREDEFINITO
100
AcDbSpline
210
0.0
220
0.0
230
1.0
 70
    12
 71
     2
 72
     6
 73
     3
 74
     0
 42
0.0000000001
 43
0.0000000001
 40
0.0
 40
0.0
 40
0.0
 40
0.0228838819474965
 40
0.0228838819474965
 40
0.0228838819474965
 10
63.96205483636371
 20
17.93735593151985
 30
0.0
 41
1.0
 10
63.9510840934739
 20
17.9373557559227
 30
0.0
 41
0.9999999999907876
 10
63.94011335061266
 20
17.9373569274556
 30
0.0
 41
0.9999999999992413
  0
SPLINE
  5
1A9
330
1F
100
AcDbEntity
  8
PREDEFINITO
100
AcDbSpline
210
0.0
220
0.0
230
1.0
 70
    12
 71
     2
 72
     6
 73
     3
 74
     0
 42
0.0000000001
 43
0.0000000001
 40
-0.0725523124929415
 40
-0.0725523124929415
 40
-0.0725523124929415
 40
0.0
 40
0.0
 40
0.0
 10
63.94011335061266
 20
17.9373569274556
 30
0.0
 41
0.9999999999768467
 10
63.90430841358648
 20
17.93736059641582
 30
0.0
 41
0.9999999991087164
 10
63.86850347588025
 20
17.93736020801288
 30
0.0
 41
0.999999999999998
  0
SPLINE
  5
1AA
330
1F
100
AcDbEntity
  8
PREDEFINITO
100
AcDbSpline
210
0.0
220
0.0
230
1.0
 70
    12
 71
     2
 72
     6
 73
     3
 74
     0
 42
0.0000000001
 43
0.0000000001
 40
0.0
 40
0.0
 40
0.0
 40
0.0271286681069388
 40
0.0271286681069388
 40
0.0271286681069388
 10
63.86850347588025
 20
17.93736020801288
 30
0.0
 41
0.9999999999999998
 10
63.85493918189173
 20
17.93735264877362
 30
0.0
 41
0.99999999995918
 10
63.84137482068779
 20
17.93736050474237
 30
0.0
 41
1.0
  0
SPLINE
  5
1AB
330
1F
100
AcDbEntity
  8
PREDEFINITO
100
AcDbSpline
210
0.0
220
0.0
230
1.0
 70
    12
 71
     2
 72
     6
 73
     3
 74
     0
 42
0.0000000001
 43
0.0000000001
 40
-0.0168704611095792
 40
-0.0168704611095792
 40
-0.0168704611095792
 40
0.0
 40
0.0
 40
0.0
 10
63.84137482068779
 20
17.93736050474237
 30
0.0
 41
1.0
 10
63.83293957139554
 20
17.93737121638921
 30
0.0
 41
0.9999999994680662
 10
63.82450438787971
 20
17.9373601884454
 30
0.0
 41
0.999999999999994
  0
SPLINE
  5
1AC
330
1F
100
AcDbEntity
  8
PREDEFINITO
100
AcDbSpline
210
0.0
220
0.0
230
1.0
 70
    12
 71
     2
 72
     6
 73
     3
 74
     0
 42
0.0000000001
 43
0.0000000001
 40
0.0
 40
0.0
 40
0.0
 40
0.02121827302651
 40
0.02121827302651
 40
0.02121827302651
 10
63.82450438787971
 20
17.9373601884454
 30
0.0
 41
0.9999999998794252
 10
63.81389522077182
 20
17.93730448272565
 30
0.0
 41
0.9999725897171876
 10
63.802957560084
 20
17.9374244786774
 30
0.0
 41
1.0
  0
SPLINE
  5
1AD
330
1F
100
AcDbEntity
  8
PREDEFINITO
100
AcDbSpline
210
0.0
220
0.0
230
1.0
 70
    12
 71
     2
 72
     6
 73
     3
 74
     0
 42
0.0000000001
 43
0.0000000001
 40
0.0
 40
0.0
 40
0.0
 40
0.3503580692832181
 40
0.3503580692832181
 40
0.3503580692832181
 10
63.802957560084
 20
17.9374244786774
 30
0.0
 41
1.0
 10
63.609587702642
 20
17.94225500887163
 30
0.0
 41
0.8664231906242077
 10
63.51696789358235
 20
18.11170864116624
 30
0.0
 41
1.0
  0
SPLINE
  5
1AE
330
1F
100
AcDbEntity
  8
PREDEFINITO
100
AcDbSpline
210
0.0
220
0.0
230
1.0
 70
    12
 71
     2
 72
     6
 73
     3
 74
     0
 42
0.0000000001
 43
0.0000000001
 40
0.0
 40
0.0
 40
0.0
 40
0.1854630159689701
 40
0.1854630159689701
 40
0.1854630159689701
 10
63.51696789358235
 20
18.11170864116624
 30
0.0
 41
1.0
 10
63.4668738797881
 20
18.19228470764153
 30
0.0
 41
0.9665938479863375
 10
63.46328749887998
 20
18.28709269696649
 30
0.0
 41
1.0
  0
SPLINE
  5
1AF
330
1F
100
AcDbEntity
  8
PREDEFINITO
100
AcDbSpline
210
0.0
220
0.0
230
1.0
 70
    12
 71
     2
 72
     8
 73
     5
 74
     0
 42
0.0000000001
 43
0.0000000001
 40
0.0
 40
0.0
 40
0.0
 40
0.2752467600230578
 40
0.2752467600230578
 40
0.5504935200461155
 40
0.5504935200461155
 40
0.5504935200461155
 10
63.46328749887998
 20
18.28709269696649
 30
0.0
 41
1.0
 10
63.46322758379728
 20
18.43228203773792
 30
0.0
 41
0.9237298659015714
 10
63.56592295534868
 20
18.53490111374506
 30
0.0
 41
1.0
 10
63.66861832690007
 20
18.63752018975221
 30
0.0
 41
0.9237298659015714
 10
63.81391063416608
 20
18.63735264969124
 30
0.0
 41
1.0
  0
SPLINE
  5
1B0
330
1F
100
AcDbEntity
  8
PREDEFINITO
100
AcDbSpline
210
0.0
220
0.0
230
1.0
 70
    12
 71
     2
 72
     6
 73
     3
 74
     0
 42
0.0000000001
 43
0.0000000001
 40
0.0
 40
0.0
 40
0.0
 40
2.205505340408935
 40
2.205505340408935
 40
2.205505340408935
 10
63.81391063416608
 20
18.63735264969124
 30
0.0
 41
1.0
 10
64.91677646004136
 20
18.63735381645685
 30
0.0
 41
0.9999999999995691
 10
66.01952913024587
 20
18.63735302161725
 30
0.0
 41
1.0
  0
POLYLINE
  5
1B1
330
1F
100
AcDbEntity
  8
PREDEFINITO
100
AcDb2dPolyline
 66
     1
 10
0.0
 20
0.0
 30
0.0
  0
VERTEX
  5
1B3
330
1B1
100
AcDbEntity
  8
PREDEFINITO
100
AcDbVertex
100
AcDb2dVertex
 10
66.01952913024587
 20
18.63735302161725
 30
0.0
  0
VERTEX
  5
1B4
330
1B1
100
AcDbEntity
  8
PREDEFINITO
100
AcDbVertex
100
AcDb2dVertex
 10
66.07422753295023
 20
18.63735302555652
 30
0.0
  0
SEQEND
  5
1B2
330
1B1
100
AcDbEntity
  8
PREDEFINITO
  0
SPLINE
  5
1B5
330
1F
100
AcDbEntity
  8
PREDEFINITO
100
AcDbSpline
210
0.0
220
0.0
230
1.0
 70
    24
 71
     2
 72
     6
 73
     3
 74
     0
 42
0.0000000001
 43
0.0000000001
 40
0.0
 40
0.0
 40
0.0
 40
4.136890625926592
 40
4.136890625926592
 40
4.136890625926592
 10
66.07422753295023
 20
18.63735302555652
 30
0.0
 10
68.14267284591352
 20
18.63735316120847
 30
0.0
 10
70.21111815887681
 20
18.63735329686041
 30
0.0
  0
SPLINE
  5
1B6
330
1F
100
AcDbEntity
  8
PREDEFINITO
100
AcDbSpline
210
0.0
220
0.0
230
1.0
 70
    12
 71
     2
 72
     6
 73
     3
 74
     0
 42
0.0000000001
 43
0.0000000001
 40
0.0
 40
0.0
 40
0.0
 40
0.3585802303577606
 40
0.3585802303577606
 40
0.3585802303577606
 10
67.71477117358303
 20
18.63408453710607
 30
0.0
 41
1.0
 10
67.6213980374066
 20
18.78714247639875
 30
0.0
 41
0.9999922557190161
 10
67.52923241866345
 20
18.94093055806198
 30
0.0
 41
0.9999999999995222
  0
SPLINE
  5
1B7
330
1F
100
AcDbEntity
  8
PREDEFINITO
100
AcDbSpline
210
0.0
220
0.0
230
1.0
 70
    12
 71
     2
 72
     6
 73
     3
 74
     0
 42
0.0000000001
 43
0.0000000001
 40
0.0
 40
0.0
 40
0.0
 40
0.0334536087122865
 40
0.0334536087122865
 40
0.0334536087122865
 10
67.52923241866345
 20
18.94093055806198
 30
0.0
 41
0.9999999999995546
 10
67.52058862636291
 20
18.95525085551947
 30
0.0
 41
0.9999993039664019
 10
67.51191116397325
 20
18.96955077548669
 30
0.0
 41
1.0
  0
POLYLINE
  5
1B8
330
1F
100
AcDbEntity
  8
PREDEFINITO
100
AcDb2dPolyline
 66
     1
 10
0.0
 20
0.0
 30
0.0
  0
VERTEX
  5
1BA
330
1B8
100
AcDbEntity
  8
PREDEFINITO
100
AcDbVertex
100
AcDb2dVertex
 10
67.51191116397325
 20
18.96955077548669
 30
0.0
  0
VERTEX
  5
1BB
330
1B8
100
AcDbEntity
  8
PREDEFINITO
100
AcDbVertex
100
AcDb2dVertex
 10
67.48628588450491
 20
19.0117796471406
 30
0.0
  0
SEQEND
  5
1B9
330
1B8
100
AcDbEntity
  8
PREDEFINITO
  0
SPLINE
  5
1BC
330
1F
100
AcDbEntity
  8
PREDEFINITO
100
AcDbSpline
210
0.0
220
0.0
230
1.0
 70
    12
 71
     2
 72
     6
 73
     3
 74
     0
 42
0.0000000001
 43
0.0000000001
 40
0.0675644247144878
 40
0.0675644247144878
 40
0.0675644247144878
 40
0.1018570972596948
 40
0.1018570972596948
 40
0.1018570972596948
 10
67.48628588450492
 20
19.0117796471406
 30
0.0
 41
0.9999177515183381
 10
67.47425707674293
 20
19.02399868929995
 30
0.0
 41
0.9999380029383939
 10
67.46207132843179
 20
19.03606122409035
 30
0.0
 41
0.9999999999996965
  0
SPLINE
  5
1BD
330
1F
100
AcDbEntity
  8
PREDEFINITO
100
AcDbSpline
210
0.0
220
0.0
230
1.0
 70
    12
 71
     2
 72
     6
 73
     3
 74
     0
 42
0.0000000001
 43
0.0000000001
 40
0.0
 40
0.0
 40
0.0
 40
0.0148329232226004
 40
0.0148329232226004
 40
0.0148329232226004
 10
67.46207132843179
 20
19.03606122409035
 30
0.0
 41
0.9999999999999667
 10
67.45684100397841
 20
19.04131932560944
 30
0.0
 41
0.9999996246858479
 10
67.451601469278
 20
19.04656824963629
 30
0.0
 41
1.0
  0
SPLINE
  5
1BE
330
1F
100
AcDbEntity
  8
PREDEFINITO
100
AcDbSpline
210
0.0
220
0.0
230
1.0
 70
    12
 71
     2
 72
     6
 73
     3
 74
     0
 42
0.0000000001
 43
0.0000000001
 40
0.0
 40
0.0
 40
0.0
 40
0.112897571719122
 40
0.112897571719122
 40
0.112897571719122
 10
67.451601469278
 20
19.04656824963629
 30
0.0
 41
1.0
 10
67.41169529038774
 20
19.08649302963243
 30
0.0
 41
0.9999939474772827
 10
67.37151197826807
 20
19.12613887012816
 30
0.0
 41
1.0
  0
SPLINE
  5
1BF
330
1F
100
AcDbEntity
  8
PREDEFINITO
100
AcDbSpline
210
0.0
220
0.0
230
1.0
 70
    12
 71
     2
 72
     6
 73
     3
 74
     0
 42
0.0000000001
 43
0.0000000001
 40
0.0
 40
0.0
 40
0.0
 40
0.0363553211717417
 40
0.0363553211717417
 40
0.0363553211717417
 10
67.37151197826807
 20
19.12613887012816
 30
0.0
 41
1.0
 10
67.35857925848113
 20
19.13891275553514
 30
0.0
 41
0.9999999369556154
 10
67.34563899927622
 20
19.15167900259225
 30
0.0
 41
0.9999999999999996
  0
SPLINE
  5
1C0
330
1F
100
AcDbEntity
  8
PREDEFINITO
100
AcDbSpline
210
0.0
220
0.0
230
1.0
 70
    12
 71
     2
 72
     6
 73
     3
 74
     0
 42
0.0000000001
 43
0.0000000001
 40
0.0
 40
0.0
 40
0.0
 40
0.0504491842663901
 40
0.0504491842663901
 40
0.0504491842663901
 10
67.34563899927622
 20
19.15167900259225
 30
0.0
 41
1.0
 10
67.32768234515272
 20
19.16939449398873
 30
0.0
 41
0.9999999834775584
 10
67.30971719237918
 20
19.18710136700941
 30
0.0
 41
1.0
  0
SPLINE
  5
1C1
330
1F
100
AcDbEntity
  8
PREDEFINITO
100
AcDbSpline
210
0.0
220
0.0
230
1.0
 70
    12
 71
     2
 72
     6
 73
     3
 74
     0
 42
0.0000000001
 43
0.0000000001
 40
0.0
 40
0.0
 40
0.0
 40
0.031970553211405
 40
0.031970553211405
 40
0.031970553211405
 10
67.30971719237918
 20
19.18710136700941
 30
0.0
 41
1.0
 10
67.29833296747022
 20
19.19832315353698
 30
0.0
 41
0.9999999994404457
 10
67.28695072290304
 20
19.20954694865844
 30
0.0
 41
1.0
  0
SPLINE
  5
1C2
330
1F
100
AcDbEntity
  8
PREDEFINITO
100
AcDbSpline
210
0.0
220
0.0
230
1.0
 70
    12
 71
     2
 72
     6
 73
     3
 74
     0
 42
0.0000000001
 43
0.0000000001
 40
0.0
 40
0.0
 40
0.0
 40
0.5891926582055271
 40
0.5891926582055271
 40
0.5891926582055271
 10
67.28695072290304
 20
19.20954694865844
 30
0.0
 41
0.9999999999995821
 10
67.0765034331888
 20
19.41572977226481
 30
0.0
 41
0.9998926684080713
 10
66.8721870354654
 20
19.627989585813
 30
0.0
 41
1.0
  0
SPLINE
  5
1C3
330
1F
100
AcDbEntity
  8
PREDEFINITO
100
AcDbSpline
210
0.0
220
0.0
230
1.0
 70
    12
 71
     2
 72
     6
 73
     3
 74
     0
 42
0.0000000001
 43
0.0000000001
 40
0.0
 40
0.0
 40
0.0
 40
0.0805415958372209
 40
0.0805415958372209
 40
0.0805415958372209
 10
66.8721870354654
 20
19.627989585813
 30
0.0
 41
1.0
 10
66.84436267670266
 20
19.65710236915273
 30
0.0
 41
0.9999944834071264
 10
66.81673239755526
 20
19.68639942369629
 30
0.0
 41
1.0
  0
SPLINE
  5
1C4
330
1F
100
AcDbEntity
  8
PREDEFINITO
100
AcDbSpline
210
0.0
220
0.0
230
1.0
 70
    12
 71
     2
 72
     6
 73
     3
 74
     0
 42
0.0000000001
 43
0.0000000001
 40
0.0
 40
0.0
 40
0.0
 40
0.1048628458197728
 40
0.1048628458197728
 40
0.1048628458197728
 10
66.81673239755526
 20
19.68639942369629
 30
0.0
 41
1.0
 10
66.7807603906136
 20
19.72454532984501
 30
0.0
 41
0.999988950375061
 10
66.74514862275642
 20
19.76302774921751
 30
0.0
 41
1.0
  0
SPLINE
  5
1C5
330
1F
100
AcDbEntity
  8
PREDEFINITO
100
AcDbSpline
210
0.0
220
0.0
230
1.0
 70
    12
 71
     2
 72
     6
 73
     3
 74
     0
 42
0.0000000001
 43
0.0000000001
 40
0.0
 40
0.0
 40
0.0
 40
0.1218838809318854
 40
0.1218838809318854
 40
0.1218838809318854
 10
66.74514862275642
 20
19.76302774921751
 30
0.0
 41
1.0
 10
66.70375714486526
 20
19.80775753896489
 30
0.0
 41
0.9999821436501914
 10
66.662902991799
 20
19.85297863343153
 30
0.0
 41
1.0
  0
SPLINE
  5
1C6
330
1F
100
AcDbEntity
  8
PREDEFINITO
100
AcDbSpline
210
0.0
220
0.0
230
1.0
 70
    12
 71
     2
 72
     6
 73
     3
 74
     0
 42
0.0000000001
 43
0.0000000001
 40
0.0
 40
0.0
 40
0.0
 40
0.0146809300923651
 40
0.0146809300923651
 40
0.0146809300923651
 10
66.662902991799
 20
19.85297863343153
 30
0.0
 41
1.0
 10
66.65798263097629
 20
19.85842588303952
 30
0.0
 41
0.9999997220202823
 10
66.65307065882645
 20
19.8638806908082
 30
0.0
 41
0.999999999999748
  0
SPLINE
  5
1C7
330
1F
100
AcDbEntity
  8
PREDEFINITO
100
AcDbSpline
210
0.0
220
0.0
230
1.0
 70
    12
 71
     2
 72
     6
 73
     3
 74
     0
 42
0.0000000001
 43
0.0000000001
 40
0.0
 40
0.0
 40
0.0
 40
0.1177827231795308
 40
0.1177827231795308
 40
0.1177827231795308
 10
66.65307065882645
 20
19.8638806908082
 30
0.0
 41
0.9999999999977593
 10
66.6136597368636
 20
19.9076421232586
 30
0.0
 41
0.9999801784666628
 10
66.57480386822981
 20
19.95189712566048
 30
0.0
 41
1.0
  0
SPLINE
  5
1C8
330
1F
100
AcDbEntity
  8
PREDEFINITO
100
AcDbSpline
210
0.0
220
0.0
230
1.0
 70
    12
 71
     2
 72
     6
 73
     3
 74
     0
 42
0.0000000001
 43
0.0000000001
 40
0.0
 40
0.0
 40
0.0
 40
0.3519006803165834
 40
0.3519006803165834
 40
0.3519006803165834
 10
66.57480386822981
 20
19.95189712566048
 30
0.0
 41
0.9999999999994482
 10
66.45862460267399
 20
20.08407335518168
 30
0.0
 41
0.9997661630043763
 10
66.34826784503085
 20
20.2211483841397
 30
0.0
 41
1.0
  0
SPLINE
  5
1C9
330
1F
100
AcDbEntity
  8
PREDEFINITO
100
AcDbSpline
210
0.0
220
0.0
230
1.0
 70
    12
 71
     2
 72
     6
 73
     3
 74
     0
 42
0.0000000001
 43
0.0000000001
 40
0.0
 40
0.0
 40
0.0
 40
0.1265402582137281
 40
0.1265402582137281
 40
0.1265402582137281
 10
66.34826784503085
 20
20.2211483841397
 30
0.0
 41
1.0
 10
66.30861792010354
 20
20.27045556615353
 30
0.0
 41
0.999961230055133
 10
66.26984237527161
 20
20.32045328470932
 30
0.0
 41
0.9999999999860157
  0
SPLINE
  5
1CA
330
1F
100
AcDbEntity
  8
PREDEFINITO
100
AcDbSpline
210
0.0
220
0.0
230
1.0
 70
    12
 71
     2
 72
     6
 73
     3
 74
     0
 42
0.0000000001
 43
0.0000000001
 40
0.0
 40
0.0
 40
0.0
 40
0.3449492588002303
 40
0.3449492588002303
 40
0.3449492588002303
 10
66.2698423752716
 20
20.32045328470932
 30
0.0
 41
0.9999999999543572
 10
66.16403368705988
 20
20.45671020173269
 30
0.0
 41
0.9996489033770941
 10
66.06559217614263
 20
20.59838128179296
 30
0.0
 41
1.0
  0
SPLINE
  5
1CB
330
1F
100
AcDbEntity
  8
PREDEFINITO
100
AcDbSpline
210
0.0
220
0.0
230
1.0
 70
    12
 71
     2
 72
     6
 73
     3
 74
     0
 42
0.0000000001
 43
0.0000000001
 40
0.0
 40
0.0
 40
0.0
 40
0.1037060581110435
 40
0.1037060581110435
 40
0.1037060581110435
 10
66.06559217614263
 20
20.59838128179296
 30
0.0
 41
1.0
 10
66.03602689974527
 20
20.64098137142359
 30
0.0
 41
0.9999619067850345
 10
66.00720961367821
 20
20.68409098135756
 30
0.0
 41
1.0
  0
SPLINE
  5
1CC
330
1F
100
AcDbEntity
  8
PREDEFINITO
100
AcDbSpline
210
0.0
220
0.0
230
1.0
 70
    12
 71
     2
 72
     6
 73
     3
 74
     0
 42
0.0000000001
 43
0.0000000001
 40
0.0
 40
0.0
 40
0.0
 40
0.140028845656052
 40
0.140028845656052
 40
0.140028845656052
 10
66.00720961367821
 20
20.68409098135756
 30
0.0
 41
1.0
 10
65.9682918612898
 20
20.74229690202372
 30
0.0
 41
0.9999235769770366
 10
65.9308251333155
 20
20.80144724669977
 30
0.0
 41
1.0
  0
SPLINE
  5
1CD
330
1F
100
AcDbEntity
  8
PREDEFINITO
100
AcDbSpline
210
0.0
220
0.0
230
1.0
 70
    12
 71
     2
 72
     6
 73
     3
 74
     0
 42
0.0000000001
 43
0.0000000001
 40
0.0
 40
0.0
 40
0.0
 40
0.1674607765157265
 40
0.1674607765157265
 40
0.1674607765157265
 10
65.9308251333155
 20
20.80144724669977
 30
0.0
 41
1.0
 10
65.88600689898571
 20
20.87218080287187
 30
0.0
 41
0.9998782915388568
 10
65.84341798446575
 20
20.94427861437732
 30
0.0
 41
0.9999999999005637
  0
SPLINE
  5
1CE
330
1F
100
AcDbEntity
  8
PREDEFINITO
100
AcDbSpline
210
0.0
220
0.0
230
1.0
 70
    12
 71
     2
 72
     6
 73
     3
 74
     0
 42
0.0000000001
 43
0.0000000001
 40
0.0
 40
0.0
 40
0.0
 40
0.0288860978202434
 40
0.0288860978202434
 40
0.0288860978202434
 10
65.84341798446573
 20
20.94427861437731
 30
0.0
 41
0.9999999999818374
 10
65.83607239846557
 20
20.95671421274487
 30
0.0
 41
0.9999961658408885
 10
65.82879735641555
 20
20.96919123203517
 30
0.0
 41
1.0
  0
SPLINE
  5
1CF
330
1F
100
AcDbEntity
  8
PREDEFINITO
100
AcDbSpline
210
0.0
220
0.0
230
1.0
 70
    12
 71
     2
 72
     6
 73
     3
 74
     0
 42
0.0000000001
 43
0.0000000001
 40
0.0
 40
0.0
 40
0.0
 40
0.2246580869224475
 40
0.2246580869224475
 40
0.2246580869224475
 10
65.82879735641555
 20
20.96919123203517
 30
0.0
 41
1.0
 10
65.7721855922463
 20
21.06623320028349
 30
0.0
 41
0.9997493899310016
 10
65.71997455401436
 20
21.16571204388976
 30
0.0
 41
1.0
  0
SPLINE
  5
1D0
330
1F
100
AcDbEntity
  8
PREDEFINITO
100
AcDbSpline
210
0.0
220
0.0
230
1.0
 70
    12
 71
     2
 72
     6
 73
     3
 74
     0
 42
0.0000000001
 43
0.0000000001
 40
0.0
 40
0.0
 40
0.0
 40
0.0481777417929871
 40
0.0481777417929871
 40
0.0481777417929871
 10
65.71997455401436
 20
21.16571204388976
 30
0.0
 41
1.0
 10
65.7087889537124
 20
21.18704666041084
 30
0.0
 41
0.9999874987366496
 10
65.69781326768296
 20
21.20849001641074
 30
0.0
 41
0.9999999999961973
  0
SPLINE
  5
1D1
330
1F
100
AcDbEntity
  8
PREDEFINITO
100
AcDbSpline
210
0.0
220
0.0
230
1.0
 70
    12
 71
     2
 72
     6
 73
     3
 74
     0
 42
0.0000000001
 43
0.0000000001
 40
0.0
 40
0.0
 40
0.0
 40
0.5711862703837617
 40
0.5711862703837617
 40
0.5711862703837617
 10
65.69781326768296
 20
21.20849001641074
 30
0.0
 41
0.9999999999669011
 10
65.56714274433267
 20
21.46288289643243
 30
0.0
 41
0.9979175331006871
 10
65.4703111503761
 20
21.73198169889498
 30
0.0
 41
0.9999999999985476
  0
SPLINE
  5
1D2
330
1F
100
AcDbEntity
  8
PREDEFINITO
100
AcDbSpline
210
0.0
220
0.0
230
1.0
 70
    12
 71
     2
 72
     6
 73
     3
 74
     0
 42
0.0000000001
 43
0.0000000001
 40
0.0
 40
0.0
 40
0.0
 40
0.3329841575769151
 40
0.3329841575769151
 40
0.3329841575769151
 10
65.4703111503761
 20
21.73198169889498
 30
0.0
 41
0.9999999999997689
 10
65.41406901945938
 20
21.88878633250896
 30
0.0
 41
0.9991551874129294
 10
65.37089465007313
 20
22.04968022375829
 30
0.0
 41
0.9999999999986944
  0
SPLINE
  5
1D3
330
1F
100
AcDbEntity
  8
PREDEFINITO
100
AcDbSpline
210
0.0
220
0.0
230
1.0
 70
    12
 71
     2
 72
     6
 73
     3
 74
     0
 42
0.0000000001
 43
0.0000000001
 40
0.0
 40
0.0
 40
0.0
 40
0.2844516143755902
 40
0.2844516143755902
 40
0.2844516143755902
 10
65.37089465007313
 20
22.04968022375829
 30
0.0
 41
1.0
 10
65.33408286548271
 20
22.18712252472791
 30
0.0
 41
0.9993586088096615
 10
65.3072010789426
 20
22.32684677444273
 30
0.0
 41
1.0
  0
SPLINE
  5
1D4
330
1F
100
AcDbEntity
  8
PREDEFINITO
100
AcDbSpline
210
0.0
220
0.0
230
1.0
 70
    12
 71
     2
 72
     6
 73
     3
 74
     0
 42
0.0000000001
 43
0.0000000001
 40
0.0
 40
0.0
 40
0.0
 40
0.0422724371435193
 40
0.0422724371435193
 40
0.0422724371435193
 10
65.3072010789426
 20
22.32684677444273
 30
0.0
 41
1.0
 10
65.30320446208941
 20
22.34760189951825
 30
0.0
 41
0.9999865708918234
 10
65.29942419414743
 20
22.36839750744374
 30
0.0
 41
0.9999999999999982
  0
SPLINE
  5
1D5
330
1F
100
AcDbEntity
  8
PREDEFINITO
100
AcDbSpline
210
0.0
220
0.0
230
1.0
 70
    12
 71
     2
 72
     6
 73
     3
 74
     0
 42
0.0000000001
 43
0.0000000001
 40
0.0
 40
0.0
 40
0.0
 40
0.3343395897343852
 40
0.3343395897343852
 40
0.3343395897343852
 10
65.29942419414743
 20
22.36839750744374
 30
0.0
 41
0.9999999999998876
 10
65.26953470255815
 20
22.53296410741241
 30
0.0
 41
0.999200867593858
 10
65.25288337910169
 20
22.69939211276691
 30
0.0
 41
0.9999999999941163
  0
SPLINE
  5
1D6
330
1F
100
AcDbEntity
  8
PREDEFINITO
100
AcDbSpline
210
0.0
220
0.0
230
1.0
 70
    12
 71
     2
 72
     6
 73
     3
 74
     0
 42
0.0000000001
 43
0.0000000001
 40
0.0
 40
0.0
 40
0.0
 40
0.284143801349625
 40
0.284143801349625
 40
0.284143801349625
 10
65.25288337910169
 20
22.69939211276691
 30
0.0
 41
0.9999999999966716
 10
65.23871754344516
 20
22.84080448142068
 30
0.0
 41
0.9994911250531388
 10
65.23359689296198
 20
22.98283232323472
 30
0.0
 41
0.9999999999968774
  0
SPLINE
  5
1D7
330
1F
100
AcDbEntity
  8
PREDEFINITO
100
AcDbSpline
210
0.0
220
0.0
230
1.0
 70
    12
 71
     2
 72
     6
 73
     3
 74
     0
 42
0.0000000001
 43
0.0000000001
 40
0.0
 40
0.0
 40
0.0
 40
0.703678421632428
 40
0.703678421632428
 40
0.703678421632428
 10
65.23359689296198
 20
22.98283232323472
 30
0.0
 41
0.9999999999555242
 10
65.22150202907656
 20
23.33505152631141
 30
0.0
 41
0.9975009428174747
 10
65.25917905694443
 20
23.68545857043345
 30
0.0
 41
1.0
  0
SPLINE
  5
1D8
330
1F
100
AcDbEntity
  8
PREDEFINITO
100
AcDbSpline
210
0.0
220
0.0
230
1.0
 70
    12
 71
     2
 72
     6
 73
     3
 74
     0
 42
0.0000000001
 43
0.0000000001
 40
0.0
 40
0.0
 40
0.0
 40
0.0716404444402875
 40
0.0716404444402875
 40
0.0716404444402875
 10
65.25917905694443
 20
23.68545857043345
 30
0.0
 41
0.9999999999999551
 10
65.26293601811831
 20
23.72108175181387
 30
0.0
 41
0.99997808719411
 10
65.26716311224101
 20
23.75665222955396
 30
0.0
 41
1.0
  0
SPLINE
  5
1D9
330
1F
100
AcDbEntity
  8
PREDEFINITO
100
AcDbSpline
210
0.0
220
0.0
230
1.0
 70
    12
 71
     2
 72
     6
 73
     3
 74
     0
 42
0.0000000001
 43
0.0000000001
 40
0.0
 40
0.0
 40
0.0
 40
0.5936290089693438
 40
0.5936290089693438
 40
0.5936290089693438
 10
65.26716311224101
 20
23.75665222955396
 30
0.0
 41
1.0
 10
65.30257956443107
 20
24.05159156184783
 30
0.0
 41
0.9987703420692852
 10
65.36702861084751
 20
24.34157404977348
 30
0.0
 41
0.9999999999948763
  0
SPLINE
  5
1DA
330
1F
100
AcDbEntity
  8
PREDEFINITO
100
AcDbSpline
210
0.0
220
0.0
230
1.0
 70
    12
 71
     2
 72
     6
 73
     3
 74
     0
 42
0.0000000001
 43
0.0000000001
 40
0.0
 40
0.0
 40
0.0
 40
0.8640177402884183
 40
0.8640177402884183
 40
0.8640177402884183
 10
65.36702861084751
 20
24.34157404977348
 30
0.0
 41
0.9999999999907134
 10
65.46131793422181
 20
24.76369159535004
 30
0.0
 41
0.9982277220787824
 10
65.6050924623821
 20
25.1716163574878
 30
0.0
 41
1.0
  0
SPLINE
  5
1DB
330
1F
100
AcDbEntity
  8
PREDEFINITO
100
AcDbSpline
210
0.0
220
0.0
230
1.0
 70
    12
 71
     2
 72
     6
 73
     3
 74
     0
 42
0.0000000001
 43
0.0000000001
 40
0.0
 40
0.0
 40
0.0
 40
0.7886466923089354
 40
0.7886466923089354
 40
0.7886466923089354
 10
65.6050924623821
 20
25.1716163574878
 30
0.0
 41
1.0
 10
65.73599938591222
 20
25.54384696876908
 30
0.0
 41
0.999030140732565
 10
65.8991463565373
 20
25.90311746826287
 30
0.0
 41
0.9999999999894131
  0
SPLINE
  5
1DC
330
1F
100
AcDbEntity
  8
PREDEFINITO
100
AcDbSpline
210
0.0
220
0.0
230
1.0
 70
    12
 71
     2
 72
     6
 73
     3
 74
     0
 42
0.0000000001
 43
0.0000000001
 40
0.0
 40
0.0
 40
0.0
 40
0.953008785637078
 40
0.953008785637078
 40
0.953008785637078
 10
65.8991463565373
 20
25.90311746826287
 30
0.0
 41
0.9999999999915272
 10
66.09637423758548
 20
26.33722507883404
 30
0.0
 41
0.999037282151839
 10
66.33088914259275
 20
26.75237697761608
 30
0.0
 41
1.0
  0
SPLINE
  5
1DD
330
1F
100
AcDbEntity
  8
PREDEFINITO
100
AcDbSpline
210
0.0
220
0.0
230
1.0
 70
    12
 71
     2
 72
     6
 73
     3
 74
     0
 42
0.0000000001
 43
0.0000000001
 40
0.0
 40
0.0
 40
0.0
 40
0.9258997689268098
 40
0.9258997689268098
 40
0.9258997689268098
 10
66.33088914259275
 20
26.75237697761608
 30
0.0
 41
1.0
 10
66.55850409567135
 20
27.15573896563106
 30
0.0
 41
0.9993469380107953
 10
66.81466651658664
 20
27.54160189002597
 30
0.0
 41
1.0
  0
SPLINE
  5
1DE
330
1F
100
AcDbEntity
  8
PREDEFINITO
100
AcDbSpline
210
0.0
220
0.0
230
1.0
 70
    12
 71
     2
 72
     6
 73
     3
 74
     0
 42
0.0000000001
 43
0.0000000001
 40
0.0
 40
0.0
 40
0.0
 40
0.381237221604619
 40
0.381237221604619
 40
0.381237221604619
 10
66.81466651658664
 20
27.54160189002597
 30
0.0
 41
1.0
 10
66.91998768570204
 20
27.70049640603838
 30
0.0
 41
0.9999048165605777
 10
67.02964461156982
 20
27.85643028186713
 30
0.0
 41
0.9999999998645378
  0
SPLINE
  5
1DF
330
1F
100
AcDbEntity
  8
PREDEFINITO
100
AcDbSpline
210
0.0
220
0.0
230
1.0
 70
    12
 71
     2
 72
     6
 73
     3
 74
     0
 42
0.0000000001
 43
0.0000000001
 40
0.0
 40
0.0
 40
0.0
 40
0.4209639047584227
 40
0.4209639047584227
 40
0.4209639047584227
 10
67.02964461156981
 20
27.85643028186713
 30
0.0
 41
0.9999999998619529
 10
67.15073183747951
 20
28.02861275433033
 30
0.0
 41
0.9998929083282869
 10
67.27680875287083
 20
28.19717589234996
 30
0.0
 41
0.9999999999954743
  0
SPLINE
  5
1E0
330
1F
100
AcDbEntity
  8
PREDEFINITO
100
AcDbSpline
210
0.0
220
0.0
230
1.0
 70
    12
 71
     2
 72
     6
 73
     3
 74
     0
 42
0.0000000001
 43
0.0000000001
 40
0.0
 40
0.0
 40
0.0
 40
0.0315245564927124
 40
0.0315245564927124
 40
0.0315245564927124
 10
67.27680875287083
 20
28.19717589234996
 30
0.0
 41
0.9999999999996765
 10
67.28624915725605
 20
28.20979842102236
 30
0.0
 41
0.9999994270326809
 10
67.29571680120056
 20
28.22240054035189
 30
0.0
 41
1.0
  0
SPLINE
  5
1E1
330
1F
100
AcDbEntity
  8
PREDEFINITO
100
AcDbSpline
210
0.0
220
0.0
230
1.0
 70
    12
 71
     2
 72
     6
 73
     3
 74
     0
 42
0.0000000001
 43
0.0000000001
 40
0.0
 40
0.0
 40
0.0
 40
0.4125677653996825
 40
0.4125677653996825
 40
0.4125677653996825
 10
67.29571680120056
 20
28.22240054035189
 30
0.0
 41
1.0
 10
67.41963820923712
 20
28.38733130158725
 30
0.0
 41
0.9999008169688997
 10
67.54815467424478
 20
28.54870721860268
 30
0.0
 41
0.9999999999999916
  0
SPLINE
  5
1E2
330
1F
100
AcDbEntity
  8
PREDEFINITO
100
AcDbSpline
210
0.0
220
0.0
230
1.0
 70
    12
 71
     2
 72
     6
 73
     3
 74
     0
 42
0.0000000001
 43
0.0000000001
 40
0.0
 40
0.0
 40
0.0
 40
0.0614423052529023
 40
0.0614423052529023
 40
0.0614423052529023
 10
67.54815467424478
 20
28.54870721860268
 30
0.0
 41
0.9999999999999984
 10
67.56729245304692
 20
28.57273922664422
 30
0.0
 41
0.9999977994669054
 10
67.58653221841908
 20
28.59668966771034
 30
0.0
 41
1.0
  0
SPLINE
  5
1E3
330
1F
100
AcDbEntity
  8
PREDEFINITO
100
AcDbSpline
210
0.0
220
0.0
230
1.0
 70
    12
 71
     2
 72
     6
 73
     3
 74
     0
 42
0.0000000001
 43
0.0000000001
 40
0.0
 40
0.0
 40
0.0
 40
0.357809386234791
 40
0.357809386234791
 40
0.357809386234791
 10
67.58653221841908
 20
28.59668966771034
 30
0.0
 41
1.0
 10
67.69856892713781
 20
28.73618098393273
 30
0.0
 41
0.9999259378390853
 10
67.81396696595951
 20
28.87290458404076
 30
0.0
 41
1.0
  0
SPLINE
  5
1E4
330
1F
100
AcDbEntity
  8
PREDEFINITO
100
AcDbSpline
210
0.0
220
0.0
230
1.0
 70
    12
 71
     2
 72
     6
 73
     3
 74
     0
 42
0.0000000001
 43
0.0000000001
 40
0.0
 40
0.0
 40
0.0
 40
0.4849744602250156
 40
0.4849744602250156
 40
0.4849744602250156
 10
67.81396696595951
 20
28.87290458404076
 30
0.0
 41
1.0
 10
67.97038701162661
 20
29.05822443448109
 30
0.0
 41
0.9998645534674909
 10
68.13282142619732
 20
29.23829591644098
 30
0.0
 41
0.9999999999999907
  0
SPLINE
  5
1E5
330
1F
100
AcDbEntity
  8
PREDEFINITO
100
AcDbSpline
210
0.0
220
0.0
230
1.0
 70
    12
 71
     2
 72
     6
 73
     3
 74
     0
 42
0.0000000001
 43
0.0000000001
 40
0.0
 40
0.0
 40
0.0
 40
0.0643978636024439
 40
0.0643978636024439
 40
0.0643978636024439
 10
68.13282142619732
 20
29.23829591644098
 30
0.0
 41
0.9999999999999996
 10
68.15438696703312
 20
29.26220620215481
 30
0.0
 41
0.9999976674302758
 10
68.17605574282334
 20
29.28602297083133
 30
0.0
 41
0.9999999999997324
  0
SPLINE
  5
1E6
330
1F
100
AcDbEntity
  8
PREDEFINITO
100
AcDbSpline
210
0.0
220
0.0
230
1.0
 70
    12
 71
     2
 72
     6
 73
     3
 74
     0
 42
0.0000000001
 43
0.0000000001
 40
0.0
 40
0.0
 40
0.0
 40
0.366348616062455
 40
0.366348616062455
 40
0.366348616062455
 10
68.17605574282334
 20
29.28602297083133
 30
0.0
 41
0.9999999999985119
 10
68.2993365706126
 20
29.42151454737112
 30
0.0
 41
0.9999261561821016
 10
68.42587409969022
 20
29.5539697607405
 30
0.0
 41
0.9999999999988811
  0
SPLINE
  5
1E7
330
1F
100
AcDbEntity
  8
PREDEFINITO
100
AcDbSpline
210
0.0
220
0.0
230
1.0
 70
    12
 71
     2
 72
     6
 73
     3
 74
     0
 42
0.0000000001
 43
0.0000000001
 40
0.0
 40
0.0
 40
0.0
 40
0.5508302283385974
 40
0.5508302283385974
 40
0.5508302283385974
 10
68.42587409969022
 20
29.5539697607405
 30
0.0
 41
0.9999999999984708
 10
68.61617071247497
 20
29.75310879554163
 30
0.0
 41
0.9998450779965621
 10
68.8133585594445
 20
29.94542652551256
 30
0.0
 41
1.0
  0
SPLINE
  5
1E8
330
1F
100
AcDbEntity
  8
PREDEFINITO
100
AcDbSpline
210
0.0
220
0.0
230
1.0
 70
    12
 71
     2
 72
     6
 73
     3
 74
     0
 42
0.0000000001
 43
0.0000000001
 40
0.0
 40
0.0
 40
0.0
 40
0.0566296296555869
 40
0.0566296296555869
 40
0.0566296296555869
 10
68.8133585594445
 20
29.94542652551256
 30
0.0
 41
1.0
 10
68.83362774974569
 20
29.96519747206134
 30
0.0
 41
0.9999984650692438
 10
68.85396641345197
 20
29.9848969425755
 30
0.0
 41
0.9999999999999998
  0
SPLINE
  5
1E9
330
1F
100
AcDbEntity
  8
PREDEFINITO
100
AcDbSpline
210
0.0
220
0.0
230
1.0
 70
    12
 71
     2
 72
     6
 73
     3
 74
     0
 42
0.0000000001
 43
0.0000000001
 40
0.0
 40
0.0
 40
0.0
 40
0.4313446030668565
 40
0.4313446030668565
 40
0.4313446030668565
 10
68.85396641345197
 20
29.9848969425755
 30
0.0
 41
1.0
 10
69.00891334608905
 20
30.13493473924803
 30
0.0
 41
0.9999137354792789
 10
69.16774714424503
 20
30.28085156148873
 30
0.0
 41
1.0
  0
SPLINE
  5
1EA
330
1F
100
AcDbEntity
  8
PREDEFINITO
100
AcDbSpline
210
0.0
220
0.0
230
1.0
 70
    12
 71
     2
 72
     6
 73
     3
 74
     0
 42
0.0000000001
 43
0.0000000001
 40
0.0
 40
0.0
 40
0.0
 40
0.0567017158255598
 40
0.0567017158255598
 40
0.0567017158255598
 10
69.16774714424503
 20
30.28085156148873
 30
0.0
 41
1.0
 10
69.18862404903552
 20
30.30003300437925
 30
0.0
 41
0.9999986194575372
 10
69.20956448972449
 20
30.31914505761398
 30
0.0
 41
1.0
  0
SPLINE
  5
1EB
330
1F
100
AcDbEntity
  8
PREDEFINITO
100
AcDbSpline
210
0.0
220
0.0
230
1.0
 70
    12
 71
     2
 72
     6
 73
     3
 74
     0
 42
0.0000000001
 43
0.0000000001
 40
0.0
 40
0.0
 40
0.0
 40
0.4297861928763639
 40
0.4297861928763639
 40
0.4297861928763639
 10
69.20956448972449
 20
30.31914505761398
 30
0.0
 41
1.0
 10
69.3683149772346
 20
30.4639968351707
 30
0.0
 41
0.9999234798091701
 10
69.53060059348462
 20
30.60487668983519
 30
0.0
 41
0.9999999999997029
  0
SPLINE
  5
1EC
330
1F
100
AcDbEntity
  8
PREDEFINITO
100
AcDbSpline
210
0.0
220
0.0
230
1.0
 70
    12
 71
     2
 72
     6
 73
     3
 74
     0
 42
0.0000000001
 43
0.0000000001
 40
0.0
 40
0.0
 40
0.0
 40
0.4827367728939708
 40
0.4827367728939708
 40
0.4827367728939708
 10
69.53060059348462
 20
30.60487668983519
 30
0.0
 41
0.9999999999997005
 10
69.71288755183998
 20
30.76310683219316
 30
0.0
 41
0.9999147727816899
 10
69.89924312803694
 20
30.91652427695861
 30
0.0
 41
0.9999999999917062
  0
SPLINE
  5
1ED
330
1F
100
AcDbEntity
  8
PREDEFINITO
100
AcDbSpline
210
0.0
220
0.0
230
1.0
 70
    12
 71
     2
 72
     6
 73
     3
 74
     0
 42
0.0000000001
 43
0.0000000001
 40
0.0
 40
0.0
 40
0.0
 40
0.7182061073421913
 40
0.7182061073421913
 40
0.7182061073421913
 10
69.89924312803694
 20
30.91652427695861
 30
0.0
 41
0.9999999999897131
 10
70.17656114703894
 20
31.14472703361573
 30
0.0
 41
0.9998442378391604
 10
70.46176166225123
 20
31.36299856751779
 30
0.0
 41
1.0
  0
SPLINE
  5
1EE
330
1F
100
AcDbEntity
  8
PREDEFINITO
100
AcDbSpline
210
0.0
220
0.0
230
1.0
 70
    12
 71
     2
 72
     6
 73
     3
 74
     0
 42
0.0000000001
 43
0.0000000001
 40
0.0
 40
0.0
 40
0.0
 40
0.1719215871746011
 40
0.1719215871746011
 40
0.1719215871746011
 10
70.46176166225123
 20
31.36299856751779
 30
0.0
 41
1.0
 10
70.53001012611315
 20
31.41526215501862
 30
0.0
 41
0.9999924968508579
 10
70.59866041267236
 20
31.46699676734486
 30
0.0
 41
0.9999999999999982
  0
SPLINE
  5
1EF
330
1F
100
AcDbEntity
  8
PREDEFINITO
100
AcDbSpline
210
0.0
220
0.0
230
1.0
 70
    12
 71
     2
 72
     6
 73
     3
 74
     0
 42
0.0000000001
 43
0.0000000001
 40
0.0
 40
0.0
 40
0.0
 40
0.779563866094696
 40
0.779563866094696
 40
0.779563866094696
 10
70.59866041267236
 20
31.46699676734486
 30
0.0
 41
0.9999999999998981
 10
70.91006679197874
 20
31.70148006604952
 30
0.0
 41
0.9998696720233927
 10
71.22888090928885
 20
31.92578768751646
 30
0.0
 41
0.9999999999912468
  0
SPLINE
  5
1F0
330
1F
100
AcDbEntity
  8
PREDEFINITO
100
AcDbSpline
210
0.0
220
0.0
230
1.0
 70
    12
 71
     2
 72
     6
 73
     3
 74
     0
 42
0.0000000001
 43
0.0000000001
 40
0.0
 40
0.0
 40
0.0
 40
0.1711739463239516
 40
0.1711739463239516
 40
0.1711739463239516
 10
71.22888090928885
 20
31.92578768751646
 30
0.0
 41
0.9999999999984459
 10
71.29885308161525
 20
31.97507331831991
 30
0.0
 41
0.9999948265544656
 10
71.36914247526113
 20
32.02390547423364
 30
0.0
 41
1.0
  0
SPLINE
  5
1F1
330
1F
100
AcDbEntity
  8
PREDEFINITO
100
AcDbSpline
210
0.0
220
0.0
230
1.0
 70
    12
 71
     2
 72
     6
 73
     3
 74
     0
 42
0.0000000001
 43
0.0000000001
 40
0.0
 40
0.0
 40
0.0
 40
0.5988757848284462
 40
0.5988757848284462
 40
0.5988757848284462
 10
71.36914247526113
 20
32.02390547423364
 30
0.0
 41
1.0
 10
71.61509823082194
 20
32.19471227689871
 30
0.0
 41
0.9999485952018415
 10
71.86446580782005
 20
32.36049831017687
 30
0.0
 41
0.9999999999999898
  0
SPLINE
  5
1F2
330
1F
100
AcDbEntity
  8
PREDEFINITO
100
AcDbSpline
210
0.0
220
0.0
230
1.0
 70
    12
 71
     2
 72
     6
 73
     3
 74
     0
 42
0.0000000001
 43
0.0000000001
 40
0.0
 40
0.0
 40
0.0
 40
0.2493118509990952
 40
0.2493118509990952
 40
0.2493118509990952
 10
71.86446580782005
 20
32.36049831017687
 30
0.0
 41
0.9999999999999993
 10
71.96825870517986
 20
32.42953656485084
 30
0.0
 41
0.9999929345072953
 10
72.07256783587246
 20
32.49779234546867
 30
0.0
 41
1.0
  0
SPLINE
  5
1F3
330
1F
100
AcDbEntity
  8
PREDEFINITO
100
AcDbSpline
210
0.0
220
0.0
230
1.0
 70
    12
 71
     2
 72
     6
 73
     3
 74
     0
 42
0.0000000001
 43
0.0000000001
 40
0.0
 40
0.0
 40
0.0
 40
0.1140052153295248
 40
0.1140052153295248
 40
0.1140052153295248
 10
72.07256783587246
 20
32.49779234546867
 30
0.0
 41
1.0
 10
72.12026528869082
 20
32.52900541899055
 30
0.0
 41
0.9999987051186978
 10
72.16806294044294
 20
32.56006483571789
 30
0.0
 41
0.999999999999996
  0
SPLINE
  5
1F4
330
1F
100
AcDbEntity
  8
PREDEFINITO
100
AcDbSpline
210
0.0
220
0.0
230
1.0
 70
    12
 71
     2
 72
     6
 73
     3
 74
     0
 42
0.0000000001
 43
0.0000000001
 40
0.0
 40
0.0
 40
0.0
 40
0.1215795514330747
 40
0.1215795514330747
 40
0.1215795514330747
 10
72.16806294044294
 20
32.56006483571789
 30
0.0
 41
0.9999999999999958
 10
72.219036404483
 20
32.59318748282598
 30
0.0
 41
0.9999985860605958
 10
72.27012111746818
 20
32.62613829294482
 30
0.0
 41
1.0
  0
SPLINE
  5
1F5
330
1F
100
AcDbEntity
  8
PREDEFINITO
100
AcDbSpline
210
0.0
220
0.0
230
1.0
 70
    12
 71
     2
 72
     6
 73
     3
 74
     0
 42
0.0000000001
 43
0.0000000001
 40
0.0
 40
0.0
 40
0.0
 40
0.2828762822009946
 40
0.2828762822009946
 40
0.2828762822009946
 10
72.27012111746818
 20
32.62613829294482
 30
0.0
 41
1.0
 10
72.38898022951291
 20
32.7028027321559
 30
0.0
 41
0.9999933609814239
 10
72.5083946340012
 20
32.77859933335931
 30
0.0
 41
0.9999999999999705
  0
SPLINE
  5
1F6
330
1F
100
AcDbEntity
  8
PREDEFINITO
100
AcDbSpline
210
0.0
220
0.0
230
1.0
 70
    12
 71
     2
 72
     6
 73
     3
 74
     0
 42
0.0000000001
 43
0.0000000001
 40
0.0
 40
0.0
 40
0.0
 40
0.0230983889999533
 40
0.0230983889999533
 40
0.0230983889999533
 10
72.5083946340012
 20
32.77859933335931
 30
0.0
 41
0.999999999999998
 10
72.51814473375087
 20
32.78478960383784
 30
0.0
 41
0.999999960350034
 10
72.52789875839196
 20
32.79097368802979
 30
0.0
 41
1.0
  0
SPLINE
  5
1F7
330
1F
100
AcDbEntity
  8
PREDEFINITO
100
AcDbSpline
210
0.0
220
0.0
230
1.0
 70
    12
 71
     2
 72
     6
 73
     3
 74
     0
 42
0.0000000001
 43
0.0000000001
 40
0.0
 40
0.0
 40
0.0
 40
0.8292174375702656
 40
0.8292174375702656
 40
0.8292174375702656
 10
72.52789875839196
 20
32.79097368802979
 30
0.0
 41
1.0
 10
72.87820229833241
 20
33.01277420066893
 30
0.0
 41
0.9999666354582958
 10
73.23208236165398
 20
33.22882266287448
 30
0.0
 41
1.0
  0
SPLINE
  5
1F8
330
1F
100
AcDbEntity
  8
PREDEFINITO
100
AcDbSpline
210
0.0
220
0.0
230
1.0
 70
    12
 71
     2
 72
     6
 73
     3
 74
     0
 42
0.0000000001
 43
0.0000000001
 40
0.0
 40
0.0
 40
0.0
 40
7.563443247813431
 40
7.563443247813431
 40
7.563443247813431
 10
73.23208236165398
 20
33.22882266287448
 30
0.0
 41
0.9999999999999967
 10
76.45494680981984
 20
35.20775614531709
 30
0.0
 41
0.9999153390968015
 10
79.7282156463487
 20
37.1021542299321
 30
0.0
 41
1.0
  0
POLYLINE
  5
1F9
330
1F
100
AcDbEntity
  8
PREDEFINITO
100
AcDb2dPolyline
 66
     1
 10
0.0
 20
0.0
 30
0.0
  0
VERTEX
  5
1FB
330
1F9
100
AcDbEntity
  8
PREDEFINITO
100
AcDbVertex
100
AcDb2dVertex
 10
79.7282156463487
 20
37.1021542299321
 30
0.0
  0
VERTEX
  5
1FC
330
1F9
100
AcDbEntity
  8
PREDEFINITO
100
AcDbVertex
100
AcDb2dVertex
 10
79.87279752943913
 20
37.18583071850522
 30
0.0
  0
SEQEND
  5
1FA
330
1F9
100
AcDbEntity
  8
PREDEFINITO
  0
SPLINE
  5
1FD
330
1F
100
AcDbEntity
  8
LINEE VISIBILI 2D
100
AcDbSpline
210
0.0
220
0.0
230
1.0
 70
    12
 71
     2
 72
     6
 73
     3
 74
     0
 42
0.0000000001
 43
0.0000000001
 40
0.0
 40
0.0
 40
0.0
 40
0.0911851327764228
 40
0.0911851327764228
 40
0.0911851327764228
 10
72.97845102636603
 20
13.21469164564292
 30
0.0
 41
1.0
 10
72.94723751700185
 20
13.24793161231839
 30
0.0
 41
0.9998206466160668
 10
72.91478664246495
 20
13.27996470918692
 30
0.0
 41
0.9999999999339331
  0
SPLINE
  5
1FE
330
1F
100
AcDbEntity
  8
LINEE VISIBILI 2D
100
AcDbSpline
210
0.0
220
0.0
230
1.0
 70
    12
 71
     2
 72
     6
 73
     3
 74
     0
 42
0.0000000001
 43
0.0000000001
 40
0.0
 40
0.0
 40
0.0
 40
0.0759851164798356
 40
0.0759851164798356
 40
0.0759851164798356
 10
72.91478664246495
 20
13.27996470918692
 30
0.0
 41
0.9999999999881546
 10
72.88790016154836
 20
13.30680844609618
 30
0.0
 41
0.9999815486483151
 10
72.86069053057454
 20
13.33332457416619
 30
0.0
 41
0.9999999999999831
  0
SPLINE
  5
1FF
330
1F
100
AcDbEntity
  8
LINEE VISIBILI 2D
100
AcDbSpline
210
0.0
220
0.0
230
1.0
 70
    12
 71
     2
 72
     6
 73
     3
 74
     0
 42
0.0000000001
 43
0.0000000001
 40
0.0
 40
0.0
 40
0.0
 40
0.0405953387744993
 40
0.0405953387744993
 40
0.0405953387744993
 10
72.86069053057454
 20
13.33332457416619
 30
0.0
 41
0.9999999999999991
 10
72.84615825402126
 20
13.34749531990094
 30
0.0
 41
0.9999968797185325
 10
72.83155510271882
 20
13.36159301744192
 30
0.0
 41
1.0
  0
SPLINE
  5
200
330
1F
100
AcDbEntity
  8
LINEE VISIBILI 2D
100
AcDbSpline
210
0.0
220
0.0
230
1.0
 70
    12
 71
     2
 72
     6
 73
     3
 74
     0
 42
0.0000000001
 43
0.0000000001
 40
0.0
 40
0.0
 40
0.0
 40
0.2390740763666141
 40
0.2390740763666141
 40
0.2390740763666141
 10
72.83155510271882
 20
13.36159301744192
 30
0.0
 41
1.0
 10
72.74547354171689
 20
13.44453862248754
 30
0.0
 41
0.99995250140356
 10
72.6577916938582
 20
13.52579071163447
 30
0.0
 41
0.9999999999997717
  0
SPLINE
  5
201
330
1F
100
AcDbEntity
  8
LINEE VISIBILI 2D
100
AcDbSpline
210
0.0
220
0.0
230
1.0
 70
    12
 71
     2
 72
     6
 73
     3
 74
     0
 42
0.0000000001
 43
0.0000000001
 40
0.0
 40
0.0
 40
0.0
 40
0.0284042149696405
 40
0.0284042149696405
 40
0.0284042149696405
 10
72.6577916938582
 20
13.52579071163447
 30
0.0
 41
0.9999999999999849
 10
72.64738454428502
 20
13.53545462258689
 30
0.0
 41
0.9999996634890258
 10
72.63696158069297
 20
13.54510147529078
 30
0.0
 41
0.9999999999999978
  0
SPLINE
  5
202
330
1F
100
AcDbEntity
  8
LINEE VISIBILI 2D
100
AcDbSpline
210
0.0
220
0.0
230
1.0
 70
    12
 71
     2
 72
     6
 73
     3
 74
     0
 42
0.0000000001
 43
0.0000000001
 40
0.0
 40
0.0
 40
0.0
 40
0.2159731203757971
 40
0.2159731203757971
 40
0.2159731203757971
 10
72.63696158069297
 20
13.54510147529078
 30
0.0
 41
0.9999999999999902
 10
72.55768526030901
 20
13.61842646975274
 30
0.0
 41
0.9999876119221602
 10
72.47768293395778
 20
13.69095865271149
 30
0.0
 41
1.0
  0
SPLINE
  5
203
330
1F
100
AcDbEntity
  8
LINEE VISIBILI 2D
100
AcDbSpline
210
0.0
220
0.0
230
1.0
 70
    12
 71
     2
 72
     6
 73
     3
 74
     0
 42
0.0000000001
 43
0.0000000001
 40
0.0
 40
0.0
 40
0.0
 40
0.1340100297890809
 40
0.1340100297890809
 40
0.1340100297890809
 10
72.47768293395778
 20
13.69095865271149
 30
0.0
 41
1.0
 10
72.42805366231497
 20
13.73597667908199
 30
0.0
 41
0.9999974468142415
 10
72.37822154220757
 20
13.78077006149213
 30
0.0
 41
0.9999999999999984
  0
SPLINE
  5
204
330
1F
100
AcDbEntity
  8
LINEE VISIBILI 2D
100
AcDbSpline
210
0.0
220
0.0
230
1.0
 70
    12
 71
     2
 72
     6
 73
     3
 74
     0
 42
0.0000000001
 43
0.0000000001
 40
0.0
 40
0.0
 40
0.0
 40
0.4150571889820297
 40
0.4150571889820297
 40
0.4150571889820297
 10
72.37822154220757
 20
13.78077006149213
 30
0.0
 41
0.9999999999999949
 10
72.22382434742482
 20
13.919443086387
 30
0.0
 41
0.9999898287962738
 10
72.06818245768926
 20
14.05671764262271
 30
0.0
 41
1.0
  0
SPLINE
  5
205
330
1F
100
AcDbEntity
  8
LINEE VISIBILI 2D
100
AcDbSpline
210
0.0
220
0.0
230
1.0
 70
    12
 71
     2
 72
     6
 73
     3
 74
     0
 42
0.0000000001
 43
0.0000000001
 40
0.0
 40
0.0
 40
0.0
 40
0.2210224914478563
 40
0.2210224914478563
 40
0.2210224914478563
 10
72.06818245768926
 20
14.05671764262271
 30
0.0
 41
1.0
 10
71.98533152080005
 20
14.12985089374841
 30
0.0
 41
0.9999990961631933
 10
71.90228421709507
 20
14.20276108157129
 30
0.0
 41
0.9999999999999993
  0
SPLINE
  5
206
330
1F
100
AcDbEntity
  8
LINEE VISIBILI 2D
100
AcDbSpline
210
0.0
220
0.0
230
1.0
 70
    12
 71
     2
 72
     6
 73
     3
 74
     0
 42
0.0000000001
 43
0.0000000001
 40
0.0
 40
0.0
 40
0.0
 40
0.2922925853266083
 40
0.2922925853266083
 40
0.2922925853266083
 10
71.90228421709507
 20
14.20276108157129
 30
0.0
 41
0.9999999999999998
 10
71.79245292999433
 20
14.29917601253834
 30
0.0
 41
0.999999589431359
 10
71.682447102264
 20
14.39539175140135
 30
0.0
 41
1.0
  0
SPLINE
  5
207
330
1F
100
AcDbEntity
  8
LINEE VISIBILI 2D
100
AcDbSpline
210
0.0
220
0.0
230
1.0
 70
    12
 71
     2
 72
     6
 73
     3
 74
     0
 42
0.0000000001
 43
0.0000000001
 40
0.0
 40
0.0
 40
0.0
 40
0.0600231022882295
 40
0.0600231022882295
 40
0.0600231022882295
 10
71.682447102264
 20
14.39539175140135
 30
0.0
 41
1.0
 10
71.65986006220827
 20
14.4151533006029
 30
0.0
 41
0.9999999971737187
 10
71.63727003861231
 20
14.43491143916816
 30
0.0
 41
1.0
  0
SPLINE
  5
208
330
1F
100
AcDbEntity
  8
LINEE VISIBILI 2D
100
AcDbSpline
210
0.0
220
0.0
230
1.0
 70
    12
 71
     2
 72
     6
 73
     3
 74
     0
 42
0.0000000001
 43
0.0000000001
 40
0.0
 40
0.0
 40
0.0
 40
0.0793575368858084
 40
0.0793575368858084
 40
0.0793575368858084
 10
71.63727003861231
 20
14.43491143916816
 30
0.0
 41
1.0
 10
71.60740328341389
 20
14.46103387399858
 30
0.0
 41
0.999999999044395
 10
71.57753424570545
 20
14.48715369891278
 30
0.0
 41
1.0
  0
SPLINE
  5
209
330
1F
100
AcDbEntity
  8
LINEE VISIBILI 2D
100
AcDbSpline
210
0.0
220
0.0
230
1.0
 70
    12
 71
     2
 72
     6
 73
     3
 74
     0
 42
0.0000000001
 43
0.0000000001
 40
0.0
 40
0.0
 40
0.0
 40
0.0844296290257974
 40
0.0844296290257974
 40
0.0844296290257974
 10
71.57753424570545
 20
14.48715369891278
 30
0.0
 41
1.0
 10
71.54575611631137
 20
14.51494292447033
 30
0.0
 41
0.9999999997989028
 10
71.51397911599972
 20
14.54273344113728
 30
0.0
 41
1.0
  0
SPLINE
  5
20A
330
1F
100
AcDbEntity
  8
LINEE VISIBILI 2D
100
AcDbSpline
210
0.0
220
0.0
230
1.0
 70
    12
 71
     2
 72
     6
 73
     3
 74
     0
 42
0.0000000001
 43
0.0000000001
 40
0.0
 40
0.0
 40
0.0
 40
0.3484257687929969
 40
0.3484257687929969
 40
0.3484257687929969
 10
71.51397911599972
 20
14.54273344113728
 30
0.0
 41
1.0
 10
71.38282116686733
 20
14.65739701074815
 30
0.0
 41
0.9999996855244636
 10
71.2518451881584
 20
14.77226839503627
 30
0.0
 41
1.0
  0
SPLINE
  5
20B
330
1F
100
AcDbEntity
  8
LINEE VISIBILI 2D
100
AcDbSpline
210
0.0
220
0.0
230
1.0
 70
    12
 71
     2
 72
     6
 73
     3
 74
     0
 42
0.0000000001
 43
0.0000000001
 40
0.0
 40
0.0
 40
0.0
 40
0.2075258643477061
 40
0.2075258643477061
 40
0.2075258643477061
 10
71.2518451881584
 20
14.77226839503627
 30
0.0
 41
1.0
 10
71.17384329314827
 20
14.84069688061875
 30
0.0
 41
0.9999995048078153
 10
71.09597799553195
 20
14.90928076084639
 30
0.0
 41
1.0
  0
SPLINE
  5
20C
330
1F
100
AcDbEntity
  8
LINEE VISIBILI 2D
100
AcDbSpline
210
0.0
220
0.0
230
1.0
 70
    12
 71
     2
 72
     6
 73
     3
 74
     0
 42
0.0000000001
 43
0.0000000001
 40
0.0
 40
0.0
 40
0.0
 40
0.633915761116357
 40
0.633915761116357
 40
0.633915761116357
 10
71.09597799553195
 20
14.90928076084639
 30
0.0
 41
0.9999999999999916
 10
70.85801404037399
 20
15.11865470345506
 30
0.0
 41
0.9999851155486394
 10
70.62234876198144
 20
15.33061264435604
 30
0.0
 41
1.0
  0
SPLINE
  5
20D
330
1F
100
AcDbEntity
  8
LINEE VISIBILI 2D
100
AcDbSpline
210
0.0
220
0.0
230
1.0
 70
    12
 71
     2
 72
     6
 73
     3
 74
     0
 42
0.0000000001
 43
0.0000000001
 40
0.0
 40
0.0
 40
0.0
 40
0.9423214574644525
 40
0.9423214574644525
 40
0.9423214574644525
 10
70.62234876198144
 20
15.33061264435604
 30
0.0
 41
1.0
 10
70.2717551821844
 20
15.64543020644225
 30
0.0
 41
0.9998867561133506
 10
69.93079593276735
 20
15.97065742752977
 30
0.0
 41
0.9999999999993949
  0
SPLINE
  5
20E
330
1F
100
AcDbEntity
  8
LINEE VISIBILI 2D
100
AcDbSpline
210
0.0
220
0.0
230
1.0
 70
    12
 71
     2
 72
     6
 73
     3
 74
     0
 42
0.0000000001
 43
0.0000000001
 40
0.0
 40
0.0
 40
0.0
 40
0.2809241245965315
 40
0.2809241245965315
 40
0.2809241245965315
 10
69.93079593276735
 20
15.97065742752977
 30
0.0
 41
0.9999999999999591
 10
69.82928114454856
 20
16.0677390971265
 30
0.0
 41
0.9999805414454432
 10
69.72898447287204
 20
16.16607874626515
 30
0.0
 41
1.0
  0
SPLINE
  5
20F
330
1F
100
AcDbEntity
  8
LINEE VISIBILI 2D
100
AcDbSpline
210
0.0
220
0.0
230
1.0
 70
    12
 71
     2
 72
     6
 73
     3
 74
     0
 42
0.0000000001
 43
0.0000000001
 40
0.0
 40
0.0
 40
0.0
 40
0.450518136086678
 40
0.450518136086678
 40
0.450518136086678
 10
69.72898447287204
 20
16.16607874626515
 30
0.0
 41
1.0
 10
69.5681005237264
 20
16.32375762297476
 30
0.0
 41
0.9999317806139311
 10
69.41094458024705
 20
16.48515239629661
 30
0.0
 41
0.9999999999998126
  0
SPLINE
  5
210
330
1F
100
AcDbEntity
  8
LINEE VISIBILI 2D
100
AcDbSpline
210
0.0
220
0.0
230
1.0
 70
    12
 71
     2
 72
     6
 73
     3
 74
     0
 42
0.0000000001
 43
0.0000000001
 40
0.0
 40
0.0
 40
0.0
 40
0.161175319982391
 40
0.161175319982391
 40
0.161175319982391
 10
69.41094458024705
 20
16.48515239629661
 30
0.0
 41
0.9999999999999767
 10
69.35474232771305
 20
16.54290856930153
 30
0.0
 41
0.9999886250879323
 10
69.29909230869322
 20
16.60119702520176
 30
0.0
 41
0.9999999999987386
  0
SPLINE
  5
211
330
1F
100
AcDbEntity
  8
LINEE VISIBILI 2D
100
AcDbSpline
210
0.0
220
0.0
230
1.0
 70
    12
 71
     2
 72
     6
 73
     3
 74
     0
 42
0.0000000001
 43
0.0000000001
 40
0.0
 40
0.0
 40
0.0
 40
1.248081807625012
 40
1.248081807625012
 40
1.248081807625012
 10
69.29909230869322
 20
16.60119702520176
 30
0.0
 41
0.9999999999862259
 10
68.86655709907228
 20
17.051641473975
 30
0.0
 41
0.9989232629048217
 10
68.47763343354808
 20
17.54023669904656
 30
0.0
 41
1.0
  0
SPLINE
  5
212
330
1F
100
AcDbEntity
  8
LINEE VISIBILI 2D
100
AcDbSpline
210
0.0
220
0.0
230
1.0
 70
    12
 71
     2
 72
     6
 73
     3
 74
     0
 42
0.0000000001
 43
0.0000000001
 40
0.0
 40
0.0
 40
0.0
 40
0.2081104936812702
 40
0.2081104936812702
 40
0.2081104936812702
 10
68.47763343354808
 20
17.54023669904656
 30
0.0
 41
1.0
 10
68.41304065994828
 20
17.62182028751574
 30
0.0
 41
0.999957478592842
 10
68.34996441454453
 20
17.70458196729859
 30
0.0
 41
1.0
  0
SPLINE
  5
213
330
1F
100
AcDbEntity
  8
LINEE VISIBILI 2D
100
AcDbSpline
210
0.0
220
0.0
230
1.0
 70
    12
 71
     2
 72
     6
 73
     3
 74
     0
 42
0.0000000001
 43
0.0000000001
 40
0.0
 40
0.0
 40
0.0
 40
0.0729644926400684
 40
0.0729644926400684
 40
0.0729644926400684
 10
68.34996441454453
 20
17.70458196729859
 30
0.0
 41
1.0
 10
68.32785292461395
 20
17.73359999661624
 30
0.0
 41
0.9999945419126005
 10
68.30593202907073
 20
17.76276227230874
 30
0.0
 41
0.9999999999999987
  0
SPLINE
  5
214
330
1F
100
AcDbEntity
  8
LINEE VISIBILI 2D
100
AcDbSpline
210
0.0
220
0.0
230
1.0
 70
    12
 71
     2
 72
     6
 73
     3
 74
     0
 42
0.0000000001
 43
0.0000000001
 40
0.0
 40
0.0
 40
0.0
 40
0.2156089967303433
 40
0.2156089967303433
 40
0.2156089967303433
 10
68.30593202907073
 20
17.76276227230874
 30
0.0
 41
1.0
 10
68.24115431016045
 20
17.84893896368762
 30
0.0
 41
0.9999506266891274
 10
68.17810332203588
 20
17.93638693616096
 30
0.0
 41
1.0
  0
SPLINE
  5
215
330
1F
100
AcDbEntity
  8
LINEE VISIBILI 2D
100
AcDbSpline
210
0.0
220
0.0
230
1.0
 70
    12
 71
     2
 72
     8
 73
     5
 74
     0
 42
0.0000000001
 43
0.0000000001
 40
0.0
 40
0.0
 40
0.0
 40
0.2258480201250296
 40
0.2258480201250296
 40
1.129055908032114
 40
1.129055908032114
 40
1.129055908032114
 10
64.31312851363663
 20
17.93735162195506
 30
0.0
 41
1.0
 10
64.24349436545704
 20
17.8465875715584
 30
0.0
 41
0.9807774678360066
 10
64.1444223217992
 20
17.78938829182029
 30
0.0
 41
1.0
 10
63.64645773347793
 20
17.50188825916285
 30
0.0
 41
0.7071067811865684
 10
63.35895770082046
 20
17.99985284748411
 30
0.0
 41
1.0
  0
SPLINE
  5
216
330
1F
100
AcDbEntity
  8
LINEE VISIBILI 2D
100
AcDbSpline
210
0.0
220
0.0
230
1.0
 70
    12
 71
     2
 72
     8
 73
     5
 74
     0
 42
0.0000000001
 43
0.0000000001
 40
0.0
 40
0.0
 40
0.0
 40
0.9032078879070649
 40
0.9032078879070649
 40
1.731196143338471
 40
1.731196143338471
 40
1.731196143338471
 10
63.35895770082046
 20
17.99985284748411
 30
0.0
 41
1.0
 10
63.07145766816305
 20
18.49781743580538
 30
0.0
 41
0.7071067811865551
 10
63.56942225648431
 20
18.78531746846281
 30
0.0
 41
1.0
 10
64.00616201466117
 20
19.03746932360167
 30
0.0
 41
0.7518124631786297
 10
64.3131294680422
 20
18.63735289431251
 30
0.0
 41
1.0
  0
SPLINE
  5
217
330
1F
100
AcDbEntity
  8
LINEE VISIBILI 2D
100
AcDbSpline
210
0.0
220
0.0
230
1.0
 70
    12
 71
     2
 72
     6
 73
     3
 74
     0
 42
0.0000000001
 43
0.0000000001
 40
0.0
 40
0.0
 40
0.0
 40
5.4196197389585
 40
5.4196197389585
 40
5.4196197389585
 10
79.0467159933571
 20
16.30330359720089
 30
0.0
 41
1.0
 10
79.92535657898068
 20
19.04446652797493
 30
0.0
 41
0.9143511082810624
 10
78.48608720059951
 20
21.53735383954941
 30
0.0
 41
1.0
  0
SPLINE
  5
218
330
1F
100
AcDbEntity
  8
LINEE VISIBILI 2D
100
AcDbSpline
210
0.0
220
0.0
230
1.0
 70
    12
 71
     2
 72
     6
 73
     3
 74
     0
 42
0.0000000001
 43
0.0000000001
 40
0.0
 40
0.0
 40
0.0
 40
3.103285438619231
 40
3.103285438619231
 40
3.103285438619231
 10
78.48608720059951
 20
21.53735383954941
 30
0.0
 41
1.0
 10
77.69518531981377
 20
22.90723587339687
 30
0.0
 41
0.9716427946039411
 10
76.36326616046965
 20
23.76052007262978
 30
0.0
 41
1.0
  0
SPLINE
  5
219
330
1F
100
AcDbEntity
  8
LINEE VISIBILI 2D
100
AcDbSpline
210
0.0
220
0.0
230
1.0
 70
    12
 71
     2
 72
     6
 73
     3
 74
     0
 42
0.0000000001
 43
0.0000000001
 40
0.0
 40
0.0
 40
0.0
 40
4.036699613711308
 40
4.036699613711308
 40
4.036699613711308
 10
76.70010352255224
 20
24.95665955590631
 30
0.0
 41
1.0
 10
78.49009210383457
 20
23.9251803532152
 30
0.0
 41
0.9658188192872307
 10
79.52305016642967
 20
22.13604477768575
 30
0.0
 41
1.0
  0
SPLINE
  5
21A
330
1F
100
AcDbEntity
  8
LINEE VISIBILI 2D
100
AcDbSpline
210
0.0
220
0.0
230
1.0
 70
    12
 71
     2
 72
     6
 73
     3
 74
     0
 42
0.0000000001
 43
0.0000000001
 40
0.0
 40
0.0
 40
0.0
 40
6.662773930934219
 40
6.662773930934219
 40
6.662773930934219
 10
79.52305016642967
 20
22.13604477768575
 30
0.0
 41
1.0
 10
81.30117649571149
 20
19.05624009954503
 30
0.0
 41
0.9077971212346372
 10
80.10854011067198
 20
15.70593435954716
 30
0.0
 41
1.0
  0
SPLINE
  5
21B
330
1F
100
AcDbEntity
  8
LINEE VISIBILI 2D
100
AcDbSpline
210
0.0
220
0.0
230
1.0
 70
    12
 71
     2
 72
     6
 73
     3
 74
     0
 42
0.0000000001
 43
0.0000000001
 40
0.0
 40
0.0
 40
0.0
 40
4.066014240032202
 40
4.066014240032202
 40
4.066014240032202
 10
76.72488436531503
 20
25.00310877989376
 30
0.0
 41
1.0
 10
78.52813862288316
 20
23.96451836667712
 30
0.0
 41
0.9657900435758767
 10
79.56861891434139
 20
22.16235391054386
 30
0.0
 41
1.0
  0
SPLINE
  5
21C
330
1F
100
AcDbEntity
  8
LINEE VISIBILI 2D
100
AcDbSpline
210
0.0
220
0.0
230
1.0
 70
    12
 71
     2
 72
     6
 73
     3
 74
     0
 42
0.0000000001
 43
0.0000000001
 40
0.0
 40
0.0
 40
0.0
 40
6.720553070714124
 40
6.720553070714124
 40
6.720553070714124
 10
79.56861891434139
 20
22.16235391054386
 30
0.0
 41
1.0
 10
81.36261276405374
 20
19.05506588498985
 30
0.0
 41
0.9074658210442061
 10
80.15399948847734
 20
15.67676649673878
 30
0.0
 41
1.0
  0
SPLINE
  5
21D
330
1F
100
AcDbEntity
  8
LINEE VISIBILI 2D
100
AcDbSpline
210
0.0
220
0.0
230
1.0
 70
    12
 71
     2
 72
     6
 73
     3
 74
     0
 42
0.0000000001
 43
0.0000000001
 40
0.0
 40
0.0
 40
0.0
 40
12.05486901430288
 40
12.05486901430288
 40
12.05486901430288
 10
82.6350385006074
 20
12.47628270726548
 30
0.0
 41
1.0
 10
86.03910925368955
 20
18.20421147849588
 30
0.0
 41
0.8628546350476144
 10
82.7075602225909
 20
23.97462279430898
 30
0.0
 41
1.0
  0
SPLINE
  5
21E
330
1F
100
AcDbEntity
  8
LINEE VISIBILI 2D
100
AcDbSpline
210
0.0
220
0.0
230
1.0
 70
    24
 71
     2
 72
     6
 73
     3
 74
     0
 42
0.0000000001
 43
0.0000000001
 40
0.0
 40
0.0
 40
0.0
 40
0.171936430533899
 40
0.171936430533899
 40
0.171936430533899
 10
82.7075602225909
 20
23.97462279430898
 30
0.0
 10
82.63310956707069
 20
23.9316386817929
 30
0.0
 10
82.55865891155048
 20
23.88865456927681
 30
0.0
  0
SPLINE
  5
21F
330
1F
100
AcDbEntity
  8
LINEE VISIBILI 2D
100
AcDbSpline
210
0.0
220
0.0
230
1.0
 70
    12
 71
     2
 72
     6
 73
     3
 74
     0
 42
0.0000000001
 43
0.0000000001
 40
0.0
 40
0.0
 40
0.0
 40
11.7205174687325
 40
11.7205174687325
 40
11.7205174687325
 10
82.55865891155048
 20
23.88865456927681
 30
0.0
 41
1.0
 10
85.7889629304855
 20
18.29359697145825
 30
0.0
 41
0.8662667607465337
 10
82.56405831172009
 20
12.69542550413783
 30
0.0
 41
1.0
  0
SPLINE
  5
220
330
1F
100
AcDbEntity
  8
LINEE VISIBILI 2D
100
AcDbSpline
210
0.0
220
0.0
230
1.0
 70
    12
 71
     2
 72
     6
 73
     3
 74
     0
 42
0.0000000001
 43
0.0000000001
 40
0.0
 40
0.0
 40
0.0
 40
11.64589692872325
 40
11.64589692872325
 40
11.64589692872325
 10
72.77148770816424
 20
7.085083638359652
 30
0.0
 41
1.0
 10
66.36068428572308
 20
7.133974433028363
 30
0.0
 41
0.8679258099546437
 10
63.1551856667329
 20
12.68605237147978
 30
0.0
 41
1.0
  0
SPLINE
  5
221
330
1F
100
AcDbEntity
  8
LINEE VISIBILI 2D
100
AcDbSpline
210
0.0
220
0.0
230
1.0
 70
    12
 71
     2
 72
     6
 73
     3
 74
     0
 42
0.0000000001
 43
0.0000000001
 40
0.0
 40
0.0
 40
0.0
 40
17.33669306529099
 40
17.33669306529099
 40
17.33669306529099
 10
63.1551856667329
 20
12.68605237147978
 30
0.0
 41
1.0
 10
57.6825573163983
 20
22.16493479668509
 30
0.0
 41
0.7152743405055676
 10
67.031725558378
 20
27.85632533634329
 30
0.0
 41
1.0
  0
SPLINE
  5
222
330
1F
100
AcDbEntity
  8
LINEE VISIBILI 2D
100
AcDbSpline
210
0.0
220
0.0
230
1.0
 70
    24
 71
     2
 72
     6
 73
     3
 74
     0
 42
0.0000000001
 43
0.0000000001
 40
0.0
 40
0.0
 40
0.0
 40
0.1039006715550038
 40
0.1039006715550038
 40
0.1039006715550038
 10
76.11808432408793
 20
23.33585267492371
 30
0.0
 10
76.14405949197669
 20
23.38084298544216
 30
0.0
 10
76.17003465986545
 20
23.4258332959606
 30
0.0
  0
SPLINE
  5
223
330
1F
100
AcDbEntity
  8
LINEE VISIBILI 2D
100
AcDbSpline
210
0.0
220
0.0
230
1.0
 70
    24
 71
     2
 72
     6
 73
     3
 74
     0
 42
0.0000000001
 43
0.0000000001
 40
0.0
 40
0.0
 40
0.0
 40
0.46338978623215
 40
0.46338978623215
 40
0.46338978623215
 10
76.17003465986545
 20
23.4258332959606
 30
0.0
 10
76.28588210642349
 20
23.62648695932624
 30
0.0
 10
76.40172955298152
 20
23.82714062269189
 30
0.0
  0
SPLINE
  5
224
330
1F
100
AcDbEntity
  8
LINEE VISIBILI 2D
100
AcDbSpline
210
0.0
220
0.0
230
1.0
 70
    24
 71
     2
 72
     6
 73
     3
 74
     0
 42
0.0000000001
 43
0.0000000001
 40
0.0
 40
0.0
 40
0.0
 40
0.1918576266140403
 40
0.1918576266140403
 40
0.1918576266140403
 10
76.40172955298152
 20
23.82714062269189
 30
0.0
 10
76.31865276370274
 20
23.87510502934539
 30
0.0
 10
76.23557597442397
 20
23.92306943599889
 30
0.0
  0
SPLINE
  5
225
330
1F
100
AcDbEntity
  8
LINEE VISIBILI 2D
100
AcDbSpline
210
0.0
220
0.0
230
1.0
 70
    24
 71
     2
 72
     6
 73
     3
 74
     0
 42
0.0000000001
 43
0.0000000001
 40
0.0
 40
0.0
 40
0.0
 40
0.1022436566840191
 40
0.1022436566840191
 40
0.1022436566840191
 10
76.02953872002375
 20
23.38697450326572
 30
0.0
 10
76.07381152205585
 20
23.36141358909472
 30
0.0
 10
76.11808432408793
 20
23.33585267492371
 30
0.0
  0
SPLINE
  5
226
330
1F
100
AcDbEntity
  8
LINEE VISIBILI 2D
100
AcDbSpline
210
0.0
220
0.0
230
1.0
 70
    24
 71
     2
 72
     6
 73
     3
 74
     0
 42
0.0000000001
 43
0.0000000001
 40
-0.0328649179793094
 40
-0.0328649179793094
 40
-0.0328649179793094
 40
0.0
 40
0.0
 40
0.0
 10
76.11808432408793
 20
23.33585267492371
 30
0.0
 10
76.10986809837948
 20
23.32162174580596
 30
0.0
 10
76.10165187267103
 20
23.30739081668821
 30
0.0
  0
SPLINE
  5
227
330
1F
100
AcDbEntity
  8
LINEE VISIBILI 2D
100
AcDbSpline
210
0.0
220
0.0
230
1.0
 70
    24
 71
     2
 72
     6
 73
     3
 74
     0
 42
0.0000000001
 43
0.0000000001
 40
0.0
 40
0.0
 40
0.0
 40
0.0967591229888925
 40
0.0967591229888925
 40
0.0967591229888925
 10
76.10165187267103
 20
23.30739081668821
 30
0.0
 10
76.05975394339288
 20
23.33158059743543
 30
0.0
 10
76.01785601411474
 20
23.35577037818265
 30
0.0
  0
SPLINE
  5
228
330
1F
100
AcDbEntity
  8
LINEE VISIBILI 2D
100
AcDbSpline
210
0.0
220
0.0
230
1.0
 70
    24
 71
     2
 72
     6
 73
     3
 74
     0
 42
0.0000000001
 43
0.0000000001
 40
0.0
 40
0.0
 40
0.0
 40
0.171936430534033
 40
0.171936430534033
 40
0.171936430534033
 10
63.1551856667329
 20
12.68605237147978
 30
0.0
 10
63.08073501121264
 20
12.64306825896365
 30
0.0
 10
63.00628435569237
 20
12.60008414644753
 30
0.0
  0
SPLINE
  5
229
330
1F
100
AcDbEntity
  8
LINEE VISIBILI 2D
100
AcDbSpline
210
0.0
220
0.0
230
1.0
 70
    12
 71
     2
 72
     6
 73
     3
 74
     0
 42
0.0000000001
 43
0.0000000001
 40
0.0
 40
0.0
 40
0.0
 40
11.85285527797599
 40
11.85285527797599
 40
11.85285527797599
 10
63.00628435569237
 20
12.60008414644753
 30
0.0
 41
1.0
 10
66.27034893024573
 20
6.946559320389079
 30
0.0
 41
0.8673090141884368
 10
72.79839090639405
 20
6.912966711696862
 30
0.0
 41
1.0
  0
SPLINE
  5
22A
330
1F
100
AcDbEntity
  8
LINEE VISIBILI 2D
100
AcDbSpline
210
0.0
220
0.0
230
1.0
 70
    12
 71
     2
 72
     6
 73
     3
 74
     0
 42
0.0000000001
 43
0.0000000001
 40
0.0
 40
0.0
 40
0.0
 40
7.304051792085131
 40
7.304051792085131
 40
7.304051792085131
 10
72.10151313993354
 20
10.62712875614226
 30
0.0
 41
1.0
 10
68.16739514002984
 20
11.01508979410881
 30
0.0
 41
0.8895439375184594
 10
66.19079441185374
 20
14.43866216307083
 30
0.0
 41
1.0
  0
SPLINE
  5
22B
330
1F
100
AcDbEntity
  8
LINEE VISIBILI 2D
100
AcDbSpline
210
0.0
220
0.0
230
1.0
 70
    12
 71
     2
 72
     6
 73
     3
 74
     0
 42
0.0000000001
 43
0.0000000001
 40
0.0
 40
0.0
 40
0.0
 40
3.680219108270979
 40
3.680219108270979
 40
3.680219108270979
 10
66.19079441185374
 20
14.43866216307083
 30
0.0
 41
1.0
 10
65.25280295931393
 20
16.0633107698742
 30
0.0
 41
0.971561802106647
 10
65.16750193242792
 20
17.9373531374417
 30
0.0
 41
1.0
  0
SPLINE
  5
22C
330
1F
100
AcDbEntity
  8
LINEE VISIBILI 2D
100
AcDbSpline
210
0.0
220
0.0
230
1.0
 70
    12
 71
     2
 72
     6
 73
     3
 74
     0
 42
0.0000000001
 43
0.0000000001
 40
0.0
 40
0.0
 40
0.0
 40
3.05322268818466
 40
3.05322268818466
 40
3.05322268818466
 10
66.36635222927524
 20
17.93735304471427
 30
0.0
 41
1.0
 10
66.45010003539926
 20
16.38429492492232
 30
0.0
 41
0.9725461656736865
 10
67.2277573776839
 20
15.03735310120717
 30
0.0
 41
1.0
  0
SPLINE
  5
22D
330
1F
100
AcDbEntity
  8
LINEE VISIBILI 2D
100
AcDbSpline
210
0.0
220
0.0
230
1.0
 70
    12
 71
     2
 72
     8
 73
     5
 74
     0
 42
0.0000000001
 43
0.0000000001
 40
0.0
 40
0.0
 40
0.0
 40
3.403392041388952
 40
3.403392041388952
 40
5.827706387438973
 40
5.827706387438973
 40
5.827706387438973
 10
67.2277573776839
 20
15.03735310120717
 30
0.0
 41
1.0
 10
68.09859235200416
 20
13.52902290912046
 30
0.0
 41
0.9659258262890716
 10
69.60692265831284
 20
12.6581881326384
 30
0.0
 41
1.0
 10
70.66902243095363
 20
12.04498463587063
 30
0.0
 41
0.9826618730371293
 10
71.88154313370563
 20
11.86095202764685
 30
0.0
 41
1.0
  0
ENDSEC
  0
SECTION
  2
OBJECTS
  0
DICTIONARY
  5
C
330
0
100
AcDbDictionary
281
     1
  3
ACAD_GROUP
350
D
  3
ACAD_LAYOUT
350
1A
  3
ACAD_MLEADERSTYLE
350
22F
  3
ACAD_MLINESTYLE
350
17
  3
ACAD_PLOTSETTINGS
350
19
  3
ACAD_PLOTSTYLENAME
350
E
  3
ACAD_SCALELIST
350
3B
  3
ACAD_TABLESTYLE
350
22E
  3
ACAD_VISUALSTYLE
350
2A
  0
DICTIONARY
  5
D
102
{ACAD_REACTORS
330
C
102
}
330
C
100
AcDbDictionary
281
     1
  0
DICTIONARY
  5
1A
102
{ACAD_REACTORS
330
C
102
}
330
C
100
AcDbDictionary
281
     1
  3
Layout1
350
1E
  3
Layout2
350
26
  3
Model
350
22
  0
DICTIONARY
  5
22F
102
{ACAD_REACTORS
330
C
102
}
330
C
100
AcDbDictionary
281
     1
  0
DICTIONARY
  5
17
102
{ACAD_REACTORS
330
C
102
}
330
C
100
AcDbDictionary
281
     1
  3
Standard
350
18
  0
DICTIONARY
  5
19
102
{ACAD_REACTORS
330
C
102
}
330
C
100
AcDbDictionary
281
     1
  0
ACDBDICTIONARYWDFLT
  5
E
102
{ACAD_REACTORS
330
C
102
}
330
C
100
AcDbDictionary
281
     1
  3
Normal
350
F
100
AcDbDictionaryWithDefault
340
F
  0
DICTIONARY
  5
3B
102
{ACAD_REACTORS
330
C
102
}
330
C
100
AcDbDictionary
281
     1
  3
A0
350
3C
  3
A1
350
3D
  3
A2
350
3E
  3
A3
350
3F
  3
A4
350
40
  3
A5
350
41
  3
A6
350
42
  3
A7
350
43
  3
A8
350
44
  3
A9
350
45
  3
B0
350
46
  3
B1
350
47
  3
B2
350
48
  3
B3
350
49
  3
B4
350
4A
  3
B5
350
4B
  3
B6
350
4C
  3
B7
350
4D
  3
B8
350
4E
  3
B9
350
4F
  3
C0
350
50
  3
C1
350
51
  3
C2
350
52
  3
C3
350
53
  3
C4
350
54
  3
C5
350
55
  3
C6
350
56
  3
C7
350
57
  3
C8
350
58
  3
C9
350
59
  3
D0
350
5A
  3
D1
350
5B
  3
D2
350
5C
  0
DICTIONARY
  5
22E
102
{ACAD_REACTORS
330
C
102
}
330
C
100
AcDbDictionary
281
     1
  0
DICTIONARY
  5
2A
102
{ACAD_REACTORS
330
C
102
}
330
C
100
AcDbDictionary
281
     1
  3
2dWireframe
350
2F
  3
3D Hidden
350
31
  3
3dWireframe
350
30
  3
Basic
350
32
  3
Brighten
350
36
  3
ColorChange
350
3A
  3
Conceptual
350
34
  3
Dim
350
35
  3
Facepattern
350
39
  3
Flat
350
2B
  3
FlatWithEdges
350
2C
  3
Gouraud
350
2D
  3
GouraudWithEdges
350
2E
  3
Linepattern
350
38
  3
Realistic
350
33
  3
Thicken
350
37
  0
LAYOUT
  5
1E
102
{ACAD_REACTORS
330
1A
102
}
330
1A
100
AcDbPlotSettings
  1

  2
none_device
  4

  6

 40
0.0
 41
0.0
 42
0.0
 43
0.0
 44
0.0
 45
0.0
 46
0.0
 47
0.0
 48
0.0
 49
0.0
140
0.0
141
0.0
142
1.0
143
1.0
 70
   688
 72
     0
 73
     0
 74
     5
  7

 75
    16
 76
     0
 77
     2
 78
   300
147
1.0
148
0.0
149
0.0
100
AcDbLayout
  1
Layout1
 70
     1
 71
     1
 10
0.0
 20
0.0
 11
12.0
 21
9.0
 12
0.0
 22
0.0
 32
0.0
 14
1.000000000000000E+20
 24
1.000000000000000E+20
 34
1.000000000000000E+20
 15
-1.000000000000000E+20
 25
-1.000000000000000E+20
 35
-1.000000000000000E+20
146
0.0
 13
0.0
 23
0.0
 33
0.0
 16
1.0
 26
0.0
 36
0.0
 17
0.0
 27
1.0
 37
0.0
 76
     0
330
1B
  0
LAYOUT
  5
26
102
{ACAD_REACTORS
330
1A
102
}
330
1A
100
AcDbPlotSettings
  1

  2
none_device
  4

  6

 40
0.0
 41
0.0
 42
0.0
 43
0.0
 44
0.0
 45
0.0
 46
0.0
 47
0.0
 48
0.0
 49
0.0
140
0.0
141
0.0
142
1.0
143
1.0
 70
   688
 72
     0
 73
     0
 74
     5
  7

 75
    16
 76
     0
 77
     2
 78
   300
147
1.0
148
0.0
149
0.0
100
AcDbLayout
  1
Layout2
 70
     1
 71
     2
 10
0.0
 20
0.0
 11
0.0
 21
0.0
 12
0.0
 22
0.0
 32
0.0
 14
0.0
 24
0.0
 34
0.0
 15
0.0
 25
0.0
 35
0.0
146
0.0
 13
0.0
 23
0.0
 33
0.0
 16
1.0
 26
0.0
 36
0.0
 17
0.0
 27
1.0
 37
0.0
 76
     0
330
23
  0
LAYOUT
  5
22
102
{ACAD_REACTORS
330
1A
102
}
330
1A
100
AcDbPlotSettings
  1

  2
none_device
  4

  6

 40
0.0
 41
0.0
 42
0.0
 43
0.0
 44
0.0
 45
0.0
 46
0.0
 47
0.0
 48
0.0
 49
0.0
140
0.0
141
0.0
142
1.0
143
1.0
 70
  1712
 72
     0
 73
     0
 74
     0
  7

 75
     0
 76
     0
 77
     2
 78
   300
147
1.0
148
0.0
149
0.0
100
AcDbLayout
  1
Model
 70
     1
 71
     0
 10
0.0
 20
0.0
 11
12.0
 21
9.0
 12
0.0
 22
0.0
 32
0.0
 14
-0.0019692707248995
 24
0.0014781995315076
 34
0.0
 15
84.23135215835838
 25
287.8793047572063
 35
0.0
146
0.0
 13
0.0
 23
0.0
 33
0.0
 16
1.0
 26
0.0
 36
0.0
 17
0.0
 27
1.0
 37
0.0
 76
     0
330
1F
331
29
  0
MLINESTYLE
  5
18
102
{ACAD_REACTORS
330
17
102
}
330
17
100
AcDbMlineStyle
  2
Standard
 70
     0
  3

 62
   256
 51
90.0
 52
90.0
 71
     2
 49
0.5
 62
   256
  6
BYLAYER
 49
-0.5
 62
   256
  6
BYLAYER
  0
ACDBPLACEHOLDER
  5
F
102
{ACAD_REACTORS
330
E
102
}
330
E
  0
SCALE
  5
3C
102
{ACAD_REACTORS
330
3B
102
}
330
3B
100
AcDbScale
 70
     0
300
1:1
140
1.0
141
1.0
290
     1
  0
SCALE
  5
3D
102
{ACAD_REACTORS
330
3B
102
}
330
3B
100
AcDbScale
 70
     0
300
1:2
140
1.0
141
2.0
290
     0
  0
SCALE
  5
3E
102
{ACAD_REACTORS
330
3B
102
}
330
3B
100
AcDbScale
 70
     0
300
1:4
140
1.0
141
4.0
290
     0
  0
SCALE
  5
3F
102
{ACAD_REACTORS
330
3B
102
}
330
3B
100
AcDbScale
 70
     0
300
1:5
140
1.0
141
5.0
290
     0
  0
SCALE
  5
40
102
{ACAD_REACTORS
330
3B
102
}
330
3B
100
AcDbScale
 70
     0
300
1:8
140
1.0
141
8.0
290
     0
  0
SCALE
  5
41
102
{ACAD_REACTORS
330
3B
102
}
330
3B
100
AcDbScale
 70
     0
300
1:10
140
1.0
141
10.0
290
     0
  0
SCALE
  5
42
102
{ACAD_REACTORS
330
3B
102
}
330
3B
100
AcDbScale
 70
     0
300
1:16
140
1.0
141
16.0
290
     0
  0
SCALE
  5
43
102
{ACAD_REACTORS
330
3B
102
}
330
3B
100
AcDbScale
 70
     0
300
1:20
140
1.0
141
20.0
290
     0
  0
SCALE
  5
44
102
{ACAD_REACTORS
330
3B
102
}
330
3B
100
AcDbScale
 70
     0
300
1:30
140
1.0
141
30.0
290
     0
  0
SCALE
  5
45
102
{ACAD_REACTORS
330
3B
102
}
330
3B
100
AcDbScale
 70
     0
300
1:40
140
1.0
141
40.0
290
     0
  0
SCALE
  5
46
102
{ACAD_REACTORS
330
3B
102
}
330
3B
100
AcDbScale
 70
     0
300
1:50
140
1.0
141
50.0
290
     0
  0
SCALE
  5
47
102
{ACAD_REACTORS
330
3B
102
}
330
3B
100
AcDbScale
 70
     0
300
1:100
140
1.0
141
100.0
290
     0
  0
SCALE
  5
48
102
{ACAD_REACTORS
330
3B
102
}
330
3B
100
AcDbScale
 70
     0
300
2:1
140
2.0
141
1.0
290
     0
  0
SCALE
  5
49
102
{ACAD_REACTORS
330
3B
102
}
330
3B
100
AcDbScale
 70
     0
300
4:1
140
4.0
141
1.0
290
     0
  0
SCALE
  5
4A
102
{ACAD_REACTORS
330
3B
102
}
330
3B
100
AcDbScale
 70
     0
300
8:1
140
8.0
141
1.0
290
     0
  0
SCALE
  5
4B
102
{ACAD_REACTORS
330
3B
102
}
330
3B
100
AcDbScale
 70
     0
300
10:1
140
10.0
141
1.0
290
     0
  0
SCALE
  5
4C
102
{ACAD_REACTORS
330
3B
102
}
330
3B
100
AcDbScale
 70
     0
300
100:1
140
100.0
141
1.0
290
     0
  0
SCALE
  5
4D
102
{ACAD_REACTORS
330
3B
102
}
330
3B
100
AcDbScale
 70
     0
300
1/128" = 1'-0"
140
0.0078125
141
12.0
290
     0
  0
SCALE
  5
4E
102
{ACAD_REACTORS
330
3B
102
}
330
3B
100
AcDbScale
 70
     0
300
1/64" = 1'-0"
140
0.015625
141
12.0
290
     0
  0
SCALE
  5
4F
102
{ACAD_REACTORS
330
3B
102
}
330
3B
100
AcDbScale
 70
     0
300
1/32" = 1'-0"
140
0.03125
141
12.0
290
     0
  0
SCALE
  5
50
102
{ACAD_REACTORS
330
3B
102
}
330
3B
100
AcDbScale
 70
     0
300
1/16" = 1'-0"
140
0.0625
141
12.0
290
     0
  0
SCALE
  5
51
102
{ACAD_REACTORS
330
3B
102
}
330
3B
100
AcDbScale
 70
     0
300
3/32" = 1'-0"
140
0.09375
141
12.0
290
     0
  0
SCALE
  5
52
102
{ACAD_REACTORS
330
3B
102
}
330
3B
100
AcDbScale
 70
     0
300
1/8" = 1'-0"
140
0.125
141
12.0
290
     0
  0
SCALE
  5
53
102
{ACAD_REACTORS
330
3B
102
}
330
3B
100
AcDbScale
 70
     0
300
3/16" = 1'-0"
140
0.1875
141
12.0
290
     0
  0
SCALE
  5
54
102
{ACAD_REACTORS
330
3B
102
}
330
3B
100
AcDbScale
 70
     0
300
1/4" = 1'-0"
140
0.25
141
12.0
290
     0
  0
SCALE
  5
55
102
{ACAD_REACTORS
330
3B
102
}
330
3B
100
AcDbScale
 70
     0
300
3/8" = 1'-0"
140
0.375
141
12.0
290
     0
  0
SCALE
  5
56
102
{ACAD_REACTORS
330
3B
102
}
330
3B
100
AcDbScale
 70
     0
300
1/2" = 1'-0"
140
0.5
141
12.0
290
     0
  0
SCALE
  5
57
102
{ACAD_REACTORS
330
3B
102
}
330
3B
100
AcDbScale
 70
     0
300
3/4" = 1'-0"
140
0.75
141
12.0
290
     0
  0
SCALE
  5
58
102
{ACAD_REACTORS
330
3B
102
}
330
3B
100
AcDbScale
 70
     0
300
1" = 1'-0"
140
1.0
141
12.0
290
     0
  0
SCALE
  5
59
102
{ACAD_REACTORS
330
3B
102
}
330
3B
100
AcDbScale
 70
     0
300
1-1/2" = 1'-0"
140
1.5
141
12.0
290
     0
  0
SCALE
  5
5A
102
{ACAD_REACTORS
330
3B
102
}
330
3B
100
AcDbScale
 70
     0
300
3" = 1'-0"
140
3.0
141
12.0
290
     0
  0
SCALE
  5
5B
102
{ACAD_REACTORS
330
3B
102
}
330
3B
100
AcDbScale
 70
     0
300
6" = 1'-0"
140
6.0
141
12.0
290
     0
  0
SCALE
  5
5C
102
{ACAD_REACTORS
330
3B
102
}
330
3B
100
AcDbScale
 70
     0
300
1'-0" = 1'-0"
140
12.0
141
12.0
290
     0
  0
VISUALSTYLE
  5
2F
102
{ACAD_REACTORS
330
2A
102
}
330
2A
100
AcDbVisualStyle
  2
2dWireframe
 70
     4
 71
     0
 72
     2
 73
     0
 90
        0
 40
-0.6
 41
-30.0
 62
     5
 63
     7
421
 16777215
 74
     1
 91
        4
 64
     7
 65
   257
 75
     1
175
     1
 42
1.0
 92
        0
 66
   257
 43
1.0
 76
     1
 77
     6
 78
     2
 67
     7
 79
     5
170
     0
171
     0
290
     0
174
     0
 93
        1
 44
0.0
173
     0
291
     0
 45
0.0
1001
ACAD
1000
AcDbSavedByObjectVersion
1070
     0
  0
VISUALSTYLE
  5
31
102
{ACAD_REACTORS
330
2A
102
}
330
2A
100
AcDbVisualStyle
  2
3D Hidden
 70
     6
 71
     1
 72
     2
 73
     2
 90
        0
 40
-0.6
 41
-30.0
 62
     5
 63
     7
421
 16777215
 74
     2
 91
        2
 64
     7
 65
   257
 75
     2
175
     1
 42
40.0
 92
        0
 66
   257
 43
1.0
 76
     1
 77
     6
 78
     2
 67
     7
 79
     3
170
     0
171
     0
290
     0
174
     0
 93
        1
 44
0.0
173
     0
291
     0
 45
0.0
1001
ACAD
1000
AcDbSavedByObjectVersion
1070
     0
  0
VISUALSTYLE
  5
30
102
{ACAD_REACTORS
330
2A
102
}
330
2A
100
AcDbVisualStyle
  2
3dWireframe
 70
     5
 71
     0
 72
     2
 73
     0
 90
        0
 40
-0.6
 41
-30.0
 62
     5
 63
     7
421
 16777215
 74
     1
 91
        4
 64
     7
 65
   257
 75
     1
175
     1
 42
1.0
 92
        0
 66
   257
 43
1.0
 76
     1
 77
     6
 78
     2
 67
     7
 79
     5
170
     0
171
     0
290
     0
174
     0
 93
        1
 44
0.0
173
     0
291
     0
 45
0.0
1001
ACAD
1000
AcDbSavedByObjectVersion
1070
     0
  0
VISUALSTYLE
  5
32
102
{ACAD_REACTORS
330
2A
102
}
330
2A
100
AcDbVisualStyle
  2
Basic
 70
     7
 71
     1
 72
     0
 73
     1
 90
        0
 40
-0.6
 41
-30.0
 62
     5
 63
     7
421
 16777215
 74
     0
 91
        4
 64
     7
 65
   257
 75
     1
175
     1
 42
1.0
 92
        8
 66
     7
 43
1.0
 76
     1
 77
     6
 78
     2
 67
     7
 79
     5
170
     0
171
     0
290
     0
174
     0
 93
        1
 44
0.0
173
     0
291
     1
 45
0.0
1001
ACAD
1000
AcDbSavedByObjectVersion
1070
     0
  0
VISUALSTYLE
  5
36
102
{ACAD_REACTORS
330
2A
102
}
330
2A
100
AcDbVisualStyle
  2
Brighten
 70
    12
 71
     2
 72
     2
 73
     0
 90
        0
 40
-0.6
 41
-30.0
 62
     5
 63
     7
421
 16777215
 74
     1
 91
        4
 64
     7
 65
   257
 75
     1
175
     1
 42
1.0
 92
        8
 66
     7
 43
1.0
 76
     1
 77
     6
 78
     2
 67
     7
 79
     5
170
     0
171
     0
290
     0
174
     0
 93
        1
 44
50.0
173
     0
291
     1
 45
0.0
1001
ACAD
1000
AcDbSavedByObjectVersion
1070
     0
  0
VISUALSTYLE
  5
3A
102
{ACAD_REACTORS
330
2A
102
}
330
2A
100
AcDbVisualStyle
  2
ColorChange
 70
    16
 71
     2
 72
     2
 73
     3
 90
        0
 40
-0.6
 41
-30.0
 62
     5
 63
     8
421
  8421504
 74
     1
 91
        4
 64
     7
 65
   257
 75
     1
175
     1
 42
1.0
 92
        8
 66
     8
424
  8421504
 43
1.0
 76
     1
 77
     6
 78
     2
 67
     7
 79
     5
170
     0
171
     0
290
     0
174
     0
 93
        1
 44
0.0
173
     0
291
     1
 45
0.0
1001
ACAD
1000
AcDbSavedByObjectVersion
1070
     0
  0
VISUALSTYLE
  5
34
102
{ACAD_REACTORS
330
2A
102
}
330
2A
100
AcDbVisualStyle
  2
Conceptual
 70
     9
 71
     3
 72
     2
 73
     0
 90
        0
 40
-0.6
 41
-30.0
 62
     5
 63
     7
421
 16777215
 74
     2
 91
        2
 64
     7
 65
   257
 75
     1
175
     1
 42
40.0
 92
        8
 66
     7
 43
1.0
 76
     1
 77
     6
 78
     2
 67
     7
 79
     3
170
     0
171
     0
290
     0
174
     0
 93
        1
 44
0.0
173
     0
291
     0
 45
0.0
1001
ACAD
1000
AcDbSavedByObjectVersion
1070
     0
  0
VISUALSTYLE
  5
35
102
{ACAD_REACTORS
330
2A
102
}
330
2A
100
AcDbVisualStyle
  2
Dim
 70
    11
 71
     2
 72
     2
 73
     0
 90
        0
 40
-0.6
 41
-30.0
 62
     5
 63
     7
421
 16777215
 74
     1
 91
        4
 64
     7
 65
   257
 75
     1
175
     1
 42
1.0
 92
        8
 66
     7
 43
1.0
 76
     1
 77
     6
 78
     2
 67
     7
 79
     5
170
     0
171
     0
290
     0
174
     0
 93
        1
 44
-50.0
173
     0
291
     1
 45
0.0
1001
ACAD
1000
AcDbSavedByObjectVersion
1070
     0
  0
VISUALSTYLE
  5
39
102
{ACAD_REACTORS
330
2A
102
}
330
2A
100
AcDbVisualStyle
  2
Facepattern
 70
    15
 71
     2
 72
     2
 73
     0
 90
        0
 40
-0.6
 41
-30.0
 62
     5
 63
     7
421
 16777215
 74
     1
 91
        4
 64
     7
 65
   257
 75
     1
175
     1
 42
1.0
 92
        8
 66
     7
 43
1.0
 76
     1
 77
     6
 78
     2
 67
     7
 79
     5
170
     0
171
     0
290
     0
174
     0
 93
        1
 44
0.0
173
     0
291
     1
 45
0.0
1001
ACAD
1000
AcDbSavedByObjectVersion
1070
     0
  0
VISUALSTYLE
  5
2B
102
{ACAD_REACTORS
330
2A
102
}
330
2A
100
AcDbVisualStyle
  2
Flat
 70
     0
 71
     2
 72
     1
 73
     1
 90
        2
 40
-0.6
 41
30.0
 62
     5
 63
     7
421
 16777215
 74
     0
 91
        4
 64
     7
 65
   257
 75
     1
175
     1
 42
1.0
 92
        8
 66
     7
 43
1.0
 76
     1
 77
     6
 78
     2
 67
     7
 79
     5
170
     0
171
     0
290
     0
174
     0
 93
       13
 44
0.0
173
     0
291
     1
 45
0.0
1001
ACAD
1000
AcDbSavedByObjectVersion
1070
     0
  0
VISUALSTYLE
  5
2C
102
{ACAD_REACTORS
330
2A
102
}
330
2A
100
AcDbVisualStyle
  2
FlatWithEdges
 70
     1
 71
     2
 72
     1
 73
     1
 90
        2
 40
-0.6
 41
30.0
 62
     5
 63
     7
421
 16777215
 74
     1
 91
        4
 64
     7
 65
   257
 75
     1
175
     1
 42
1.0
 92
        0
 66
   257
 43
1.0
 76
     1
 77
     6
 78
     2
 67
     7
 79
     5
170
     0
171
     0
290
     0
174
     0
 93
       13
 44
0.0
173
     0
291
     1
 45
0.0
1001
ACAD
1000
AcDbSavedByObjectVersion
1070
     0
  0
VISUALSTYLE
  5
2D
102
{ACAD_REACTORS
330
2A
102
}
330
2A
100
AcDbVisualStyle
  2
Gouraud
 70
     2
 71
     2
 72
     2
 73
     1
 90
        2
 40
-0.6
 41
30.0
 62
     5
 63
     7
421
 16777215
 74
     0
 91
        4
 64
     7
 65
   257
 75
     1
175
     1
 42
1.0
 92
        0
 66
     7
 43
1.0
 76
     1
 77
     6
 78
     2
 67
     7
 79
     5
170
     0
171
     0
290
     0
174
     0
 93
       13
 44
0.0
173
     0
291
     1
 45
0.0
1001
ACAD
1000
AcDbSavedByObjectVersion
1070
     0
  0
VISUALSTYLE
  5
2E
102
{ACAD_REACTORS
330
2A
102
}
330
2A
100
AcDbVisualStyle
  2
GouraudWithEdges
 70
     3
 71
     2
 72
     2
 73
     1
 90
        2
 40
-0.6
 41
30.0
 62
     5
 63
     7
421
 16777215
 74
     1
 91
        4
 64
     7
 65
   257
 75
     1
175
     1
 42
1.0
 92
        0
 66
   257
 43
1.0
 76
     1
 77
     6
 78
     2
 67
     7
 79
     5
170
     0
171
     0
290
     0
174
     0
 93
       13
 44
0.0
173
     0
291
     1
 45
0.0
1001
ACAD
1000
AcDbSavedByObjectVersion
1070
     0
  0
VISUALSTYLE
  5
38
102
{ACAD_REACTORS
330
2A
102
}
330
2A
100
AcDbVisualStyle
  2
Linepattern
 70
    14
 71
     2
 72
     2
 73
     0
 90
        0
 40
-0.6
 41
-30.0
 62
     5
 63
     7
421
 16777215
 74
     1
 91
        4
 64
     7
 65
   257
 75
     7
175
     7
 42
1.0
 92
        8
 66
     7
 43
1.0
 76
     1
 77
     6
 78
     2
 67
     7
 79
     5
170
     0
171
     0
290
     0
174
     0
 93
        1
 44
0.0
173
     0
291
     1
 45
0.0
1001
ACAD
1000
AcDbSavedByObjectVersion
1070
     0
  0
VISUALSTYLE
  5
33
102
{ACAD_REACTORS
330
2A
102
}
330
2A
100
AcDbVisualStyle
  2
Realistic
 70
     8
 71
     2
 72
     2
 73
     0
 90
        0
 40
-0.6
 41
-30.0
 62
     5
 63
     7
421
 16777215
 74
     1
 91
        0
 64
     7
 65
   257
 75
     1
175
     1
 42
1.0
 92
        8
 66
     8
424
  7895160
 43
1.0
 76
     1
 77
     6
 78
     2
 67
     7
 79
     5
170
     0
171
     0
290
     0
174
     0
 93
       13
 44
0.0
173
     0
291
     0
 45
0.0
1001
ACAD
1000
AcDbSavedByObjectVersion
1070
     0
  0
VISUALSTYLE
  5
37
102
{ACAD_REACTORS
330
2A
102
}
330
2A
100
AcDbVisualStyle
  2
Thicken
 70
    13
 71
     2
 72
     2
 73
     0
 90
        0
 40
-0.6
 41
-30.0
 62
     5
 63
     7
421
 16777215
 74
     1
 91
        4
 64
     7
 65
   257
 75
     1
175
     1
 42
1.0
 92
       12
 66
     7
 43
1.0
 76
     1
 77
     6
 78
     2
 67
     7
 79
     5
170
     0
171
     0
290
     0
174
     0
 93
        1
 44
0.0
173
     0
291
     1
 45
0.0
1001
ACAD
1000
AcDbSavedByObjectVersion
1070
     0
  0
ENDSEC
  0
EOF
