  0
SECTION
  2
HEADER
  9
$ACADVER
  1
AC1018
  9
$ACADMAINTVER
 70
     0
  9
$DWGCODEPAGE
  3
ANSI_1252
  9
$INSBASE
 10
0.0
 20
0.0
 30
0.0
  9
$EXTMIN
 10
7.204280254230057
 20
-2.321583595338479
 30
0.0
  9
$EXTMAX
 10
309.1766281832166
 20
217.4183042590414
 30
0.0
  9
$LIMMIN
 10
0.0
 20
0.0
  9
$LIMMAX
 10
12.0
 20
9.0
  9
$ORTHOMODE
 70
     0
  9
$REGENMODE
 70
     1
  9
$FILLMODE
 70
     1
  9
$QTEXTMODE
 70
     0
  9
$MIRRTEXT
 70
     1
  9
$LTSCALE
 40
1.0
  9
$ATTMODE
 70
     1
  9
$TEXTSIZE
 40
0.2
  9
$TRACEWID
 40
0.05
  9
$TEXTSTYLE
  7
Standard
  9
$CLAYER
  8
PREDEFINITO
  9
$CELTYPE
  6
ByLayer
  9
$CECOLOR
 62
   256
  9
$CELTSCALE
 40
1.0
  9
$DISPSILH
 70
     0
  9
$DIMSCALE
 40
1.0
  9
$DIMASZ
 40
0.18
  9
$DIMEXO
 40
0.0625
  9
$DIMDLI
 40
0.38
  9
$DIMRND
 40
0.0
  9
$DIMDLE
 40
0.0
  9
$DIMEXE
 40
0.18
  9
$DIMTP
 40
0.0
  9
$DIMTM
 40
0.0
  9
$DIMTXT
 40
0.18
  9
$DIMCEN
 40
0.09
  9
$DIMTSZ
 40
0.0
  9
$DIMTOL
 70
     0
  9
$DIMLIM
 70
     0
  9
$DIMTIH
 70
     1
  9
$DIMTOH
 70
     1
  9
$DIMSE1
 70
     0
  9
$DIMSE2
 70
     0
  9
$DIMTAD
 70
     0
  9
$DIMZIN
 70
     0
  9
$DIMBLK
  1

  9
$DIMASO
 70
     1
  9
$DIMSHO
 70
     1
  9
$DIMPOST
  1

  9
$DIMAPOST
  1

  9
$DIMALT
 70
     0
  9
$DIMALTD
 70
     2
  9
$DIMALTF
 40
25.4
  9
$DIMLFAC
 40
1.0
  9
$DIMTOFL
 70
     0
  9
$DIMTVP
 40
0.0
  9
$DIMTIX
 70
     0
  9
$DIMSOXD
 70
     0
  9
$DIMSAH
 70
     0
  9
$DIMBLK1
  1

  9
$DIMBLK2
  1

  9
$DIMSTYLE
  2
Standard
  9
$DIMCLRD
 70
     0
  9
$DIMCLRE
 70
     0
  9
$DIMCLRT
 70
     0
  9
$DIMTFAC
 40
1.0
  9
$DIMGAP
 40
0.09
  9
$DIMJUST
 70
     0
  9
$DIMSD1
 70
     0
  9
$DIMSD2
 70
     0
  9
$DIMTOLJ
 70
     1
  9
$DIMTZIN
 70
     0
  9
$DIMALTZ
 70
     0
  9
$DIMALTTZ
 70
     0
  9
$DIMUPT
 70
     0
  9
$DIMDEC
 70
     4
  9
$DIMTDEC
 70
     4
  9
$DIMALTU
 70
     2
  9
$DIMALTTD
 70
     2
  9
$DIMTXSTY
  7
Standard
  9
$DIMAUNIT
 70
     0
  9
$DIMADEC
 70
     0
  9
$DIMALTRND
 40
0.0
  9
$DIMAZIN
 70
     0
  9
$DIMDSEP
 70
    46
  9
$DIMATFIT
 70
     3
  9
$DIMFRAC
 70
     0
  9
$DIMLDRBLK
  1

  9
$DIMLUNIT
 70
     2
  9
$DIMLWD
 70
    -2
  9
$DIMLWE
 70
    -2
  9
$DIMTMOVE
 70
     0
  9
$LUNITS
 70
     2
  9
$LUPREC
 70
     3
  9
$SKETCHINC
 40
0.1
  9
$FILLETRAD
 40
0.5
  9
$AUNITS
 70
     0
  9
$AUPREC
 70
     0
  9
$MENU
  1
.
  9
$ELEVATION
 40
0.0
  9
$PELEVATION
 40
0.0
  9
$THICKNESS
 40
0.0
  9
$LIMCHECK
 70
     0
  9
$CHAMFERA
 40
0.5
  9
$CHAMFERB
 40
0.5
  9
$CHAMFERC
 40
1.0
  9
$CHAMFERD
 40
0.0
  9
$SKPOLY
 70
     0
  9
$TDCREATE
 40
2455869.612737986
  9
$TDUCREATE
 40
2455869.571071319
  9
$TDUPDATE
 40
2455869.612737998
  9
$TDUUPDATE
 40
2455869.571071331
  9
$TDINDWG
 40
0.0000000116
  9
$TDUSRTIMER
 40
0.0000000116
  9
$USRTIMER
 70
     1
  9
$ANGBASE
 50
0.0
  9
$ANGDIR
 70
     0
  9
$PDMODE
 70
     0
  9
$PDSIZE
 40
0.0
  9
$PLINEWID
 40
0.0
  9
$SPLFRAME
 70
     0
  9
$SPLINETYPE
 70
     6
  9
$SPLINESEGS
 70
     8
  9
$HANDSEED
  5
15B
  9
$SURFTAB1
 70
     6
  9
$SURFTAB2
 70
     6
  9
$SURFTYPE
 70
     6
  9
$SURFU
 70
     6
  9
$SURFV
 70
     6
  9
$UCSBASE
  2

  9
$UCSNAME
  2

  9
$UCSORG
 10
0.0
 20
0.0
 30
0.0
  9
$UCSXDIR
 10
1.0
 20
0.0
 30
0.0
  9
$UCSYDIR
 10
0.0
 20
1.0
 30
0.0
  9
$UCSORTHOREF
  2

  9
$UCSORTHOVIEW
 70
     0
  9
$UCSORGTOP
 10
0.0
 20
0.0
 30
0.0
  9
$UCSORGBOTTOM
 10
0.0
 20
0.0
 30
0.0
  9
$UCSORGLEFT
 10
0.0
 20
0.0
 30
0.0
  9
$UCSORGRIGHT
 10
0.0
 20
0.0
 30
0.0
  9
$UCSORGFRONT
 10
0.0
 20
0.0
 30
0.0
  9
$UCSORGBACK
 10
0.0
 20
0.0
 30
0.0
  9
$PUCSBASE
  2

  9
$PUCSNAME
  2

  9
$PUCSORG
 10
0.0
 20
0.0
 30
0.0
  9
$PUCSXDIR
 10
1.0
 20
0.0
 30
0.0
  9
$PUCSYDIR
 10
0.0
 20
1.0
 30
0.0
  9
$PUCSORTHOREF
  2

  9
$PUCSORTHOVIEW
 70
     0
  9
$PUCSORGTOP
 10
0.0
 20
0.0
 30
0.0
  9
$PUCSORGBOTTOM
 10
0.0
 20
0.0
 30
0.0
  9
$PUCSORGLEFT
 10
0.0
 20
0.0
 30
0.0
  9
$PUCSORGRIGHT
 10
0.0
 20
0.0
 30
0.0
  9
$PUCSORGFRONT
 10
0.0
 20
0.0
 30
0.0
  9
$PUCSORGBACK
 10
0.0
 20
0.0
 30
0.0
  9
$USERI1
 70
     0
  9
$USERI2
 70
     0
  9
$USERI3
 70
     0
  9
$USERI4
 70
     0
  9
$USERI5
 70
     0
  9
$USERR1
 40
0.0
  9
$USERR2
 40
0.0
  9
$USERR3
 40
0.0
  9
$USERR4
 40
0.0
  9
$USERR5
 40
0.0
  9
$WORLDVIEW
 70
     1
  9
$SHADEDGE
 70
     3
  9
$SHADEDIF
 70
    70
  9
$TILEMODE
 70
     1
  9
$MAXACTVP
 70
    64
  9
$PINSBASE
 10
0.0
 20
0.0
 30
0.0
  9
$PLIMCHECK
 70
     0
  9
$PEXTMIN
 10
1.000000000000000E+20
 20
1.000000000000000E+20
 30
1.000000000000000E+20
  9
$PEXTMAX
 10
-1.000000000000000E+20
 20
-1.000000000000000E+20
 30
-1.000000000000000E+20
  9
$PLIMMIN
 10
0.0
 20
0.0
  9
$PLIMMAX
 10
12.0
 20
9.0
  9
$UNITMODE
 70
     0
  9
$VISRETAIN
 70
     1
  9
$PLINEGEN
 70
     0
  9
$PSLTSCALE
 70
     1
  9
$TREEDEPTH
 70
  3020
  9
$CMLSTYLE
  2
Standard
  9
$CMLJUST
 70
     0
  9
$CMLSCALE
 40
1.0
  9
$PROXYGRAPHICS
 70
     1
  9
$MEASUREMENT
 70
     0
  9
$CELWEIGHT
370
    -1
  9
$ENDCAPS
280
     0
  9
$JOINSTYLE
280
     0
  9
$LWDISPLAY
290
     0
  9
$INSUNITS
 70
     4
  9
$HYPERLINKBASE
  1

  9
$STYLESHEET
  1

  9
$XEDIT
290
     1
  9
$CEPSNTYPE
380
     0
  9
$PSTYLEMODE
290
     1
  9
$FINGERPRINTGUID
  2
{C7A76896-5AFC-4C82-AE15-A9DB0B618C0C}
  9
$VERSIONGUID
  2
{FAEB1C32-E019-11D5-929B-00C0DF256EC4}
  9
$EXTNAMES
290
     1
  9
$PSVPSCALE
 40
0.0
  9
$OLESTARTUP
290
     0
  9
$SORTENTS
280
   127
  9
$INDEXCTL
280
     0
  9
$HIDETEXT
280
     1
  9
$XCLIPFRAME
290
     0
  9
$HALOGAP
280
     0
  9
$OBSCOLOR
 70
   257
  9
$OBSLTYPE
280
     0
  9
$INTERSECTIONDISPLAY
280
     0
  9
$INTERSECTIONCOLOR
 70
   257
  9
$DIMASSOC
280
     2
  9
$PROJECTNAME
  1

  0
ENDSEC
  0
SECTION
  2
CLASSES
  0
CLASS
  1
ACDBDICTIONARYWDFLT
  2
AcDbDictionaryWithDefault
  3
ObjectDBX Classes
 90
        0
 91
        3
280
     0
281
     0
  0
CLASS
  1
VISUALSTYLE
  2
AcDbVisualStyle
  3
ObjectDBX Classes
 90
     4095
 91
        3
280
     0
281
     0
  0
CLASS
  1
SCALE
  2
AcDbScale
  3
ObjectDBX Classes
 90
     1153
 91
        3
280
     0
281
     0
  0
ENDSEC
  0
SECTION
  2
TABLES
  0
TABLE
  2
VPORT
  5
8
330
0
100
AcDbSymbolTable
 70
     1
  0
VPORT
  5
29
330
8
100
AcDbSymbolTableRecord
100
AcDbViewportTableRecord
  2
*Active
 70
     0
 10
0.0
 20
0.0
 11
1.0
 21
1.0
 12
0.0
 22
0.0
 13
0.0
 23
0.0
 14
0.5
 24
0.5
 15
0.5
 25
0.5
 16
0.0
 26
0.0
 36
1.0
 17
158.1904542187233
 27
107.5483603318515
 37
0.0
 40
224.1346856114674
 41
1.374226367718462
 42
50.0
 43
0.0
 44
0.0
 50
0.0
 51
0.0
 71
     0
 72
   100
 73
     1
 74
     3
 75
     0
 76
     0
 77
     0
 78
     0
281
     0
 65
     1
110
0.0
120
0.0
130
0.0
111
1.0
121
0.0
131
0.0
112
0.0
122
1.0
132
0.0
 79
     0
146
0.0
  0
ENDTAB
  0
TABLE
  2
LTYPE
  5
5
330
0
100
AcDbSymbolTable
 70
     1
  0
LTYPE
  5
14
330
5
100
AcDbSymbolTableRecord
100
AcDbLinetypeTableRecord
  2
ByBlock
 70
     0
  3

 72
    65
 73
     0
 40
0.0
  0
LTYPE
  5
15
330
5
100
AcDbSymbolTableRecord
100
AcDbLinetypeTableRecord
  2
ByLayer
 70
     0
  3

 72
    65
 73
     0
 40
0.0
  0
LTYPE
  5
16
330
5
100
AcDbSymbolTableRecord
100
AcDbLinetypeTableRecord
  2
Continuous
 70
     0
  3
Solid line
 72
    65
 73
     0
 40
0.0
  0
ENDTAB
  0
TABLE
  2
LAYER
  5
2
330
0
100
AcDbSymbolTable
 70
     3
  0
LAYER
  5
10
330
2
100
AcDbSymbolTableRecord
100
AcDbLayerTableRecord
  2
0
 70
     0
 62
     7
  6
Continuous
370
    -3
390
F
  0
LAYER
  5
5D
330
2
100
AcDbSymbolTableRecord
100
AcDbLayerTableRecord
  2
LINEE VISIBILI 2D
 70
     0
 62
     7
  6
Continuous
370
    -3
390
F
  0
LAYER
  5
5F
330
2
100
AcDbSymbolTableRecord
100
AcDbLayerTableRecord
  2
PREDEFINITO
 70
     0
 62
     7
  6
Continuous
370
    -3
390
F
  0
ENDTAB
  0
TABLE
  2
STYLE
  5
3
330
0
100
AcDbSymbolTable
 70
     1
  0
STYLE
  5
11
330
3
100
AcDbSymbolTableRecord
100
AcDbTextStyleTableRecord
  2
Standard
 70
     0
 40
0.0
 41
1.0
 50
0.0
 71
     0
 42
0.2
  3
txt
  4

  0
ENDTAB
  0
TABLE
  2
VIEW
  5
6
330
0
100
AcDbSymbolTable
 70
     0
  0
ENDTAB
  0
TABLE
  2
UCS
  5
7
330
0
100
AcDbSymbolTable
 70
     0
  0
ENDTAB
  0
TABLE
  2
APPID
  5
9
330
0
100
AcDbSymbolTable
 70
     1
  0
APPID
  5
12
330
9
100
AcDbSymbolTableRecord
100
AcDbRegAppTableRecord
  2
ACAD
 70
     0
  0
ENDTAB
  0
TABLE
  2
DIMSTYLE
  5
A
330
0
100
AcDbSymbolTable
 70
     1
100
AcDbDimStyleTable
  0
DIMSTYLE
105
27
330
A
100
AcDbSymbolTableRecord
100
AcDbDimStyleTableRecord
  2
Standard
 70
     0
340
11
  0
ENDTAB
  0
TABLE
  2
BLOCK_RECORD
  5
1
330
0
100
AcDbSymbolTable
 70
     1
  0
BLOCK_RECORD
  5
1F
330
1
100
AcDbSymbolTableRecord
100
AcDbBlockTableRecord
  2
*Model_Space
340
22
  0
BLOCK_RECORD
  5
1B
330
1
100
AcDbSymbolTableRecord
100
AcDbBlockTableRecord
  2
*Paper_Space
340
1E
  0
BLOCK_RECORD
  5
23
330
1
100
AcDbSymbolTableRecord
100
AcDbBlockTableRecord
  2
*Paper_Space0
340
26
  0
ENDTAB
  0
ENDSEC
  0
SECTION
  2
BLOCKS
  0
BLOCK
  5
20
330
1F
100
AcDbEntity
  8
0
100
AcDbBlockBegin
  2
*Model_Space
 70
     0
 10
0.0
 20
0.0
 30
0.0
  3
*Model_Space
  1

  0
ENDBLK
  5
21
330
1F
100
AcDbEntity
  8
0
100
AcDbBlockEnd
  0
BLOCK
  5
1C
330
1B
100
AcDbEntity
 67
     1
  8
0
100
AcDbBlockBegin
  2
*Paper_Space
 70
     0
 10
0.0
 20
0.0
 30
0.0
  3
*Paper_Space
  1

  0
ENDBLK
  5
1D
330
1B
100
AcDbEntity
 67
     1
  8
0
100
AcDbBlockEnd
  0
BLOCK
  5
24
330
23
100
AcDbEntity
  8
0
100
AcDbBlockBegin
  2
*Paper_Space0
 70
     0
 10
0.0
 20
0.0
 30
0.0
  3
*Paper_Space0
  1

  0
ENDBLK
  5
25
330
23
100
AcDbEntity
  8
0
100
AcDbBlockEnd
  0
ENDSEC
  0
SECTION
  2
ENTITIES
  0
SPLINE
  5
5E
330
1F
100
AcDbEntity
  8
LINEE VISIBILI 2D
100
AcDbSpline
210
0.0
220
0.0
230
1.0
 70
     8
 71
     3
 72
    11
 73
     7
 74
     0
 42
0.0000000001
 43
0.0000000001
 40
0.0
 40
0.0
 40
0.0
 40
0.0
 40
1.985746295245913
 40
4.062222648665491
 40
10.57619046862018
 40
12.09288633804659
 40
12.09288633804659
 40
12.09288633804659
 40
12.09288633804659
 10
191.1189286874292
 20
178.5218762170649
 30
0.0
 10
191.2051558413658
 20
179.1783694586962
 30
0.0
 10
191.4258501962326
 20
180.5143509051135
 30
0.0
 10
192.167447812407
 20
183.962747667857
 30
0.0
 10
193.1635086174687
 20
187.1852947776651
 30
0.0
 10
193.8084414871101
 20
189.7829859351372
 30
0.0
 10
193.9199098445253
 20
190.2760253938139
 30
0.0
  0
SPLINE
  5
60
330
1F
100
AcDbEntity
  8
PREDEFINITO
100
AcDbSpline
210
0.0
220
0.0
230
1.0
 70
    24
 71
     2
 72
     6
 73
     3
 74
     0
 42
0.0000000001
 43
0.0000000001
 40
0.0
 40
0.0
 40
0.0
 40
3.051556730417104
 40
3.051556730417104
 40
3.051556730417104
 10
191.0689286874292
 20
172.6759682439573
 30
0.0
 10
191.0689286874292
 20
174.2017466091659
 30
0.0
 10
191.0689286874292
 20
175.7275249743744
 30
0.0
  0
POLYLINE
  5
61
330
1F
100
AcDbEntity
  8
PREDEFINITO
100
AcDb2dPolyline
 66
     1
 10
0.0
 20
0.0
 30
0.0
  0
VERTEX
  5
63
330
61
100
AcDbEntity
  8
PREDEFINITO
100
AcDbVertex
100
AcDb2dVertex
 10
191.0689286874292
 20
175.7275249743744
 30
0.0
  0
VERTEX
  5
64
330
61
100
AcDbEntity
  8
PREDEFINITO
100
AcDbVertex
100
AcDb2dVertex
 10
191.0689286874292
 20
178.1278252300746
 30
0.0
  0
SEQEND
  5
62
330
61
100
AcDbEntity
  8
PREDEFINITO
  0
SPLINE
  5
65
330
1F
100
AcDbEntity
  8
PREDEFINITO
100
AcDbSpline
210
0.0
220
0.0
230
1.0
 70
    24
 71
     2
 72
     6
 73
     3
 74
     0
 42
0.0000000001
 43
0.0000000001
 40
0.0
 40
0.0
 40
0.0
 40
12.64949216272954
 40
12.64949216272954
 40
12.64949216272954
 10
191.0689286874292
 20
178.1278252300746
 30
0.0
 10
191.0689286874292
 20
184.4525713114394
 30
0.0
 10
191.0689286874292
 20
190.7773173928042
 30
0.0
  0
SPLINE
  5
66
330
1F
100
AcDbEntity
  8
LINEE VISIBILI 2D
100
AcDbSpline
210
0.0
220
0.0
230
1.0
 70
    24
 71
     2
 72
     6
 73
     3
 74
     0
 42
0.0000000001
 43
0.0000000001
 40
0.0
 40
0.0
 40
0.0
 40
9.454888001477983
 40
9.454888001477983
 40
9.454888001477983
 10
249.0729848984558
 20
150.1924166478919
 30
0.0
 10
249.0729848984554
 20
154.9198606486309
 30
0.0
 10
249.072984898455
 20
159.6473046493699
 30
0.0
  0
POLYLINE
  5
67
330
1F
100
AcDbEntity
  8
LINEE VISIBILI 2D
100
AcDb2dPolyline
 66
     1
 10
0.0
 20
0.0
 30
0.0
  0
VERTEX
  5
69
330
67
100
AcDbEntity
  8
LINEE VISIBILI 2D
100
AcDbVertex
100
AcDb2dVertex
 10
249.072984898455
 20
159.6473046493699
 30
0.0
  0
VERTEX
  5
6A
330
67
100
AcDbEntity
  8
LINEE VISIBILI 2D
100
AcDbVertex
100
AcDb2dVertex
 10
249.0729848979734
 20
161.862814772463
 30
0.0
  0
SEQEND
  5
68
330
67
100
AcDbEntity
  8
LINEE VISIBILI 2D
  0
SPLINE
  5
6B
330
1F
100
AcDbEntity
  8
LINEE VISIBILI 2D
100
AcDbSpline
210
0.0
220
0.0
230
1.0
 70
    24
 71
     2
 72
     6
 73
     3
 74
     0
 42
0.0000000001
 43
0.0000000001
 40
0.0
 40
0.0
 40
0.0
 40
4.790703241678756
 40
4.790703241678756
 40
4.790703241678756
 10
249.0729848979734
 20
161.862814772463
 30
0.0
 10
249.0729848982146
 20
164.2581663933203
 30
0.0
 10
249.0729848984558
 20
166.6535180141776
 30
0.0
  0
SPLINE
  5
6C
330
1F
100
AcDbEntity
  8
LINEE VISIBILI 2D
100
AcDbSpline
210
0.0
220
0.0
230
1.0
 70
    24
 71
     2
 72
     6
 73
     3
 74
     0
 42
0.0000000001
 43
0.0000000001
 40
0.0
 40
0.0
 40
0.0
 40
38.86509731939038
 40
38.86509731939038
 40
38.86509731939038
 10
178.4679848984559
 20
150.1776776352752
 30
0.0
 10
178.4679848984559
 20
169.6102262949703
 30
0.0
 10
178.4679848984559
 20
189.0427749546655
 30
0.0
  0
SPLINE
  5
6D
330
1F
100
AcDbEntity
  8
PREDEFINITO
100
AcDbSpline
210
0.0
220
0.0
230
1.0
 70
     8
 71
     3
 72
    11
 73
     7
 74
     0
 42
0.0000000001
 43
0.0000000001
 40
0.0
 40
0.0
 40
0.0
 40
0.0
 40
1.0
 40
2.0
 40
3.0
 40
4.0
 40
4.0
 40
4.0
 40
4.0
 10
171.9037022462389
 20
188.0178843305597
 30
0.0
 10
185.4062004209669
 20
185.2441589845564
 30
0.0
 10
199.7881729181202
 20
183.7417013302812
 30
0.0
 10
211.9505404278962
 20
183.7708192654717
 30
0.0
 10
222.6779387270526
 20
183.4302000462025
 30
0.0
 10
230.2579606548159
 20
184.1630740197454
 30
0.0
 10
234.0372245177581
 20
185.0311073141554
 30
0.0
  0
SPLINE
  5
6E
330
1F
100
AcDbEntity
  8
LINEE VISIBILI 2D
100
AcDbSpline
210
0.0
220
0.0
230
1.0
 70
     8
 71
     3
 72
    11
 73
     7
 74
     0
 42
0.0000000001
 43
0.0000000001
 40
0.0
 40
0.0
 40
0.0
 40
0.0
 40
1.426757334576421
 40
5.030187486454607
 40
6.603599740299172
 40
9.657493822207382
 40
9.657493822207382
 40
9.657493822207382
 40
9.657493822207382
 10
249.0729848984552
 20
159.6473046493699
 30
0.0
 10
249.019748948725
 20
159.1746886769806
 30
0.0
 10
248.8130666461511
 20
157.5107411721782
 30
0.0
 10
248.4807954831541
 20
155.3343214952403
 30
0.0
 10
248.1306275217175
 20
152.6133657056102
 30
0.0
 10
248.0041667324894
 20
151.0746366875588
 30
0.0
 10
247.992688280834
 20
150.0562923362215
 30
0.0
  0
SPLINE
  5
6F
330
1F
100
AcDbEntity
  8
PREDEFINITO
100
AcDbSpline
210
0.0
220
0.0
230
1.0
 70
    24
 71
     2
 72
     6
 73
     3
 74
     0
 42
0.0000000001
 43
0.0000000001
 40
9.671999229130996
 40
9.671999229130996
 40
9.671999229130996
 40
21.91861263938958
 40
21.91861263938958
 40
21.91861263938958
 10
191.1189286874292
 20
190.7684896273235
 30
0.0
 10
191.1189286874292
 20
184.6451829221942
 30
0.0
 10
191.1189286874292
 20
178.5218762170649
 30
0.0
  0
POLYLINE
  5
70
330
1F
100
AcDbEntity
  8
PREDEFINITO
100
AcDb2dPolyline
 66
     1
 10
0.0
 20
0.0
 30
0.0
  0
VERTEX
  5
72
330
70
100
AcDbEntity
  8
PREDEFINITO
100
AcDbVertex
100
AcDb2dVertex
 10
191.1189286874292
 20
178.5218762170649
 30
0.0
  0
VERTEX
  5
73
330
70
100
AcDbEntity
  8
PREDEFINITO
100
AcDbVertex
100
AcDb2dVertex
 10
191.1189286874292
 20
176.5680059476232
 30
0.0
  0
SEQEND
  5
71
330
70
100
AcDbEntity
  8
PREDEFINITO
  0
SPLINE
  5
74
330
1F
100
AcDbEntity
  8
PREDEFINITO
100
AcDbSpline
210
0.0
220
0.0
230
1.0
 70
    24
 71
     2
 72
     6
 73
     3
 74
     0
 42
0.0000000001
 43
0.0000000001
 40
0.0
 40
0.0
 40
0.0
 40
4.790835485713842
 40
4.790835485713842
 40
4.790835485713842
 10
191.1189286874292
 20
176.5680059476232
 30
0.0
 10
191.1189286874292
 20
174.1725882047662
 30
0.0
 10
191.1189286874292
 20
171.7771704619093
 30
0.0
  0
SPLINE
  5
75
330
1F
100
AcDbEntity
  8
PREDEFINITO
100
AcDbSpline
210
0.0
220
0.0
230
1.0
 70
     8
 71
     3
 72
    11
 73
     7
 74
     0
 42
0.0000000001
 43
0.0000000001
 40
0.0
 40
0.0
 40
0.0
 40
0.0
 40
1.0
 40
2.0
 40
3.0
 40
4.0
 40
4.0
 40
4.0
 40
4.0
 10
136.5404149489668
 20
199.2965866118438
 30
0.0
 10
145.6303376242711
 20
191.5140816687823
 30
0.0
 10
151.4883896181528
 20
187.9800408170927
 30
0.0
 10
157.7378253555526
 20
186.3754559655982
 30
0.0
 10
163.3960982529281
 20
187.0510706399117
 30
0.0
 10
172.2178495447214
 20
187.8497716016219
 30
0.0
 10
189.7320778534526
 20
190.9938435631187
 30
0.0
  0
SPLINE
  5
76
330
1F
100
AcDbEntity
  8
LINEE VISIBILI 2D
100
AcDbSpline
210
0.0
220
0.0
230
1.0
 70
     8
 71
     3
 72
    11
 73
     7
 74
     0
 42
0.0000000001
 43
0.0000000001
 40
5.0125788845725
 40
5.0125788845725
 40
5.0125788845725
 40
5.0125788845725
 40
6.2374848073191
 40
11.48026074765379
 40
13.95001884619713
 40
19.03497179886923
 40
19.03497179886923
 40
19.03497179886923
 40
19.03497179886923
 10
194.1185076465791
 20
190.2412433780723
 30
0.0
 10
194.028728189663
 20
189.8429531290523
 30
0.0
 10
193.5191529680386
 20
187.7477438604176
 30
0.0
 10
192.6611198085556
 20
184.893394753674
 30
0.0
 10
191.6363010191974
 20
180.7518329753889
 30
0.0
 10
191.2392536605493
 20
178.2594931174231
 30
0.0
 10
191.1189286874294
 20
176.5680059476231
 30
0.0
  0
SPLINE
  5
77
330
1F
100
AcDbEntity
  8
PREDEFINITO
100
AcDbSpline
210
0.0
220
0.0
230
1.0
 70
     8
 71
     3
 72
    15
 73
    11
 74
     0
 42
0.0000000001
 43
0.0000000001
 40
4.408055188041538
 40
4.408055188041538
 40
4.408055188041538
 40
4.408055188041538
 40
5.0
 40
6.0
 40
7.0
 40
8.0
 40
9.0
 40
10.0
 40
11.0
 40
12.0
 40
12.0
 40
12.0
 40
12.0
 10
178.5179848984559
 20
204.3581725982278
 30
0.0
 10
179.8966066276334
 20
204.0410190140776
 30
0.0
 10
184.307486709653
 20
202.9972249489392
 30
0.0
 10
194.6933049724908
 20
200.2258552940305
 30
0.0
 10
205.740846447148
 20
197.9090476297122
 30
0.0
 10
214.7170799004439
 20
197.3549591449408
 30
0.0
 10
234.7540254587037
 20
198.2625806405528
 30
0.0
 10
261.3526884698207
 20
201.0831895137784
 30
0.0
 10
285.0337819612635
 20
199.8739447725402
 30
0.0
 10
292.5406116758578
 20
199.6654217249126
 30
0.0
 10
300.3602259618935
 20
199.456898677285
 30
0.0
  0
SPLINE
  5
78
330
1F
100
AcDbEntity
  8
LINEE VISIBILI 2D
100
AcDbSpline
210
0.0
220
0.0
230
1.0
 70
    24
 71
     2
 72
     6
 73
     3
 74
     0
 42
0.0000000001
 43
0.0000000001
 40
24.26728719065749
 40
24.26728719065749
 40
24.26728719065749
 40
63.13580814230214
 40
63.13580814230214
 40
63.13580814230214
 10
178.5179848984559
 20
189.0510170683839
 30
0.0
 10
178.5179848984559
 20
169.6167565925616
 30
0.0
 10
178.5179848984559
 20
150.1824961167393
 30
0.0
  0
SPLINE
  5
79
330
1F
100
AcDbEntity
  8
LINEE VISIBILI 2D
100
AcDbSpline
210
0.0
220
0.0
230
1.0
 70
     8
 71
     3
 72
    12
 73
     8
 74
     0
 42
0.0000000001
 43
0.0000000001
 40
0.0
 40
0.0
 40
0.0
 40
0.0
 40
0.6626316760277282
 40
1.356748559290323
 40
2.900878153622347
 40
9.097067697678728
 40
11.91613448878414
 40
11.91613448878414
 40
11.91613448878414
 40
11.91613448878414
 10
247.7923112645562
 20
150.0223796110713
 30
0.0
 10
247.7937236148934
 20
150.2432671519763
 30
0.0
 10
247.8064372913993
 20
150.6953771111556
 30
0.0
 10
247.8550611300549
 20
151.6611618589457
 30
0.0
 10
248.1156927778578
 20
154.4616526626441
 30
0.0
 10
248.7088592779319
 20
157.9342107752469
 30
0.0
 10
249.0092942755892
 20
160.9252489064417
 30
0.0
 10
249.072984897491
 20
161.8628147724272
 30
0.0
  0
SPLINE
  5
7A
330
1F
100
AcDbEntity
  8
PREDEFINITO
100
AcDbSpline
210
0.0
220
0.0
230
1.0
 70
    24
 71
     2
 72
     6
 73
     3
 74
     0
 42
0.0000000001
 43
0.0000000001
 40
0.0
 40
0.0
 40
0.0
 40
9.389971881237912
 40
9.389971881237912
 40
9.389971881237912
 10
192.1990172697375
 20
150.1172019610317
 30
0.0
 10
192.1990172697375
 20
154.8121879016506
 30
0.0
 10
192.1990172697375
 20
159.5071738422696
 30
0.0
  0
SPLINE
  5
7B
330
1F
100
AcDbEntity
  8
PREDEFINITO
100
AcDbSpline
210
0.0
220
0.0
230
1.0
 70
     8
 71
     3
 72
    12
 73
     8
 74
     0
 42
0.0000000001
 43
0.0000000001
 40
0.0
 40
0.0
 40
0.0
 40
0.0
 40
0.7149643493210369
 40
1.528493110470046
 40
3.268935111453874
 40
4.673190673956235
 40
10.12073754153474
 40
10.12073754153474
 40
10.12073754153474
 40
10.12073754153474
 10
192.1990172697375
 20
159.5071738422696
 30
0.0
 10
192.2018218163755
 20
159.745484801315
 30
0.0
 10
192.1987443395595
 20
160.2550311083923
 30
0.0
 10
192.1539868814822
 20
161.3439576232855
 30
0.0
 10
192.0385228046299
 20
162.6587611919265
 30
0.0
 10
191.6872760441982
 20
165.5012682969649
 30
0.0
 10
191.3204375502536
 20
167.7565558165685
 30
0.0
 10
191.1189286874292
 20
169.5614191456204
 30
0.0
  0
SPLINE
  5
7C
330
1F
100
AcDbEntity
  8
PREDEFINITO
100
AcDbSpline
210
0.0
220
0.0
230
1.0
 70
    24
 71
     2
 72
     6
 73
     3
 74
     0
 42
0.0000000001
 43
0.0000000001
 40
0.0
 40
0.0
 40
0.0
 40
1.0
 40
1.0
 40
1.0
 10
191.1189286874292
 20
169.5614191456204
 30
0.0
 10
191.0939286874292
 20
169.7918469122428
 30
0.0
 10
191.0689286874292
 20
170.0222746788653
 30
0.0
  0
SPLINE
  5
7D
330
1F
100
AcDbEntity
  8
PREDEFINITO
100
AcDbSpline
210
0.0
220
0.0
230
1.0
 70
     8
 71
     3
 72
    11
 73
     7
 74
     0
 42
0.0000000001
 43
0.0000000001
 40
0.0
 40
0.0
 40
0.0
 40
0.0
 40
1.121856878459719
 40
2.19041076476128
 40
4.2142853554588
 40
8.123477475010557
 40
8.123477475010557
 40
8.123477475010557
 40
8.123477475010557
 10
191.0689286874292
 20
170.0222746788653
 30
0.0
 10
191.0301718822471
 20
170.3941982066354
 30
0.0
 10
190.9617394837029
 20
171.1212121635104
 30
0.0
 10
190.8647528602447
 20
172.5226680576774
 30
0.0
 10
190.7944332438768
 20
174.8564739794258
 30
0.0
 10
190.9117590702598
 20
176.8342217190628
 30
0.0
 10
191.0689286874292
 20
178.1278252300746
 30
0.0
  0
SPLINE
  5
7E
330
1F
100
AcDbEntity
  8
LINEE VISIBILI 2D
100
AcDbSpline
210
0.0
220
0.0
230
1.0
 70
    24
 71
     2
 72
     6
 73
     3
 74
     0
 42
0.0000000001
 43
0.0000000001
 40
0.0
 40
0.0
 40
0.0
 40
19.33711447736198
 40
19.33711447736198
 40
19.33711447736198
 10
191.1189286874292
 20
169.5614191456204
 30
0.0
 10
191.1189286874292
 20
159.8928619069394
 30
0.0
 10
191.1189286874292
 20
150.2243046682584
 30
0.0
  0
SPLINE
  5
7F
330
1F
100
AcDbEntity
  8
PREDEFINITO
100
AcDbSpline
210
0.0
220
0.0
230
1.0
 70
    12
 71
     2
 72
     6
 73
     3
 74
     0
 42
0.0000000001
 43
0.0000000001
 40
0.0
 40
0.0
 40
0.0
 40
3.052596396014148
 40
3.052596396014148
 40
3.052596396014148
 10
191.0689286875451
 20
175.7275249743719
 30
0.0
 41
1.0
 10
190.9999051188309
 20
174.2017466091651
 30
0.0
 41
0.9989783174962494
 10
191.0689286875556
 20
172.6759682439588
 30
0.0
 41
0.9999999999999971
  0
SPLINE
  5
80
330
1F
100
AcDbEntity
  8
PREDEFINITO
100
AcDbSpline
210
0.0
220
0.0
230
1.0
 70
    24
 71
     2
 72
     6
 73
     3
 74
     0
 42
0.0000000001
 43
0.0000000001
 40
0.0
 40
0.0
 40
0.0
 40
1.0
 40
1.0
 40
1.0
 10
191.0689286875556
 20
172.6759682439588
 30
0.0
 10
191.0939286875511
 20
172.2265693529353
 30
0.0
 10
191.1189286875467
 20
171.7771704619117
 30
0.0
  0
SPLINE
  5
81
330
1F
100
AcDbEntity
  8
PREDEFINITO
100
AcDbSpline
210
0.0
220
0.0
230
1.0
 70
     8
 71
     3
 72
    11
 73
     7
 74
     0
 42
0.0000000001
 43
0.0000000001
 40
0.0
 40
0.0
 40
0.0
 40
0.0
 40
1.358087206797017
 40
2.820452211249487
 40
9.18488708894022
 40
12.34692076414573
 40
12.34692076414573
 40
12.34692076414573
 40
12.34692076414573
 10
191.1189286875467
 20
171.7771704619117
 30
0.0
 10
191.1484944495045
 20
171.3254166345657
 30
0.0
 10
191.228754241723
 20
170.3886269354077
 30
0.0
 10
191.5637936704346
 20
167.3451296783132
 30
0.0
 10
192.1912811111209
 20
163.732418480324
 30
0.0
 10
192.412731308524
 20
160.5605165362918
 30
0.0
 10
192.3990172697375
 20
159.5059638478068
 30
0.0
  0
SPLINE
  5
82
330
1F
100
AcDbEntity
  8
PREDEFINITO
100
AcDbSpline
210
0.0
220
0.0
230
1.0
 70
    24
 71
     2
 72
     6
 73
     3
 74
     0
 42
0.0000000001
 43
0.0000000001
 40
0.0
 40
0.0
 40
0.0
 40
9.419745889979453
 40
9.419745889979453
 40
9.419745889979453
 10
192.3990172697375
 20
159.5059638478068
 30
0.0
 10
192.3990172697375
 20
154.7960909028171
 30
0.0
 10
192.3990172697375
 20
150.0862179578273
 30
0.0
  0
SPLINE
  5
83
330
1F
100
AcDbEntity
  8
PREDEFINITO
100
AcDbSpline
210
0.0
220
0.0
230
1.0
 70
     8
 71
     3
 72
    12
 73
     8
 74
     0
 42
0.0000000001
 43
0.0000000001
 40
0.0
 40
0.0
 40
0.0
 40
0.0
 40
1.0
 40
2.0
 40
3.0
 40
4.0
 40
4.400882465036728
 40
4.400882465036728
 40
4.400882465036728
 40
4.400882465036728
 10
137.8881458163432
 20
201.5498062181771
 30
0.0
 10
149.3095031936275
 20
204.4052629748585
 30
0.0
 10
160.5766009394357
 20
206.105850998344
 30
0.0
 10
165.0045057322329
 20
206.591002907361
 30
0.0
 10
172.3020672784675
 20
205.7530831392124
 30
0.0
 10
174.7099325492974
 20
205.2164459848404
 30
0.0
 10
177.5386325532963
 20
204.5832934242563
 30
0.0
 10
178.4679848984559
 20
204.3696704290059
 30
0.0
  0
SPLINE
  5
84
330
1F
100
AcDbEntity
  8
PREDEFINITO
100
AcDbSpline
210
0.0
220
0.0
230
1.0
 70
     8
 71
     3
 72
    14
 73
    10
 74
     0
 42
0.0000000001
 43
0.0000000001
 40
0.0
 40
0.0
 40
0.0
 40
0.0
 40
1.0
 40
2.0
 40
3.0
 40
4.0
 40
5.0
 40
6.0
 40
7.0
 40
7.0
 40
7.0
 40
7.0
 10
60.72466975630179
 20
192.3764917357468
 30
0.0
 10
64.47067937075157
 20
190.3630462086682
 30
0.0
 10
67.87625123724496
 20
188.7011271378194
 30
0.0
 10
69.59265945795762
 20
188.3469476637041
 30
0.0
 10
71.14560022907861
 20
189.0553066119348
 30
0.0
 10
73.48863367322606
 20
191.3438509062183
 30
0.0
 10
75.06254748780296
 20
192.1271699681579
 30
0.0
 10
77.79605814026806
 20
191.975333173802
 30
0.0
 10
79.63871001174425
 20
191.0954788196802
 30
0.0
 10
81.63126173456189
 20
190.322453066025
 30
0.0
  0
SPLINE
  5
85
330
1F
100
AcDbEntity
  8
PREDEFINITO
100
AcDbSpline
210
0.0
220
0.0
230
1.0
 70
     8
 71
     3
 72
    40
 73
    36
 74
     0
 42
0.0000000001
 43
0.0000000001
 40
-19.0
 40
-19.0
 40
-19.0
 40
-19.0
 40
-18.0
 40
-17.0
 40
-16.0
 40
-15.0
 40
-14.0
 40
-13.0
 40
-12.0
 40
-11.0
 40
-10.0
 40
-9.0
 40
-8.0
 40
-7.0
 40
-6.0
 40
-5.0
 40
-4.0
 40
-3.0
 40
-2.0
 40
-1.0
 40
0.0
 40
0.0
 40
0.0
 40
1.0
 40
2.0
 40
3.0
 40
4.0
 40
5.0
 40
6.0
 40
7.0
 40
8.0
 40
9.0
 40
10.0
 40
11.0
 40
12.0
 40
12.0
 40
12.0
 40
12.0
 10
275.930088174743
 20
200.317574426003
 30
0.0
 10
277.9403009620269
 20
200.7039542475146
 30
0.0
 10
281.22237283786
 20
201.3673052889951
 30
0.0
 10
286.6390723629113
 20
202.123756039338
 30
0.0
 10
289.5614509804768
 20
202.4311230771727
 30
0.0
 10
293.7670371624714
 20
202.6244933840989
 30
0.0
 10
297.0586356616833
 20
202.5225314617466
 30
0.0
 10
299.6855555422534
 20
202.1505873194898
 30
0.0
 10
303.8773924683061
 20
201.1952306408556
 30
0.0
 10
307.2627565286248
 20
198.7157829109383
 30
0.0
 10
308.9669130214162
 20
194.8987547046547
 30
0.0
 10
309.0502678921033
 20
189.82899415779
 30
0.0
 10
306.5436789384457
 20
187.9408308166593
 30
0.0
 10
304.2519677222577
 20
186.1874243015297
 30
0.0
 10
295.0855019241937
 20
184.5719474278868
 30
0.0
 10
282.8810922802043
 20
183.2703642040368
 30
0.0
 10
272.5029656951039
 20
182.9193201424433
 30
0.0
 10
265.1956064944258
 20
183.0555226769293
 30
0.0
 10
253.0727162221937
 20
183.4454624876368
 30
0.0
 10
233.9690544741631
 20
184.9505586455901
 30
0.0
 10
220.0449726784666
 20
186.4108136586161
 30
0.0
 10
202.0883599940189
 20
188.8549644186748
 30
0.0
 10
189.7320778534526
 20
190.9938435631187
 30
0.0
 10
178.4930094804643
 20
193.0079495994426
 30
0.0
 10
161.1142757836162
 20
196.534522638874
 30
0.0
 10
147.5687310043684
 20
200.0138169904015
 30
0.0
 10
138.3645646646779
 20
201.8978423937297
 30
0.0
 10
135.2476258359678
 20
201.2210357803711
 30
0.0
 10
133.5354541285404
 20
200.7539846055682
 30
0.0
 10
132.0431574574735
 20
199.3476343978141
 30
0.0
 10
131.7977843529856
 20
197.4439829251512
 30
0.0
 10
131.8177767166489
 20
196.3037694468029
 30
0.0
 10
132.2011723046571
 20
194.6570884077312
 30
0.0
 10
134.5000126966199
 20
193.663071217088
 30
0.0
 10
140.2486581213529
 20
191.9287384082002
 30
0.0
 10
148.4100428969186
 20
190.0219404013397
 30
0.0
  0
SPLINE
  5
86
330
1F
100
AcDbEntity
  8
LINEE VISIBILI 2D
100
AcDbSpline
210
0.0
220
0.0
230
1.0
 70
    12
 71
     2
 72
     8
 73
     5
 74
     0
 42
0.0000000001
 43
0.0000000001
 40
0.0
 40
0.0
 40
0.0
 40
8.40376034835268
 40
8.40376034835268
 40
16.80752069670547
 40
16.80752069670547
 40
16.80752069670547
 10
255.9402459192013
 20
38.30789603570302
 30
0.0
 41
1.0
 10
255.9402459192012
 20
32.95789603570308
 30
0.0
 41
0.7071067811865569
 10
261.2902459192013
 20
32.95789603570297
 30
0.0
 41
1.0
 10
266.6402459192013
 20
32.95789603570296
 30
0.0
 41
0.7071067811865495
 10
266.6402459192013
 20
38.30789603570302
 30
0.0
 41
1.0
  0
SPLINE
  5
87
330
1F
100
AcDbEntity
  8
LINEE VISIBILI 2D
100
AcDbSpline
210
0.0
220
0.0
230
1.0
 70
    12
 71
     2
 72
     8
 73
     5
 74
     0
 42
0.0000000001
 43
0.0000000001
 40
0.0
 40
0.0
 40
0.0
 40
8.403760348352804
 40
8.403760348352804
 40
16.80752069670546
 40
16.80752069670546
 40
16.80752069670546
 10
266.6402459192013
 20
38.30789603570302
 30
0.0
 41
1.0
 10
266.6402459192013
 20
43.65789603570305
 30
0.0
 41
0.7071067811865546
 10
261.2902459192012
 20
43.6578960357031
 30
0.0
 41
1.0
 10
255.9402459192013
 20
43.65789603570295
 30
0.0
 41
0.7071067811865569
 10
255.9402459192013
 20
38.30789603570302
 30
0.0
 41
1.0
  0
SPLINE
  5
88
330
1F
100
AcDbEntity
  8
PREDEFINITO
100
AcDbSpline
210
0.0
220
0.0
230
1.0
 70
     8
 71
     3
 72
    14
 73
    10
 74
     0
 42
0.0000000001
 43
0.0000000001
 40
0.0
 40
0.0
 40
0.0
 40
0.0
 40
1.981684418692334
 40
3.676045264896911
 40
6.662625364581524
 40
7.938879486165009
 40
9.018323581218436
 40
9.89524452711965
 40
10.59369855160723
 40
10.59369855160723
 40
10.59369855160723
 40
10.59369855160723
 10
47.74784958773671
 20
145.3326149701241
 30
0.0
 10
47.08786709949715
 20
145.33177120543
 30
0.0
 10
45.86053301501255
 20
145.3446582153574
 30
0.0
 10
43.64830101830542
 20
145.527139415158
 30
0.0
 10
41.68808752066494
 20
145.9039063511169
 30
0.0
 10
40.02813583502456
 20
146.5646338985782
 30
0.0
 10
39.10558343935611
 20
147.1298246116893
 30
0.0
 10
38.47466738543459
 20
147.7650563035598
 30
0.0
 10
38.27094365062631
 20
148.2647064780723
 30
0.0
 10
38.26069279758893
 20
148.4993465384881
 30
0.0
  0
SPLINE
  5
89
330
1F
100
AcDbEntity
  8
PREDEFINITO
100
AcDbSpline
210
0.0
220
0.0
230
1.0
 70
    24
 71
     2
 72
     6
 73
     3
 74
     0
 42
0.0000000001
 43
0.0000000001
 40
0.0
 40
0.0
 40
0.0
 40
9.50527545638073
 40
9.50527545638073
 40
9.50527545638073
 10
38.26069279758893
 20
148.4993465384881
 30
0.0
 10
43.01333052577929
 20
148.4993465384881
 30
0.0
 10
47.76596825396965
 20
148.4993465384881
 30
0.0
  0
SPLINE
  5
8A
330
1F
100
AcDbEntity
  8
PREDEFINITO
100
AcDbSpline
210
0.0
220
0.0
230
1.0
 70
    24
 71
     2
 72
     6
 73
     3
 74
     0
 42
0.0000000001
 43
0.0000000001
 40
0.0
 40
0.0
 40
0.0
 40
9.495825375261237
 40
9.495825375261237
 40
9.495825375261237
 10
47.76596825396965
 20
148.4993465384881
 30
0.0
 10
52.51388094160026
 20
148.4993465384881
 30
0.0
 10
57.26179362923088
 20
148.4993465384882
 30
0.0
  0
POLYLINE
  5
8B
330
1F
100
AcDbEntity
  8
PREDEFINITO
100
AcDb2dPolyline
 66
     1
 10
0.0
 20
0.0
 30
0.0
  0
VERTEX
  5
8D
330
8B
100
AcDbEntity
  8
PREDEFINITO
100
AcDbVertex
100
AcDb2dVertex
 10
57.26179362923088
 20
148.4993465384882
 30
0.0
  0
VERTEX
  5
8E
330
8B
100
AcDbEntity
  8
PREDEFINITO
100
AcDbVertex
100
AcDb2dVertex
 10
57.27122177196946
 20
148.4988907014796
 30
0.0
  0
SEQEND
  5
8C
330
8B
100
AcDbEntity
  8
PREDEFINITO
  0
SPLINE
  5
8F
330
1F
100
AcDbEntity
  8
PREDEFINITO
100
AcDbSpline
210
0.0
220
0.0
230
1.0
 70
     8
 71
     3
 72
    13
 73
     9
 74
     0
 42
0.0000000001
 43
0.0000000001
 40
0.0
 40
0.0
 40
0.0
 40
0.0
 40
0.6978524981630805
 40
1.574922086008842
 40
2.653986124281157
 40
3.9304391301328
 40
6.917193646199551
 40
10.58826734279349
 40
10.58826734279349
 40
10.58826734279349
 40
10.58826734279349
 10
57.27122177196946
 20
148.4988907014796
 30
0.0
 10
57.26084455130506
 20
148.2647042915103
 30
0.0
 10
57.05724395863308
 20
147.7647740422853
 30
0.0
 10
56.42647287979247
 20
147.1302260021163
 30
0.0
 10
55.50405401577484
 20
146.564258599251
 30
0.0
 10
53.84381990970719
 20
145.9049562825372
 30
0.0
 10
51.23378263842835
 20
145.3994802957716
 30
0.0
 10
49.01314368990513
 20
145.3252852703442
 30
0.0
 10
47.78906441182318
 20
145.3326150326737
 30
0.0
  0
SPLINE
  5
90
330
1F
100
AcDbEntity
  8
LINEE VISIBILI 2D
100
AcDbSpline
210
0.0
220
0.0
230
1.0
 70
     8
 71
     3
 72
    42
 73
    38
 74
     0
 42
0.0000000001
 43
0.0000000001
 40
0.0
 40
0.0
 40
0.0
 40
0.0
 40
7.626791892542249
 40
14.25161077297625
 40
15.60204543796177
 40
17.11787260404395
 40
19.79128733525021
 40
25.19233286455401
 40
28.41083307436014
 40
32.06196214378835
 40
36.25772509610716
 40
40.77961313568256
 40
50.16230983919395
 40
56.01746621967439
 40
62.56354568139991
 40
71.65756548896012
 40
81.29759783272249
 40
92.6514940071449
 40
98.57368649698162
 40
106.7193753071546
 40
117.3618114560197
 40
125.3873213318958
 40
130.7789435048938
 40
133.125085677686
 40
136.1780500943254
 40
140.7249413460108
 40
144.7893104955333
 40
150.5795758598609
 40
161.3545924872353
 40
166.0287488894519
 40
173.1792562274639
 40
176.4621149387587
 40
178.2601407891924
 40
182.5068685362796
 40
184.4143381401628
 40
186.2324898302099
 40
189.7187876607219
 40
189.7187876607219
 40
189.7187876607219
 40
189.7187876607219
 10
132.0499549899186
 20
44.52035755203048
 30
0.0
 10
132.245899438924
 20
47.05490978952755
 30
0.0
 10
132.8971147773605
 20
51.77288981981358
 30
0.0
 10
134.4456266654222
 20
56.76122828224494
 30
0.0
 10
135.814681270103
 20
59.61834153795631
 30
0.0
 10
136.7185161139217
 20
61.22802576447882
 30
0.0
 10
138.5456348503192
 20
63.86558573640308
 30
0.0
 10
141.3864868681025
 20
66.39205925103553
 30
0.0
 10
144.8807239656984
 20
68.52191255444018
 30
0.0
 10
148.2147540477927
 20
70.11352406433807
 30
0.0
 10
152.0654153118985
 20
71.58973443293672
 30
0.0
 10
157.8271690893071
 20
73.39414842358133
 30
0.0
 10
164.2738592555219
 20
74.78370542498459
 30
0.0
 10
171.4479278881884
 20
75.90338215985906
 30
0.0
 10
178.5553227088984
 20
76.820672564528
 30
0.0
 10
186.9457158527249
 20
77.61489750252645
 30
0.0
 10
196.9588900813175
 20
78.20777151144529
 30
0.0
 10
205.9265892060899
 20
78.49976614452967
 30
0.0
 10
214.3988237352307
 20
78.67131006625158
 30
0.0
 10
222.6351219084741
 20
78.7793546797349
 30
0.0
 10
231.5734386236839
 20
78.67070233997475
 30
0.0
 10
239.5873113072171
 20
78.34582938921051
 30
0.0
 10
244.8338188126584
 20
78.05879094544909
 30
0.0
 10
248.4237274658047
 20
77.83313753852568
 30
0.0
 10
251.7311407704069
 20
77.60445539629518
 30
0.0
 10
255.6072613586905
 20
77.29854709508797
 30
0.0
 10
260.3862670262893
 20
76.8425363143555
 30
0.0
 10
267.2147684573763
 20
76.02618440172608
 30
0.0
 10
274.2113650498871
 20
74.93098944472283
 30
0.0
 10
281.6147115091632
 20
73.53760015898393
 30
0.0
 10
286.5039853192455
 20
72.30936057556912
 30
0.0
 10
290.3770783624647
 20
71.03212648964865
 30
0.0
 10
293.279707694554
 20
69.91604273203694
 30
0.0
 10
295.6867136165339
 20
68.79501966575458
 30
0.0
 10
297.968372411569
 20
67.4284546504926
 30
0.0
 10
299.932042547484
 20
66.03843173813604
 30
0.0
 10
301.2390993525395
 20
64.83749138468573
 30
0.0
 10
302.01577420887
 20
63.97271523061831
 30
0.0
  0
SPLINE
  5
91
330
1F
100
AcDbEntity
  8
LINEE VISIBILI 2D
100
AcDbSpline
210
0.0
220
0.0
230
1.0
 70
     8
 71
     3
 72
    57
 73
    53
 74
     0
 42
0.0000000001
 43
0.0000000001
 40
0.0
 40
0.0
 40
0.0
 40
0.0
 40
2.256280766486869
 40
4.63950507826314
 40
9.668871288144269
 40
12.40729990364262
 40
15.29894504696796
 40
18.40427937231629
 40
21.49993962767109
 40
29.37405320062405
 40
34.92513822545499
 40
38.92577201916482
 40
44.45747498825061
 40
46.89874529079135
 40
49.26876254942857
 40
51.32731220075996
 40
53.43860535638008
 40
57.75735273420374
 40
62.09910620245668
 40
66.54150654623069
 40
71.73060178569463
 40
74.86624437805126
 40
78.37201273799576
 40
85.77295328012696
 40
94.07828859552404
 40
100.9974573652563
 40
108.581335995647
 40
117.2929875509437
 40
125.9291190272023
 40
142.5862269051016
 40
151.5024131266081
 40
160.3056091294562
 40
187.3882513463024
 40
194.144996068134
 40
201.6269030058261
 40
204.221898277083
 40
206.3454213998876
 40
210.0170716956623
 40
215.442621980369
 40
216.8123260020541
 40
218.1357656696067
 40
220.7706468785352
 40
226.0889275586068
 40
227.40641542237
 40
228.7814322104168
 40
230.0337859297401
 40
231.3305793223402
 40
236.4555849693988
 40
242.2777900393245
 40
249.9962805827584
 40
254.4283529939985
 40
258.2834572511832
 40
258.2834572511832
 40
258.2834572511832
 40
258.2834572511832
 10
302.01577420887
 20
63.97271523061831
 30
0.0
 10
302.5170965084143
 20
63.41188970427493
 30
0.0
 10
303.4831251291366
 20
62.20173050361773
 30
0.0
 10
305.2103184918041
 20
59.47407246860528
 30
0.0
 10
306.5671562876646
 20
56.35895688890408
 30
0.0
 10
307.60473372366
 20
52.96018443609868
 30
0.0
 10
308.2506769524221
 20
50.11796712730829
 30
0.0
 10
308.729900513961
 20
47.12454929696977
 30
0.0
 10
309.2058592139769
 20
42.45417783649251
 30
0.0
 10
309.2596031117037
 20
36.94019074793058
 30
0.0
 10
308.9746949444019
 20
31.13896281494257
 30
0.0
 10
308.5892201675155
 20
26.12492227957786
 30
0.0
 10
307.8613685072763
 20
22.18697595667271
 30
0.0
 10
306.7186051156252
 20
18.92596140460753
 30
0.0
 10
305.7045691112025
 20
16.86921308878259
 30
0.0
 10
304.5411054036927
 20
15.02265109210287
 30
0.0
 10
302.8277468596184
 20
12.76758472367594
 30
0.0
 10
300.2902530005267
 20
10.2088221513591
 30
0.0
 10
296.7515735297321
 20
7.626484365141842
 30
0.0
 10
292.5795246320208
 20
5.522113235570814
 30
0.0
 10
288.5532926094068
 20
4.126714710116879
 30
0.0
 10
284.7455904756974
 20
3.097310917053328
 30
0.0
 10
280.188701520153
 20
2.025370627796335
 30
0.0
 10
273.8920918432356
 20
0.8435916252000837
 30
0.0
 10
266.4161248393177
 20
-0.1667253191826248
 30
0.0
 10
258.8478995339005
 20
-0.8981399686917371
 30
0.0
 10
251.1296222471084
 20
-1.458789370347745
 30
0.0
 10
242.8306577263704
 20
-1.904679051231497
 30
0.0
 10
231.5022253728215
 20
-2.303772258152165
 30
0.0
 10
220.0976568995041
 20
-2.387261388432204
 30
0.0
 10
208.6398148074294
 20
-2.203201909783285
 30
0.0
 10
193.7159857682642
 20
-1.710823664073718
 30
0.0
 10
179.5171345065974
 20
-0.8133820375276954
 30
0.0
 10
165.8756670302713
 20
1.141317186249282
 30
0.0
 10
160.3541772255661
 20
2.134042285768949
 30
0.0
 10
156.3629296327178
 20
2.919042819111979
 30
0.0
 10
153.6342920033755
 20
3.533098005243193
 30
0.0
 10
150.0298452456829
 20
4.540309602334446
 30
0.0
 10
146.7965505693055
 20
5.886998677750753
 30
0.0
 10
144.4680255966742
 20
7.273696168936588
 30
0.0
 10
142.9919461949604
 20
8.260666027549505
 30
0.0
 10
140.5542292841118
 20
10.16978064306297
 30
0.0
 10
138.4187605792708
 20
12.42463918629063
 30
0.0
 10
136.8474539979177
 20
14.5852711323135
 30
0.0
 10
136.1311684005714
 20
15.68853737665751
 30
0.0
 10
135.484482346451
 20
16.82617921673158
 30
0.0
 10
134.345906158515
 20
19.11823933411524
 30
0.0
 10
133.0053358256901
 20
22.99191556219056
 30
0.0
 10
132.0008038842143
 20
29.15016099611264
 30
0.0
 10
131.8014811026234
 20
35.14406402409918
 30
0.0
 10
131.8204470087602
 20
40.47863413682965
 30
0.0
 10
131.950294418877
 20
43.23929963399137
 30
0.0
 10
132.0499549899186
 20
44.52035755203048
 30
0.0
  0
SPLINE
  5
92
330
1F
100
AcDbEntity
  8
LINEE VISIBILI 2D
100
AcDbSpline
210
0.0
220
0.0
230
1.0
 70
    12
 71
     2
 72
     8
 73
     5
 74
     0
 42
0.0000000001
 43
0.0000000001
 40
0.0
 40
0.0
 40
0.0
 40
11.07341203100853
 40
11.07341203100853
 40
22.14682406201717
 40
22.14682406201717
 40
22.14682406201717
 10
268.3397989657143
 20
38.30789603570286
 30
0.0
 41
1.0
 10
268.3397989657147
 20
45.35744908221607
 30
0.0
 41
0.7071067811865305
 10
261.2902459192014
 20
45.35744908221613
 30
0.0
 41
1.0
 10
254.2406928726882
 20
45.35744908221639
 30
0.0
 41
0.70710678118654
 10
254.2406928726881
 20
38.30789603570319
 30
0.0
 41
1.0
  0
SPLINE
  5
93
330
1F
100
AcDbEntity
  8
LINEE VISIBILI 2D
100
AcDbSpline
210
0.0
220
0.0
230
1.0
 70
    12
 71
     2
 72
     8
 73
     5
 74
     0
 42
0.0000000001
 43
0.0000000001
 40
0.0
 40
0.0
 40
0.0
 40
11.07341203100856
 40
11.07341203100856
 40
22.14682406201707
 40
22.14682406201707
 40
22.14682406201707
 10
254.2406928726881
 20
38.30789603570319
 30
0.0
 41
1.0
 10
254.2406928726882
 20
31.2583429891902
 30
0.0
 41
0.7071067811865647
 10
261.2902459192012
 20
31.25834298918992
 30
0.0
 41
1.0
 10
268.3397989657143
 20
31.25834298918967
 30
0.0
 41
0.7071067811865329
 10
268.3397989657143
 20
38.30789603570286
 30
0.0
 41
1.0
  0
SPLINE
  5
94
330
1F
100
AcDbEntity
  8
LINEE VISIBILI 2D
100
AcDbSpline
210
0.0
220
0.0
230
1.0
 70
    12
 71
     3
 72
    10
 73
     6
 74
     0
 42
0.0000000001
 43
0.0000000001
 40
15.90206072570308
 40
15.90206072570308
 40
15.90206072570308
 40
15.90206072570308
 40
17.47986567086485
 40
17.47986567086485
 40
24.52241009901121
 40
24.52241009901121
 40
24.52241009901121
 40
24.52241009901121
 10
40.82704801410436
 20
216.4809994939924
 30
0.0
 41
1.000000055177046
 10
43.74356418545502
 20
216.4809994865721
 30
0.0
 41
0.8047378985274231
 10
47.87309675143385
 20
216.4809994865721
 30
0.0
 41
1.000000055177046
 10
50.22294776693825
 20
216.480999486572
 30
0.0
 41
1.000000055177046
 10
52.57279878244265
 20
216.480999486572
 30
0.0
 41
1.000000055177046
 10
54.92264979794705
 20
216.4809994865721
 30
0.0
 41
1.000000055177046
  0
SPLINE
  5
95
330
1F
100
AcDbEntity
  8
LINEE VISIBILI 2D
100
AcDbSpline
210
0.0
220
0.0
230
1.0
 70
    28
 71
     3
 72
     8
 73
     4
 74
     0
 42
0.0000000001
 43
0.0000000001
 40
24.52241009901121
 40
24.52241009901121
 40
24.52241009901121
 40
24.52241009901121
 40
24.7723340072794
 40
24.7723340072794
 40
24.7723340072794
 40
24.7723340072794
 10
54.92264979794705
 20
216.4809994865721
 30
0.0
 41
1.000000055177046
 10
54.95490372646935
 20
216.4036943401429
 30
0.0
 41
1.000000055177046
 10
54.98715765499166
 20
216.3263891937136
 30
0.0
 41
1.000000055177046
 10
55.01941158351396
 20
216.2490840472843
 30
0.0
 41
1.000000055177046
  0
SPLINE
  5
96
330
1F
100
AcDbEntity
  8
LINEE VISIBILI 2D
100
AcDbSpline
210
0.0
220
0.0
230
1.0
 70
    12
 71
     3
 72
    11
 73
     7
 74
     0
 42
0.0000000001
 43
0.0000000001
 40
24.7723340072794
 40
24.7723340072794
 40
24.7723340072794
 40
24.7723340072794
 40
24.81600654615904
 40
24.81600654615904
 40
24.81600654615904
 40
24.90874261005521
 40
24.90874261005521
 40
24.90874261005521
 40
24.90874261005521
 10
55.01941158351396
 20
216.2490840472843
 30
0.0
 41
1.000000055177046
 10
55.02595535373889
 20
216.2349476538286
 30
0.0
 41
0.9842914042366798
 10
55.02931267725277
 20
216.2201950989109
 30
0.0
 41
0.9842914042366798
 10
55.02932533699479
 20
216.2055216107
 30
0.0
 41
1.000000055177046
 10
55.02906643547988
 20
216.1734877826798
 30
0.0
 41
0.9318274017658839
 10
55.01472170567239
 20
216.1448446031338
 30
0.0
 41
0.9318273833733639
 10
54.98922490088391
 20
216.125450115324
 30
0.0
 41
0.999999999999487
  0
SPLINE
  5
97
330
1F
100
AcDbEntity
  8
LINEE VISIBILI 2D
100
AcDbSpline
210
0.0
220
0.0
230
1.0
 70
    12
 71
     3
 72
    23
 73
    19
 74
     0
 42
0.0000000001
 43
0.0000000001
 40
0.3863325110440032
 40
0.3863325110440032
 40
0.3863325110440032
 40
0.3863325110440032
 40
7.20201925355289
 40
7.20201925355289
 40
7.20201925355289
 40
7.951029117061238
 40
7.951029117061238
 40
7.951029117061238
 40
8.700038980497055
 40
8.700038980497055
 40
8.700038980497055
 40
15.515728214659
 40
15.515728214659
 40
15.515728214659
 40
15.60846427855514
 40
15.60846427855514
 40
15.60846427855514
 40
15.6521368174348
 40
15.6521368174348
 40
15.6521368174348
 40
15.6521368174348
 10
54.98922490088392
 20
216.125450115324
 30
0.0
 41
1.0
 10
53.12846813446254
 20
214.7551249559556
 30
0.0
 41
0.9667041974727265
 10
50.93299534398386
 20
214.0339401909977
 30
0.0
 41
0.9667041974725356
 10
48.62210661490388
 20
214.0339330970098
 30
0.0
 41
0.9999999999994269
 10
48.37243666041392
 20
214.0339330970097
 30
0.0
 41
0.9999999999994269
 10
48.12276670592396
 20
214.0339330970101
 30
0.0
 41
0.9999999999994269
 10
47.87309675143399
 20
214.0339330970098
 30
0.0
 41
0.9999999999994269
 10
47.62342679695602
 20
214.0339330970098
 30
0.0
 41
0.9999999999994269
 10
47.37375684247805
 20
214.0339330970098
 30
0.0
 41
0.9999999999994269
 10
47.12408688800008
 20
214.0339330970098
 30
0.0
 41
0.9999999999994269
 10
44.81319645185926
 20
214.0339322593777
 30
0.0
 41
0.9667034833747584
 10
42.6177220395866
 20
214.7551175570699
 30
0.0
 41
0.9667034833747679
 10
40.75696860198408
 20
216.125450115324
 30
0.0
 41
0.9999999999994553
 10
40.73147179719565
 20
216.1448446031338
 30
0.0
 41
0.9318273833736294
 10
40.71712706738817
 20
216.1734877826798
 30
0.0
 41
0.9318274017661597
 10
40.71686816587323
 20
216.2055216107
 30
0.0
 41
1.000000055177046
 10
40.71688082561521
 20
216.2201950989109
 30
0.0
 41
0.9842914042362418
 10
40.72023814912907
 20
216.2349476538286
 30
0.0
 41
0.9842914042362418
 10
40.72678191935404
 20
216.2490840472843
 30
0.0
 41
1.000000055177046
  0
SPLINE
  5
98
330
1F
100
AcDbEntity
  8
LINEE VISIBILI 2D
100
AcDbSpline
210
0.0
220
0.0
230
1.0
 70
    28
 71
     3
 72
     8
 73
     4
 74
     0
 42
0.0000000001
 43
0.0000000001
 40
15.6521368174348
 40
15.6521368174348
 40
15.6521368174348
 40
15.6521368174348
 40
15.90206072570308
 40
15.90206072570308
 40
15.90206072570308
 40
15.90206072570308
 10
40.72678191935404
 20
216.2490840472843
 30
0.0
 41
1.000000055177046
 10
40.76020395093748
 20
216.326389196187
 30
0.0
 41
1.000000055177046
 10
40.79362598252092
 20
216.4036943450897
 30
0.0
 41
1.000000055177046
 10
40.82704801410436
 20
216.4809994939924
 30
0.0
 41
1.000000055177046
  0
SPLINE
  5
99
330
1F
100
AcDbEntity
  8
PREDEFINITO
100
AcDbSpline
210
0.0
220
0.0
230
1.0
 70
     8
 71
     3
 72
     8
 73
     4
 74
     0
 42
0.0000000001
 43
0.0000000001
 40
4.290606984948745
 40
4.290606984948745
 40
4.290606984948745
 40
4.290606984948745
 40
4.32935930210734
 40
4.32935930210734
 40
4.32935930210734
 40
4.32935930210734
 10
47.94809675143404
 20
205.3162306039986
 30
0.0
 10
47.97861266908758
 20
205.3292052952127
 30
0.0
 10
48.00872324169592
 20
205.3418970995567
 30
0.0
 10
48.03846711459792
 20
205.3543242718008
 30
0.0
  0
SPLINE
  5
9A
330
1F
100
AcDbEntity
  8
LINEE VISIBILI 2D
100
AcDbSpline
210
0.0
220
0.0
230
1.0
 70
    24
 71
     2
 72
     6
 73
     3
 74
     0
 42
0.0000000001
 43
0.0000000001
 40
0.1418105689491392
 40
0.1418105689491392
 40
0.1418105689491392
 40
0.8928152075393427
 40
0.8928152075393427
 40
0.8928152075393427
 10
47.78608463824733
 20
185.2814936158813
 30
0.0
 10
47.78608463824732
 20
184.9059912555707
 30
0.0
 10
47.78608463824732
 20
184.53048889526
 30
0.0
  0
SPLINE
  5
9B
330
1F
100
AcDbEntity
  8
LINEE VISIBILI 2D
100
AcDbSpline
210
0.0
220
0.0
230
1.0
 70
    24
 71
     2
 72
     6
 73
     3
 74
     0
 42
0.0000000001
 43
0.0000000001
 40
0.0
 40
0.0
 40
0.0
 40
34.34052281032331
 40
34.34052281032331
 40
34.34052281032331
 10
47.78608463824732
 20
184.53048889526
 30
0.0
 10
47.78608463824731
 20
167.360227441338
 30
0.0
 10
47.7860846382473
 20
150.1899659874159
 30
0.0
  0
SPLINE
  5
9C
330
1F
100
AcDbEntity
  8
LINEE VISIBILI 2D
100
AcDbSpline
210
0.0
220
0.0
230
1.0
 70
    24
 71
     2
 72
     6
 73
     3
 74
     0
 42
0.0000000001
 43
0.0000000001
 40
0.0
 40
0.0
 40
0.0
 40
34.34021191025799
 40
34.34021191025799
 40
34.34021191025799
 10
47.73608463824729
 20
150.1902768874813
 30
0.0
 10
47.73608463824731
 20
167.3603828493724
 30
0.0
 10
47.73608463824733
 20
184.5304888112636
 30
0.0
  0
SPLINE
  5
9D
330
1F
100
AcDbEntity
  8
LINEE VISIBILI 2D
100
AcDbSpline
210
0.0
220
0.0
230
1.0
 70
    24
 71
     2
 72
     6
 73
     3
 74
     0
 42
0.0000000001
 43
0.0000000001
 40
0.0
 40
0.0
 40
0.0
 40
0.7249225166972479
 40
0.7249225166972479
 40
0.7249225166972479
 10
47.73608463824733
 20
184.5304888112636
 30
0.0
 10
47.73608463824734
 20
184.8929500751027
 30
0.0
 10
47.73608463824735
 20
185.2554113389419
 30
0.0
  0
SPLINE
  5
9E
330
1F
100
AcDbEntity
  8
LINEE VISIBILI 2D
100
AcDbSpline
210
0.0
220
0.0
230
1.0
 70
    24
 71
     2
 72
     6
 73
     3
 74
     0
 42
0.0000000001
 43
0.0000000001
 40
0.0
 40
0.0
 40
0.0
 40
14.80272979429407
 40
14.80272979429407
 40
14.80272979429407
 10
48.53846711459792
 20
214.0339330970097
 30
0.0
 10
48.53846711459792
 20
206.6325681998627
 30
0.0
 10
48.53846711459792
 20
199.2312033027157
 30
0.0
  0
SPLINE
  5
9F
330
1F
100
AcDbEntity
  8
LINEE VISIBILI 2D
100
AcDbSpline
210
0.0
220
0.0
230
1.0
 70
    24
 71
     2
 72
     6
 73
     3
 74
     0
 42
0.0000000001
 43
0.0000000001
 40
0.0
 40
0.0
 40
0.0
 40
14.79771963495251
 40
14.79771963495251
 40
14.79771963495251
 10
47.94809675143404
 20
214.0339330970097
 30
0.0
 10
47.94809675143404
 20
206.6350732795335
 30
0.0
 10
47.94809675143404
 20
199.2362134620572
 30
0.0
  0
SPLINE
  5
A0
330
1F
100
AcDbEntity
  8
PREDEFINITO
100
AcDbSpline
210
0.0
220
0.0
230
1.0
 70
     8
 71
     3
 72
    18
 73
    14
 74
     0
 42
0.0000000001
 43
0.0000000001
 40
0.0
 40
0.0
 40
0.0
 40
0.0
 40
1.0
 40
2.0
 40
3.0
 40
4.0
 40
5.0
 40
6.0
 40
7.0
 40
8.0
 40
9.0
 40
10.0
 40
11.0
 40
11.0
 40
11.0
 40
11.0
 10
15.30911282976935
 20
192.4068803825334
 30
0.0
 10
16.88929817582228
 20
192.6793261318528
 30
0.0
 10
19.47753279435724
 20
195.5944956495712
 30
0.0
 10
22.52892518673534
 20
199.299757840316
 30
0.0
 10
24.06107342968713
 20
201.0758927556064
 30
0.0
 10
26.75183430118713
 20
200.7437203117092
 30
0.0
 10
29.88496041836106
 20
200.1443396632064
 30
0.0
 10
43.41642545929378
 20
199.2486282802736
 30
0.0
 10
54.1758459931621
 20
199.122046862228
 30
0.0
 10
63.03654525634777
 20
200.3878610426831
 30
0.0
 10
67.89584835997054
 20
201.1530392827487
 30
0.0
 10
74.47214385704395
 20
202.3888532016618
 30
0.0
 10
76.94259389842044
 20
202.8203772421288
 30
0.0
 10
77.7436804509633
 20
202.6642932394201
 30
0.0
  0
SPLINE
  5
A1
330
1F
100
AcDbEntity
  8
LINEE VISIBILI 2D
100
AcDbSpline
210
0.0
220
0.0
230
1.0
 70
    12
 71
     2
 72
     8
 73
     5
 74
     0
 42
0.0000000001
 43
0.0000000001
 40
0.0
 40
0.0
 40
0.0
 40
1.256637061435939
 40
1.256637061435939
 40
2.513274122871783
 40
2.513274122871783
 40
2.513274122871783
 10
179.3902459192011
 20
38.19544244533405
 30
0.0
 41
1.0
 10
179.390245919201
 20
38.99544244533402
 30
0.0
 41
0.7071067811865852
 10
178.590245919201
 20
38.99544244533403
 30
0.0
 41
1.0
 10
177.790245919201
 20
38.99544244533399
 30
0.0
 41
0.7071067811865632
 10
177.7902459192011
 20
38.19544244533405
 30
0.0
 41
1.0
  0
SPLINE
  5
A2
330
1F
100
AcDbEntity
  8
LINEE VISIBILI 2D
100
AcDbSpline
210
0.0
220
0.0
230
1.0
 70
    12
 71
     2
 72
     8
 73
     5
 74
     0
 42
0.0000000001
 43
0.0000000001
 40
0.0
 40
0.0
 40
0.0
 40
1.256637061435899
 40
1.256637061435899
 40
2.513274122871857
 40
2.513274122871857
 40
2.513274122871857
 10
177.7902459192011
 20
38.19544244533405
 30
0.0
 41
1.0
 10
177.790245919201
 20
37.39544244533406
 30
0.0
 41
0.7071067811865632
 10
178.590245919201
 20
37.39544244533401
 30
0.0
 41
1.0
 10
179.390245919201
 20
37.39544244533404
 30
0.0
 41
0.7071067811865821
 10
179.3902459192011
 20
38.19544244533405
 30
0.0
 41
1.0
  0
SPLINE
  5
A3
330
1F
100
AcDbEntity
  8
LINEE VISIBILI 2D
100
AcDbSpline
210
0.0
220
0.0
230
1.0
 70
    12
 71
     2
 72
    20
 73
    17
 74
     0
 42
0.0000000001
 43
0.0000000001
 40
0.0
 40
0.0
 40
0.0
 40
0.5374506341853337
 40
0.5374506341853337
 40
1.521900793428931
 40
1.521900793428931
 40
2.45744474873263
 40
2.45744474873263
 40
3.36971134560447
 40
3.36971134560447
 40
4.285942843170856
 40
4.285942843170856
 40
5.215736290000659
 40
5.215736290000659
 40
7.07843912813379
 40
7.07843912813379
 40
8.771987633488262
 40
8.771987633488262
 40
8.771987633488262
 10
261.1179848984558
 20
210.434305563328
 30
0.0
 41
1.0
 10
261.0786146343656
 20
210.1684352100085
 30
0.0
 41
0.9997532435182205
 10
261.0274741679254
 20
209.9045759384998
 30
0.0
 41
1.0
 10
260.9314858919655
 20
209.4216859812962
 30
0.0
 41
0.9996567643204873
 10
260.8103362239642
 20
208.9444866331899
 30
0.0
 41
1.0
 10
260.6943390997898
 20
208.4913065303343
 30
0.0
 41
0.999942024901604
 10
260.588127869731
 20
208.0357335800283
 30
0.0
 41
1.0
 10
260.4855851673228
 20
207.59093368771
 30
0.0
 41
0.9989043996685024
 10
260.4250769829912
 20
207.138495062422
 30
0.0
 41
1.0
 10
260.3665890692596
 20
206.6835818433997
 30
0.0
 41
0.9982285836784229
 10
260.3625497542296
 20
206.2249419445378
 30
0.0
 41
1.0
 10
260.3594052323639
 20
205.7596556935776
 30
0.0
 41
0.9987105060268407
 10
260.4034587122708
 20
205.2964489640728
 30
0.0
 41
1.0
 10
260.4971456623815
 20
204.3685417659162
 30
0.0
 41
0.9979532018833531
 10
260.7084999493231
 20
203.4601814968582
 30
0.0
 41
1.0
 10
260.8988051805959
 20
202.6349796126365
 30
0.0
 41
0.9998456478261492
 10
261.1179848984581
 20
201.8169732055401
 30
0.0
 41
1.0
  0
SPLINE
  5
A4
330
1F
100
AcDbEntity
  8
PREDEFINITO
100
AcDbSpline
210
0.0
220
0.0
230
1.0
 70
     8
 71
     3
 72
    21
 73
    17
 74
     0
 42
0.0000000001
 43
0.0000000001
 40
0.0
 40
0.0
 40
0.0
 40
0.0
 40
1.0
 40
2.0
 40
3.0
 40
4.0
 40
5.0
 40
6.0
 40
7.0
 40
8.0
 40
9.0
 40
10.0
 40
11.0
 40
12.0
 40
13.0
 40
14.0
 40
14.0
 40
14.0
 40
14.0
 10
35.24365447705046
 20
189.9297174958412
 30
0.0
 10
38.69600941129943
 20
185.4108984319014
 30
0.0
 10
41.54279504593859
 20
183.4247689193625
 30
0.0
 10
43.9482185666802
 20
183.2702921794984
 30
0.0
 10
48.60458886829927
 20
185.7021462440036
 30
0.0
 10
53.17268674713885
 20
188.1473435380662
 30
0.0
 10
59.32968823600958
 20
191.7444447663312
 30
0.0
 10
65.75150699321884
 20
194.8781157750037
 30
0.0
 10
68.44381588799385
 20
195.6725675800193
 30
0.0
 10
71.51128257958179
 20
195.4739546287654
 30
0.0
 10
73.12225429530781
 20
195.0546606205628
 30
0.0
 10
76.36626583245476
 20
193.8188467016496
 30
0.0
 10
81.02834239407201
 20
190.9510344577615
 30
0.0
 10
84.03470671664486
 20
188.2797521722355
 30
0.0
 10
86.88838574785356
 20
185.7827057263324
 30
0.0
 10
87.82525232301712
 20
183.5671292806704
 30
0.0
 10
88.22509062757695
 20
183.3337395183038
 30
0.0
  0
SPLINE
  5
A5
330
1F
100
AcDbEntity
  8
PREDEFINITO
100
AcDbSpline
210
0.0
220
0.0
230
1.0
 70
     8
 71
     3
 72
    29
 73
    25
 74
     0
 42
0.0000000001
 43
0.0000000001
 40
-22.0
 40
-22.0
 40
-22.0
 40
-22.0
 40
-21.0
 40
-20.0
 40
-19.0
 40
-18.0
 40
-17.0
 40
-16.0
 40
-15.0
 40
-14.0
 40
-13.0
 40
-12.0
 40
-11.0
 40
-10.0
 40
-9.0
 40
-8.0
 40
-7.0
 40
-6.0
 40
-5.0
 40
-4.0
 40
-3.0
 40
-2.0
 40
-1.0
 40
0.0
 40
0.0
 40
0.0
 40
0.0
 10
88.22509062757695
 20
183.3337395183038
 30
0.0
 10
88.27957977744084
 20
183.742408142283
 30
0.0
 10
88.06162317798527
 20
184.6959682649011
 30
0.0
 10
87.47769630894878
 20
189.3766247871522
 30
0.0
 10
86.69632953089008
 20
194.6899188779514
 30
0.0
 10
86.07123610844312
 20
197.0340192121274
 30
0.0
 10
84.8210492635492
 20
199.6125295797212
 30
0.0
 10
83.10204235182005
 20
201.9566299138973
 30
0.0
 10
80.75794201764394
 20
202.8161333697619
 30
0.0
 10
79.2733451393324
 20
202.8942700475677
 30
0.0
 10
74.97582786000955
 20
202.3473133029266
 30
0.0
 10
55.83234179757133
 20
195.5494223338159
 30
0.0
 10
38.56413600247402
 20
190.6268116320461
 30
0.0
 10
24.57767067522323
 20
187.4232078420054
 30
0.0
 10
14.26362920484837
 20
183.8289206629354
 30
0.0
 10
10.43493199236073
 20
182.8131438514591
 30
0.0
 10
8.090831658184612
 20
183.1256905626826
 30
0.0
 10
7.075054846708298
 20
184.8446974744117
 30
0.0
 10
7.249619741598735
 20
188.4587459927785
 30
0.0
 10
8.247105013796357
 20
191.87699847694
 30
0.0
 10
10.35679531455486
 20
195.7838323672335
 30
0.0
 10
13.56039910459555
 20
199.4562562241094
 30
0.0
 10
16.36477999660821
 20
201.2737867941017
 30
0.0
 10
21.51097748375378
 20
202.2155745695271
 30
0.0
 10
32.20699579037006
 20
200.533810684839
 30
0.0
  0
SPLINE
  5
A6
330
1F
100
AcDbEntity
  8
PREDEFINITO
100
AcDbSpline
210
0.0
220
0.0
230
1.0
 70
     8
 71
     3
 72
    12
 73
     8
 74
     0
 42
0.0000000001
 43
0.0000000001
 40
0.0
 40
0.0
 40
0.0
 40
0.0
 40
1.0
 40
2.0
 40
3.0
 40
4.0
 40
4.203639286313317
 40
4.203639286313317
 40
4.203639286313317
 40
4.203639286313317
 10
32.20699579037006
 20
200.533810684839
 30
0.0
 10
34.22179226614567
 20
200.2170187861321
 30
0.0
 10
38.17280105678635
 20
200.9010241679076
 30
0.0
 10
40.00582425882482
 20
201.2761819647205
 30
0.0
 10
43.24983579597176
 20
202.9974942089209
 30
0.0
 10
46.47445726551798
 20
204.6509191281683
 30
0.0
 10
47.56514350688776
 20
205.1490610142031
 30
0.0
 10
47.73608463824729
 20
205.2243969248827
 30
0.0
  0
SPLINE
  5
A7
330
1F
100
AcDbEntity
  8
LINEE VISIBILI 2D
100
AcDbSpline
210
0.0
220
0.0
230
1.0
 70
    24
 71
     2
 72
     6
 73
     3
 74
     0
 42
0.0000000001
 43
0.0000000001
 40
0.0
 40
0.0
 40
0.0
 40
0.7931905946507811
 40
0.7931905946507811
 40
0.7931905946507811
 10
42.52309675143394
 20
216.4809994865721
 30
0.0
 10
42.5244264849651
 20
216.8775947885669
 30
0.0
 10
42.52575621849627
 20
217.2741900905617
 30
0.0
  0
SPLINE
  5
A8
330
1F
100
AcDbEntity
  8
LINEE VISIBILI 2D
100
AcDbSpline
210
0.0
220
0.0
230
1.0
 70
    12
 71
     2
 72
     8
 73
     5
 74
     0
 42
0.0000000001
 43
0.0000000001
 40
0.0
 40
0.0
 40
0.0
 40
0.0026639621139789
 40
0.0026639621139789
 40
1.576115260919556
 40
1.576115260919556
 40
1.576115260919556
 10
42.52575621849627
 20
217.2741900905617
 30
0.0
 41
1.0
 10
42.5244264849651
 20
217.2741900999007
 30
0.0
 41
1.0
 10
42.52309675143394
 20
217.2741900999007
 30
0.0
 41
1.0
 10
42.52309675143395
 20
217.2741900812229
 30
0.0
 41
0.707106781186548
 10
47.87309675143399
 20
217.2741900812229
 30
0.0
 41
1.0
  0
SPLINE
  5
A9
330
1F
100
AcDbEntity
  8
LINEE VISIBILI 2D
100
AcDbSpline
210
0.0
220
0.0
230
1.0
 70
    24
 71
     2
 72
     6
 73
     3
 74
     0
 42
0.0000000001
 43
0.0000000001
 40
0.0
 40
0.0
 40
0.0
 40
5.344681065875356
 40
5.344681065875356
 40
5.344681065875356
 10
47.87309675143399
 20
217.2741900812229
 30
0.0
 10
50.54676701790284
 20
217.2741900812229
 30
0.0
 10
53.22043728437168
 20
217.2741900812229
 30
0.0
  0
SPLINE
  5
AA
330
1F
100
AcDbEntity
  8
LINEE VISIBILI 2D
100
AcDbSpline
210
0.0
220
0.0
230
1.0
 70
    24
 71
     2
 72
     6
 73
     3
 74
     0
 42
0.0000000001
 43
0.0000000001
 40
0.0
 40
0.0
 40
0.0
 40
0.7931905946507811
 40
0.7931905946507811
 40
0.7931905946507811
 10
53.22043728437168
 20
217.2741900812229
 30
0.0
 10
53.22176701790285
 20
216.8775947838975
 30
0.0
 10
53.22309675143401
 20
216.4809994865721
 30
0.0
  0
POLYLINE
  5
AB
330
1F
100
AcDbEntity
  8
PREDEFINITO
100
AcDb2dPolyline
 66
     1
 10
0.0
 20
0.0
 30
0.0
  0
VERTEX
  5
AD
330
AB
100
AcDbEntity
  8
PREDEFINITO
100
AcDbVertex
100
AcDb2dVertex
 10
40.72620684466713
 20
216.247821546726
 30
0.0
  0
VERTEX
  5
AE
330
AB
100
AcDbEntity
  8
PREDEFINITO
100
AcDbVertex
100
AcDb2dVertex
 10
40.72980783883109
 20
216.247821546726
 30
0.0
  0
SEQEND
  5
AC
330
AB
100
AcDbEntity
  8
PREDEFINITO
  0
SPLINE
  5
AF
330
1F
100
AcDbEntity
  8
PREDEFINITO
100
AcDbSpline
210
0.0
220
0.0
230
1.0
 70
    28
 71
     2
 72
     8
 73
     5
 74
     0
 42
0.0000000001
 43
0.0000000001
 40
-4.76147636559703
 40
-4.76147636559703
 40
-4.76147636559703
 40
-4.726367659272609
 40
-4.726367659272609
 40
-3.14159265358979
 40
-3.14159265358979
 40
-3.14159265358979
 10
40.72980783883109
 20
216.2478215467261
 30
0.0
 41
0.9873101320807619
 10
40.72625516784206
 20
216.247821546726
 30
0.0
 41
0.9935113174003489
 10
40.72625516784206
 20
216.247821546726
 30
0.0
 41
1.0
 10
40.72625516784193
 20
216.247821546726
 30
0.0
 41
0.707106781186548
 10
47.87309675143385
 20
216.247821546726
 30
0.0
 41
1.0
  0
SPLINE
  5
B0
330
1F
100
AcDbEntity
  8
PREDEFINITO
100
AcDbSpline
210
0.0
220
0.0
230
1.0
 70
    24
 71
     2
 72
     6
 73
     3
 74
     0
 42
0.0000000001
 43
0.0000000001
 40
0.0
 40
0.0
 40
0.0
 40
7.139736241614056
 40
7.139736241614056
 40
7.139736241614056
 10
47.87309675143385
 20
216.247821546726
 30
0.0
 10
51.44296487224088
 20
216.247821546726
 30
0.0
 10
55.01283299304791
 20
216.247821546726
 30
0.0
  0
POLYLINE
  5
B1
330
1F
100
AcDbEntity
  8
PREDEFINITO
100
AcDb2dPolyline
 66
     1
 10
0.0
 20
0.0
 30
0.0
  0
VERTEX
  5
B3
330
B1
100
AcDbEntity
  8
PREDEFINITO
100
AcDbVertex
100
AcDb2dVertex
 10
55.01283299304791
 20
216.247821546726
 30
0.0
  0
VERTEX
  5
B4
330
B1
100
AcDbEntity
  8
PREDEFINITO
100
AcDbVertex
100
AcDb2dVertex
 10
55.01998665820089
 20
216.247821546726
 30
0.0
  0
SEQEND
  5
B2
330
B1
100
AcDbEntity
  8
PREDEFINITO
  0
SPLINE
  5
B5
330
1F
100
AcDbEntity
  8
LINEE VISIBILI 2D
100
AcDbSpline
210
0.0
220
0.0
230
1.0
 70
    12
 71
     2
 72
     8
 73
     5
 74
     0
 42
0.0000000001
 43
0.0000000001
 40
0.0
 40
0.0
 40
0.0
 40
11.22623250769126
 40
11.22623250769126
 40
22.45246501538261
 40
22.45246501538261
 40
22.45246501538261
 10
254.1434043356092
 20
38.30789603570319
 30
0.0
 41
1.0
 10
254.1434043356091
 20
31.16105445211126
 30
0.0
 41
0.7071067811865507
 10
261.2902459192011
 20
31.16105445211109
 30
0.0
 41
1.0
 10
268.4370875027932
 20
31.16105445211069
 30
0.0
 41
0.7071067811865243
 10
268.4370875027931
 20
38.30789603570287
 30
0.0
 41
1.0
  0
SPLINE
  5
B6
330
1F
100
AcDbEntity
  8
LINEE VISIBILI 2D
100
AcDbSpline
210
0.0
220
0.0
230
1.0
 70
    12
 71
     2
 72
     8
 73
     5
 74
     0
 42
0.0000000001
 43
0.0000000001
 40
0.0
 40
0.0
 40
0.0
 40
11.22623250769125
 40
11.22623250769125
 40
22.45246501538252
 40
22.45246501538252
 40
22.45246501538252
 10
268.4370875027931
 20
38.30789603570287
 30
0.0
 41
1.0
 10
268.4370875027933
 20
45.45473761929482
 30
0.0
 41
0.7071067811865468
 10
261.2902459192013
 20
45.454737619295
 30
0.0
 41
1.0
 10
254.1434043356094
 20
45.45473761929513
 30
0.0
 41
0.7071067811865486
 10
254.1434043356092
 20
38.30789603570319
 30
0.0
 41
1.0
  0
SPLINE
  5
B7
330
1F
100
AcDbEntity
  8
PREDEFINITO
100
AcDbSpline
210
0.0
220
0.0
230
1.0
 70
    24
 71
     2
 72
     6
 73
     3
 74
     0
 42
0.0000000001
 43
0.0000000001
 40
-0.7156288966836826
 40
-0.7156288966836826
 40
-0.7156288966836826
 40
0.0
 40
0.0
 40
0.0
 10
47.46064316106504
 20
214.0339330970098
 30
0.0
 10
47.46064316106504
 20
213.6761186486679
 30
0.0
 10
47.46064316106504
 20
213.3183042003261
 30
0.0
  0
POLYLINE
  5
B8
330
1F
100
AcDbEntity
  8
PREDEFINITO
100
AcDb2dPolyline
 66
     1
 10
0.0
 20
0.0
 30
0.0
  0
VERTEX
  5
BA
330
B8
100
AcDbEntity
  8
PREDEFINITO
100
AcDbVertex
100
AcDb2dVertex
 10
47.46064316106504
 20
213.3183042003261
 30
0.0
  0
VERTEX
  5
BB
330
B8
100
AcDbEntity
  8
PREDEFINITO
100
AcDbVertex
100
AcDb2dVertex
 10
47.46565155054006
 20
213.3183042003261
 30
0.0
  0
SEQEND
  5
B9
330
B8
100
AcDbEntity
  8
PREDEFINITO
  0
SPLINE
  5
BC
330
1F
100
AcDbEntity
  8
PREDEFINITO
100
AcDbSpline
210
0.0
220
0.0
230
1.0
 70
    24
 71
     2
 72
     6
 73
     3
 74
     0
 42
0.0000000001
 43
0.0000000001
 40
-0.2949916105249599
 40
-0.2949916105249599
 40
-0.2949916105249599
 40
0.0
 40
0.0
 40
0.0
 10
47.46565155054006
 20
213.3183042003261
 30
0.0
 10
47.61314735580254
 20
213.3183042003261
 30
0.0
 10
47.76064316106502
 20
213.3183042003261
 30
0.0
  0
SPLINE
  5
BD
330
1F
100
AcDbEntity
  8
PREDEFINITO
100
AcDbSpline
210
0.0
220
0.0
230
1.0
 70
    24
 71
     2
 72
     6
 73
     3
 74
     0
 42
0.0000000001
 43
0.0000000001
 40
-0.0374535909435494
 40
-0.0374535909435494
 40
-0.0374535909435494
 40
0.0
 40
0.0
 40
0.0
 10
47.76064316106502
 20
213.3183042003261
 30
0.0
 10
47.77636692809648
 20
213.3183042003261
 30
0.0
 10
47.79209069512794
 20
213.3183042003261
 30
0.0
  0
SPLINE
  5
BE
330
1F
100
AcDbEntity
  8
PREDEFINITO
100
AcDbSpline
210
0.0
220
0.0
230
1.0
 70
    24
 71
     2
 72
     6
 73
     3
 74
     0
 42
0.0000000001
 43
0.0000000001
 40
-12.87781540258692
 40
-12.87781540258692
 40
-12.87781540258692
 40
0.0
 40
0.0
 40
0.0
 10
47.79209069512794
 20
213.3183042003261
 30
0.0
 10
47.78908766668761
 20
206.8793964990326
 30
0.0
 10
47.78608463824729
 20
200.4404887977392
 30
0.0
  0
SPLINE
  5
BF
330
1F
100
AcDbEntity
  8
PREDEFINITO
100
AcDbSpline
210
0.0
220
0.0
230
1.0
 70
    24
 71
     2
 72
     6
 73
     3
 74
     0
 42
0.0000000001
 43
0.0000000001
 40
0.0
 40
0.0
 40
0.0
 40
0.3539522043176646
 40
0.3539522043176646
 40
0.3539522043176646
 10
47.78608463824729
 20
200.4404887977392
 30
0.0
 10
47.78608463824728
 20
200.2635126955803
 30
0.0
 10
47.78608463824727
 20
200.0865365934215
 30
0.0
  0
POLYLINE
  5
C0
330
1F
100
AcDbEntity
  8
PREDEFINITO
100
AcDb2dPolyline
 66
     1
 10
0.0
 20
0.0
 30
0.0
  0
VERTEX
  5
C2
330
C0
100
AcDbEntity
  8
PREDEFINITO
100
AcDbVertex
100
AcDb2dVertex
 10
47.78608463824727
 20
200.0865365934215
 30
0.0
  0
VERTEX
  5
C3
330
C0
100
AcDbEntity
  8
PREDEFINITO
100
AcDbVertex
100
AcDb2dVertex
 10
47.79209069484066
 20
199.2379560712019
 30
0.0
  0
SEQEND
  5
C1
330
C0
100
AcDbEntity
  8
PREDEFINITO
  0
SPLINE
  5
C4
330
1F
100
AcDbEntity
  8
PREDEFINITO
100
AcDbSpline
210
0.0
220
0.0
230
1.0
 70
    24
 71
     2
 72
     6
 73
     3
 74
     0
 42
0.0000000001
 43
0.0000000001
 40
12.6821292108937
 40
12.6821292108937
 40
12.6821292108937
 40
27.47810623670151
 40
27.47810623670151
 40
27.47810623670151
 10
47.79209069484066
 20
199.2379560712019
 30
0.0
 10
47.79509372313734
 20
206.6359445841059
 30
0.0
 10
47.79809675143403
 20
214.0339330970098
 30
0.0
  0
SPLINE
  5
C5
330
1F
100
AcDbEntity
  8
LINEE VISIBILI 2D
100
AcDbSpline
210
0.0
220
0.0
230
1.0
 70
    24
 71
     2
 72
     6
 73
     3
 74
     0
 42
0.0000000001
 43
0.0000000001
 40
0.0
 40
0.0
 40
0.0
 40
0.7931905946507811
 40
0.7931905946507811
 40
0.7931905946507811
 10
266.5429848984562
 20
216.4809995452874
 30
0.0
 10
266.541655164925
 20
216.8775948426128
 30
0.0
 10
266.5403254313939
 20
217.2741901399382
 30
0.0
  0
SPLINE
  5
C6
330
1F
100
AcDbEntity
  8
LINEE VISIBILI 2D
100
AcDbSpline
210
0.0
220
0.0
230
1.0
 70
    24
 71
     2
 72
     6
 73
     3
 74
     0
 42
0.0000000001
 43
0.0000000001
 40
-10.69468106587539
 40
-10.69468106587539
 40
-10.69468106587539
 40
0.0
 40
0.0
 40
0.0
 10
266.5403254313939
 20
217.2741901399382
 30
0.0
 10
261.191655164925
 20
217.2741901399382
 30
0.0
 10
255.8429848984561
 20
217.2741901399382
 30
0.0
  0
SPLINE
  5
C7
330
1F
100
AcDbEntity
  8
LINEE VISIBILI 2D
100
AcDbSpline
210
0.0
220
0.0
230
1.0
 70
    24
 71
     2
 72
     6
 73
     3
 74
     0
 42
0.0000000001
 43
0.0000000001
 40
0.0
 40
0.0
 40
0.0
 40
0.7931905946507811
 40
0.7931905946507811
 40
0.7931905946507811
 10
255.8429848984561
 20
217.2741901399382
 30
0.0
 10
255.8429848984561
 20
216.8775948426128
 30
0.0
 10
255.8429848984561
 20
216.4809995452874
 30
0.0
  0
SPLINE
  5
C8
330
1F
100
AcDbEntity
  8
LINEE VISIBILI 2D
100
AcDbSpline
210
0.0
220
0.0
230
1.0
 70
    24
 71
     2
 72
     6
 73
     3
 74
     0
 42
0.0000000001
 43
0.0000000001
 40
0.0
 40
0.0
 40
0.0
 40
19.79643074223949
 40
19.79643074223949
 40
19.79643074223949
 10
191.0689286874292
 20
150.2258439366258
 30
0.0
 10
191.0689286874292
 20
160.1240593077456
 30
0.0
 10
191.0689286874292
 20
170.0222746788653
 30
0.0
  0
SPLINE
  5
C9
330
1F
100
AcDbEntity
  8
PREDEFINITO
100
AcDbSpline
210
0.0
220
0.0
230
1.0
 70
     8
 71
     3
 72
    12
 73
     8
 74
     0
 42
0.0000000001
 43
0.0000000001
 40
0.0
 40
0.0
 40
0.0
 40
0.0
 40
1.0
 40
2.0
 40
3.0
 40
4.0
 40
5.0
 40
5.0
 40
5.0
 40
5.0
 10
60.37003030219701
 20
200.0170359444057
 30
0.0
 10
63.07340999709691
 20
202.0165066705395
 30
0.0
 10
66.24428562516046
 20
203.6381416949373
 30
0.0
 10
68.54642820443948
 20
204.2462548290865
 30
0.0
 10
70.81961301542567
 20
204.1014659876224
 30
0.0
 10
72.74530460689806
 20
203.6526205790837
 30
0.0
 10
74.36693963129586
 20
202.9141974876169
 30
0.0
 10
74.88557112540671
 20
202.4513374523939
 30
0.0
  0
SPLINE
  5
CA
330
1F
100
AcDbEntity
  8
LINEE VISIBILI 2D
100
AcDbSpline
210
0.0
220
0.0
230
1.0
 70
    24
 71
     2
 72
     6
 73
     3
 74
     0
 42
0.0000000001
 43
0.0000000001
 40
0.0
 40
0.0
 40
0.0
 40
0.0903703631637072
 40
0.0903703631637072
 40
0.0903703631637072
 10
48.03846711459772
 20
213.3183042003261
 30
0.0
 10
47.99328193301587
 20
213.3183042003261
 30
0.0
 10
47.94809675143402
 20
213.3183042003261
 30
0.0
  0
SPLINE
  5
CB
330
1F
100
AcDbEntity
  8
PREDEFINITO
100
AcDbSpline
210
0.0
220
0.0
230
1.0
 70
     8
 71
     3
 72
    13
 73
     9
 74
     0
 42
0.0000000001
 43
0.0000000001
 40
2.561188818001889
 40
2.561188818001889
 40
2.561188818001889
 40
2.561188818001889
 40
2.612329417177039
 40
5.112981526339415
 40
7.615309481633158
 40
12.50813638599957
 40
14.41594895783593
 40
18.39159774710107
 40
18.39159774710107
 40
18.39159774710107
 40
18.39159774710107
 10
245.7151828102077
 20
184.0533548928836
 30
0.0
 10
245.7161376162404
 20
184.0363332541486
 30
0.0
 10
245.7651287772584
 20
183.1870860178334
 30
0.0
 10
245.9933557844606
 20
181.5147563602712
 30
0.0
 10
246.747797376448
 20
178.3018723634407
 30
0.0
 10
247.6351406558661
 20
175.329497564043
 30
0.0
 10
248.5221989930891
 20
171.8483869394178
 30
0.0
 10
248.8993511779624
 20
169.9218023244615
 30
0.0
 10
249.0729848984554
 20
168.6076660476247
 30
0.0
  0
POLYLINE
  5
CC
330
1F
100
AcDbEntity
  8
PREDEFINITO
100
AcDb2dPolyline
 66
     1
 10
0.0
 20
0.0
 30
0.0
  0
VERTEX
  5
CE
330
CC
100
AcDbEntity
  8
PREDEFINITO
100
AcDbVertex
100
AcDb2dVertex
 10
249.0729848984554
 20
168.6076660476247
 30
0.0
  0
VERTEX
  5
CF
330
CC
100
AcDbEntity
  8
PREDEFINITO
100
AcDbVertex
100
AcDb2dVertex
 10
249.1229848984543
 20
168.2137126999567
 30
0.0
  0
SEQEND
  5
CD
330
CC
100
AcDbEntity
  8
PREDEFINITO
  0
SPLINE
  5
D0
330
1F
100
AcDbEntity
  8
PREDEFINITO
100
AcDbSpline
210
0.0
220
0.0
230
1.0
 70
     8
 71
     3
 72
    11
 73
     7
 74
     0
 42
0.0000000001
 43
0.0000000001
 40
0.0
 40
0.0
 40
0.0
 40
0.0
 40
0.9664075865122458
 40
1.916069561582145
 40
3.93959730155568
 40
8.1234452832101
 40
8.1234452832101
 40
8.1234452832101
 40
8.1234452832101
 10
249.1229848984543
 20
168.2137126999567
 30
0.0
 10
249.1615505333794
 20
167.8939572077003
 30
0.0
 10
249.2292475715614
 20
167.2586181684291
 30
0.0
 10
249.3285667812068
 20
165.9493188599332
 30
0.0
 10
249.4001824158
 20
163.5630593158616
 30
0.0
 10
249.2683879541543
 20
161.4949746814046
 30
0.0
 10
249.1229848984558
 20
160.1081953214633
 30
0.0
  0
SPLINE
  5
D1
330
1F
100
AcDbEntity
  8
PREDEFINITO
100
AcDbSpline
210
0.0
220
0.0
230
1.0
 70
     8
 71
     3
 72
    13
 73
     9
 74
     0
 42
0.0000000001
 43
0.0000000001
 40
0.0
 40
0.0
 40
0.0
 40
0.0
 40
1.0
 40
2.0
 40
3.0
 40
4.0
 40
5.0
 40
5.967200070603878
 40
5.967200070603878
 40
5.967200070603878
 40
5.967200070603878
 10
193.852770226872
 20
200.5378718012063
 30
0.0
 10
202.6948424068373
 20
202.4300013179931
 30
0.0
 10
215.886889568742
 20
203.9906676117006
 30
0.0
 10
221.422837931327
 20
204.2556864162924
 30
0.0
 10
227.9599684445923
 20
203.90232801017
 30
0.0
 10
231.4641059719733
 20
203.6667557394217
 30
0.0
 10
240.3471046307642
 20
202.3852739656945
 30
0.0
 10
246.8536255550223
 20
201.032375920185
 30
0.0
 10
252.2557935547302
 20
199.9467294351379
 30
0.0
  0
SPLINE
  5
D2
330
1F
100
AcDbEntity
  8
LINEE VISIBILI 2D
100
AcDbSpline
210
0.0
220
0.0
230
1.0
 70
    24
 71
     2
 72
     6
 73
     3
 74
     0
 42
0.0000000001
 43
0.0000000001
 40
0.0
 40
0.0
 40
0.0
 40
13.61001632882917
 40
13.61001632882917
 40
13.61001632882917
 10
261.2679848984558
 20
214.033933155725
 30
0.0
 10
261.2679848984558
 20
207.2289249913105
 30
0.0
 10
261.2679848984558
 20
200.4239168268959
 30
0.0
  0
SPLINE
  5
D3
330
1F
100
AcDbEntity
  8
LINEE VISIBILI 2D
100
AcDbSpline
210
0.0
220
0.0
230
1.0
 70
    12
 71
     2
 72
    28
 73
    25
 74
     0
 42
0.0000000001
 43
0.0000000001
 40
0.8854583856038875
 40
0.8854583856038875
 40
0.8854583856038875
 40
1.819181514225918
 40
1.819181514225918
 40
3.736222971044352
 40
3.736222971044352
 40
5.768925503764855
 40
5.768925503764855
 40
6.83208433219283
 40
6.83208433219283
 40
7.902948625681796
 40
7.902948625681796
 40
8.930173225746563
 40
8.930173225746563
 40
9.894206521734045
 40
9.894206521734045
 40
10.82096611879954
 40
10.82096611879954
 40
11.74526103519803
 40
11.74526103519803
 40
13.6138104516144
 40
13.6138104516144
 40
14.57605626995108
 40
14.57605626995108
 40
14.71101017275678
 40
14.71101017275678
 40
14.71101017275678
 10
260.9307822371004
 20
200.4135968164043
 30
0.0
 41
0.9997038701324269
 10
260.8244298070715
 20
200.8682344537011
 30
0.0
 41
0.9996957993793623
 10
260.7020783224395
 20
201.3188299872211
 30
0.0
 41
1.0
 10
260.4530567033195
 20
202.2445481785379
 30
0.0
 41
0.9998335486187572
 10
260.2379744524789
 20
203.1787352914319
 30
0.0
 41
1.0
 10
260.0092340902601
 20
204.1704505437192
 30
0.0
 41
0.9979352647902177
 10
259.909509232859
 20
205.1833060357532
 30
0.0
 41
1.0
 10
259.8598966629128
 20
205.7130231433221
 30
0.0
 41
0.998715027921732
 10
259.8641602970185
 20
206.2450414161023
 30
0.0
 41
1.0
 10
259.8696304635368
 20
206.7810473070003
 30
0.0
 41
0.9983172171461246
 10
259.9371242125226
 20
207.3128149551767
 30
0.0
 41
1.0
 10
260.0043675908732
 20
207.8223816088895
 30
0.0
 41
0.9989147574023373
 10
260.1187346871627
 20
208.3234804153083
 30
0.0
 41
1.0
 10
260.2271763007673
 20
208.7931647644003
 30
0.0
 41
0.9999260129861607
 10
260.3470116763447
 20
209.2600720936459
 30
0.0
 41
1.0
 10
260.4614040244313
 20
209.7092172026106
 30
0.0
 41
0.9996644761956174
 10
260.5523827949831
 20
210.1636837046946
 30
0.0
 41
1.0
 10
260.6410417654798
 20
210.6175423876776
 30
0.0
 41
0.9990605980319455
 10
260.6900687750118
 20
211.0773733017155
 30
0.0
 41
1.0
 10
260.7887261696066
 20
212.0090194653052
 30
0.0
 41
0.9958733265286276
 10
260.7173547142546
 20
212.9431522026615
 30
0.0
 41
1.0
 10
260.6766599321174
 20
213.4226247520364
 30
0.0
 41
0.9997708776266446
 10
260.6154805170903
 20
213.8999161411
 30
0.0
 41
1.0
 10
260.6074246121241
 20
213.9669105508875
 30
0.0
 41
0.9999984224712146
 10
260.5996067549182
 20
214.0339331564492
 30
0.0
 41
1.0
  0
SPLINE
  5
D4
330
1F
100
AcDbEntity
  8
LINEE VISIBILI 2D
100
AcDbSpline
210
0.0
220
0.0
230
1.0
 70
    24
 71
     2
 72
     6
 73
     3
 74
     0
 42
0.0000000001
 43
0.0000000001
 40
1.35401945541279
 40
1.35401945541279
 40
1.35401945541279
 40
34.33601524618118
 40
34.33601524618118
 40
34.33601524618118
 10
261.7239286874293
 20
183.1764694010418
 30
0.0
 10
261.7239286874293
 20
166.6854715056576
 30
0.0
 10
261.7239286874293
 20
150.1944736102734
 30
0.0
  0
SPLINE
  5
D5
330
1F
100
AcDbEntity
  8
LINEE VISIBILI 2D
100
AcDbSpline
210
0.0
220
0.0
230
1.0
 70
    24
 71
     2
 72
     6
 73
     3
 74
     0
 42
0.0000000001
 43
0.0000000001
 40
1.612747473138827
 40
1.612747473138827
 40
1.612747473138827
 40
17.20959155907877
 40
17.20959155907877
 40
17.20959155907877
 10
249.1229848984558
 20
183.8105567858967
 30
0.0
 10
249.1229848984558
 20
176.0121347429267
 30
0.0
 10
249.1229848984558
 20
168.2137126999567
 30
0.0
  0
SPLINE
  5
D6
330
1F
100
AcDbEntity
  8
LINEE VISIBILI 2D
100
AcDbSpline
210
0.0
220
0.0
230
1.0
 70
    24
 71
     2
 72
     6
 73
     3
 74
     0
 42
0.0000000001
 43
0.0000000001
 40
0.0
 40
0.0
 40
0.0
 40
3.052083029941002
 40
3.052083029941002
 40
3.052083029941002
 10
249.1229848984558
 20
165.8137692552717
 30
0.0
 10
249.1229848984558
 20
164.2877277403012
 30
0.0
 10
249.1229848984558
 20
162.7616862253307
 30
0.0
  0
POLYLINE
  5
D7
330
1F
100
AcDbEntity
  8
LINEE VISIBILI 2D
100
AcDb2dPolyline
 66
     1
 10
0.0
 20
0.0
 30
0.0
  0
VERTEX
  5
D9
330
D7
100
AcDbEntity
  8
LINEE VISIBILI 2D
100
AcDbVertex
100
AcDb2dVertex
 10
249.1229848984558
 20
162.7616862253307
 30
0.0
  0
VERTEX
  5
DA
330
D7
100
AcDbEntity
  8
LINEE VISIBILI 2D
100
AcDbVertex
100
AcDb2dVertex
 10
249.1229848984558
 20
160.1081953214633
 30
0.0
  0
SEQEND
  5
D8
330
D7
100
AcDbEntity
  8
LINEE VISIBILI 2D
  0
SPLINE
  5
DB
330
1F
100
AcDbEntity
  8
LINEE VISIBILI 2D
100
AcDbSpline
210
0.0
220
0.0
230
1.0
 70
    24
 71
     2
 72
     6
 73
     3
 74
     0
 42
0.0000000001
 43
0.0000000001
 40
0.0
 40
0.0
 40
0.0
 40
9.91372171118995
 40
9.91372171118995
 40
9.91372171118995
 10
249.1229848984558
 20
160.1081953214633
 30
0.0
 10
249.1229848984558
 20
155.1513344658684
 30
0.0
 10
249.1229848984558
 20
150.1944736102734
 30
0.0
  0
SPLINE
  5
DC
330
1F
100
AcDbEntity
  8
LINEE VISIBILI 2D
100
AcDbSpline
210
0.0
220
0.0
230
1.0
 70
    12
 71
     2
 72
     6
 73
     3
 74
     0
 42
0.0000000001
 43
0.0000000001
 40
0.0
 40
0.0
 40
0.0
 40
0.8321398115530844
 40
0.8321398115530844
 40
0.8321398115530844
 10
261.2679848984411
 20
201.2383763621119
 30
0.0
 41
1.0
 10
261.3732191182848
 20
200.8357824616617
 30
0.0
 41
0.9996873695320315
 10
261.4635350480921
 20
200.4295816215237
 30
0.0
 41
0.9997148453735569
  0
SPLINE
  5
DD
330
1F
100
AcDbEntity
  8
LINEE VISIBILI 2D
100
AcDbSpline
210
0.0
220
0.0
230
1.0
 70
    24
 71
     2
 72
     6
 73
     3
 74
     0
 42
0.0000000001
 43
0.0000000001
 40
13.85211257596436
 40
13.85211257596436
 40
13.85211257596436
 40
27.46689190016647
 40
27.46689190016647
 40
27.46689190016647
 10
261.1179848984558
 20
200.4194127448081
 30
0.0
 10
261.1179848984558
 20
207.2268024069091
 30
0.0
 10
261.1179848984558
 20
214.0341920690102
 30
0.0
  0
SPLINE
  5
DE
330
1F
100
AcDbEntity
  8
LINEE VISIBILI 2D
100
AcDbSpline
210
0.0
220
0.0
230
1.0
 70
    24
 71
     2
 72
     6
 73
     3
 74
     0
 42
0.0000000001
 43
0.0000000001
 40
0.0
 40
0.0
 40
0.0
 40
32.98039794613157
 40
32.98039794613157
 40
32.98039794613157
 10
261.6739286874293
 20
150.1976933830239
 30
0.0
 10
261.6739286874293
 20
166.6878923560897
 30
0.0
 10
261.6739286874293
 20
183.1780913291554
 30
0.0
  0
SPLINE
  5
DF
330
1F
100
AcDbEntity
  8
LINEE VISIBILI 2D
100
AcDbSpline
210
0.0
220
0.0
230
1.0
 70
    24
 71
     2
 72
     6
 73
     3
 74
     0
 42
0.0000000001
 43
0.0000000001
 40
0.0
 40
0.0
 40
0.0
 40
15.20627835981883
 40
15.20627835981883
 40
15.20627835981883
 10
249.0729848984558
 20
168.6076660476247
 30
0.0
 10
249.0729848984558
 20
176.2108052275341
 30
0.0
 10
249.0729848984558
 20
183.8139444074435
 30
0.0
  0
SPLINE
  5
E0
330
1F
100
AcDbEntity
  8
PREDEFINITO
100
AcDbSpline
210
0.0
220
0.0
230
1.0
 70
    12
 71
     2
 72
     6
 73
     3
 74
     0
 42
0.0000000001
 43
0.0000000001
 40
0.0
 40
0.0
 40
0.0
 40
3.053125932175836
 40
3.053125932175836
 40
3.053125932175836
 10
249.1229848978527
 20
162.761686225327
 30
0.0
 41
1.0
 10
249.1921218991507
 20
164.2877277402871
 30
0.0
 41
0.9989753148088895
 10
249.1229848983721
 20
165.8137692552708
 30
0.0
 41
1.0
  0
POLYLINE
  5
E1
330
1F
100
AcDbEntity
  8
PREDEFINITO
100
AcDb2dPolyline
 66
     1
 10
0.0
 20
0.0
 30
0.0
  0
VERTEX
  5
E3
330
E1
100
AcDbEntity
  8
PREDEFINITO
100
AcDbVertex
100
AcDb2dVertex
 10
249.1229848983721
 20
165.8137692552708
 30
0.0
  0
VERTEX
  5
E4
330
E1
100
AcDbEntity
  8
PREDEFINITO
100
AcDbVertex
100
AcDb2dVertex
 10
249.0729848984546
 20
166.6535180141775
 30
0.0
  0
SEQEND
  5
E2
330
E1
100
AcDbEntity
  8
PREDEFINITO
  0
SPLINE
  5
E5
330
1F
100
AcDbEntity
  8
PREDEFINITO
100
AcDbSpline
210
0.0
220
0.0
230
1.0
 70
     8
 71
     3
 72
    13
 73
     9
 74
     0
 42
0.0000000001
 43
0.0000000001
 40
0.0
 40
0.0
 40
0.0
 40
0.0
 40
2.477373633331926
 40
5.059141782573676
 40
7.499326009574342
 40
12.88779397017986
 40
15.37518297176647
 40
17.81008919840687
 40
17.81008919840687
 40
17.81008919840687
 40
17.81008919840687
 10
249.0729848984546
 20
166.6535180141775
 30
0.0
 10
249.0129060044871
 20
167.4770691547141
 30
0.0
 10
248.8250189454614
 20
169.1543416556096
 30
0.0
 10
248.3619053428259
 20
171.6122316767316
 30
0.0
 10
247.5326723766317
 20
174.982643380867
 30
0.0
 10
246.5370478217023
 20
178.2757048735947
 30
0.0
 10
245.7685629344658
 20
181.6276321560005
 30
0.0
 10
245.5580760009277
 20
183.2579147560043
 30
0.0
 10
245.5142672570794
 20
184.0683715536831
 30
0.0
  0
POLYLINE
  5
E6
330
1F
100
AcDbEntity
  8
PREDEFINITO
100
AcDb2dPolyline
 66
     1
 10
0.0
 20
0.0
 30
0.0
  0
VERTEX
  5
E8
330
E6
100
AcDbEntity
  8
PREDEFINITO
100
AcDbVertex
100
AcDb2dVertex
 10
178.4679848984559
 20
213.3183042590414
 30
0.0
  0
VERTEX
  5
E9
330
E6
100
AcDbEntity
  8
PREDEFINITO
100
AcDbVertex
100
AcDb2dVertex
 10
178.5179848984559
 20
213.3183042590414
 30
0.0
  0
SEQEND
  5
E7
330
E6
100
AcDbEntity
  8
PREDEFINITO
  0
SPLINE
  5
EA
330
1F
100
AcDbEntity
  8
PREDEFINITO
100
AcDbSpline
210
0.0
220
0.0
230
1.0
 70
    24
 71
     2
 72
     6
 73
     3
 74
     0
 42
0.0000000001
 43
0.0000000001
 40
0.0
 40
0.0
 40
0.0
 40
9.37927975609307
 40
9.37927975609307
 40
9.37927975609307
 10
178.5179848984559
 20
213.3183042590414
 30
0.0
 10
178.5179848984559
 20
208.6286643809949
 30
0.0
 10
178.5179848984559
 20
203.9390245029483
 30
0.0
  0
POLYLINE
  5
EB
330
1F
100
AcDbEntity
  8
PREDEFINITO
100
AcDb2dPolyline
 66
     1
 10
0.0
 20
0.0
 30
0.0
  0
VERTEX
  5
ED
330
EB
100
AcDbEntity
  8
PREDEFINITO
100
AcDbVertex
100
AcDb2dVertex
 10
178.5179848984559
 20
203.9390245029483
 30
0.0
  0
VERTEX
  5
EE
330
EB
100
AcDbEntity
  8
PREDEFINITO
100
AcDbVertex
100
AcDb2dVertex
 10
178.4679848984559
 20
203.9498822734735
 30
0.0
  0
SEQEND
  5
EC
330
EB
100
AcDbEntity
  8
PREDEFINITO
  0
SPLINE
  5
EF
330
1F
100
AcDbEntity
  8
PREDEFINITO
100
AcDbSpline
210
0.0
220
0.0
230
1.0
 70
    24
 71
     2
 72
     6
 73
     3
 74
     0
 42
0.0000000001
 43
0.0000000001
 40
53.7722046381983
 40
53.7722046381983
 40
53.7722046381983
 40
63.14062662376625
 40
63.14062662376625
 40
63.14062662376625
 10
178.4679848984559
 20
203.9498822734735
 30
0.0
 10
178.4679848984559
 20
208.6340932662574
 30
0.0
 10
178.4679848984559
 20
213.3183042590414
 30
0.0
  0
POLYLINE
  5
F0
330
1F
100
AcDbEntity
  8
PREDEFINITO
100
AcDb2dPolyline
 66
     1
 10
0.0
 20
0.0
 30
0.0
  0
VERTEX
  5
F2
330
F0
100
AcDbEntity
  8
PREDEFINITO
100
AcDbVertex
100
AcDb2dVertex
 10
268.2355293266023
 20
216.4809995452874
 30
0.0
  0
VERTEX
  5
F3
330
F0
100
AcDbEntity
  8
PREDEFINITO
100
AcDbVertex
100
AcDb2dVertex
 10
268.2425379449692
 20
216.4809995452874
 30
0.0
  0
SEQEND
  5
F1
330
F0
100
AcDbEntity
  8
PREDEFINITO
  0
SPLINE
  5
F4
330
1F
100
AcDbEntity
  8
PREDEFINITO
100
AcDbSpline
210
0.0
220
0.0
230
1.0
 70
    24
 71
     2
 72
     6
 73
     3
 74
     0
 42
0.0000000001
 43
0.0000000001
 40
0.0
 40
0.0
 40
0.0
 40
0.252659872314104
 40
0.252659872314104
 40
0.252659872314104
 10
268.2425379449692
 20
216.4809995452874
 30
0.0
 10
268.2911822135086
 20
216.3644105753644
 30
0.0
 10
268.339826482048
 20
216.2478216054414
 30
0.0
  0
SPLINE
  5
F5
330
1F
100
AcDbEntity
  8
PREDEFINITO
100
AcDbSpline
210
0.0
220
0.0
230
1.0
 70
    12
 71
     2
 72
     6
 73
     3
 74
     0
 42
0.0000000001
 43
0.0000000001
 40
0.0
 40
0.0
 40
0.0
 40
0.0436752849935864
 40
0.0436752849935864
 40
0.0436752849935864
 10
268.339826482048
 20
216.2478216054414
 30
0.0
 41
1.0
 10
268.349213484017
 20
216.2277131969938
 30
0.0
 41
0.9762504751111226
 10
268.3492134840169
 20
216.2055216694154
 30
0.0
 41
1.0
  0
SPLINE
  5
F6
330
1F
100
AcDbEntity
  8
PREDEFINITO
100
AcDbSpline
210
0.0
220
0.0
230
1.0
 70
    12
 71
     2
 72
     6
 73
     3
 74
     0
 42
0.0000000001
 43
0.0000000001
 40
-0.0928518705211943
 40
-0.0928518705211943
 40
-0.0928518705211943
 40
0.0
 40
0.0
 40
0.0
 10
268.3492134840169
 20
216.2055216694154
 30
0.0
 41
1.0
 10
268.3492136609549
 20
216.1554445258516
 30
0.0
 41
0.8941364784447301
 10
268.309113047906
 20
216.1254501740393
 30
0.0
 41
1.0
  0
SPLINE
  5
F7
330
1F
100
AcDbEntity
  8
PREDEFINITO
100
AcDbSpline
210
0.0
220
0.0
230
1.0
 70
    12
 71
     2
 72
     6
 73
     3
 74
     0
 42
0.0000000001
 43
0.0000000001
 40
-6.81595454532309
 40
-6.81595454532309
 40
-6.81595454532309
 40
0.0
 40
0.0
 40
0.0
 10
268.309113047906
 20
216.1254501740393
 30
0.0
 41
1.0
 10
265.4689537187043
 20
214.0338468874119
 30
0.0
 41
0.9500516889511276
 10
261.9417296945686
 20
214.0339331573595
 30
0.0
 41
0.999999999869482
  0
SPLINE
  5
F8
330
1F
100
AcDbEntity
  8
PREDEFINITO
100
AcDbSpline
210
0.0
220
0.0
230
1.0
 70
    24
 71
     2
 72
     6
 73
     3
 74
     0
 42
0.0000000001
 43
0.0000000001
 40
0.0
 40
0.0
 40
0.0
 40
1.494106711954743
 40
1.494106711954743
 40
1.494106711954743
 10
261.9417296945685
 20
214.0339331573595
 30
0.0
 10
261.1946763707082
 20
214.0339333114731
 30
0.0
 10
260.447623046848
 20
214.0339334655868
 30
0.0
  0
SPLINE
  5
F9
330
1F
100
AcDbEntity
  8
PREDEFINITO
100
AcDbSpline
210
0.0
220
0.0
230
1.0
 70
    12
 71
     2
 72
     6
 73
     3
 74
     0
 42
0.0000000001
 43
0.0000000001
 40
-6.819337536620417
 40
-6.819337536620417
 40
-6.819337536620417
 40
0.0
 40
0.0
 40
0.0
 10
260.447623046848
 20
214.0339334655868
 30
0.0
 41
0.999999999171101
 10
256.9185251241665
 20
214.0327355665378
 30
0.0
 41
0.9500025122368113
 10
254.0768567490062
 20
216.1254501740393
 30
0.0
 41
1.0
  0
SPLINE
  5
FA
330
1F
100
AcDbEntity
  8
PREDEFINITO
100
AcDbSpline
210
0.0
220
0.0
230
1.0
 70
    12
 71
     2
 72
     6
 73
     3
 74
     0
 42
0.0000000001
 43
0.0000000001
 40
0.0
 40
0.0
 40
0.0
 40
0.092851870521172
 40
0.092851870521172
 40
0.092851870521172
 10
254.0768567490062
 20
216.1254501740393
 30
0.0
 41
1.0
 10
254.0367561359571
 20
216.1554445258516
 30
0.0
 41
0.8941364784441183
 10
254.0367563128953
 20
216.2055216694154
 30
0.0
 41
1.0
  0
SPLINE
  5
FB
330
1F
100
AcDbEntity
  8
PREDEFINITO
100
AcDbSpline
210
0.0
220
0.0
230
1.0
 70
    12
 71
     2
 72
     6
 73
     3
 74
     0
 42
0.0000000001
 43
0.0000000001
 40
0.0
 40
0.0
 40
0.0
 40
0.0436752849935251
 40
0.0436752849935251
 40
0.0436752849935251
 10
254.0367563128953
 20
216.2055216694154
 30
0.0
 41
1.0
 10
254.0367563128954
 20
216.2277131969937
 30
0.0
 41
0.976250475112707
 10
254.0471968178881
 20
216.250346606558
 30
0.0
 41
1.0
  0
SPLINE
  5
FC
330
1F
100
AcDbEntity
  8
PREDEFINITO
100
AcDbSpline
210
0.0
220
0.0
230
1.0
 70
    24
 71
     2
 72
     6
 73
     3
 74
     0
 42
0.0000000001
 43
0.0000000001
 40
0.0
 40
0.0
 40
0.0
 40
0.2499239082682145
 40
0.2499239082682145
 40
0.2499239082682145
 10
254.0471968178881
 20
216.250346606558
 30
0.0
 10
254.0953143349155
 20
216.3656730759227
 30
0.0
 10
254.143431851943
 20
216.4809995452874
 30
0.0
  0
SPLINE
  5
FD
330
1F
100
AcDbEntity
  8
PREDEFINITO
100
AcDbSpline
210
0.0
220
0.0
230
1.0
 70
    24
 71
     2
 72
     6
 73
     3
 74
     0
 42
0.0000000001
 43
0.0000000001
 40
0.0
 40
0.0
 40
0.0
 40
14.09209747465928
 40
14.09209747465928
 40
14.09209747465928
 10
254.143431851943
 20
216.4809995452874
 30
0.0
 10
261.1894805892726
 20
216.4809995452874
 30
0.0
 10
268.2355293266023
 20
216.4809995452874
 30
0.0
  0
SPLINE
  5
FE
330
1F
100
AcDbEntity
  8
LINEE VISIBILI 2D
100
AcDbSpline
210
0.0
220
0.0
230
1.0
 70
    24
 71
     2
 72
     6
 73
     3
 74
     0
 42
0.0000000001
 43
0.0000000001
 40
0.0
 40
0.0
 40
0.0
 40
1.0
 40
1.0
 40
1.0
 10
178.1929848984559
 20
214.3183042590414
 30
0.0
 10
178.1929848984559
 20
213.8183042590414
 30
0.0
 10
178.1929848984559
 20
213.3183042590414
 30
0.0
  0
SPLINE
  5
FF
330
1F
100
AcDbEntity
  8
LINEE VISIBILI 2D
100
AcDbSpline
210
0.0
220
0.0
230
1.0
 70
    24
 71
     2
 72
     6
 73
     3
 74
     0
 42
0.0000000001
 43
0.0000000001
 40
-0.3000000000000114
 40
-0.3000000000000114
 40
-0.3000000000000114
 40
0.0
 40
0.0
 40
0.0
 10
178.1929848984559
 20
213.3183042590414
 30
0.0
 10
178.3429848984559
 20
213.3183042590414
 30
0.0
 10
178.4929848984559
 20
213.3183042590414
 30
0.0
  0
SPLINE
  5
100
330
1F
100
AcDbEntity
  8
LINEE VISIBILI 2D
100
AcDbSpline
210
0.0
220
0.0
230
1.0
 70
    24
 71
     2
 72
     6
 73
     3
 74
     0
 42
0.0000000001
 43
0.0000000001
 40
-0.2949916105249315
 40
-0.2949916105249315
 40
-0.2949916105249315
 40
0.0
 40
0.0
 40
0.0
 10
178.4929848984559
 20
213.3183042590414
 30
0.0
 10
178.6417328010871
 20
213.3183042590414
 30
0.0
 10
178.7904807037184
 20
213.3183042590414
 30
0.0
  0
SPLINE
  5
101
330
1F
100
AcDbEntity
  8
LINEE VISIBILI 2D
100
AcDbSpline
210
0.0
220
0.0
230
1.0
 70
    24
 71
     2
 72
     6
 73
     3
 74
     0
 42
0.0000000001
 43
0.0000000001
 40
0.0
 40
0.0
 40
0.0
 40
1.0
 40
1.0
 40
1.0
 10
178.7904807037184
 20
213.3183042590414
 30
0.0
 10
178.7917328010871
 20
213.8183042590414
 30
0.0
 10
178.7929848984559
 20
214.3183042590414
 30
0.0
  0
SPLINE
  5
102
330
1F
100
AcDbEntity
  8
LINEE VISIBILI 2D
100
AcDbSpline
210
0.0
220
0.0
230
1.0
 70
    24
 71
     2
 72
     6
 73
     3
 74
     0
 42
0.0000000001
 43
0.0000000001
 40
0.0
 40
0.0
 40
0.0
 40
2.899999999999977
 40
2.899999999999977
 40
2.899999999999977
 10
177.8929848984559
 20
217.2183042590414
 30
0.0
 10
177.8929848984559
 20
215.7683042590414
 30
0.0
 10
177.8929848984559
 20
214.3183042590414
 30
0.0
  0
SPLINE
  5
103
330
1F
100
AcDbEntity
  8
LINEE VISIBILI 2D
100
AcDbSpline
210
0.0
220
0.0
230
1.0
 70
    24
 71
     2
 72
     6
 73
     3
 74
     0
 42
0.0000000001
 43
0.0000000001
 40
0.0
 40
0.0
 40
0.0
 40
1.199999999999989
 40
1.199999999999989
 40
1.199999999999989
 10
177.8929848984559
 20
214.3183042590414
 30
0.0
 10
178.4929848984559
 20
214.3183042590414
 30
0.0
 10
179.0929848984559
 20
214.3183042590414
 30
0.0
  0
SPLINE
  5
104
330
1F
100
AcDbEntity
  8
LINEE VISIBILI 2D
100
AcDbSpline
210
0.0
220
0.0
230
1.0
 70
    24
 71
     2
 72
     6
 73
     3
 74
     0
 42
0.0000000001
 43
0.0000000001
 40
0.0
 40
0.0
 40
0.0
 40
2.899999999999977
 40
2.899999999999977
 40
2.899999999999977
 10
179.0929848984559
 20
214.3183042590414
 30
0.0
 10
179.0929848984559
 20
215.7683042590414
 30
0.0
 10
179.0929848984559
 20
217.2183042590414
 30
0.0
  0
SPLINE
  5
105
330
1F
100
AcDbEntity
  8
LINEE VISIBILI 2D
100
AcDbSpline
210
0.0
220
0.0
230
1.0
 70
    24
 71
     2
 72
     6
 73
     3
 74
     0
 42
0.0000000001
 43
0.0000000001
 40
0.0
 40
0.0
 40
0.0
 40
14.2865778252058
 40
14.2865778252058
 40
14.2865778252058
 10
254.0532486568422
 20
216.2478216054414
 30
0.0
 10
261.1965375694451
 20
216.2478216054414
 30
0.0
 10
268.339826482048
 20
216.2478216054414
 30
0.0
  0
SPLINE
  5
106
330
1F
100
AcDbEntity
  8
PREDEFINITO
100
AcDbSpline
210
0.0
220
0.0
230
1.0
 70
    24
 71
     2
 72
     6
 73
     3
 74
     0
 42
0.0000000001
 43
0.0000000001
 40
0.0
 40
0.0
 40
0.0
 40
12.87781528370073
 40
12.87781528370073
 40
12.87781528370073
 10
47.73608463824732
 20
213.3183042003261
 30
0.0
 10
47.73608463824732
 20
206.8793965584757
 30
0.0
 10
47.73608463824732
 20
200.4404889166253
 30
0.0
  0
POLYLINE
  5
107
330
1F
100
AcDbEntity
  8
PREDEFINITO
100
AcDb2dPolyline
 66
     1
 10
0.0
 20
0.0
 30
0.0
  0
VERTEX
  5
109
330
107
100
AcDbEntity
  8
PREDEFINITO
100
AcDbVertex
100
AcDb2dVertex
 10
47.73608463824732
 20
200.4404889166253
 30
0.0
  0
VERTEX
  5
10A
330
107
100
AcDbEntity
  8
PREDEFINITO
100
AcDbVertex
100
AcDb2dVertex
 10
47.73608463824732
 20
199.2387303878961
 30
0.0
  0
SEQEND
  5
108
330
107
100
AcDbEntity
  8
PREDEFINITO
  0
SPLINE
  5
10B
330
1F
100
AcDbEntity
  8
LINEE VISIBILI 2D
100
AcDbSpline
210
0.0
220
0.0
230
1.0
 70
    24
 71
     2
 72
     6
 73
     3
 74
     0
 42
0.0000000001
 43
0.0000000001
 40
0.0
 40
0.0
 40
0.0
 40
35.07633546813118
 40
35.07633546813118
 40
35.07633546813118
 10
47.87219423018328
 20
150.2153707715713
 30
0.0
 10
47.87219423018328
 20
167.7535385609449
 30
0.0
 10
47.87219423018328
 20
185.2917063503185
 30
0.0
  0
SPLINE
  5
10C
330
1F
100
AcDbEntity
  8
LINEE VISIBILI 2D
100
AcDbSpline
210
0.0
220
0.0
230
1.0
 70
    24
 71
     2
 72
     6
 73
     3
 74
     0
 42
0.0000000001
 43
0.0000000001
 40
0.0
 40
0.0
 40
0.0
 40
0.0347868651559387
 40
0.0347868651559387
 40
0.0347868651559387
 10
47.87219423018328
 20
185.2917063503185
 30
0.0
 10
47.87219423018328
 20
185.3090998382044
 30
0.0
 10
47.87219423018328
 20
185.3264933260904
 30
0.0
  0
SPLINE
  5
10D
330
1F
100
AcDbEntity
  8
LINEE VISIBILI 2D
100
AcDbSpline
210
0.0
220
0.0
230
1.0
 70
    24
 71
     2
 72
     6
 73
     3
 74
     0
 42
0.0000000001
 43
0.0000000001
 40
0.0
 40
0.0
 40
0.0
 40
0.14411411910325
 40
0.14411411910325
 40
0.14411411910325
 10
46.96064316106504
 20
217.2741900812228
 30
0.0
 10
46.96064316106504
 20
217.3462471407744
 30
0.0
 10
46.96064316106504
 20
217.418304200326
 30
0.0
  0
SPLINE
  5
10E
330
1F
100
AcDbEntity
  8
LINEE VISIBILI 2D
100
AcDbSpline
210
0.0
220
0.0
230
1.0
 70
    24
 71
     2
 72
     6
 73
     3
 74
     0
 42
0.0000000001
 43
0.0000000001
 40
0.0
 40
0.0
 40
0.0
 40
0.799999999999983
 40
0.799999999999983
 40
0.799999999999983
 10
46.96064316106504
 20
217.418304200326
 30
0.0
 10
47.36064316106503
 20
217.418304200326
 30
0.0
 10
47.76064316106502
 20
217.418304200326
 30
0.0
  0
SPLINE
  5
10F
330
1F
100
AcDbEntity
  8
LINEE VISIBILI 2D
100
AcDbSpline
210
0.0
220
0.0
230
1.0
 70
    24
 71
     2
 72
     6
 73
     3
 74
     0
 42
0.0000000001
 43
0.0000000001
 40
0.0
 40
0.0
 40
0.0
 40
0.8000000000000114
 40
0.8000000000000114
 40
0.8000000000000114
 10
47.76064316106502
 20
217.418304200326
 30
0.0
 10
48.16064316106502
 20
217.418304200326
 30
0.0
 10
48.56064316106503
 20
217.418304200326
 30
0.0
  0
SPLINE
  5
110
330
1F
100
AcDbEntity
  8
LINEE VISIBILI 2D
100
AcDbSpline
210
0.0
220
0.0
230
1.0
 70
    24
 71
     2
 72
     6
 73
     3
 74
     0
 42
0.0000000001
 43
0.0000000001
 40
0.0
 40
0.0
 40
0.0
 40
0.1441141191031647
 40
0.1441141191031647
 40
0.1441141191031647
 10
48.56064316106503
 20
217.418304200326
 30
0.0
 10
48.56064316106503
 20
217.3462471407745
 30
0.0
 10
48.56064316106503
 20
217.2741900812229
 30
0.0
  0
SPLINE
  5
111
330
1F
100
AcDbEntity
  8
PREDEFINITO
100
AcDbSpline
210
0.0
220
0.0
230
1.0
 70
     8
 71
     3
 72
    13
 73
     9
 74
     0
 42
0.0000000001
 43
0.0000000001
 40
4.559876520680439
 40
4.559876520680439
 40
4.559876520680439
 40
4.559876520680439
 40
5.0
 40
6.0
 40
7.0
 40
8.0
 40
9.0
 40
10.0
 40
10.0
 40
10.0
 40
10.0
 10
48.53846711459792
 20
205.5518432736003
 30
0.0
 10
48.84226141593027
 20
205.6645625535299
 30
0.0
 10
49.7785572137241
 20
205.9675294769965
 30
0.0
 10
52.07189297387666
 20
206.6008713195602
 30
0.0
 10
53.90012797075008
 20
206.0458530105119
 30
0.0
 10
56.49199302179873
 20
205.095893421666
 30
0.0
 10
59.47478794480044
 20
202.7385862937892
 30
0.0
 10
60.30848149811181
 20
201.540999233059
 30
0.0
 10
61.05879709173763
 20
200.533810684839
 30
0.0
  0
SPLINE
  5
112
330
1F
100
AcDbEntity
  8
PREDEFINITO
100
AcDbSpline
210
0.0
220
0.0
230
1.0
 70
     8
 71
     3
 72
     8
 73
     4
 74
     0
 42
0.0000000001
 43
0.0000000001
 40
4.223648169650279
 40
4.223648169650279
 40
4.223648169650279
 40
4.223648169650279
 40
4.228501173120677
 40
4.228501173120677
 40
4.228501173120677
 40
4.228501173120677
 10
47.78608463824727
 20
205.2463471534766
 30
0.0
 10
47.79009605486296
 20
205.2481012399538
 30
0.0
 10
47.79410006729221
 20
205.2498503952835
 30
0.0
 10
47.798096751434
 20
205.2515946553179
 30
0.0
  0
SPLINE
  5
113
330
1F
100
AcDbEntity
  8
LINEE VISIBILI 2D
100
AcDbSpline
210
0.0
220
0.0
230
1.0
 70
    24
 71
     2
 72
     6
 73
     3
 74
     0
 42
0.0000000001
 43
0.0000000001
 40
1.394357412306204
 40
1.394357412306204
 40
1.394357412306204
 40
36.40111790915535
 40
36.40111790915535
 40
36.40111790915535
 10
47.67219423018332
 20
185.2221370510599
 30
0.0
 10
47.67219423018329
 20
167.7187568026353
 30
0.0
 10
47.67219423018327
 20
150.2153765542107
 30
0.0
  0
SPLINE
  5
114
330
1F
100
AcDbEntity
  8
LINEE VISIBILI 2D
100
AcDbSpline
210
0.0
220
0.0
230
1.0
 70
    24
 71
     2
 72
     6
 73
     3
 74
     0
 42
0.0000000001
 43
0.0000000001
 40
12.5738486592593
 40
12.5738486592593
 40
12.5738486592593
 40
27.37252806377549
 40
27.37252806377549
 40
27.37252806377549
 10
48.03846711459792
 20
199.2352536924935
 30
0.0
 10
48.03846711459792
 20
206.6345933947516
 30
0.0
 10
48.03846711459792
 20
214.0339330970097
 30
0.0
  0
SPLINE
  5
115
330
1F
100
AcDbEntity
  8
PREDEFINITO
100
AcDbSpline
210
0.0
220
0.0
230
1.0
 70
     8
 71
     3
 72
     9
 73
     5
 74
     0
 42
0.0000000001
 43
0.0000000001
 40
0.0
 40
0.0
 40
0.0
 40
0.0
 40
1.0
 40
2.0
 40
2.0
 40
2.0
 40
2.0
 10
23.87443513102674
 20
186.9820319178862
 30
0.0
 10
25.26641387901296
 20
186.8505416758599
 30
0.0
 10
27.27472344579206
 20
187.0198244745922
 30
0.0
 10
28.23655752949853
 20
187.643092960834
 30
0.0
 10
28.54044115971807
 20
188.2524487377715
 30
0.0
  0
POLYLINE
  5
116
330
1F
100
AcDbEntity
  8
PREDEFINITO
100
AcDb2dPolyline
 66
     1
 10
0.0
 20
0.0
 30
0.0
  0
VERTEX
  5
118
330
116
100
AcDbEntity
  8
PREDEFINITO
100
AcDbVertex
100
AcDb2dVertex
 10
38.27017036768563
 20
148.5991260598805
 30
0.0
  0
VERTEX
  5
119
330
116
100
AcDbEntity
  8
PREDEFINITO
100
AcDbVertex
100
AcDb2dVertex
 10
38.26074339590212
 20
148.5995936366122
 30
0.0
  0
SEQEND
  5
117
330
116
100
AcDbEntity
  8
PREDEFINITO
  0
SPLINE
  5
11A
330
1F
100
AcDbEntity
  8
PREDEFINITO
100
AcDbSpline
210
0.0
220
0.0
230
1.0
 70
     8
 71
     3
 72
    12
 73
     8
 74
     0
 42
0.0000000001
 43
0.0000000001
 40
0.0
 40
0.0
 40
0.0
 40
0.0
 40
0.2694400373826863
 40
0.545755987044009
 40
1.17030674975654
 40
1.937665355362851
 40
2.91100694983635
 40
2.91100694983635
 40
2.91100694983635
 40
2.91100694983635
 10
38.26074339590212
 20
148.5995936366122
 30
0.0
 10
38.26535421747383
 20
148.6897567702885
 30
0.0
 10
38.29854159543434
 20
148.8689724013322
 30
0.0
 10
38.47419789337862
 20
149.2239367340908
 30
0.0
 10
38.89721317520299
 20
149.6012475616447
 30
0.0
 10
39.62606131026702
 20
149.9167716885422
 30
0.0
 10
40.19553091960046
 20
150.0370002960465
 30
0.0
 10
40.5159683467168
 20
150.0875138152916
 30
0.0
  0
SPLINE
  5
11B
330
1F
100
AcDbEntity
  8
PREDEFINITO
100
AcDbSpline
210
0.0
220
0.0
230
1.0
 70
    24
 71
     2
 72
     6
 73
     3
 74
     0
 42
0.0000000001
 43
0.0000000001
 40
-0.8611715967271891
 40
-0.8611715967271891
 40
-0.8611715967271891
 40
0.0
 40
0.0
 40
0.0
 10
40.5159683467168
 20
150.0875138152916
 30
0.0
 10
40.94655409870664
 20
150.0875141103911
 30
0.0
 10
41.37713985069649
 20
150.0875144054905
 30
0.0
  0
SPLINE
  5
11C
330
1F
100
AcDbEntity
  8
PREDEFINITO
100
AcDbSpline
210
0.0
220
0.0
230
1.0
 70
    12
 71
     2
 72
     6
 73
     3
 74
     0
 42
0.0000000001
 43
0.0000000001
 40
-2.203223095790313
 40
-2.203223095790313
 40
-2.203223095790313
 40
0.0
 40
0.0
 40
0.0
 10
41.37713985069649
 20
150.0875144054905
 30
0.0
 41
1.0
 10
42.47873162684735
 20
150.1027589968591
 30
0.0
 41
0.9998833125588406
 10
43.57934356180715
 20
150.1516487449997
 30
0.0
 41
1.0
  0
SPLINE
  5
11D
330
1F
100
AcDbEntity
  8
PREDEFINITO
100
AcDbSpline
210
0.0
220
0.0
230
1.0
 70
    12
 71
     2
 72
     6
 73
     3
 74
     0
 42
0.0000000001
 43
0.0000000001
 40
-4.12736140842127
 40
-4.12736140842127
 40
-4.12736140842127
 40
0.0
 40
0.0
 40
0.0
 10
43.57934356180715
 20
150.1516487449997
 30
0.0
 41
1.0
 10
45.64205502384036
 20
150.2224207641974
 30
0.0
 41
0.999822313071091
 10
47.70596825396964
 20
150.2153899177497
 30
0.0
 41
1.0
  0
SPLINE
  5
11E
330
1F
100
AcDbEntity
  8
PREDEFINITO
100
AcDbSpline
210
0.0
220
0.0
230
1.0
 70
    12
 71
     2
 72
     6
 73
     3
 74
     0
 42
0.0000000001
 43
0.0000000001
 40
-0.0209168287508713
 40
-0.0209168287508713
 40
-0.0209168287508713
 40
0.0
 40
0.0
 40
0.0
 10
47.70596825396964
 20
150.2153899177497
 30
0.0
 41
1.0
 10
47.70584778136575
 20
150.2049317346539
 30
0.0
 41
0.9999336576429739
 10
47.70596825396964
 20
150.1944735515581
 30
0.0
 41
1.0
  0
SPLINE
  5
11F
330
1F
100
AcDbEntity
  8
PREDEFINITO
100
AcDbSpline
210
0.0
220
0.0
230
1.0
 70
    24
 71
     2
 72
     6
 73
     3
 74
     0
 42
0.0000000001
 43
0.0000000001
 40
-1.0
 40
-1.0
 40
-1.0
 40
0.0
 40
0.0
 40
0.0
 10
47.70596825396964
 20
150.1944735515581
 30
0.0
 10
47.70842694681857
 20
150.1934447105257
 30
0.0
 10
47.7108856396675
 20
150.1924158694933
 30
0.0
  0
SPLINE
  5
120
330
1F
100
AcDbEntity
  8
PREDEFINITO
100
AcDbSpline
210
0.0
220
0.0
230
1.0
 70
    12
 71
     2
 72
     6
 73
     3
 74
     0
 42
0.0000000001
 43
0.0000000001
 40
-0.0551926739325324
 40
-0.0551926739325324
 40
-0.0551926739325324
 40
0.0
 40
0.0
 40
0.0
 10
47.7108856396675
 20
150.1924158694933
 30
0.0
 41
1.0
 10
47.73833322038494
 20
150.1891502761142
 30
0.0
 41
0.9975693071493257
 10
47.76596825396965
 20
150.1897322607621
 30
0.0
 41
1.0
  0
SPLINE
  5
121
330
1F
100
AcDbEntity
  8
PREDEFINITO
100
AcDbSpline
210
0.0
220
0.0
230
1.0
 70
    12
 71
     2
 72
     6
 73
     3
 74
     0
 42
0.0000000001
 43
0.0000000001
 40
-0.0551908946471143
 40
-0.0551908946471143
 40
-0.0551908946471143
 40
0.0
 40
0.0
 40
0.0
 10
47.76596825396965
 20
150.1897322607621
 30
0.0
 41
1.0
 10
47.79360233008551
 20
150.1891536093211
 30
0.0
 41
0.9975766731956439
 10
47.82104919023176
 20
150.1924165632558
 30
0.0
 41
1.0
  0
SPLINE
  5
122
330
1F
100
AcDbEntity
  8
PREDEFINITO
100
AcDbSpline
210
0.0
220
0.0
230
1.0
 70
    24
 71
     2
 72
     6
 73
     3
 74
     0
 42
0.0000000001
 43
0.0000000001
 40
0.0
 40
0.0
 40
0.0
 40
1.0
 40
1.0
 40
1.0
 10
47.82104919023176
 20
150.1924165632558
 30
0.0
 10
47.8235087221007
 20
150.1934450574069
 30
0.0
 10
47.82596825396965
 20
150.1944735515581
 30
0.0
  0
SPLINE
  5
123
330
1F
100
AcDbEntity
  8
PREDEFINITO
100
AcDbSpline
210
0.0
220
0.0
230
1.0
 70
    12
 71
     2
 72
     6
 73
     3
 74
     0
 42
0.0000000001
 43
0.0000000001
 40
-0.0209168287509994
 40
-0.0209168287509994
 40
-0.0209168287509994
 40
0.0
 40
0.0
 40
0.0
 10
47.82596825396965
 20
150.1944735515581
 30
0.0
 41
1.0
 10
47.82608872657356
 20
150.2049317346539
 30
0.0
 41
0.9999336576429513
 10
47.82596825396965
 20
150.2153899177498
 30
0.0
 41
1.0
  0
SPLINE
  5
124
330
1F
100
AcDbEntity
  8
PREDEFINITO
100
AcDbSpline
210
0.0
220
0.0
230
1.0
 70
    12
 71
     2
 72
     6
 73
     3
 74
     0
 42
0.0000000001
 43
0.0000000001
 40
-4.127361408692666
 40
-4.127361408692666
 40
-4.127361408692666
 40
0.0
 40
0.0
 40
0.0
 10
47.82596825396965
 20
150.2153899177498
 30
0.0
 41
1.0
 10
49.88988148447888
 20
150.2224207908539
 30
0.0
 41
0.9998223128276492
 10
51.95259294606862
 20
150.1516487450023
 30
0.0
 41
1.0
  0
SPLINE
  5
125
330
1F
100
AcDbEntity
  8
PREDEFINITO
100
AcDbSpline
210
0.0
220
0.0
230
1.0
 70
    12
 71
     2
 72
     6
 73
     3
 74
     0
 42
0.0000000001
 43
0.0000000001
 40
-2.203223095856554
 40
-2.203223095856554
 40
-2.203223095856554
 40
0.0
 40
0.0
 40
0.0
 10
51.95259294606862
 20
150.1516487450023
 30
0.0
 41
1.0
 10
53.0532048810615
 20
150.1027589968601
 30
0.0
 41
0.9998833125588414
 10
54.15479665724547
 20
150.0875144054906
 30
0.0
 41
1.0
  0
SPLINE
  5
126
330
1F
100
AcDbEntity
  8
PREDEFINITO
100
AcDbSpline
210
0.0
220
0.0
230
1.0
 70
    24
 71
     2
 72
     6
 73
     3
 74
     0
 42
0.0000000001
 43
0.0000000001
 40
-0.8611715967238069
 40
-0.8611715967238069
 40
-0.8611715967238069
 40
0.0
 40
0.0
 40
0.0
 10
54.15479665724547
 20
150.0875144054906
 30
0.0
 10
54.58538245560737
 20
150.0875144054906
 30
0.0
 10
55.01596825396928
 20
150.0875144054906
 30
0.0
  0
SPLINE
  5
127
330
1F
100
AcDbEntity
  8
PREDEFINITO
100
AcDbSpline
210
0.0
220
0.0
230
1.0
 70
     8
 71
     3
 72
    12
 73
     8
 74
     0
 42
0.0000000001
 43
0.0000000001
 40
0.0
 40
0.0
 40
0.0
 40
0.0
 40
0.5124489161262342
 40
0.9653758783237067
 40
1.733450339187829
 40
2.359201593963214
 40
2.911470912287191
 40
2.911470912287191
 40
2.911470912287191
 40
2.911470912287191
 10
55.01596852213771
 20
150.0875161126198
 30
0.0
 10
55.18456849245183
 20
150.0608187423915
 30
0.0
 10
55.50150975159767
 20
150.0021843414682
 30
0.0
 10
56.05892959785147
 20
149.8498745260696
 30
0.0
 10
56.62849176408201
 20
149.6049627178346
 30
0.0
 10
57.12415212523823
 20
149.1669646975961
 30
0.0
 10
57.26443123646141
 20
148.7831690472314
 30
0.0
 10
57.27121619401663
 20
148.5991260598804
 30
0.0
  0
SPLINE
  5
128
330
1F
100
AcDbEntity
  8
PREDEFINITO
100
AcDbSpline
210
0.0
220
0.0
230
1.0
 70
    24
 71
     2
 72
     6
 73
     3
 74
     0
 42
0.0000000001
 43
0.0000000001
 40
0.0
 40
0.0
 40
0.0
 40
9.505247940046957
 40
9.505247940046957
 40
9.505247940046957
 10
57.27121619401663
 20
148.5991260598804
 30
0.0
 10
52.51859222399314
 20
148.5991260598804
 30
0.0
 10
47.76596825396965
 20
148.5991260598804
 30
0.0
  0
SPLINE
  5
129
330
1F
100
AcDbEntity
  8
PREDEFINITO
100
AcDbSpline
210
0.0
220
0.0
230
1.0
 70
    24
 71
     2
 72
     6
 73
     3
 74
     0
 42
0.0000000001
 43
0.0000000001
 40
0.0
 40
0.0
 40
0.0
 40
9.495797886284016
 40
9.495797886284016
 40
9.495797886284016
 10
47.76596825396965
 20
148.5991260598804
 30
0.0
 10
43.01806931082764
 20
148.5991260598804
 30
0.0
 10
38.27017036768563
 20
148.5991260598805
 30
0.0
  0
SPLINE
  5
12A
330
1F
100
AcDbEntity
  8
LINEE VISIBILI 2D
100
AcDbSpline
210
0.0
220
0.0
230
1.0
 70
    24
 71
     2
 72
     6
 73
     3
 74
     0
 42
0.0000000001
 43
0.0000000001
 40
0.0
 40
0.0
 40
0.0
 40
9.50527545638073
 40
9.50527545638073
 40
9.50527545638073
 10
245.9107531679475
 20
148.4993465972034
 30
0.0
 10
250.6633908961379
 20
148.4993465972034
 30
0.0
 10
255.4160286243282
 20
148.4993465972035
 30
0.0
  0
SPLINE
  5
12B
330
1F
100
AcDbEntity
  8
LINEE VISIBILI 2D
100
AcDbSpline
210
0.0
220
0.0
230
1.0
 70
    24
 71
     2
 72
     6
 73
     3
 74
     0
 42
0.0000000001
 43
0.0000000001
 40
0.0
 40
0.0
 40
0.0
 40
9.505275456380673
 40
9.505275456380673
 40
9.505275456380673
 10
255.4160286243282
 20
148.4993465972035
 30
0.0
 10
260.1686663525185
 20
148.4993465972034
 30
0.0
 10
264.9213040807089
 20
148.4993465972034
 30
0.0
  0
SPLINE
  5
12C
330
1F
100
AcDbEntity
  8
LINEE VISIBILI 2D
100
AcDbSpline
210
0.0
220
0.0
230
1.0
 70
    12
 71
     5
 72
    13
 73
     7
 74
     0
 42
0.0000000001
 43
0.0000000001
 40
0.0
 40
0.0
 40
0.0
 40
0.0
 40
0.0
 40
0.0
 40
2.52573625554185
 40
106.118424145
 40
106.118424145
 40
106.118424145
 40
106.118424145
 40
106.118424145
 40
106.118424145
 10
264.9213040807089
 20
148.4993465972034
 30
0.0
 41
1.0
 10
264.9202406114205
 20
148.477147882313
 30
0.0
 41
1.0
 10
264.8506379228701
 20
147.5391527873497
 30
0.0
 41
1.0
 10
263.7250620470093
 20
146.3848871332935
 30
0.0
 41
1.0
 10
261.1789020600166
 20
145.3326149696767
 30
0.0
 41
1.0
 10
257.4193971491098
 20
145.3326149699686
 30
0.0
 41
1.0
 10
255.4160286243282
 20
145.3326149701241
 30
0.0
 41
1.0
  0
SPLINE
  5
12D
330
1F
100
AcDbEntity
  8
LINEE VISIBILI 2D
100
AcDbSpline
210
0.0
220
0.0
230
1.0
 70
    12
 71
     5
 72
    13
 73
     7
 74
     0
 42
0.0000000001
 43
0.0000000001
 40
-106.118424145
 40
-106.118424145
 40
-106.118424145
 40
-106.118424145
 40
-106.118424145
 40
-106.118424145
 40
-2.52573625554185
 40
0.0
 40
0.0
 40
0.0
 40
0.0
 40
0.0
 40
0.0
 10
255.4160286243282
 20
145.3326149701241
 30
0.0
 41
1.0
 10
253.4126600995466
 20
145.3326149699686
 30
0.0
 41
1.0
 10
249.6531551886398
 20
145.3326149696767
 30
0.0
 41
1.0
 10
247.1069952016472
 20
146.3848871332935
 30
0.0
 41
1.0
 10
245.9814193257863
 20
147.5391527873497
 30
0.0
 41
1.0
 10
245.9118166372359
 20
148.477147882313
 30
0.0
 41
1.0
 10
245.9107531679475
 20
148.4993465972034
 30
0.0
 41
1.0
  0
SPLINE
  5
12E
330
1F
100
AcDbEntity
  8
PREDEFINITO
100
AcDbSpline
210
0.0
220
0.0
230
1.0
 70
    12
 71
     2
 72
     6
 73
     3
 74
     0
 42
0.0000000001
 43
0.0000000001
 40
0.0
 40
0.0
 40
0.0
 40
0.3008638992347308
 40
0.3008638992347308
 40
0.3008638992347308
 10
261.7160286243281
 20
150.1944736102734
 30
0.0
 41
1.0
 10
261.5660421997298
 20
150.2060808682539
 30
0.0
 41
0.9999706856653201
 10
261.4158956163321
 20
150.215389976465
 30
0.0
 41
1.0
  0
SPLINE
  5
12F
330
1F
100
AcDbEntity
  8
PREDEFINITO
100
AcDbSpline
210
0.0
220
0.0
230
1.0
 70
    24
 71
     2
 72
     6
 73
     3
 74
     0
 42
0.0000000001
 43
0.0000000001
 40
-1.0
 40
-1.0
 40
-1.0
 40
0.0
 40
0.0
 40
0.0
 10
261.4158956163321
 20
150.215389976465
 30
0.0
 10
261.4110991048179
 20
150.2151153412444
 30
0.0
 10
261.4063025933038
 20
150.2148407060238
 30
0.0
  0
SPLINE
  5
130
330
1F
100
AcDbEntity
  8
PREDEFINITO
100
AcDbSpline
210
0.0
220
0.0
230
1.0
 70
    12
 71
     2
 72
     6
 73
     3
 74
     0
 42
0.0000000001
 43
0.0000000001
 40
0.0
 40
0.0
 40
0.0
 40
0.6819642299856713
 40
0.6819642299856713
 40
0.6819642299856713
 10
261.4063025933038
 20
150.2148407060238
 30
0.0
 41
1.0
 10
261.0661151397151
 20
150.1907702654767
 30
0.0
 41
0.9997543959709061
 10
260.7273284798289
 20
150.1516488037151
 30
0.0
 41
1.0
  0
SPLINE
  5
131
330
1F
100
AcDbEntity
  8
PREDEFINITO
100
AcDbSpline
210
0.0
220
0.0
230
1.0
 70
    12
 71
     2
 72
     6
 73
     3
 74
     0
 42
0.0000000001
 43
0.0000000001
 40
0.0
 40
0.0
 40
0.0
 40
1.88590239072995
 40
1.88590239072995
 40
1.88590239072995
 10
260.7273284798289
 20
150.1516488037151
 30
0.0
 41
1.0
 10
259.7867289757813
 20
150.0762675245748
 30
0.0
 41
0.9989447120363192
 10
258.8431807413979
 20
150.0875144642058
 30
0.0
 41
1.0
  0
SPLINE
  5
132
330
1F
100
AcDbEntity
  8
PREDEFINITO
100
AcDbSpline
210
0.0
220
0.0
230
1.0
 70
    24
 71
     2
 72
     6
 73
     3
 74
     0
 42
0.0000000001
 43
0.0000000001
 40
0.0
 40
0.0
 40
0.0
 40
6.854304234132769
 40
6.854304234132769
 40
6.854304234132769
 10
258.8431807413979
 20
150.0875144642058
 30
0.0
 10
255.4160286243315
 20
150.0875144642058
 30
0.0
 10
251.9888765072651
 20
150.0875144642058
 30
0.0
  0
SPLINE
  5
133
330
1F
100
AcDbEntity
  8
PREDEFINITO
100
AcDbSpline
210
0.0
220
0.0
230
1.0
 70
    12
 71
     2
 72
     6
 73
     3
 74
     0
 42
0.0000000001
 43
0.0000000001
 40
0.0
 40
0.0
 40
0.0
 40
1.885902390756064
 40
1.885902390756064
 40
1.885902390756064
 10
251.9888765072651
 20
150.0875144642058
 30
0.0
 41
1.0
 10
251.0453282728685
 20
150.0762675245737
 30
0.0
 41
0.9989447120362319
 10
250.1047287688082
 20
150.1516488037176
 30
0.0
 41
1.0
  0
SPLINE
  5
134
330
1F
100
AcDbEntity
  8
PREDEFINITO
100
AcDbSpline
210
0.0
220
0.0
230
1.0
 70
    12
 71
     2
 72
     6
 73
     3
 74
     0
 42
0.0000000001
 43
0.0000000001
 40
0.0
 40
0.0
 40
0.0
 40
0.6915820502078792
 40
0.6915820502078792
 40
0.6915820502078792
 10
250.1047287688082
 20
150.1516488037176
 30
0.0
 41
1.0
 10
249.7612359415786
 20
150.1920614085464
 30
0.0
 41
0.9996923492545857
 10
249.4161616323261
 20
150.2153899764651
 30
0.0
 41
1.0
  0
SPLINE
  5
135
330
1F
100
AcDbEntity
  8
PREDEFINITO
100
AcDbSpline
210
0.0
220
0.0
230
1.0
 70
    12
 71
     2
 72
     6
 73
     3
 74
     0
 42
0.0000000001
 43
0.0000000001
 40
0.0
 40
0.0
 40
0.0
 40
0.300863899236611
 40
0.300863899236611
 40
0.300863899236611
 10
249.4161616323261
 20
150.2153899764651
 30
0.0
 41
1.0
 10
249.2660150489276
 20
150.206080868254
 30
0.0
 41
0.9999706856653193
 10
249.1160286243282
 20
150.1944736102734
 30
0.0
 41
1.0
  0
SPLINE
  5
136
330
1F
100
AcDbEntity
  8
PREDEFINITO
100
AcDbSpline
210
0.0
220
0.0
230
1.0
 70
    12
 71
     2
 72
     6
 73
     3
 74
     0
 42
0.0000000001
 43
0.0000000001
 40
0.0
 40
0.0
 40
0.0
 40
0.0601820284876761
 40
0.0601820284876761
 40
0.0601820284876761
 10
249.1160286243282
 20
150.1944736102734
 30
0.0
 41
1.0
 10
249.0860268598407
 20
150.192157309972
 30
0.0
 41
0.9999983589554646
 10
249.0560336849408
 20
150.1897323194839
 30
0.0
 41
1.0
  0
SPLINE
  5
137
330
1F
100
AcDbEntity
  8
PREDEFINITO
100
AcDbSpline
210
0.0
220
0.0
230
1.0
 70
    12
 71
     2
 72
     6
 73
     3
 74
     0
 42
0.0000000001
 43
0.0000000001
 40
-0.4219163434420645
 40
-0.4219163434420645
 40
-0.4219163434420645
 40
0.0
 40
0.0
 40
0.0
 10
249.0560336849408
 20
150.1897323194839
 30
0.0
 41
1.0
 10
248.8457395229649
 20
150.1728196734388
 30
0.0
 41
0.9998934731991115
 10
248.6360286243282
 20
150.1497759942532
 30
0.0
 41
1.0
  0
SPLINE
  5
138
330
1F
100
AcDbEntity
  8
PREDEFINITO
100
AcDbSpline
210
0.0
220
0.0
230
1.0
 70
    24
 71
     2
 72
     6
 73
     3
 74
     0
 42
0.0000000001
 43
0.0000000001
 40
-1.0
 40
-1.0
 40
-1.0
 40
0.0
 40
0.0
 40
0.0
 10
248.6360286243282
 20
150.1497759942532
 30
0.0
 10
248.4260247399732
 20
150.1215436484687
 30
0.0
 10
248.2160208556182
 20
150.0933113026842
 30
0.0
  0
SPLINE
  5
139
330
1F
100
AcDbEntity
  8
PREDEFINITO
100
AcDbSpline
210
0.0
220
0.0
230
1.0
 70
    12
 71
     2
 72
     6
 73
     3
 74
     0
 42
0.0000000001
 43
0.0000000001
 40
0.0
 40
0.0
 40
0.0
 40
0.4262755716559541
 40
0.4262755716559541
 40
0.4262755716559541
 10
248.2160208556182
 20
150.0933113026842
 30
0.0
 41
1.0
 10
248.0054581227836
 20
150.0601656906094
 30
0.0
 41
0.9998748713578073
 10
247.7960493045429
 20
150.0203757056686
 30
0.0
 41
1.0
  0
SPLINE
  5
13A
330
1F
100
AcDbEntity
  8
PREDEFINITO
100
AcDbSpline
210
0.0
220
0.0
230
1.0
 70
    12
 71
     5
 72
    12
 73
     6
 74
     0
 42
0.0000000001
 43
0.0000000001
 40
0.2741185433675312
 40
0.2741185433675312
 40
0.2741185433675312
 40
0.2741185433675312
 40
0.2741185433675312
 40
0.2741185433675312
 40
1.0
 40
1.0
 40
1.0
 40
1.0
 40
1.0
 40
1.0
 10
247.7960493045429
 20
150.0203757056686
 30
0.0
 41
1.0
 10
247.0824359628436
 20
149.8716167966066
 30
0.0
 41
1.0
 10
246.5579948004017
 20
149.6593648136283
 30
0.0
 41
1.0
 10
246.1585737615286
 20
149.3720138823232
 30
0.0
 41
1.0
 10
245.930974634082
 20
149.0101541209743
 30
0.0
 41
1.0
 10
245.9107806842812
 20
148.5991261185957
 30
0.0
 41
1.0
  0
SPLINE
  5
13B
330
1F
100
AcDbEntity
  8
PREDEFINITO
100
AcDbSpline
210
0.0
220
0.0
230
1.0
 70
    24
 71
     2
 72
     6
 73
     3
 74
     0
 42
0.0000000001
 43
0.0000000001
 40
-9.505247940047013
 40
-9.505247940047013
 40
-9.505247940047013
 40
0.0
 40
0.0
 40
0.0
 10
245.9107806842812
 20
148.5991261185957
 30
0.0
 10
250.6634046543047
 20
148.5991261185958
 30
0.0
 10
255.4160286243282
 20
148.5991261185958
 30
0.0
  0
SPLINE
  5
13C
330
1F
100
AcDbEntity
  8
PREDEFINITO
100
AcDbSpline
210
0.0
220
0.0
230
1.0
 70
    24
 71
     2
 72
     6
 73
     3
 74
     0
 42
0.0000000001
 43
0.0000000001
 40
-9.505247940046957
 40
-9.505247940046957
 40
-9.505247940046957
 40
0.0
 40
0.0
 40
0.0
 10
255.4160286243282
 20
148.5991261185958
 30
0.0
 10
260.1686525943517
 20
148.5991261185958
 30
0.0
 10
264.9212765643751
 20
148.5991261185957
 30
0.0
  0
SPLINE
  5
13D
330
1F
100
AcDbEntity
  8
PREDEFINITO
100
AcDbSpline
210
0.0
220
0.0
230
1.0
 70
    12
 71
     5
 72
    12
 73
     6
 74
     0
 42
0.0000000001
 43
0.0000000001
 40
-1.0
 40
-1.0
 40
-1.0
 40
-1.0
 40
-1.0
 40
-1.0
 40
-0.0567687430258401
 40
-0.0567687430258401
 40
-0.0567687430258401
 40
-0.0567687430258401
 40
-0.0567687430258401
 40
-0.0567687430258401
 10
264.9212765643751
 20
148.5991261185957
 30
0.0
 41
1.0
 10
264.8950358919072
 20
149.1332292183853
 30
0.0
 41
1.0
 10
264.5185864876576
 20
149.5843105367014
 30
0.0
 41
1.0
 10
263.8700024314381
 20
149.8967696922588
 30
0.0
 41
1.0
 10
263.0593430996813
 20
150.0855727449948
 30
0.0
 41
1.0
 10
261.7760235637942
 20
150.1897323194775
 30
0.0
 41
1.0
  0
SPLINE
  5
13E
330
1F
100
AcDbEntity
  8
PREDEFINITO
100
AcDbSpline
210
0.0
220
0.0
230
1.0
 70
    12
 71
     2
 72
     6
 73
     3
 74
     0
 42
0.0000000001
 43
0.0000000001
 40
0.0
 40
0.0
 40
0.0
 40
0.060182028570224
 40
0.060182028570224
 40
0.060182028570224
 10
261.7760235637942
 20
150.1897323194775
 30
0.0
 41
1.0
 10
261.7460303890946
 20
150.1921573130021
 30
0.0
 41
0.9999983587722718
 10
261.7160286243281
 20
150.1944736102734
 30
0.0
 41
1.0
  0
SPLINE
  5
13F
330
1F
100
AcDbEntity
  8
LINEE VISIBILI 2D
100
AcDbSpline
210
0.0
220
0.0
230
1.0
 70
    24
 71
     2
 72
     6
 73
     3
 74
     0
 42
0.0000000001
 43
0.0000000001
 40
0.0
 40
0.0
 40
0.0
 40
9.505275456380673
 40
9.505275456380673
 40
9.505275456380673
 10
185.0859316386912
 20
148.5103498300581
 30
0.0
 10
189.8385693668816
 20
148.510349830058
 30
0.0
 10
194.5912070950719
 20
148.510349830058
 30
0.0
  0
SPLINE
  5
140
330
1F
100
AcDbEntity
  8
LINEE VISIBILI 2D
100
AcDbSpline
210
0.0
220
0.0
230
1.0
 70
    12
 71
     5
 72
    13
 73
     7
 74
     0
 42
0.0000000001
 43
0.0000000001
 40
0.0
 40
0.0
 40
0.0
 40
0.0
 40
0.0
 40
0.0
 40
2.52573625554185
 40
106.118424145
 40
106.118424145
 40
106.118424145
 40
106.118424145
 40
106.118424145
 40
106.118424145
 10
194.5912070950719
 20
148.510349830058
 30
0.0
 41
1.0
 10
194.5901436257835
 20
148.4881511151676
 30
0.0
 41
1.0
 10
194.5205409372331
 20
147.5501560202043
 30
0.0
 41
1.0
 10
193.3949650613722
 20
146.3958903661481
 30
0.0
 41
1.0
 10
190.8488050743796
 20
145.3436182025313
 30
0.0
 41
1.0
 10
187.0893001634728
 20
145.3436182028232
 30
0.0
 41
1.0
 10
185.0859316386912
 20
145.3436182029787
 30
0.0
 41
1.0
  0
SPLINE
  5
141
330
1F
100
AcDbEntity
  8
LINEE VISIBILI 2D
100
AcDbSpline
210
0.0
220
0.0
230
1.0
 70
    12
 71
     5
 72
    13
 73
     7
 74
     0
 42
0.0000000001
 43
0.0000000001
 40
-106.118424145
 40
-106.118424145
 40
-106.118424145
 40
-106.118424145
 40
-106.118424145
 40
-106.118424145
 40
-2.52573625554185
 40
0.0
 40
0.0
 40
0.0
 40
0.0
 40
0.0
 40
0.0
 10
185.0859316386912
 20
145.3436182029787
 30
0.0
 41
1.0
 10
183.0825631139096
 20
145.3436182028232
 30
0.0
 41
1.0
 10
179.3230582030028
 20
145.3436182025313
 30
0.0
 41
1.0
 10
176.7768982160102
 20
146.3958903661481
 30
0.0
 41
1.0
 10
175.6513223401493
 20
147.5501560202043
 30
0.0
 41
1.0
 10
175.5817196515989
 20
148.4881511151676
 30
0.0
 41
1.0
 10
175.5806561823105
 20
148.510349830058
 30
0.0
 41
1.0
  0
SPLINE
  5
142
330
1F
100
AcDbEntity
  8
LINEE VISIBILI 2D
100
AcDbSpline
210
0.0
220
0.0
230
1.0
 70
    24
 71
     2
 72
     6
 73
     3
 74
     0
 42
0.0000000001
 43
0.0000000001
 40
0.0
 40
0.0
 40
0.0
 40
9.50527545638073
 40
9.50527545638073
 40
9.50527545638073
 10
175.5806561823105
 20
148.510349830058
 30
0.0
 10
180.3332939105009
 20
148.510349830058
 30
0.0
 10
185.0859316386912
 20
148.5103498300581
 30
0.0
  0
SPLINE
  5
143
330
1F
100
AcDbEntity
  8
PREDEFINITO
100
AcDbSpline
210
0.0
220
0.0
230
1.0
 70
    24
 71
     2
 72
     6
 73
     3
 74
     0
 42
0.0000000001
 43
0.0000000001
 40
-1.0
 40
-1.0
 40
-1.0
 40
0.0
 40
0.0
 40
0.0
 10
178.517984898879
 20
150.1824961167113
 30
0.0
 10
178.4929848986689
 20
150.1800868759931
 30
0.0
 10
178.4679848984589
 20
150.177677635275
 30
0.0
  0
SPLINE
  5
144
330
1F
100
AcDbEntity
  8
PREDEFINITO
100
AcDbSpline
210
0.0
220
0.0
230
1.0
 70
    12
 71
     5
 72
    12
 73
     6
 74
     0
 42
0.0000000001
 43
0.0000000001
 40
0.0958484361385859
 40
0.0958484361385859
 40
0.0958484361385859
 40
0.0958484361385859
 40
0.0958484361385859
 40
0.0958484361385859
 40
1.0
 40
1.0
 40
1.0
 40
1.0
 40
1.0
 40
1.0
 10
178.4679848984589
 20
150.177677635275
 30
0.0
 41
1.0
 10
177.309969636516
 20
150.0640085884332
 30
0.0
 41
1.0
 10
176.5527489544619
 20
149.8682258477886
 30
0.0
 41
1.0
 10
175.9527810468136
 20
149.5577931058677
 30
0.0
 41
1.0
 10
175.6058371749241
 20
149.1221036412834
 30
0.0
 41
1.0
 10
175.5806836986442
 20
148.6101293514503
 30
0.0
 41
1.0
  0
SPLINE
  5
145
330
1F
100
AcDbEntity
  8
PREDEFINITO
100
AcDbSpline
210
0.0
220
0.0
230
1.0
 70
    24
 71
     2
 72
     6
 73
     3
 74
     0
 42
0.0000000001
 43
0.0000000001
 40
-9.505247940047013
 40
-9.505247940047013
 40
-9.505247940047013
 40
0.0
 40
0.0
 40
0.0
 10
175.5806836986442
 20
148.6101293514503
 30
0.0
 10
180.3333076686677
 20
148.6101293514503
 30
0.0
 10
185.0859316386912
 20
148.6101293514504
 30
0.0
  0
SPLINE
  5
146
330
1F
100
AcDbEntity
  8
PREDEFINITO
100
AcDbSpline
210
0.0
220
0.0
230
1.0
 70
    24
 71
     2
 72
     6
 73
     3
 74
     0
 42
0.0000000001
 43
0.0000000001
 40
-9.505247940046985
 40
-9.505247940046985
 40
-9.505247940046985
 40
0.0
 40
0.0
 40
0.0
 10
185.0859316386912
 20
148.6101293514504
 30
0.0
 10
189.8385556087147
 20
148.6101293514503
 30
0.0
 10
194.5911795787382
 20
148.6101293514503
 30
0.0
  0
SPLINE
  5
147
330
1F
100
AcDbEntity
  8
PREDEFINITO
100
AcDbSpline
210
0.0
220
0.0
230
1.0
 70
    12
 71
     5
 72
    12
 73
     6
 74
     0
 42
0.0000000001
 43
0.0000000001
 40
-1.0
 40
-1.0
 40
-1.0
 40
-1.0
 40
-1.0
 40
-1.0
 40
-0.2741185433675383
 40
-0.2741185433675383
 40
-0.2741185433675383
 40
-0.2741185433675383
 40
-0.2741185433675383
 40
-0.2741185433675383
 10
194.5911795787382
 20
148.6101293514503
 30
0.0
 41
1.0
 10
194.5709856289374
 20
149.0211573538289
 30
0.0
 41
1.0
 10
194.3433865014908
 20
149.3830171151777
 30
0.0
 41
1.0
 10
193.9439654626176
 20
149.6703680464828
 30
0.0
 41
1.0
 10
193.4195243001757
 20
149.8826200294612
 30
0.0
 41
1.0
 10
192.7012902114875
 20
150.0322552818335
 30
0.0
 41
1.0
  0
SPLINE
  5
148
330
1F
100
AcDbEntity
  8
PREDEFINITO
100
AcDbSpline
210
0.0
220
0.0
230
1.0
 70
    12
 71
     2
 72
     6
 73
     3
 74
     0
 42
0.0000000001
 43
0.0000000001
 40
0.0
 40
0.0
 40
0.0
 40
0.4168699636815963
 40
0.4168699636815963
 40
0.4168699636815963
 10
192.7012902114875
 20
150.0322552818335
 30
0.0
 41
1.0
 10
192.4918652638547
 20
150.0719590940989
 30
0.0
 41
0.9998758756813491
 10
192.2859394074013
 20
150.1043145355387
 30
0.0
 41
1.0
  0
SPLINE
  5
149
330
1F
100
AcDbEntity
  8
PREDEFINITO
100
AcDbSpline
210
0.0
220
0.0
230
1.0
 70
    24
 71
     2
 72
     6
 73
     3
 74
     0
 42
0.0000000001
 43
0.0000000001
 40
-1.0
 40
-1.0
 40
-1.0
 40
0.0
 40
0.0
 40
0.0
 10
192.2859394074013
 20
150.1043145355387
 30
0.0
 10
192.0759355230462
 20
150.1325468813233
 30
0.0
 10
191.8659316386912
 20
150.1607792271078
 30
0.0
  0
SPLINE
  5
14A
330
1F
100
AcDbEntity
  8
PREDEFINITO
100
AcDbSpline
210
0.0
220
0.0
230
1.0
 70
    12
 71
     2
 72
     6
 73
     3
 74
     0
 42
0.0000000001
 43
0.0000000001
 40
-0.4219163434420644
 40
-0.4219163434420644
 40
-0.4219163434420644
 40
0.0
 40
0.0
 40
0.0
 10
191.8659316386912
 20
150.1607792271078
 30
0.0
 41
1.0
 10
191.6562207400545
 20
150.1838229062934
 30
0.0
 41
0.9998934731991115
 10
191.4459265780786
 20
150.2007355523384
 30
0.0
 41
1.0
  0
SPLINE
  5
14B
330
1F
100
AcDbEntity
  8
PREDEFINITO
100
AcDbSpline
210
0.0
220
0.0
230
1.0
 70
    12
 71
     2
 72
     6
 73
     3
 74
     0
 42
0.0000000001
 43
0.0000000001
 40
0.0
 40
0.0
 40
0.0
 40
0.060182028487676
 40
0.060182028487676
 40
0.060182028487676
 10
191.4459265780786
 20
150.2007355523384
 30
0.0
 41
1.0
 10
191.4159334031786
 20
150.2031605428265
 30
0.0
 41
0.9999983589554642
 10
191.3859316386912
 20
150.205476843128
 30
0.0
 41
1.0
  0
SPLINE
  5
14C
330
1F
100
AcDbEntity
  8
PREDEFINITO
100
AcDbSpline
210
0.0
220
0.0
230
1.0
 70
    12
 71
     2
 72
     6
 73
     3
 74
     0
 42
0.0000000001
 43
0.0000000001
 40
0.0
 40
0.0
 40
0.0
 40
0.3008638992366102
 40
0.3008638992366102
 40
0.3008638992366102
 10
191.3859316386912
 20
150.205476843128
 30
0.0
 41
1.0
 10
191.2359452140918
 20
150.2170841011086
 30
0.0
 41
0.9999706856653187
 10
191.0762056077891
 20
150.2258439407292
 30
0.0
 41
1.0
  0
SPLINE
  5
14D
330
1F
100
AcDbEntity
  8
PREDEFINITO
100
AcDbSpline
210
0.0
220
0.0
230
1.0
 70
    12
 71
     2
 72
     6
 73
     3
 74
     0
 42
0.0000000001
 43
0.0000000001
 40
0.0
 40
0.0
 40
0.0
 40
0.6819642305337857
 40
0.6819642305337857
 40
0.6819642305337857
 10
191.0762056077891
 20
150.2258439407292
 30
0.0
 41
1.0
 10
190.7360181524071
 20
150.2017735177551
 30
0.0
 41
0.9997543947640702
 10
190.3972314942112
 20
150.1626520365722
 30
0.0
 41
1.0
  0
SPLINE
  5
14E
330
1F
100
AcDbEntity
  8
PREDEFINITO
100
AcDbSpline
210
0.0
220
0.0
230
1.0
 70
    12
 71
     2
 72
     6
 73
     3
 74
     0
 42
0.0000000001
 43
0.0000000001
 40
0.0
 40
0.0
 40
0.0
 40
1.885902390756176
 40
1.885902390756176
 40
1.885902390756176
 10
190.3972314942112
 20
150.1626520365722
 30
0.0
 41
1.0
 10
189.4566319901508
 20
150.0872707574283
 30
0.0
 41
0.9989447120362327
 10
188.5130837557542
 20
150.0985176970604
 30
0.0
 41
1.0
  0
SPLINE
  5
14F
330
1F
100
AcDbEntity
  8
PREDEFINITO
100
AcDbSpline
210
0.0
220
0.0
230
1.0
 70
    24
 71
     2
 72
     6
 73
     3
 74
     0
 42
0.0000000001
 43
0.0000000001
 40
0.0
 40
0.0
 40
0.0
 40
6.854304234132684
 40
6.854304234132684
 40
6.854304234132684
 10
188.5130837557542
 20
150.0985176970604
 30
0.0
 10
185.0859316386878
 20
150.0985176970604
 30
0.0
 10
181.6587795216215
 20
150.0985176970604
 30
0.0
  0
SPLINE
  5
150
330
1F
100
AcDbEntity
  8
PREDEFINITO
100
AcDbSpline
210
0.0
220
0.0
230
1.0
 70
    12
 71
     2
 72
     6
 73
     3
 74
     0
 42
0.0000000001
 43
0.0000000001
 40
0.0
 40
0.0
 40
0.0
 40
1.885902390729923
 40
1.885902390729923
 40
1.885902390729923
 10
181.6587795216215
 20
150.0985176970604
 30
0.0
 41
1.0
 10
180.7152312872381
 20
150.0872707574294
 30
0.0
 41
0.9989447120363161
 10
179.7746317831906
 20
150.1626520365696
 30
0.0
 41
1.0
  0
SPLINE
  5
151
330
1F
100
AcDbEntity
  8
PREDEFINITO
100
AcDbSpline
210
0.0
220
0.0
230
1.0
 70
    12
 71
     2
 72
     6
 73
     3
 74
     0
 42
0.0000000001
 43
0.0000000001
 40
0.0
 40
0.0
 40
0.0
 40
0.6915820497583312
 40
0.6915820497583312
 40
0.6915820497583312
 10
179.7746317831906
 20
150.1626520365696
 30
0.0
 41
1.0
 10
179.4311389533242
 20
150.20306461303
 30
0.0
 41
0.9996923512971869
 10
179.0860646466872
 20
150.2263932093196
 30
0.0
 41
1.0
  0
SPLINE
  5
152
330
1F
100
AcDbEntity
  8
PREDEFINITO
100
AcDbSpline
210
0.0
220
0.0
230
1.0
 70
    12
 71
     2
 72
     6
 73
     3
 74
     0
 42
0.0000000001
 43
0.0000000001
 40
0.0
 40
0.0
 40
0.0
 40
0.3008638992348443
 40
0.3008638992348443
 40
0.3008638992348443
 10
179.0860646466872
 20
150.2263932093196
 30
0.0
 41
1.0
 10
178.9359180632896
 20
150.2170841011084
 30
0.0
 41
0.99997068566532
 10
178.7859316386911
 20
150.205476843128
 30
0.0
 41
1.0
  0
SPLINE
  5
153
330
1F
100
AcDbEntity
  8
PREDEFINITO
100
AcDbSpline
210
0.0
220
0.0
230
1.0
 70
    12
 71
     2
 72
     6
 73
     3
 74
     0
 42
0.0000000001
 43
0.0000000001
 40
0.0
 40
0.0
 40
0.0
 40
0.0601820285700821
 40
0.0601820285700821
 40
0.0601820285700821
 10
178.7859316386911
 20
150.205476843128
 30
0.0
 41
1.0
 10
178.7559298739247
 20
150.2031605458567
 30
0.0
 41
0.9999983587722715
 10
178.7259366992252
 20
150.200735552332
 30
0.0
 41
1.0
  0
SPLINE
  5
154
330
1F
100
AcDbEntity
  8
PREDEFINITO
100
AcDbSpline
210
0.0
220
0.0
230
1.0
 70
    12
 71
     2
 72
     6
 73
     3
 74
     0
 42
0.0000000001
 43
0.0000000001
 40
-0.2087517033748563
 40
-0.2087517033748563
 40
-0.2087517033748563
 40
0.0
 40
0.0
 40
0.0
 10
178.7259366992252
 20
150.200735552332
 30
0.0
 41
1.0
 10
178.6219000015425
 20
150.1923090026401
 30
0.0
 41
0.9999777788091844
 10
178.517984898879
 20
150.1824961167113
 30
0.0
 41
1.0
  0
SPLINE
  5
155
330
1F
100
AcDbEntity
  8
LINEE VISIBILI 2D
100
AcDbSpline
210
0.0
220
0.0
230
1.0
 70
    24
 71
     2
 72
     6
 73
     3
 74
     0
 42
0.0000000001
 43
0.0000000001
 40
0.0
 40
0.0
 40
0.0
 40
0.1999999999999886
 40
0.1999999999999886
 40
0.1999999999999886
 10
179.2929848984559
 20
217.2183042590414
 30
0.0
 10
179.2929848984559
 20
217.3183042590414
 30
0.0
 10
179.2929848984559
 20
217.4183042590414
 30
0.0
  0
SPLINE
  5
156
330
1F
100
AcDbEntity
  8
LINEE VISIBILI 2D
100
AcDbSpline
210
0.0
220
0.0
230
1.0
 70
    24
 71
     2
 72
     6
 73
     3
 74
     0
 42
0.0000000001
 43
0.0000000001
 40
-1.599999999999994
 40
-1.599999999999994
 40
-1.599999999999994
 40
0.0
 40
0.0
 40
0.0
 10
179.2929848984559
 20
217.4183042590414
 30
0.0
 10
178.4929848984559
 20
217.4183042590414
 30
0.0
 10
177.6929848984559
 20
217.4183042590414
 30
0.0
  0
SPLINE
  5
157
330
1F
100
AcDbEntity
  8
LINEE VISIBILI 2D
100
AcDbSpline
210
0.0
220
0.0
230
1.0
 70
    24
 71
     2
 72
     6
 73
     3
 74
     0
 42
0.0000000001
 43
0.0000000001
 40
0.0
 40
0.0
 40
0.0
 40
0.1999999999999886
 40
0.1999999999999886
 40
0.1999999999999886
 10
177.6929848984559
 20
217.4183042590414
 30
0.0
 10
177.6929848984559
 20
217.3183042590414
 30
0.0
 10
177.6929848984559
 20
217.2183042590414
 30
0.0
  0
SPLINE
  5
158
330
1F
100
AcDbEntity
  8
LINEE VISIBILI 2D
100
AcDbSpline
210
0.0
220
0.0
230
1.0
 70
    24
 71
     2
 72
     6
 73
     3
 74
     0
 42
0.0000000001
 43
0.0000000001
 40
0.0
 40
0.0
 40
0.0
 40
1.599999999999994
 40
1.599999999999994
 40
1.599999999999994
 10
177.6929848984559
 20
217.2183042590414
 30
0.0
 10
178.4929848984559
 20
217.2183042590414
 30
0.0
 10
179.2929848984559
 20
217.2183042590414
 30
0.0
  0
ENDSEC
  0
SECTION
  2
OBJECTS
  0
DICTIONARY
  5
C
330
0
100
AcDbDictionary
281
     1
  3
ACAD_GROUP
350
D
  3
ACAD_LAYOUT
350
1A
  3
ACAD_MLEADERSTYLE
350
15A
  3
ACAD_MLINESTYLE
350
17
  3
ACAD_PLOTSETTINGS
350
19
  3
ACAD_PLOTSTYLENAME
350
E
  3
ACAD_SCALELIST
350
3B
  3
ACAD_TABLESTYLE
350
159
  3
ACAD_VISUALSTYLE
350
2A
  0
DICTIONARY
  5
D
102
{ACAD_REACTORS
330
C
102
}
330
C
100
AcDbDictionary
281
     1
  0
DICTIONARY
  5
1A
102
{ACAD_REACTORS
330
C
102
}
330
C
100
AcDbDictionary
281
     1
  3
Layout1
350
1E
  3
Layout2
350
26
  3
Model
350
22
  0
DICTIONARY
  5
15A
102
{ACAD_REACTORS
330
C
102
}
330
C
100
AcDbDictionary
281
     1
  0
DICTIONARY
  5
17
102
{ACAD_REACTORS
330
C
102
}
330
C
100
AcDbDictionary
281
     1
  3
Standard
350
18
  0
DICTIONARY
  5
19
102
{ACAD_REACTORS
330
C
102
}
330
C
100
AcDbDictionary
281
     1
  0
ACDBDICTIONARYWDFLT
  5
E
102
{ACAD_REACTORS
330
C
102
}
330
C
100
AcDbDictionary
281
     1
  3
Normal
350
F
100
AcDbDictionaryWithDefault
340
F
  0
DICTIONARY
  5
3B
102
{ACAD_REACTORS
330
C
102
}
330
C
100
AcDbDictionary
281
     1
  3
A0
350
3C
  3
A1
350
3D
  3
A2
350
3E
  3
A3
350
3F
  3
A4
350
40
  3
A5
350
41
  3
A6
350
42
  3
A7
350
43
  3
A8
350
44
  3
A9
350
45
  3
B0
350
46
  3
B1
350
47
  3
B2
350
48
  3
B3
350
49
  3
B4
350
4A
  3
B5
350
4B
  3
B6
350
4C
  3
B7
350
4D
  3
B8
350
4E
  3
B9
350
4F
  3
C0
350
50
  3
C1
350
51
  3
C2
350
52
  3
C3
350
53
  3
C4
350
54
  3
C5
350
55
  3
C6
350
56
  3
C7
350
57
  3
C8
350
58
  3
C9
350
59
  3
D0
350
5A
  3
D1
350
5B
  3
D2
350
5C
  0
DICTIONARY
  5
159
102
{ACAD_REACTORS
330
C
102
}
330
C
100
AcDbDictionary
281
     1
  0
DICTIONARY
  5
2A
102
{ACAD_REACTORS
330
C
102
}
330
C
100
AcDbDictionary
281
     1
  3
2dWireframe
350
2F
  3
3D Hidden
350
31
  3
3dWireframe
350
30
  3
Basic
350
32
  3
Brighten
350
36
  3
ColorChange
350
3A
  3
Conceptual
350
34
  3
Dim
350
35
  3
Facepattern
350
39
  3
Flat
350
2B
  3
FlatWithEdges
350
2C
  3
Gouraud
350
2D
  3
GouraudWithEdges
350
2E
  3
Linepattern
350
38
  3
Realistic
350
33
  3
Thicken
350
37
  0
LAYOUT
  5
1E
102
{ACAD_REACTORS
330
1A
102
}
330
1A
100
AcDbPlotSettings
  1

  2
none_device
  4

  6

 40
0.0
 41
0.0
 42
0.0
 43
0.0
 44
0.0
 45
0.0
 46
0.0
 47
0.0
 48
0.0
 49
0.0
140
0.0
141
0.0
142
1.0
143
1.0
 70
   688
 72
     0
 73
     0
 74
     5
  7

 75
    16
 76
     0
 77
     2
 78
   300
147
1.0
148
0.0
149
0.0
100
AcDbLayout
  1
Layout1
 70
     1
 71
     1
 10
0.0
 20
0.0
 11
12.0
 21
9.0
 12
0.0
 22
0.0
 32
0.0
 14
1.000000000000000E+20
 24
1.000000000000000E+20
 34
1.000000000000000E+20
 15
-1.000000000000000E+20
 25
-1.000000000000000E+20
 35
-1.000000000000000E+20
146
0.0
 13
0.0
 23
0.0
 33
0.0
 16
1.0
 26
0.0
 36
0.0
 17
0.0
 27
1.0
 37
0.0
 76
     0
330
1B
  0
LAYOUT
  5
26
102
{ACAD_REACTORS
330
1A
102
}
330
1A
100
AcDbPlotSettings
  1

  2
none_device
  4

  6

 40
0.0
 41
0.0
 42
0.0
 43
0.0
 44
0.0
 45
0.0
 46
0.0
 47
0.0
 48
0.0
 49
0.0
140
0.0
141
0.0
142
1.0
143
1.0
 70
   688
 72
     0
 73
     0
 74
     5
  7

 75
    16
 76
     0
 77
     2
 78
   300
147
1.0
148
0.0
149
0.0
100
AcDbLayout
  1
Layout2
 70
     1
 71
     2
 10
0.0
 20
0.0
 11
0.0
 21
0.0
 12
0.0
 22
0.0
 32
0.0
 14
0.0
 24
0.0
 34
0.0
 15
0.0
 25
0.0
 35
0.0
146
0.0
 13
0.0
 23
0.0
 33
0.0
 16
1.0
 26
0.0
 36
0.0
 17
0.0
 27
1.0
 37
0.0
 76
     0
330
23
  0
LAYOUT
  5
22
102
{ACAD_REACTORS
330
1A
102
}
330
1A
100
AcDbPlotSettings
  1

  2
none_device
  4

  6

 40
0.0
 41
0.0
 42
0.0
 43
0.0
 44
0.0
 45
0.0
 46
0.0
 47
0.0
 48
0.0
 49
0.0
140
0.0
141
0.0
142
1.0
143
1.0
 70
  1712
 72
     0
 73
     0
 74
     0
  7

 75
     0
 76
     0
 77
     2
 78
   300
147
1.0
148
0.0
149
0.0
100
AcDbLayout
  1
Model
 70
     1
 71
     0
 10
0.0
 20
0.0
 11
12.0
 21
9.0
 12
0.0
 22
0.0
 32
0.0
 14
7.204280254230057
 24
-2.321583595338479
 34
0.0
 15
309.1766281832166
 25
217.4183042590414
 35
0.0
146
0.0
 13
0.0
 23
0.0
 33
0.0
 16
1.0
 26
0.0
 36
0.0
 17
0.0
 27
1.0
 37
0.0
 76
     0
330
1F
331
29
  0
MLINESTYLE
  5
18
102
{ACAD_REACTORS
330
17
102
}
330
17
100
AcDbMlineStyle
  2
Standard
 70
     0
  3

 62
   256
 51
90.0
 52
90.0
 71
     2
 49
0.5
 62
   256
  6
BYLAYER
 49
-0.5
 62
   256
  6
BYLAYER
  0
ACDBPLACEHOLDER
  5
F
102
{ACAD_REACTORS
330
E
102
}
330
E
  0
SCALE
  5
3C
102
{ACAD_REACTORS
330
3B
102
}
330
3B
100
AcDbScale
 70
     0
300
1:1
140
1.0
141
1.0
290
     1
  0
SCALE
  5
3D
102
{ACAD_REACTORS
330
3B
102
}
330
3B
100
AcDbScale
 70
     0
300
1:2
140
1.0
141
2.0
290
     0
  0
SCALE
  5
3E
102
{ACAD_REACTORS
330
3B
102
}
330
3B
100
AcDbScale
 70
     0
300
1:4
140
1.0
141
4.0
290
     0
  0
SCALE
  5
3F
102
{ACAD_REACTORS
330
3B
102
}
330
3B
100
AcDbScale
 70
     0
300
1:5
140
1.0
141
5.0
290
     0
  0
SCALE
  5
40
102
{ACAD_REACTORS
330
3B
102
}
330
3B
100
AcDbScale
 70
     0
300
1:8
140
1.0
141
8.0
290
     0
  0
SCALE
  5
41
102
{ACAD_REACTORS
330
3B
102
}
330
3B
100
AcDbScale
 70
     0
300
1:10
140
1.0
141
10.0
290
     0
  0
SCALE
  5
42
102
{ACAD_REACTORS
330
3B
102
}
330
3B
100
AcDbScale
 70
     0
300
1:16
140
1.0
141
16.0
290
     0
  0
SCALE
  5
43
102
{ACAD_REACTORS
330
3B
102
}
330
3B
100
AcDbScale
 70
     0
300
1:20
140
1.0
141
20.0
290
     0
  0
SCALE
  5
44
102
{ACAD_REACTORS
330
3B
102
}
330
3B
100
AcDbScale
 70
     0
300
1:30
140
1.0
141
30.0
290
     0
  0
SCALE
  5
45
102
{ACAD_REACTORS
330
3B
102
}
330
3B
100
AcDbScale
 70
     0
300
1:40
140
1.0
141
40.0
290
     0
  0
SCALE
  5
46
102
{ACAD_REACTORS
330
3B
102
}
330
3B
100
AcDbScale
 70
     0
300
1:50
140
1.0
141
50.0
290
     0
  0
SCALE
  5
47
102
{ACAD_REACTORS
330
3B
102
}
330
3B
100
AcDbScale
 70
     0
300
1:100
140
1.0
141
100.0
290
     0
  0
SCALE
  5
48
102
{ACAD_REACTORS
330
3B
102
}
330
3B
100
AcDbScale
 70
     0
300
2:1
140
2.0
141
1.0
290
     0
  0
SCALE
  5
49
102
{ACAD_REACTORS
330
3B
102
}
330
3B
100
AcDbScale
 70
     0
300
4:1
140
4.0
141
1.0
290
     0
  0
SCALE
  5
4A
102
{ACAD_REACTORS
330
3B
102
}
330
3B
100
AcDbScale
 70
     0
300
8:1
140
8.0
141
1.0
290
     0
  0
SCALE
  5
4B
102
{ACAD_REACTORS
330
3B
102
}
330
3B
100
AcDbScale
 70
     0
300
10:1
140
10.0
141
1.0
290
     0
  0
SCALE
  5
4C
102
{ACAD_REACTORS
330
3B
102
}
330
3B
100
AcDbScale
 70
     0
300
100:1
140
100.0
141
1.0
290
     0
  0
SCALE
  5
4D
102
{ACAD_REACTORS
330
3B
102
}
330
3B
100
AcDbScale
 70
     0
300
1/128" = 1'-0"
140
0.0078125
141
12.0
290
     0
  0
SCALE
  5
4E
102
{ACAD_REACTORS
330
3B
102
}
330
3B
100
AcDbScale
 70
     0
300
1/64" = 1'-0"
140
0.015625
141
12.0
290
     0
  0
SCALE
  5
4F
102
{ACAD_REACTORS
330
3B
102
}
330
3B
100
AcDbScale
 70
     0
300
1/32" = 1'-0"
140
0.03125
141
12.0
290
     0
  0
SCALE
  5
50
102
{ACAD_REACTORS
330
3B
102
}
330
3B
100
AcDbScale
 70
     0
300
1/16" = 1'-0"
140
0.0625
141
12.0
290
     0
  0
SCALE
  5
51
102
{ACAD_REACTORS
330
3B
102
}
330
3B
100
AcDbScale
 70
     0
300
3/32" = 1'-0"
140
0.09375
141
12.0
290
     0
  0
SCALE
  5
52
102
{ACAD_REACTORS
330
3B
102
}
330
3B
100
AcDbScale
 70
     0
300
1/8" = 1'-0"
140
0.125
141
12.0
290
     0
  0
SCALE
  5
53
102
{ACAD_REACTORS
330
3B
102
}
330
3B
100
AcDbScale
 70
     0
300
3/16" = 1'-0"
140
0.1875
141
12.0
290
     0
  0
SCALE
  5
54
102
{ACAD_REACTORS
330
3B
102
}
330
3B
100
AcDbScale
 70
     0
300
1/4" = 1'-0"
140
0.25
141
12.0
290
     0
  0
SCALE
  5
55
102
{ACAD_REACTORS
330
3B
102
}
330
3B
100
AcDbScale
 70
     0
300
3/8" = 1'-0"
140
0.375
141
12.0
290
     0
  0
SCALE
  5
56
102
{ACAD_REACTORS
330
3B
102
}
330
3B
100
AcDbScale
 70
     0
300
1/2" = 1'-0"
140
0.5
141
12.0
290
     0
  0
SCALE
  5
57
102
{ACAD_REACTORS
330
3B
102
}
330
3B
100
AcDbScale
 70
     0
300
3/4" = 1'-0"
140
0.75
141
12.0
290
     0
  0
SCALE
  5
58
102
{ACAD_REACTORS
330
3B
102
}
330
3B
100
AcDbScale
 70
     0
300
1" = 1'-0"
140
1.0
141
12.0
290
     0
  0
SCALE
  5
59
102
{ACAD_REACTORS
330
3B
102
}
330
3B
100
AcDbScale
 70
     0
300
1-1/2" = 1'-0"
140
1.5
141
12.0
290
     0
  0
SCALE
  5
5A
102
{ACAD_REACTORS
330
3B
102
}
330
3B
100
AcDbScale
 70
     0
300
3" = 1'-0"
140
3.0
141
12.0
290
     0
  0
SCALE
  5
5B
102
{ACAD_REACTORS
330
3B
102
}
330
3B
100
AcDbScale
 70
     0
300
6" = 1'-0"
140
6.0
141
12.0
290
     0
  0
SCALE
  5
5C
102
{ACAD_REACTORS
330
3B
102
}
330
3B
100
AcDbScale
 70
     0
300
1'-0" = 1'-0"
140
12.0
141
12.0
290
     0
  0
VISUALSTYLE
  5
2F
102
{ACAD_REACTORS
330
2A
102
}
330
2A
100
AcDbVisualStyle
  2
2dWireframe
 70
     4
 71
     0
 72
     2
 73
     0
 90
        0
 40
-0.6
 41
-30.0
 62
     5
 63
     7
421
 16777215
 74
     1
 91
        4
 64
     7
 65
   257
 75
     1
175
     1
 42
1.0
 92
        0
 66
   257
 43
1.0
 76
     1
 77
     6
 78
     2
 67
     7
 79
     5
170
     0
171
     0
290
     0
174
     0
 93
        1
 44
0.0
173
     0
291
     0
 45
0.0
1001
ACAD
1000
AcDbSavedByObjectVersion
1070
     0
  0
VISUALSTYLE
  5
31
102
{ACAD_REACTORS
330
2A
102
}
330
2A
100
AcDbVisualStyle
  2
3D Hidden
 70
     6
 71
     1
 72
     2
 73
     2
 90
        0
 40
-0.6
 41
-30.0
 62
     5
 63
     7
421
 16777215
 74
     2
 91
        2
 64
     7
 65
   257
 75
     2
175
     1
 42
40.0
 92
        0
 66
   257
 43
1.0
 76
     1
 77
     6
 78
     2
 67
     7
 79
     3
170
     0
171
     0
290
     0
174
     0
 93
        1
 44
0.0
173
     0
291
     0
 45
0.0
1001
ACAD
1000
AcDbSavedByObjectVersion
1070
     0
  0
VISUALSTYLE
  5
30
102
{ACAD_REACTORS
330
2A
102
}
330
2A
100
AcDbVisualStyle
  2
3dWireframe
 70
     5
 71
     0
 72
     2
 73
     0
 90
        0
 40
-0.6
 41
-30.0
 62
     5
 63
     7
421
 16777215
 74
     1
 91
        4
 64
     7
 65
   257
 75
     1
175
     1
 42
1.0
 92
        0
 66
   257
 43
1.0
 76
     1
 77
     6
 78
     2
 67
     7
 79
     5
170
     0
171
     0
290
     0
174
     0
 93
        1
 44
0.0
173
     0
291
     0
 45
0.0
1001
ACAD
1000
AcDbSavedByObjectVersion
1070
     0
  0
VISUALSTYLE
  5
32
102
{ACAD_REACTORS
330
2A
102
}
330
2A
100
AcDbVisualStyle
  2
Basic
 70
     7
 71
     1
 72
     0
 73
     1
 90
        0
 40
-0.6
 41
-30.0
 62
     5
 63
     7
421
 16777215
 74
     0
 91
        4
 64
     7
 65
   257
 75
     1
175
     1
 42
1.0
 92
        8
 66
     7
 43
1.0
 76
     1
 77
     6
 78
     2
 67
     7
 79
     5
170
     0
171
     0
290
     0
174
     0
 93
        1
 44
0.0
173
     0
291
     1
 45
0.0
1001
ACAD
1000
AcDbSavedByObjectVersion
1070
     0
  0
VISUALSTYLE
  5
36
102
{ACAD_REACTORS
330
2A
102
}
330
2A
100
AcDbVisualStyle
  2
Brighten
 70
    12
 71
     2
 72
     2
 73
     0
 90
        0
 40
-0.6
 41
-30.0
 62
     5
 63
     7
421
 16777215
 74
     1
 91
        4
 64
     7
 65
   257
 75
     1
175
     1
 42
1.0
 92
        8
 66
     7
 43
1.0
 76
     1
 77
     6
 78
     2
 67
     7
 79
     5
170
     0
171
     0
290
     0
174
     0
 93
        1
 44
50.0
173
     0
291
     1
 45
0.0
1001
ACAD
1000
AcDbSavedByObjectVersion
1070
     0
  0
VISUALSTYLE
  5
3A
102
{ACAD_REACTORS
330
2A
102
}
330
2A
100
AcDbVisualStyle
  2
ColorChange
 70
    16
 71
     2
 72
     2
 73
     3
 90
        0
 40
-0.6
 41
-30.0
 62
     5
 63
     8
421
  8421504
 74
     1
 91
        4
 64
     7
 65
   257
 75
     1
175
     1
 42
1.0
 92
        8
 66
     8
424
  8421504
 43
1.0
 76
     1
 77
     6
 78
     2
 67
     7
 79
     5
170
     0
171
     0
290
     0
174
     0
 93
        1
 44
0.0
173
     0
291
     1
 45
0.0
1001
ACAD
1000
AcDbSavedByObjectVersion
1070
     0
  0
VISUALSTYLE
  5
34
102
{ACAD_REACTORS
330
2A
102
}
330
2A
100
AcDbVisualStyle
  2
Conceptual
 70
     9
 71
     3
 72
     2
 73
     0
 90
        0
 40
-0.6
 41
-30.0
 62
     5
 63
     7
421
 16777215
 74
     2
 91
        2
 64
     7
 65
   257
 75
     1
175
     1
 42
40.0
 92
        8
 66
     7
 43
1.0
 76
     1
 77
     6
 78
     2
 67
     7
 79
     3
170
     0
171
     0
290
     0
174
     0
 93
        1
 44
0.0
173
     0
291
     0
 45
0.0
1001
ACAD
1000
AcDbSavedByObjectVersion
1070
     0
  0
VISUALSTYLE
  5
35
102
{ACAD_REACTORS
330
2A
102
}
330
2A
100
AcDbVisualStyle
  2
Dim
 70
    11
 71
     2
 72
     2
 73
     0
 90
        0
 40
-0.6
 41
-30.0
 62
     5
 63
     7
421
 16777215
 74
     1
 91
        4
 64
     7
 65
   257
 75
     1
175
     1
 42
1.0
 92
        8
 66
     7
 43
1.0
 76
     1
 77
     6
 78
     2
 67
     7
 79
     5
170
     0
171
     0
290
     0
174
     0
 93
        1
 44
-50.0
173
     0
291
     1
 45
0.0
1001
ACAD
1000
AcDbSavedByObjectVersion
1070
     0
  0
VISUALSTYLE
  5
39
102
{ACAD_REACTORS
330
2A
102
}
330
2A
100
AcDbVisualStyle
  2
Facepattern
 70
    15
 71
     2
 72
     2
 73
     0
 90
        0
 40
-0.6
 41
-30.0
 62
     5
 63
     7
421
 16777215
 74
     1
 91
        4
 64
     7
 65
   257
 75
     1
175
     1
 42
1.0
 92
        8
 66
     7
 43
1.0
 76
     1
 77
     6
 78
     2
 67
     7
 79
     5
170
     0
171
     0
290
     0
174
     0
 93
        1
 44
0.0
173
     0
291
     1
 45
0.0
1001
ACAD
1000
AcDbSavedByObjectVersion
1070
     0
  0
VISUALSTYLE
  5
2B
102
{ACAD_REACTORS
330
2A
102
}
330
2A
100
AcDbVisualStyle
  2
Flat
 70
     0
 71
     2
 72
     1
 73
     1
 90
        2
 40
-0.6
 41
30.0
 62
     5
 63
     7
421
 16777215
 74
     0
 91
        4
 64
     7
 65
   257
 75
     1
175
     1
 42
1.0
 92
        8
 66
     7
 43
1.0
 76
     1
 77
     6
 78
     2
 67
     7
 79
     5
170
     0
171
     0
290
     0
174
     0
 93
       13
 44
0.0
173
     0
291
     1
 45
0.0
1001
ACAD
1000
AcDbSavedByObjectVersion
1070
     0
  0
VISUALSTYLE
  5
2C
102
{ACAD_REACTORS
330
2A
102
}
330
2A
100
AcDbVisualStyle
  2
FlatWithEdges
 70
     1
 71
     2
 72
     1
 73
     1
 90
        2
 40
-0.6
 41
30.0
 62
     5
 63
     7
421
 16777215
 74
     1
 91
        4
 64
     7
 65
   257
 75
     1
175
     1
 42
1.0
 92
        0
 66
   257
 43
1.0
 76
     1
 77
     6
 78
     2
 67
     7
 79
     5
170
     0
171
     0
290
     0
174
     0
 93
       13
 44
0.0
173
     0
291
     1
 45
0.0
1001
ACAD
1000
AcDbSavedByObjectVersion
1070
     0
  0
VISUALSTYLE
  5
2D
102
{ACAD_REACTORS
330
2A
102
}
330
2A
100
AcDbVisualStyle
  2
Gouraud
 70
     2
 71
     2
 72
     2
 73
     1
 90
        2
 40
-0.6
 41
30.0
 62
     5
 63
     7
421
 16777215
 74
     0
 91
        4
 64
     7
 65
   257
 75
     1
175
     1
 42
1.0
 92
        0
 66
     7
 43
1.0
 76
     1
 77
     6
 78
     2
 67
     7
 79
     5
170
     0
171
     0
290
     0
174
     0
 93
       13
 44
0.0
173
     0
291
     1
 45
0.0
1001
ACAD
1000
AcDbSavedByObjectVersion
1070
     0
  0
VISUALSTYLE
  5
2E
102
{ACAD_REACTORS
330
2A
102
}
330
2A
100
AcDbVisualStyle
  2
GouraudWithEdges
 70
     3
 71
     2
 72
     2
 73
     1
 90
        2
 40
-0.6
 41
30.0
 62
     5
 63
     7
421
 16777215
 74
     1
 91
        4
 64
     7
 65
   257
 75
     1
175
     1
 42
1.0
 92
        0
 66
   257
 43
1.0
 76
     1
 77
     6
 78
     2
 67
     7
 79
     5
170
     0
171
     0
290
     0
174
     0
 93
       13
 44
0.0
173
     0
291
     1
 45
0.0
1001
ACAD
1000
AcDbSavedByObjectVersion
1070
     0
  0
VISUALSTYLE
  5
38
102
{ACAD_REACTORS
330
2A
102
}
330
2A
100
AcDbVisualStyle
  2
Linepattern
 70
    14
 71
     2
 72
     2
 73
     0
 90
        0
 40
-0.6
 41
-30.0
 62
     5
 63
     7
421
 16777215
 74
     1
 91
        4
 64
     7
 65
   257
 75
     7
175
     7
 42
1.0
 92
        8
 66
     7
 43
1.0
 76
     1
 77
     6
 78
     2
 67
     7
 79
     5
170
     0
171
     0
290
     0
174
     0
 93
        1
 44
0.0
173
     0
291
     1
 45
0.0
1001
ACAD
1000
AcDbSavedByObjectVersion
1070
     0
  0
VISUALSTYLE
  5
33
102
{ACAD_REACTORS
330
2A
102
}
330
2A
100
AcDbVisualStyle
  2
Realistic
 70
     8
 71
     2
 72
     2
 73
     0
 90
        0
 40
-0.6
 41
-30.0
 62
     5
 63
     7
421
 16777215
 74
     1
 91
        0
 64
     7
 65
   257
 75
     1
175
     1
 42
1.0
 92
        8
 66
     8
424
  7895160
 43
1.0
 76
     1
 77
     6
 78
     2
 67
     7
 79
     5
170
     0
171
     0
290
     0
174
     0
 93
       13
 44
0.0
173
     0
291
     0
 45
0.0
1001
ACAD
1000
AcDbSavedByObjectVersion
1070
     0
  0
VISUALSTYLE
  5
37
102
{ACAD_REACTORS
330
2A
102
}
330
2A
100
AcDbVisualStyle
  2
Thicken
 70
    13
 71
     2
 72
     2
 73
     0
 90
        0
 40
-0.6
 41
-30.0
 62
     5
 63
     7
421
 16777215
 74
     1
 91
        4
 64
     7
 65
   257
 75
     1
175
     1
 42
1.0
 92
       12
 66
     7
 43
1.0
 76
     1
 77
     6
 78
     2
 67
     7
 79
     5
170
     0
171
     0
290
     0
174
     0
 93
        1
 44
0.0
173
     0
291
     1
 45
0.0
1001
ACAD
1000
AcDbSavedByObjectVersion
1070
     0
  0
ENDSEC
  0
EOF
