  0
SECTION
  2
HEADER
  9
$ACADVER
  1
AC1018
  9
$ACADMAINTVER
 70
     0
  9
$DWGCODEPAGE
  3
ANSI_1252
  9
$INSBASE
 10
0.0
 20
0.0
 30
0.0
  9
$EXTMIN
 10
771.7331258938563
 20
619.5375854214135
 30
0.0
  9
$EXTMAX
 10
1232.922551252847
 20
1156.649865557616
 30
0.0
  9
$LIMMIN
 10
0.0
 20
0.0
  9
$LIMMAX
 10
12.0
 20
9.0
  9
$ORTHOMODE
 70
     0
  9
$REGENMODE
 70
     1
  9
$FILLMODE
 70
     1
  9
$QTEXTMODE
 70
     0
  9
$MIRRTEXT
 70
     1
  9
$LTSCALE
 40
1.0
  9
$ATTMODE
 70
     1
  9
$TEXTSIZE
 40
0.2
  9
$TRACEWID
 40
0.05
  9
$TEXTSTYLE
  7
Standard
  9
$CLAYER
  8
0
  9
$CELTYPE
  6
ByLayer
  9
$CECOLOR
 62
   256
  9
$CELTSCALE
 40
1.0
  9
$DISPSILH
 70
     0
  9
$DIMSCALE
 40
1.0
  9
$DIMASZ
 40
0.18
  9
$DIMEXO
 40
0.0625
  9
$DIMDLI
 40
0.38
  9
$DIMRND
 40
0.0
  9
$DIMDLE
 40
0.0
  9
$DIMEXE
 40
0.18
  9
$DIMTP
 40
0.0
  9
$DIMTM
 40
0.0
  9
$DIMTXT
 40
0.18
  9
$DIMCEN
 40
0.09
  9
$DIMTSZ
 40
0.0
  9
$DIMTOL
 70
     0
  9
$DIMLIM
 70
     0
  9
$DIMTIH
 70
     1
  9
$DIMTOH
 70
     1
  9
$DIMSE1
 70
     0
  9
$DIMSE2
 70
     0
  9
$DIMTAD
 70
     0
  9
$DIMZIN
 70
     0
  9
$DIMBLK
  1

  9
$DIMASO
 70
     1
  9
$DIMSHO
 70
     1
  9
$DIMPOST
  1

  9
$DIMAPOST
  1

  9
$DIMALT
 70
     0
  9
$DIMALTD
 70
     2
  9
$DIMALTF
 40
25.4
  9
$DIMLFAC
 40
1.0
  9
$DIMTOFL
 70
     0
  9
$DIMTVP
 40
0.0
  9
$DIMTIX
 70
     0
  9
$DIMSOXD
 70
     0
  9
$DIMSAH
 70
     0
  9
$DIMBLK1
  1

  9
$DIMBLK2
  1

  9
$DIMSTYLE
  2
Standard
  9
$DIMCLRD
 70
     0
  9
$DIMCLRE
 70
     0
  9
$DIMCLRT
 70
     0
  9
$DIMTFAC
 40
1.0
  9
$DIMGAP
 40
0.09
  9
$DIMJUST
 70
     0
  9
$DIMSD1
 70
     0
  9
$DIMSD2
 70
     0
  9
$DIMTOLJ
 70
     1
  9
$DIMTZIN
 70
     0
  9
$DIMALTZ
 70
     0
  9
$DIMALTTZ
 70
     0
  9
$DIMUPT
 70
     0
  9
$DIMDEC
 70
     4
  9
$DIMTDEC
 70
     4
  9
$DIMALTU
 70
     2
  9
$DIMALTTD
 70
     2
  9
$DIMTXSTY
  7
Standard
  9
$DIMAUNIT
 70
     0
  9
$DIMADEC
 70
     0
  9
$DIMALTRND
 40
0.0
  9
$DIMAZIN
 70
     0
  9
$DIMDSEP
 70
    46
  9
$DIMATFIT
 70
     3
  9
$DIMFRAC
 70
     0
  9
$DIMLDRBLK
  1

  9
$DIMLUNIT
 70
     2
  9
$DIMLWD
 70
    -2
  9
$DIMLWE
 70
    -2
  9
$DIMTMOVE
 70
     0
  9
$LUNITS
 70
     2
  9
$LUPREC
 70
     2
  9
$SKETCHINC
 40
0.1
  9
$FILLETRAD
 40
0.5
  9
$AUNITS
 70
     0
  9
$AUPREC
 70
     0
  9
$MENU
  1
.
  9
$ELEVATION
 40
0.0
  9
$PELEVATION
 40
0.0
  9
$THICKNESS
 40
0.0
  9
$LIMCHECK
 70
     0
  9
$CHAMFERA
 40
0.5
  9
$CHAMFERB
 40
0.5
  9
$CHAMFERC
 40
1.0
  9
$CHAMFERD
 40
0.0
  9
$SKPOLY
 70
     0
  9
$TDCREATE
 40
2455868.541737732
  9
$TDUCREATE
 40
2455868.500071065
  9
$TDUPDATE
 40
2455868.541737743
  9
$TDUUPDATE
 40
2455868.500071076
  9
$TDINDWG
 40
0.0000000116
  9
$TDUSRTIMER
 40
0.0000000116
  9
$USRTIMER
 70
     1
  9
$ANGBASE
 50
0.0
  9
$ANGDIR
 70
     0
  9
$PDMODE
 70
     0
  9
$PDSIZE
 40
0.0
  9
$PLINEWID
 40
0.0
  9
$SPLFRAME
 70
     0
  9
$SPLINETYPE
 70
     6
  9
$SPLINESEGS
 70
     8
  9
$HANDSEED
  5
17A
  9
$SURFTAB1
 70
     6
  9
$SURFTAB2
 70
     6
  9
$SURFTYPE
 70
     6
  9
$SURFU
 70
     6
  9
$SURFV
 70
     6
  9
$UCSBASE
  2

  9
$UCSNAME
  2

  9
$UCSORG
 10
0.0
 20
0.0
 30
0.0
  9
$UCSXDIR
 10
1.0
 20
0.0
 30
0.0
  9
$UCSYDIR
 10
0.0
 20
1.0
 30
0.0
  9
$UCSORTHOREF
  2

  9
$UCSORTHOVIEW
 70
     0
  9
$UCSORGTOP
 10
0.0
 20
0.0
 30
0.0
  9
$UCSORGBOTTOM
 10
0.0
 20
0.0
 30
0.0
  9
$UCSORGLEFT
 10
0.0
 20
0.0
 30
0.0
  9
$UCSORGRIGHT
 10
0.0
 20
0.0
 30
0.0
  9
$UCSORGFRONT
 10
0.0
 20
0.0
 30
0.0
  9
$UCSORGBACK
 10
0.0
 20
0.0
 30
0.0
  9
$PUCSBASE
  2

  9
$PUCSNAME
  2

  9
$PUCSORG
 10
0.0
 20
0.0
 30
0.0
  9
$PUCSXDIR
 10
1.0
 20
0.0
 30
0.0
  9
$PUCSYDIR
 10
0.0
 20
1.0
 30
0.0
  9
$PUCSORTHOREF
  2

  9
$PUCSORTHOVIEW
 70
     0
  9
$PUCSORGTOP
 10
0.0
 20
0.0
 30
0.0
  9
$PUCSORGBOTTOM
 10
0.0
 20
0.0
 30
0.0
  9
$PUCSORGLEFT
 10
0.0
 20
0.0
 30
0.0
  9
$PUCSORGRIGHT
 10
0.0
 20
0.0
 30
0.0
  9
$PUCSORGFRONT
 10
0.0
 20
0.0
 30
0.0
  9
$PUCSORGBACK
 10
0.0
 20
0.0
 30
0.0
  9
$USERI1
 70
     0
  9
$USERI2
 70
     0
  9
$USERI3
 70
     0
  9
$USERI4
 70
     0
  9
$USERI5
 70
     0
  9
$USERR1
 40
0.0
  9
$USERR2
 40
0.0
  9
$USERR3
 40
0.0
  9
$USERR4
 40
0.0
  9
$USERR5
 40
0.0
  9
$WORLDVIEW
 70
     1
  9
$SHADEDGE
 70
     3
  9
$SHADEDIF
 70
    70
  9
$TILEMODE
 70
     1
  9
$MAXACTVP
 70
    64
  9
$PINSBASE
 10
0.0
 20
0.0
 30
0.0
  9
$PLIMCHECK
 70
     0
  9
$PEXTMIN
 10
1.000000000000000E+20
 20
1.000000000000000E+20
 30
1.000000000000000E+20
  9
$PEXTMAX
 10
-1.000000000000000E+20
 20
-1.000000000000000E+20
 30
-1.000000000000000E+20
  9
$PLIMMIN
 10
0.0
 20
0.0
  9
$PLIMMAX
 10
12.0
 20
9.0
  9
$UNITMODE
 70
     0
  9
$VISRETAIN
 70
     1
  9
$PLINEGEN
 70
     0
  9
$PSLTSCALE
 70
     1
  9
$TREEDEPTH
 70
  3020
  9
$CMLSTYLE
  2
Standard
  9
$CMLJUST
 70
     0
  9
$CMLSCALE
 40
1.0
  9
$PROXYGRAPHICS
 70
     1
  9
$MEASUREMENT
 70
     0
  9
$CELWEIGHT
370
    -1
  9
$ENDCAPS
280
     0
  9
$JOINSTYLE
280
     0
  9
$LWDISPLAY
290
     0
  9
$INSUNITS
 70
     4
  9
$HYPERLINKBASE
  1

  9
$STYLESHEET
  1

  9
$XEDIT
290
     1
  9
$CEPSNTYPE
380
     0
  9
$PSTYLEMODE
290
     1
  9
$FINGERPRINTGUID
  2
{21168339-6A69-4341-B7CF-1D6C312FA010}
  9
$VERSIONGUID
  2
{FAEB1C32-E019-11D5-929B-00C0DF256EC4}
  9
$EXTNAMES
290
     1
  9
$PSVPSCALE
 40
0.0
  9
$OLESTARTUP
290
     0
  9
$SORTENTS
280
   127
  9
$INDEXCTL
280
     0
  9
$HIDETEXT
280
     1
  9
$XCLIPFRAME
290
     0
  9
$HALOGAP
280
     0
  9
$OBSCOLOR
 70
   257
  9
$OBSLTYPE
280
     0
  9
$INTERSECTIONDISPLAY
280
     0
  9
$INTERSECTIONCOLOR
 70
   257
  9
$DIMASSOC
280
     2
  9
$PROJECTNAME
  1

  0
ENDSEC
  0
SECTION
  2
CLASSES
  0
CLASS
  1
ACDBDICTIONARYWDFLT
  2
AcDbDictionaryWithDefault
  3
ObjectDBX Classes
 90
        0
 91
        3
280
     0
281
     0
  0
CLASS
  1
VISUALSTYLE
  2
AcDbVisualStyle
  3
ObjectDBX Classes
 90
     4095
 91
        3
280
     0
281
     0
  0
CLASS
  1
SCALE
  2
AcDbScale
  3
ObjectDBX Classes
 90
     1153
 91
        3
280
     0
281
     0
  0
ENDSEC
  0
SECTION
  2
TABLES
  0
TABLE
  2
VPORT
  5
8
330
0
100
AcDbSymbolTable
 70
     1
  0
VPORT
  5
29
330
8
100
AcDbSymbolTableRecord
100
AcDbViewportTableRecord
  2
*Active
 70
     0
 10
0.0
 20
0.0
 11
1.0
 21
1.0
 12
0.0
 22
0.0
 13
0.0
 23
0.0
 14
0.5
 24
0.5
 15
0.5
 25
0.5
 16
0.0
 26
0.0
 36
1.0
 17
1002.327838573352
 27
888.0937254895148
 37
0.0
 40
547.8545257389267
 41
0.8586462131196133
 42
50.0
 43
0.0
 44
0.0
 50
0.0
 51
0.0
 71
     0
 72
   100
 73
     1
 74
     3
 75
     0
 76
     0
 77
     0
 78
     0
281
     0
 65
     1
110
0.0
120
0.0
130
0.0
111
1.0
121
0.0
131
0.0
112
0.0
122
1.0
132
0.0
 79
     0
146
0.0
  0
ENDTAB
  0
TABLE
  2
LTYPE
  5
5
330
0
100
AcDbSymbolTable
 70
     1
  0
LTYPE
  5
14
330
5
100
AcDbSymbolTableRecord
100
AcDbLinetypeTableRecord
  2
ByBlock
 70
     0
  3

 72
    65
 73
     0
 40
0.0
  0
LTYPE
  5
15
330
5
100
AcDbSymbolTableRecord
100
AcDbLinetypeTableRecord
  2
ByLayer
 70
     0
  3

 72
    65
 73
     0
 40
0.0
  0
LTYPE
  5
16
330
5
100
AcDbSymbolTableRecord
100
AcDbLinetypeTableRecord
  2
Continuous
 70
     0
  3
Solid line
 72
    65
 73
     0
 40
0.0
  0
ENDTAB
  0
TABLE
  2
LAYER
  5
2
330
0
100
AcDbSymbolTable
 70
     1
  0
LAYER
  5
10
330
2
100
AcDbSymbolTableRecord
100
AcDbLayerTableRecord
  2
0
 70
     0
 62
     7
  6
Continuous
370
    -3
390
F
  0
ENDTAB
  0
TABLE
  2
STYLE
  5
3
330
0
100
AcDbSymbolTable
 70
     1
  0
STYLE
  5
11
330
3
100
AcDbSymbolTableRecord
100
AcDbTextStyleTableRecord
  2
Standard
 70
     0
 40
0.0
 41
1.0
 50
0.0
 71
     0
 42
0.2
  3
txt
  4

  0
ENDTAB
  0
TABLE
  2
VIEW
  5
6
330
0
100
AcDbSymbolTable
 70
     0
  0
ENDTAB
  0
TABLE
  2
UCS
  5
7
330
0
100
AcDbSymbolTable
 70
     0
  0
ENDTAB
  0
TABLE
  2
APPID
  5
9
330
0
100
AcDbSymbolTable
 70
     1
  0
APPID
  5
12
330
9
100
AcDbSymbolTableRecord
100
AcDbRegAppTableRecord
  2
ACAD
 70
     0
  0
ENDTAB
  0
TABLE
  2
DIMSTYLE
  5
A
330
0
100
AcDbSymbolTable
 70
     1
100
AcDbDimStyleTable
  0
DIMSTYLE
105
27
330
A
100
AcDbSymbolTableRecord
100
AcDbDimStyleTableRecord
  2
Standard
 70
     0
340
11
  0
ENDTAB
  0
TABLE
  2
BLOCK_RECORD
  5
1
330
0
100
AcDbSymbolTable
 70
     1
  0
BLOCK_RECORD
  5
1F
330
1
100
AcDbSymbolTableRecord
100
AcDbBlockTableRecord
  2
*Model_Space
340
22
  0
BLOCK_RECORD
  5
1B
330
1
100
AcDbSymbolTableRecord
100
AcDbBlockTableRecord
  2
*Paper_Space
340
1E
  0
BLOCK_RECORD
  5
23
330
1
100
AcDbSymbolTableRecord
100
AcDbBlockTableRecord
  2
*Paper_Space0
340
26
  0
ENDTAB
  0
ENDSEC
  0
SECTION
  2
BLOCKS
  0
BLOCK
  5
20
330
1F
100
AcDbEntity
  8
0
100
AcDbBlockBegin
  2
*Model_Space
 70
     0
 10
0.0
 20
0.0
 30
0.0
  3
*Model_Space
  1

  0
ENDBLK
  5
21
330
1F
100
AcDbEntity
  8
0
100
AcDbBlockEnd
  0
BLOCK
  5
1C
330
1B
100
AcDbEntity
 67
     1
  8
0
100
AcDbBlockBegin
  2
*Paper_Space
 70
     0
 10
0.0
 20
0.0
 30
0.0
  3
*Paper_Space
  1

  0
ENDBLK
  5
1D
330
1B
100
AcDbEntity
 67
     1
  8
0
100
AcDbBlockEnd
  0
BLOCK
  5
24
330
23
100
AcDbEntity
  8
0
100
AcDbBlockBegin
  2
*Paper_Space0
 70
     0
 10
0.0
 20
0.0
 30
0.0
  3
*Paper_Space0
  1

  0
ENDBLK
  5
25
330
23
100
AcDbEntity
  8
0
100
AcDbBlockEnd
  0
ENDSEC
  0
SECTION
  2
ENTITIES
  0
LINE
  5
5D
330
1F
100
AcDbEntity
  8
0
 62
   255
370
    15
100
AcDbLine
 10
826.1978285058113
 20
992.0863886742999
 30
0.0
 11
826.1932732658153
 21
992.0921819447784
 31
0.0
  0
LINE
  5
5E
330
1F
100
AcDbEntity
  8
0
 62
   255
370
    15
100
AcDbLine
 10
826.1932732658153
 20
992.0921819447784
 30
0.0
 11
826.2640471592464
 21
991.8724403712224
 31
0.0
  0
LINE
  5
5F
330
1F
100
AcDbEntity
  8
0
 62
   255
370
    15
100
AcDbLine
 10
826.2640471592464
 20
991.8724403712224
 30
0.0
 11
826.3223502454316
 21
991.477531300431
 31
0.0
  0
LINE
  5
60
330
1F
100
AcDbEntity
  8
0
 62
   255
370
    15
100
AcDbLine
 10
826.3223502454316
 20
991.477531300431
 30
0.0
 11
826.3052576605544
 21
990.9312509525239
 31
0.0
  0
LINE
  5
61
330
1F
100
AcDbEntity
  8
0
 62
   255
370
    15
100
AcDbLine
 10
826.3052576605544
 20
990.9312509525239
 30
0.0
 11
826.1330185791574
 21
990.2030054933637
 31
0.0
  0
LINE
  5
62
330
1F
100
AcDbEntity
  8
0
 62
   255
370
    15
100
AcDbLine
 10
831.0850589465516
 20
994.1901064294857
 30
0.0
 11
831.0920906607062
 21
994.1795730630797
 31
0.0
  0
LINE
  5
63
330
1F
100
AcDbEntity
  8
0
 62
   255
370
    15
100
AcDbLine
 10
831.0920906607062
 20
994.1795730630797
 30
0.0
 11
831.0220023202767
 21
994.3768082652753
 31
0.0
  0
LINE
  5
64
330
1F
100
AcDbEntity
  8
0
 62
   255
370
    15
100
AcDbLine
 10
831.0220023202767
 20
994.3768082652753
 30
0.0
 11
830.9506144384351
 21
994.7599326136376
 31
0.0
  0
LINE
  5
65
330
1F
100
AcDbEntity
  8
0
 62
   255
370
    15
100
AcDbLine
 10
830.9506144384351
 20
994.7599326136376
 30
0.0
 11
830.9434658409632
 21
995.2878285272802
 31
0.0
  0
LINE
  5
66
330
1F
100
AcDbEntity
  8
0
 62
   255
370
    15
100
AcDbLine
 10
830.9434658409632
 20
995.2878285272802
 30
0.0
 11
831.076687007738
 21
996.0253597989057
 31
0.0
  0
LINE
  5
67
330
1F
100
AcDbEntity
  8
0
 62
   255
370
    15
100
AcDbLine
 10
831.076687007738
 20
996.0253597989057
 30
0.0
 11
831.2379907356668
 21
996.3999523190759
 31
0.0
  0
LINE
  5
68
330
1F
100
AcDbEntity
  8
0
 62
   255
370
    15
100
AcDbLine
 10
829.7308996818152
 20
986.7656411145938
 30
0.0
 11
825.9334661291393
 21
989.627212548209
 31
0.0
  0
ARC
  5
69
330
1F
100
AcDbEntity
  8
0
 62
   255
370
    15
100
AcDbCircle
 10
835.6714332418507
 20
994.3426670684934
 30
0.0
 40
4.939528423388851
100
AcDbArc
 50
143.6029010209979
 51
230.8611110951113
  0
ARC
  5
6A
330
1F
100
AcDbEntity
  8
0
 62
   255
370
    15
100
AcDbCircle
 10
821.6218726370021
 20
992.1009747218635
 30
0.0
 40
4.932476246942513
100
AcDbArc
 50
323.6701023680377
 51
50.79390974807088
  0
ARC
  5
6B
330
1F
100
AcDbEntity
  8
0
 62
   255
370
    15
100
AcDbCircle
 10
1136.849272278818
 20
1103.407618644917
 30
0.0
 40
109.1994743893837
100
AcDbArc
 50
280.1675435341646
 51
288.5224486858669
  0
ARC
  5
6C
330
1F
100
AcDbEntity
  8
0
 62
   255
370
    15
100
AcDbCircle
 10
1134.995830226863
 20
1103.407618644867
 30
0.0
 40
109.1994743893326
100
AcDbArc
 50
251.4775513141334
 51
259.8324564658396
  0
ARC
  5
6D
330
1F
100
AcDbEntity
  8
0
 62
   255
370
    15
100
AcDbCircle
 10
771.7331258938563
 20
716.5375854214135
 30
0.0
 40
96.99999999999997
100
AcDbArc
 50
270.0000000000008
 51
307.9361653433399
  0
ARC
  5
6E
330
1F
100
AcDbEntity
  8
0
 62
   255
370
    15
100
AcDbCircle
 10
771.7331258938563
 20
716.5375854214135
 30
0.0
 40
97.00000000000001
100
AcDbArc
 50
52.06383465666026
 51
90.0
  0
ARC
  5
6F
330
1F
100
AcDbEntity
  8
0
 62
   255
370
    15
100
AcDbCircle
 10
882.4670901538303
 20
1064.649865557616
 30
0.0
 40
91.99999999999996
100
AcDbArc
 50
52.99999999999816
 51
232.1959232175662
  0
LINE
  5
70
330
1F
100
AcDbEntity
  8
0
 62
   255
370
    15
100
AcDbLine
 10
937.8340722838211
 20
1138.124332481965
 30
0.0
 11
831.4973904739376
 21
997.0107895378611
 31
0.0
  0
SPLINE
  5
71
330
1F
100
AcDbEntity
  8
0
 62
   255
370
    15
100
AcDbSpline
210
0.0
220
0.0
230
1.0
 70
    24
 71
     2
 72
     6
 73
     3
 74
     0
 42
0.0000000001
 43
0.0000000001
 40
0.0
 40
0.0
 40
0.0
 40
1.0
 40
1.0
 40
1.0
 10
1103.004489668259
 20
993.5913403316371
 30
0.0
 10
1102.885470566659
 20
994.1128384854353
 30
0.0
 10
1102.766451465059
 20
994.6343366392337
 30
0.0
  0
ARC
  5
72
330
1F
100
AcDbEntity
  8
0
 62
   255
370
    15
100
AcDbCircle
 10
1098.689026492159
 20
992.6815106612601
 30
0.0
 40
4.520942789936271
100
AcDbArc
 50
25.59144243872102
 51
73.25675310822787
  0
LINE
  5
73
330
1F
100
AcDbEntity
  8
0
 62
   255
370
    15
100
AcDbLine
 10
882.4670901538323
 20
808.537585421413
 30
0.0
 11
883.2297443755879
 21
808.528857072743
 31
0.0
  0
LINE
  5
74
330
1F
100
AcDbEntity
  8
0
 62
   255
370
    15
100
AcDbLine
 10
883.2297443755879
 20
808.528857072743
 30
0.0
 11
886.67401289319
 21
808.2716272159398
 31
0.0
  0
LINE
  5
75
330
1F
100
AcDbEntity
  8
0
 62
   255
370
    15
100
AcDbLine
 10
886.67401289319
 20
808.2716272159398
 30
0.0
 11
890.1019684319451
 21
807.6586847454133
 31
0.0
  0
LINE
  5
76
330
1F
100
AcDbEntity
  8
0
 62
   255
370
    15
100
AcDbLine
 10
890.1019684319451
 20
807.6586847454133
 30
0.0
 11
893.5003185760763
 21
806.6924064382465
 31
0.0
  0
LINE
  5
77
330
1F
100
AcDbEntity
  8
0
 62
   255
370
    15
100
AcDbLine
 10
893.5003185760763
 20
806.6924064382465
 30
0.0
 11
896.8558857091998
 21
805.3765391846393
 31
0.0
  0
LINE
  5
78
330
1F
100
AcDbEntity
  8
0
 62
   255
370
    15
100
AcDbLine
 10
896.8558857091998
 20
805.3765391846393
 30
0.0
 11
900.155658112524
 21
803.7161854587765
 31
0.0
  0
LINE
  5
79
330
1F
100
AcDbEntity
  8
0
 62
   255
370
    15
100
AcDbLine
 10
900.155658112524
 20
803.7161854587765
 30
0.0
 11
903.3868404197559
 21
801.7177835332117
 31
0.0
  0
LINE
  5
7A
330
1F
100
AcDbEntity
  8
0
 62
   255
370
    15
100
AcDbLine
 10
903.3868404197559
 20
801.7177835332117
 30
0.0
 11
906.5369032330688
 21
799.3890825134929
 31
0.0
  0
LINE
  5
7B
330
1F
100
AcDbEntity
  8
0
 62
   255
370
    15
100
AcDbLine
 10
906.5369032330688
 20
799.3890825134929
 30
0.0
 11
909.5936317077353
 21
796.7391122898345
 31
0.0
  0
LINE
  5
7C
330
1F
100
AcDbEntity
  8
0
 62
   255
370
    15
100
AcDbLine
 10
909.5936317077353
 20
796.7391122898345
 30
0.0
 11
912.5451729170351
 21
793.778148522352
 31
0.0
  0
LINE
  5
7D
330
1F
100
AcDbEntity
  8
0
 62
   255
370
    15
100
AcDbLine
 10
912.5451729170351
 20
793.778148522352
 30
0.0
 11
915.3800818137692
 21
790.5176727956382
 31
0.0
  0
LINE
  5
7E
330
1F
100
AcDbEntity
  8
0
 62
   255
370
    15
100
AcDbLine
 10
915.3800818137692
 20
790.5176727956382
 30
0.0
 11
918.0873656101612
 21
786.9703280971821
 31
0.0
  0
LINE
  5
7F
330
1F
100
AcDbEntity
  8
0
 62
   255
370
    15
100
AcDbLine
 10
918.0873656101612
 20
786.9703280971821
 30
0.0
 11
920.6565264040535
 21
783.1498697922744
 31
0.0
  0
LINE
  5
80
330
1F
100
AcDbEntity
  8
0
 62
   255
370
    15
100
AcDbLine
 10
920.6565264040535
 20
783.1498697922744
 30
0.0
 11
923.0776018861089
 21
779.0711122854988
 31
0.0
  0
LINE
  5
81
330
1F
100
AcDbEntity
  8
0
 62
   255
370
    15
100
AcDbLine
 10
923.0776018861089
 20
779.0711122854988
 30
0.0
 11
925.3412039701724
 21
774.7498715756394
 31
0.0
  0
LINE
  5
82
330
1F
100
AcDbEntity
  8
0
 62
   255
370
    15
100
AcDbLine
 10
925.3412039701724
 20
774.7498715756394
 30
0.0
 11
927.4385551969931
 21
770.2029039267544
 31
0.0
  0
LINE
  5
83
330
1F
100
AcDbEntity
  8
0
 62
   255
370
    15
100
AcDbLine
 10
927.4385551969931
 20
770.2029039267544
 30
0.0
 11
929.3615227701501
 21
765.4478408932293
 31
0.0
  0
LINE
  5
84
330
1F
100
AcDbEntity
  8
0
 62
   255
370
    15
100
AcDbLine
 10
929.3615227701501
 20
765.4478408932293
 30
0.0
 11
931.1026500921997
 21
760.5031209507596
 31
0.0
  0
LINE
  5
85
330
1F
100
AcDbEntity
  8
0
 62
   255
370
    15
100
AcDbLine
 10
931.1026500921997
 20
760.5031209507596
 30
0.0
 11
932.655185678759
 21
755.3879179983738
 31
0.0
  0
LINE
  5
86
330
1F
100
AcDbEntity
  8
0
 62
   255
370
    15
100
AcDbLine
 10
932.655185678759
 20
755.3879179983738
 30
0.0
 11
934.0131093384073
 21
750.1220670087423
 31
0.0
  0
LINE
  5
87
330
1F
100
AcDbEntity
  8
0
 62
   255
370
    15
100
AcDbLine
 10
934.0131093384073
 20
750.1220670087423
 30
0.0
 11
935.1711555168885
 21
744.7259871150718
 31
0.0
  0
LINE
  5
88
330
1F
100
AcDbEntity
  8
0
 62
   255
370
    15
100
AcDbLine
 10
935.1711555168885
 20
744.7259871150718
 30
0.0
 11
936.1248337150932
 21
739.2206024328301
 31
0.0
  0
LINE
  5
89
330
1F
100
AcDbEntity
  8
0
 62
   255
370
    15
100
AcDbLine
 10
936.1248337150932
 20
739.2206024328301
 30
0.0
 11
936.8704459016486
 21
733.6272609233253
 31
0.0
  0
LINE
  5
8A
330
1F
100
AcDbEntity
  8
0
 62
   255
370
    15
100
AcDbLine
 10
936.8704459016486
 20
733.6272609233253
 30
0.0
 11
937.4051008525933
 21
727.9676516137591
 31
0.0
  0
LINE
  5
8B
330
1F
100
AcDbEntity
  8
0
 62
   255
370
    15
100
AcDbLine
 10
937.4051008525933
 20
727.9676516137591
 30
0.0
 11
937.7267253625355
 21
722.2637204947448
 31
0.0
  0
LINE
  5
8C
330
1F
100
AcDbEntity
  8
0
 62
   255
370
    15
100
AcDbLine
 10
937.7267253625355
 20
722.2637204947448
 30
0.0
 11
937.834072283821
 21
716.5375854214121
 31
0.0
  0
LINE
  5
8D
330
1F
100
AcDbEntity
  8
0
 62
   255
370
    15
100
AcDbLine
 10
937.834072283821
 20
716.5375854214121
 30
0.0
 11
937.7267253625355
 21
710.8114503480793
 31
0.0
  0
LINE
  5
8E
330
1F
100
AcDbEntity
  8
0
 62
   255
370
    15
100
AcDbLine
 10
937.7267253625355
 20
710.8114503480793
 30
0.0
 11
937.4051008525933
 21
705.1075192290651
 31
0.0
  0
LINE
  5
8F
330
1F
100
AcDbEntity
  8
0
 62
   255
370
    15
100
AcDbLine
 10
937.4051008525933
 20
705.1075192290651
 30
0.0
 11
936.8704459016485
 21
699.447909919499
 31
0.0
  0
LINE
  5
90
330
1F
100
AcDbEntity
  8
0
 62
   255
370
    15
100
AcDbLine
 10
936.8704459016485
 20
699.447909919499
 30
0.0
 11
936.1248337150931
 21
693.8545684099943
 31
0.0
  0
LINE
  5
91
330
1F
100
AcDbEntity
  8
0
 62
   255
370
    15
100
AcDbLine
 10
936.1248337150931
 20
693.8545684099943
 30
0.0
 11
935.1711555168883
 21
688.3491837277526
 31
0.0
  0
LINE
  5
92
330
1F
100
AcDbEntity
  8
0
 62
   255
370
    15
100
AcDbLine
 10
935.1711555168883
 20
688.3491837277526
 30
0.0
 11
934.0131093384072
 21
682.9531038340821
 31
0.0
  0
LINE
  5
93
330
1F
100
AcDbEntity
  8
0
 62
   255
370
    15
100
AcDbLine
 10
934.0131093384072
 20
682.9531038340821
 30
0.0
 11
932.6551856787588
 21
677.6872528444507
 31
0.0
  0
LINE
  5
94
330
1F
100
AcDbEntity
  8
0
 62
   255
370
    15
100
AcDbLine
 10
932.6551856787588
 20
677.6872528444507
 30
0.0
 11
931.1026500921996
 21
672.5720498920649
 31
0.0
  0
LINE
  5
95
330
1F
100
AcDbEntity
  8
0
 62
   255
370
    15
100
AcDbLine
 10
931.1026500921996
 20
672.5720498920649
 30
0.0
 11
929.3615227701499
 21
667.6273299495952
 31
0.0
  0
LINE
  5
96
330
1F
100
AcDbEntity
  8
0
 62
   255
370
    15
100
AcDbLine
 10
929.3615227701499
 20
667.6273299495952
 30
0.0
 11
927.4385551969929
 21
662.8722669160702
 31
0.0
  0
LINE
  5
97
330
1F
100
AcDbEntity
  8
0
 62
   255
370
    15
100
AcDbLine
 10
927.4385551969929
 20
662.8722669160702
 30
0.0
 11
925.3412039701722
 21
658.3252992671852
 31
0.0
  0
LINE
  5
98
330
1F
100
AcDbEntity
  8
0
 62
   255
370
    15
100
AcDbLine
 10
925.3412039701722
 20
658.3252992671852
 30
0.0
 11
923.0776018861087
 21
654.004058557326
 31
0.0
  0
LINE
  5
99
330
1F
100
AcDbEntity
  8
0
 62
   255
370
    15
100
AcDbLine
 10
923.0776018861087
 20
654.004058557326
 30
0.0
 11
920.6565264040531
 21
649.9253010505505
 31
0.0
  0
LINE
  5
9A
330
1F
100
AcDbEntity
  8
0
 62
   255
370
    15
100
AcDbLine
 10
920.6565264040531
 20
649.9253010505505
 30
0.0
 11
918.087365610161
 21
646.1048427456428
 31
0.0
  0
LINE
  5
9B
330
1F
100
AcDbEntity
  8
0
 62
   255
370
    15
100
AcDbLine
 10
918.087365610161
 20
646.1048427456428
 30
0.0
 11
915.3800818137689
 21
642.5574980471869
 31
0.0
  0
LINE
  5
9C
330
1F
100
AcDbEntity
  8
0
 62
   255
370
    15
100
AcDbLine
 10
915.3800818137689
 20
642.5574980471869
 30
0.0
 11
912.5451729170347
 21
639.2970223204732
 31
0.0
  0
LINE
  5
9D
330
1F
100
AcDbEntity
  8
0
 62
   255
370
    15
100
AcDbLine
 10
912.5451729170347
 20
639.2970223204732
 30
0.0
 11
909.593631707735
 21
636.336058552991
 31
0.0
  0
LINE
  5
9E
330
1F
100
AcDbEntity
  8
0
 62
   255
370
    15
100
AcDbLine
 10
909.593631707735
 20
636.336058552991
 30
0.0
 11
906.5369032330684
 21
633.6860883293325
 31
0.0
  0
LINE
  5
9F
330
1F
100
AcDbEntity
  8
0
 62
   255
370
    15
100
AcDbLine
 10
906.5369032330684
 20
633.6860883293325
 30
0.0
 11
903.3868404197557
 21
631.3573873096137
 31
0.0
  0
LINE
  5
A0
330
1F
100
AcDbEntity
  8
0
 62
   255
370
    15
100
AcDbLine
 10
903.3868404197557
 20
631.3573873096137
 30
0.0
 11
900.1556581125236
 21
629.3589853840491
 31
0.0
  0
LINE
  5
A1
330
1F
100
AcDbEntity
  8
0
 62
   255
370
    15
100
AcDbLine
 10
900.1556581125236
 20
629.3589853840491
 30
0.0
 11
896.8558857091995
 21
627.6986316581864
 31
0.0
  0
LINE
  5
A2
330
1F
100
AcDbEntity
  8
0
 62
   255
370
    15
100
AcDbLine
 10
896.8558857091995
 20
627.6986316581864
 30
0.0
 11
893.500318576076
 21
626.3827644045795
 31
0.0
  0
LINE
  5
A3
330
1F
100
AcDbEntity
  8
0
 62
   255
370
    15
100
AcDbLine
 10
893.500318576076
 20
626.3827644045795
 30
0.0
 11
890.1019684319448
 21
625.4164860974126
 31
0.0
  0
LINE
  5
A4
330
1F
100
AcDbEntity
  8
0
 62
   255
370
    15
100
AcDbLine
 10
890.1019684319448
 20
625.4164860974126
 30
0.0
 11
886.6740128931897
 21
624.8035436268863
 31
0.0
  0
LINE
  5
A5
330
1F
100
AcDbEntity
  8
0
 62
   255
370
    15
100
AcDbLine
 10
886.6740128931897
 20
624.8035436268863
 30
0.0
 11
883.2297443755875
 21
624.5463137700832
 31
0.0
  0
LINE
  5
A6
330
1F
100
AcDbEntity
  8
0
 62
   255
370
    15
100
AcDbLine
 10
883.2297443755875
 20
624.5463137700832
 30
0.0
 11
882.4670901538335
 21
624.537585421413
 31
0.0
  0
ARC
  5
A7
330
1F
100
AcDbEntity
  8
0
 62
   255
370
    15
100
AcDbCircle
 10
882.4670901538348
 20
716.537585421413
 30
0.0
 40
92.0
100
AcDbArc
 50
90.00000000000156
 51
270.0
  0
ARC
  5
A8
330
1F
100
AcDbEntity
  8
0
 62
   255
370
    15
100
AcDbCircle
 10
1135.145983364525
 20
1103.403550756315
 30
0.0
 40
116.0541275071842
100
AcDbArc
 50
253.7836399148522
 51
259.8133302074915
  0
ARC
  5
A9
330
1F
100
AcDbEntity
  8
0
 62
   255
370
    15
100
AcDbCircle
 10
1084.750539899316
 20
997.5034633521118
 30
0.0
 40
31.00891446592152
100
AcDbArc
 50
344.4273509812698
 51
357.0785524767136
  0
SPLINE
  5
AA
330
1F
100
AcDbEntity
  8
0
 62
   255
370
    15
100
AcDbSpline
210
0.0
220
0.0
230
1.0
 70
     8
 71
     3
 72
    21
 73
    17
 74
     0
 42
0.0000000001
 43
0.0000000001
 40
0.0
 40
0.0
 40
0.0
 40
0.0
 40
0.1250000000000004
 40
0.1250000000000004
 40
0.2500000000000007
 40
0.2500000000000007
 40
0.5000000000000008
 40
0.5000000000000008
 40
0.7500000000000008
 40
0.7500000000000008
 40
0.8750000000000007
 40
0.8750000000000007
 40
0.9375000000000003
 40
0.9687500000000002
 40
0.9687500000000002
 40
1.0
 40
1.0
 40
1.0
 40
1.0
 10
1115.719153591188
 20
995.9230386122408
 30
0.0
 10
1116.583380810258
 20
995.7674588629098
 30
0.0
 10
1117.449046199404
 20
995.5914017209922
 30
0.0
 10
1119.163173093082
 20
995.2185981511913
 30
0.0
 10
1120.014716032501
 20
995.0211750728569
 30
0.0
 10
1122.558126733281
 20
994.4109056540278
 30
0.0
 10
1124.238953613852
 20
993.9805416789462
 30
0.0
 10
1127.589353633624
 20
993.1254420439351
 30
0.0
 10
1129.259973151107
 20
992.6998991421129
 30
0.0
 10
1131.763265610002
 20
992.0954726968521
 30
0.0
 10
1132.595842891578
 20
991.8999185660656
 30
0.0
 10
1133.843631766741
 20
991.6185413758404
 30
0.0
 10
1134.467255258439
 20
991.4808388900458
 30
0.0
 10
1135.090781451255
 20
991.3481783053542
 30
0.0
 10
1135.506477982529
 20
991.2609206050682
 30
0.0
 10
1135.712838730758
 20
991.2181871572874
 30
0.0
 10
1135.922551252847
 20
991.1753986332631
 30
0.0
  0
SPLINE
  5
AB
330
1F
100
AcDbEntity
  8
0
 62
   255
370
    15
100
AcDbSpline
210
0.0
220
0.0
230
1.0
 70
     8
 71
     3
 72
    21
 73
    17
 74
     0
 42
0.0000000001
 43
0.0000000001
 40
-1.0
 40
-1.0
 40
-1.0
 40
-1.0
 40
-0.9687499999999999
 40
-0.9687499999999999
 40
-0.9374999999999997
 40
-0.8749999999999998
 40
-0.8749999999999998
 40
-0.7500000000000001
 40
-0.7500000000000001
 40
-0.5000000000000001
 40
-0.5000000000000001
 40
-0.2500000000000002
 40
-0.2500000000000002
 40
-0.1250000000000001
 40
-0.1250000000000001
 40
0.0
 40
0.0
 40
0.0
 40
0.0
 10
1135.922551252847
 20
991.1753986332631
 30
0.0
 10
1136.132263774936
 20
991.2181871572885
 30
0.0
 10
1136.338624523165
 20
991.2609206050681
 30
0.0
 10
1136.75432105444
 20
991.3481783053542
 30
0.0
 10
1137.377847247256
 20
991.4808388900458
 30
0.0
 10
1138.001470738953
 20
991.6185413758404
 30
0.0
 10
1139.249259614117
 20
991.8999185660656
 30
0.0
 10
1140.081836895693
 20
992.0954726968521
 30
0.0
 10
1142.585129354587
 20
992.6998991421128
 30
0.0
 10
1144.255748872071
 20
993.1254420439351
 30
0.0
 10
1147.606148891842
 20
993.9805416789462
 30
0.0
 10
1149.286975772413
 20
994.4109056540278
 30
0.0
 10
1151.830386473194
 20
995.0211750728569
 30
0.0
 10
1152.681929412613
 20
995.2185981511913
 30
0.0
 10
1154.39605630629
 20
995.5914017209922
 30
0.0
 10
1155.261721695437
 20
995.7674588629098
 30
0.0
 10
1156.125948914506
 20
995.9230386122402
 30
0.0
  0
ARC
  5
AC
330
1F
100
AcDbEntity
  8
0
 62
   255
370
    15
100
AcDbCircle
 10
1187.094562606293
 20
997.5034633521059
 30
0.0
 40
31.00891446583542
100
AcDbArc
 50
182.9214475232846
 51
195.5726490187635
  0
ARC
  5
AD
330
1F
100
AcDbEntity
  8
0
 62
   255
370
    15
100
AcDbCircle
 10
1136.699119141127
 20
1103.403550756476
 30
0.0
 40
116.0541275073512
100
AcDbArc
 50
280.1866697925161
 51
286.2163600851475
  0
ARC
  5
AE
330
1F
100
AcDbEntity
  8
0
 62
   255
370
    15
100
AcDbCircle
 10
771.7331258938616
 20
917.7009317089147
 30
0.0
 40
96.99999999999471
100
AcDbArc
 50
359.9999999999984
 51
52.18382077766113
  0
LINE
  5
AF
330
1F
100
AcDbEntity
  8
0
 62
   255
370
    15
100
AcDbLine
 10
868.7331258938564
 20
917.700931708912
 30
0.0
 11
771.7331258938563
 21
917.700931708912
 31
0.0
  0
LINE
  5
B0
330
1F
100
AcDbEntity
  8
0
 62
   255
370
    15
100
AcDbLine
 10
771.7331258938563
 20
917.700931708912
 30
0.0
 11
825.9334661291393
 21
989.627212548209
 31
0.0
  0
LINE
  5
B1
330
1F
100
AcDbEntity
  8
0
 62
   255
370
    15
100
AcDbLine
 10
825.9334661291393
 20
989.627212548209
 30
0.0
 11
827.696437521924
 21
991.9667546056687
 31
0.0
  0
SPLINE
  5
B2
330
1F
100
AcDbEntity
  8
0
 62
   255
370
    15
100
AcDbSpline
210
0.0
220
0.0
230
1.0
 70
     8
 71
     3
 72
    24
 73
    20
 74
     0
 42
0.0000000001
 43
0.0000000001
 40
0.0
 40
0.0
 40
0.0
 40
0.0
 40
0.1249999999999944
 40
0.1249999999999944
 40
0.187499999999992
 40
0.187499999999992
 40
0.2499999999999895
 40
0.2499999999999895
 40
0.374999999999989
 40
0.374999999999989
 40
0.4999999999999886
 40
0.4999999999999886
 40
0.7499999999999918
 40
0.7499999999999918
 40
0.8749999999999959
 40
0.8749999999999959
 40
0.937499999999998
 40
0.937499999999998
 40
1.0
 40
1.0
 40
1.0
 40
1.0
 10
827.696437521924
 20
991.9667546056687
 30
0.0
 10
827.9114347079723
 20
992.2520655080772
 30
0.0
 10
828.0945988069228
 20
992.566228753628
 30
0.0
 10
828.3261839668477
 20
993.0764099525367
 30
0.0
 10
828.3961295607705
 20
993.2535779628295
 30
0.0
 10
828.5180275044163
 20
993.6092793646536
 30
0.0
 10
828.5706649731022
 20
993.7891769228465
 30
0.0
 10
828.7059849194134
 20
994.3344492620254
 30
0.0
 10
828.7656796942305
 20
994.7063294986147
 30
0.0
 10
828.8303656816664
 20
995.4309360404488
 30
0.0
 10
828.8365551786983
 20
995.7882359578804
 30
0.0
 10
828.7875807562635
 20
996.8479756154617
 30
0.0
 10
828.6655829745417
 20
997.5224758084034
 30
0.0
 10
828.3808361485642
 20
998.4596988890388
 30
0.0
 10
828.2682558234742
 20
998.7611384795566
 30
0.0
 10
828.0764250968556
 20
999.1909055632045
 30
0.0
 10
828.0085878451551
 20
999.3306332723429
 30
0.0
 10
827.8651460269548
 20
999.6030563725695
 30
0.0
 10
827.788730916937
 20
999.7370518001734
 30
0.0
 10
827.7100468180431
 20
999.8647576888915
 30
0.0
  0
LINE
  5
B3
330
1F
100
AcDbEntity
  8
0
 62
   255
370
    15
100
AcDbLine
 10
827.7100468180431
 20
999.8647576888915
 30
0.0
 11
831.4973904739376
 21
997.0107895378611
 31
0.0
  0
LINE
  5
B4
330
1F
100
AcDbEntity
  8
0
 62
   255
370
    15
100
AcDbLine
 10
831.4973904739376
 20
997.0107895378611
 30
0.0
 11
829.7066047672981
 21
994.6343366392334
 31
0.0
  0
SPLINE
  5
B5
330
1F
100
AcDbEntity
  8
0
 62
   255
370
    15
100
AcDbSpline
210
0.0
220
0.0
230
1.0
 70
     8
 71
     3
 72
    26
 73
    22
 74
     0
 42
0.0000000001
 43
0.0000000001
 40
0.0
 40
0.0
 40
0.0
 40
0.0
 40
0.1249999999999999
 40
0.1249999999999999
 40
0.1875000000000014
 40
0.1875000000000014
 40
0.2500000000000029
 40
0.2500000000000029
 40
0.3125000000000045
 40
0.3125000000000045
 40
0.375000000000006
 40
0.375000000000006
 40
0.5000000000000054
 40
0.5000000000000054
 40
0.750000000000005
 40
0.750000000000005
 40
0.875000000000004
 40
0.875000000000004
 40
0.9375000000000021
 40
0.9375000000000021
 40
1.0
 40
1.0
 40
1.0
 40
1.0
 10
829.7066047672981
 20
994.6343366392334
 30
0.0
 10
829.4898728526703
 20
994.3467236742466
 30
0.0
 10
829.305558479732
 20
994.0308106603583
 30
0.0
 10
829.0730349275142
 20
993.5187428247631
 30
0.0
 10
829.002923735531
 20
993.3410994022905
 30
0.0
 10
828.8809584787024
 20
992.9847372628622
 30
0.0
 10
828.8284133912675
 20
992.804639346025
 30
0.0
 10
828.7386153424511
 20
992.4409538251916
 30
0.0
 10
828.7012228964425
 20
992.2563670732246
 30
0.0
 10
828.6416007462147
 20
991.8889706243199
 30
0.0
 10
828.6193780707928
 20
991.7068536794495
 30
0.0
 10
828.5727353284306
 20
991.1645599769337
 30
0.0
 10
828.5681432910892
 20
990.8083961396703
 30
0.0
 10
828.6228855683424
 20
989.7529739599119
 30
0.0
 10
828.7498849960472
 20
989.0829734480421
 30
0.0
 10
829.0433781842714
 20
988.1538321494072
 30
0.0
 10
829.1590909176194
 20
987.8553855030223
 30
0.0
 10
829.3558245181314
 20
987.4305505609659
 30
0.0
 10
829.4253390236811
 20
987.29252628178
 30
0.0
 10
829.5722238387034
 20
987.023631222684
 30
0.0
 10
829.6504242441858
 20
986.8914772219674
 30
0.0
 10
829.7308996818152
 20
986.7656411145938
 30
0.0
  0
LINE
  5
B6
330
1F
100
AcDbEntity
  8
0
 62
   255
370
    15
100
AcDbLine
 10
829.7308996818152
 20
986.7656411145938
 30
0.0
 11
832.5535910687779
 21
990.5114791026953
 31
0.0
  0
SPLINE
  5
B7
330
1F
100
AcDbEntity
  8
0
 62
   255
370
    15
100
AcDbSpline
210
0.0
220
0.0
230
1.0
 70
     8
 71
     3
 72
    12
 73
     8
 74
     0
 42
0.0000000001
 43
0.0000000001
 40
-1.0
 40
-1.0
 40
-1.0
 40
-1.0
 40
-0.9425404093235407
 40
-0.7216138551963174
 40
-0.5026249320401311
 40
-0.0712279299213446
 40
0.0
 40
0.0
 40
0.0
 40
0.0
 10
832.5535910687779
 20
990.5114791026953
 30
0.0
 10
832.5899239154343
 20
990.5662181150452
 30
0.0
 10
832.7659530341824
 20
990.8314233216794
 30
0.0
 10
832.8374229927423
 20
991.4151948901098
 30
0.0
 10
832.5190939827035
 20
992.5398234073574
 30
0.0
 10
831.9026058603034
 20
993.5602421576015
 30
0.0
 10
831.2372527920373
 20
994.1483553187969
 30
0.0
 10
831.1429643501031
 20
994.2316979473875
 30
0.0
  0
ARC
  5
B8
330
1F
100
AcDbEntity
  8
0
 62
   255
370
    15
100
AcDbCircle
 10
1158.66072295664
 20
997.0020750924273
 30
0.0
 40
13.19294735146279
100
AcDbArc
 50
0.0378460526797326
 51
12.53205755905102
  0
SPLINE
  5
B9
330
1F
100
AcDbEntity
  8
0
 62
   255
370
    15
100
AcDbSpline
210
0.0
220
0.0
230
1.0
 70
     8
 71
     3
 72
    24
 73
    20
 74
     0
 42
0.0000000001
 43
0.0000000001
 40
-1.0
 40
-1.0
 40
-1.0
 40
-1.0
 40
-0.937499999999998
 40
-0.937499999999998
 40
-0.8749999999999959
 40
-0.8749999999999959
 40
-0.7499999999999918
 40
-0.7499999999999918
 40
-0.4999999999999886
 40
-0.4999999999999886
 40
-0.374999999999989
 40
-0.374999999999989
 40
-0.2499999999999895
 40
-0.2499999999999895
 40
-0.187499999999992
 40
-0.187499999999992
 40
-0.1249999999999944
 40
-0.1249999999999944
 40
0.0
 40
0.0
 40
0.0
 40
0.0
 10
1171.539345094523
 20
999.8647576888915
 30
0.0
 10
1171.428023138348
 20
999.7370518001734
 30
0.0
 10
1171.316568201495
 20
999.6030563725695
 30
0.0
 10
1171.100233261995
 20
999.3306332723429
 30
0.0
 10
1170.994227132248
 20
999.1909055632045
 30
0.0
 10
1170.682720406752
 20
998.7611384795566
 30
0.0
 10
1170.483205207772
 20
998.4596988890388
 30
0.0
 10
1169.919988573308
 20
997.5224758084034
 30
0.0
 10
1169.58678412756
 20
996.8479756154617
 30
0.0
 10
1169.196408495207
 20
995.7882359578804
 30
0.0
 10
1169.08605722034
 20
995.4309360404488
 30
0.0
 10
1168.913483922423
 20
994.7063294986147
 30
0.0
 10
1168.850952222355
 20
994.3344492620254
 30
0.0
 10
1168.808338805742
 20
993.7891769228465
 30
0.0
 10
1168.802493886266
 20
993.6092793646536
 30
0.0
 10
1168.809573425927
 20
993.2535779628295
 30
0.0
 10
1168.822754754813
 20
993.0764099525367
 30
0.0
 10
1168.892667642935
 20
992.566228753628
 30
0.0
 10
1168.97873881866
 20
992.2520655080772
 30
0.0
 10
1169.10900922326
 20
991.9667546056687
 30
0.0
  0
ARC
  5
BA
330
1F
100
AcDbEntity
  8
0
 62
   255
370
    15
100
AcDbCircle
 10
1173.193202306538
 20
994.0312850564559
 30
0.0
 40
4.576343422835026
100
AcDbArc
 50
206.8162718452738
 51
254.2291107747339
  0
LINE
  5
BB
330
1F
100
AcDbEntity
  8
0
 62
   255
370
    15
100
AcDbLine
 10
1171.949391844358
 20
989.627212548209
 30
0.0
 11
1177.516995525602
 21
987.6848388061185
 31
0.0
  0
LINE
  5
BC
330
1F
100
AcDbEntity
  8
0
 62
   255
370
    15
100
AcDbLine
 10
1177.516995525602
 20
987.6848388061185
 30
0.0
 11
1182.92141585042
 21
985.4679041447619
 31
0.0
  0
LINE
  5
BD
330
1F
100
AcDbEntity
  8
0
 62
   255
370
    15
100
AcDbLine
 10
1182.92141585042
 20
985.4679041447619
 30
0.0
 11
1188.141450192751
 21
982.9851060439429
 31
0.0
  0
LINE
  5
BE
330
1F
100
AcDbEntity
  8
0
 62
   255
370
    15
100
AcDbLine
 10
1188.141450192751
 20
982.9851060439429
 30
0.0
 11
1193.156619309766
 21
980.2461850191197
 31
0.0
  0
LINE
  5
BF
330
1F
100
AcDbEntity
  8
0
 62
   255
370
    15
100
AcDbLine
 10
1193.156619309766
 20
980.2461850191197
 30
0.0
 11
1197.947247686046
 21
977.2618864074076
 31
0.0
  0
LINE
  5
C0
330
1F
100
AcDbEntity
  8
0
 62
   255
370
    15
100
AcDbLine
 10
1197.947247686046
 20
977.2618864074076
 30
0.0
 11
1202.494540724586
 21
974.0439182114625
 31
0.0
  0
LINE
  5
C1
330
1F
100
AcDbEntity
  8
0
 62
   255
370
    15
100
AcDbLine
 10
1202.494540724586
 20
974.0439182114625
 30
0.0
 11
1206.780658481767
 21
970.6049051666373
 31
0.0
  0
LINE
  5
C2
330
1F
100
AcDbEntity
  8
0
 62
   255
370
    15
100
AcDbLine
 10
1206.780658481767
 20
970.6049051666373
 30
0.0
 11
1210.788785657038
 21
966.9583392116092
 31
0.0
  0
LINE
  5
C3
330
1F
100
AcDbEntity
  8
0
 62
   255
370
    15
100
AcDbLine
 10
1210.788785657038
 20
966.9583392116092
 30
0.0
 11
1214.50319756272
 21
963.1185265567959
 31
0.0
  0
LINE
  5
C4
330
1F
100
AcDbEntity
  8
0
 62
   255
370
    15
100
AcDbLine
 10
1214.50319756272
 20
963.1185265567959
 30
0.0
 11
1217.909321815107
 21
959.1005315582192
 31
0.0
  0
LINE
  5
C5
330
1F
100
AcDbEntity
  8
0
 62
   255
370
    15
100
AcDbLine
 10
1217.909321815107
 20
959.1005315582192
 30
0.0
 11
1220.993795504858
 21
954.9201176170121
 31
0.0
  0
LINE
  5
C6
330
1F
100
AcDbEntity
  8
0
 62
   255
370
    15
100
AcDbLine
 10
1220.993795504858
 20
954.9201176170121
 30
0.0
 11
1223.744517622373
 21
950.5936853364306
 31
0.0
  0
LINE
  5
C7
330
1F
100
AcDbEntity
  8
0
 62
   255
370
    15
100
AcDbLine
 10
1223.744517622373
 20
950.5936853364306
 30
0.0
 11
1226.150696532481
 21
946.1382081789942
 31
0.0
  0
LINE
  5
C8
330
1F
100
AcDbEntity
  8
0
 62
   255
370
    15
100
AcDbLine
 10
1226.150696532481
 20
946.1382081789942
 30
0.0
 11
1228.202892312191
 21
941.5711658761852
 31
0.0
  0
LINE
  5
C9
330
1F
100
AcDbEntity
  8
0
 62
   255
370
    15
100
AcDbLine
 10
1228.202892312191
 20
941.5711658761852
 30
0.0
 11
1229.893053785411
 21
936.9104758519512
 31
0.0
  0
LINE
  5
CA
330
1F
100
AcDbEntity
  8
0
 62
   255
370
    15
100
AcDbLine
 10
1229.893053785411
 20
936.9104758519512
 30
0.0
 11
1231.214550109321
 21
932.1744229290542
 31
0.0
  0
LINE
  5
CB
330
1F
100
AcDbEntity
  8
0
 62
   255
370
    15
100
AcDbLine
 10
1231.214550109321
 20
932.1744229290542
 30
0.0
 11
1232.162196788507
 21
927.3815875940398
 31
0.0
  0
LINE
  5
CC
330
1F
100
AcDbEntity
  8
0
 62
   255
370
    15
100
AcDbLine
 10
1232.162196788507
 20
927.3815875940398
 30
0.0
 11
1232.732276014772
 21
922.5507731022568
 31
0.0
  0
LINE
  5
CD
330
1F
100
AcDbEntity
  8
0
 62
   255
370
    15
100
AcDbLine
 10
1232.732276014772
 20
922.5507731022568
 30
0.0
 11
1232.922551252847
 21
917.700931708912
 31
0.0
  0
LINE
  5
CE
330
1F
100
AcDbEntity
  8
0
 62
   255
370
    15
100
AcDbLine
 10
1232.922551252847
 20
917.700931708912
 30
0.0
 11
1227.922551252848
 21
917.700931708912
 31
0.0
  0
LINE
  5
CF
330
1F
100
AcDbEntity
  8
0
 62
   255
370
    15
100
AcDbLine
 10
1227.922551252848
 20
917.700931708912
 30
0.0
 11
1227.736117049036
 21
922.3761316920107
 31
0.0
  0
LINE
  5
D0
330
1F
100
AcDbEntity
  8
0
 62
   255
370
    15
100
AcDbLine
 10
1227.736117049036
 20
922.3761316920107
 30
0.0
 11
1227.177570040044
 21
927.0323834754028
 31
0.0
  0
LINE
  5
D1
330
1F
100
AcDbEntity
  8
0
 62
   255
370
    15
100
AcDbLine
 10
1227.177570040044
 20
927.0323834754028
 30
0.0
 11
1226.249173970805
 21
931.650815654871
 31
0.0
  0
LINE
  5
D2
330
1F
100
AcDbEntity
  8
0
 62
   255
370
    15
100
AcDbLine
 10
1226.249173970805
 20
931.650815654871
 30
0.0
 11
1224.954691553971
 21
936.2127101059323
 31
0.0
  0
LINE
  5
D3
330
1F
100
AcDbEntity
  8
0
 62
   255
370
    15
100
AcDbLine
 10
1224.954691553971
 20
936.2127101059323
 30
0.0
 11
1223.299369219948
 21
940.6995778468505
 31
0.0
  0
LINE
  5
D4
330
1F
100
AcDbEntity
  8
0
 62
   255
370
    15
100
AcDbLine
 10
1223.299369219948
 20
940.6995778468505
 30
0.0
 11
1221.28991585355
 21
945.0932339729543
 31
0.0
  0
LINE
  5
D5
330
1F
100
AcDbEntity
  8
0
 62
   255
370
    15
100
AcDbLine
 10
1221.28991585355
 20
945.0932339729543
 30
0.0
 11
1218.934475603439
 21
949.3758713585546
 31
0.0
  0
LINE
  5
D6
330
1F
100
AcDbEntity
  8
0
 62
   255
370
    15
100
AcDbLine
 10
1218.934475603439
 20
949.3758713585546
 30
0.0
 11
1216.242594874564
 21
953.5301328277559
 31
0.0
  0
LINE
  5
D7
330
1F
100
AcDbEntity
  8
0
 62
   255
370
    15
100
AcDbLine
 10
1216.242594874564
 20
953.5301328277559
 30
0.0
 11
1213.225183637369
 21
957.5391815016575
 31
0.0
  0
LINE
  5
D8
330
1F
100
AcDbEntity
  8
0
 62
   255
370
    15
100
AcDbLine
 10
1213.225183637369
 20
957.5391815016575
 30
0.0
 11
1209.894471210584
 21
961.3867690368342
 31
0.0
  0
LINE
  5
D9
330
1F
100
AcDbEntity
  8
0
 62
   255
370
    15
100
AcDbLine
 10
1209.894471210584
 20
961.3867690368342
 30
0.0
 11
1206.263956696805
 21
965.0573014785311
 31
0.0
  0
LINE
  5
DA
330
1F
100
AcDbEntity
  8
0
 62
   255
370
    15
100
AcDbLine
 10
1206.263956696805
 20
965.0573014785311
 30
0.0
 11
1202.348354271746
 21
968.5359024616762
 31
0.0
  0
LINE
  5
DB
330
1F
100
AcDbEntity
  8
0
 62
   255
370
    15
100
AcDbLine
 10
1202.348354271746
 20
968.5359024616762
 30
0.0
 11
1198.163533548896
 21
971.808473503559
 31
0.0
  0
LINE
  5
DC
330
1F
100
AcDbEntity
  8
0
 62
   255
370
    15
100
AcDbLine
 10
1198.163533548896
 20
971.808473503559
 30
0.0
 11
1193.72645526129
 21
974.8617511438182
 31
0.0
  0
LINE
  5
DD
330
1F
100
AcDbEntity
  8
0
 62
   255
370
    15
100
AcDbLine
 10
1193.72645526129
 20
974.8617511438182
 30
0.0
 11
1189.055102521053
 21
977.6833607001525
 31
0.0
  0
LINE
  5
DE
330
1F
100
AcDbEntity
  8
0
 62
   255
370
    15
100
AcDbLine
 10
1189.055102521053
 20
977.6833607001525
 30
0.0
 11
1184.168407935334
 21
980.2618664218858
 31
0.0
  0
LINE
  5
DF
330
1F
100
AcDbEntity
  8
0
 62
   255
370
    15
100
AcDbLine
 10
1184.168407935334
 20
980.2618664218858
 30
0.0
 11
1179.086176874012
 21
982.586817838121
 31
0.0
  0
LINE
  5
E0
330
1F
100
AcDbEntity
  8
0
 62
   255
370
    15
100
AcDbLine
 10
1179.086176874012
 20
982.586817838121
 30
0.0
 11
1173.829007200161
 21
984.6487921126368
 31
0.0
  0
LINE
  5
E1
330
1F
100
AcDbEntity
  8
0
 62
   255
370
    15
100
AcDbLine
 10
1173.829007200161
 20
984.6487921126368
 30
0.0
 11
1168.418205788618
 21
986.4394322338647
 31
0.0
  0
LINE
  5
E2
330
1F
100
AcDbEntity
  8
0
 62
   255
370
    15
100
AcDbLine
 10
1168.418205788618
 20
986.4394322338647
 30
0.0
 11
1162.875702170973
 21
987.9514808851677
 31
0.0
  0
LINE
  5
E3
330
1F
100
AcDbEntity
  8
0
 62
   255
370
    15
100
AcDbLine
 10
1162.875702170973
 20
987.9514808851677
 30
0.0
 11
1157.223959656988
 21
989.1788098581449
 31
0.0
  0
ARC
  5
E4
330
1F
100
AcDbEntity
  8
0
 62
   255
370
    15
100
AcDbCircle
 10
1135.964232748725
 20
876.990489029939
 30
0.0
 40
114.1849172109276
100
AcDbArc
 50
79.2696654040972
 51
90.02091496765902
  0
ARC
  5
E5
330
1F
100
AcDbEntity
  8
0
 62
   255
370
    15
100
AcDbCircle
 10
1135.880869757002
 20
876.9904890295987
 30
0.0
 40
114.1849172112677
100
AcDbArc
 50
89.97908503235736
 51
100.7303345958868
  0
LINE
  5
E6
330
1F
100
AcDbEntity
  8
0
 62
   255
370
    15
100
AcDbLine
 10
1114.621142848707
 20
989.1788098581447
 30
0.0
 11
1108.969400334722
 21
987.9514808851677
 31
0.0
  0
LINE
  5
E7
330
1F
100
AcDbEntity
  8
0
 62
   255
370
    15
100
AcDbLine
 10
1108.969400334722
 20
987.9514808851677
 30
0.0
 11
1103.426896717076
 21
986.4394322338647
 31
0.0
  0
LINE
  5
E8
330
1F
100
AcDbEntity
  8
0
 62
   255
370
    15
100
AcDbLine
 10
1103.426896717076
 20
986.4394322338647
 30
0.0
 11
1098.016095305533
 21
984.6487921126369
 31
0.0
  0
LINE
  5
E9
330
1F
100
AcDbEntity
  8
0
 62
   255
370
    15
100
AcDbLine
 10
1098.016095305533
 20
984.6487921126369
 30
0.0
 11
1092.758925631683
 21
982.5868178381211
 31
0.0
  0
LINE
  5
EA
330
1F
100
AcDbEntity
  8
0
 62
   255
370
    15
100
AcDbLine
 10
1092.758925631683
 20
982.5868178381211
 30
0.0
 11
1087.67669457036
 21
980.2618664218859
 31
0.0
  0
LINE
  5
EB
330
1F
100
AcDbEntity
  8
0
 62
   255
370
    15
100
AcDbLine
 10
1087.67669457036
 20
980.2618664218859
 30
0.0
 11
1082.789999984642
 21
977.6833607001525
 31
0.0
  0
LINE
  5
EC
330
1F
100
AcDbEntity
  8
0
 62
   255
370
    15
100
AcDbLine
 10
1082.789999984642
 20
977.6833607001525
 30
0.0
 11
1078.118647244405
 21
974.8617511438182
 31
0.0
  0
LINE
  5
ED
330
1F
100
AcDbEntity
  8
0
 62
   255
370
    15
100
AcDbLine
 10
1078.118647244405
 20
974.8617511438182
 30
0.0
 11
1073.681568956799
 21
971.808473503559
 31
0.0
  0
LINE
  5
EE
330
1F
100
AcDbEntity
  8
0
 62
   255
370
    15
100
AcDbLine
 10
1073.681568956799
 20
971.808473503559
 30
0.0
 11
1069.496748233949
 21
968.5359024616762
 31
0.0
  0
LINE
  5
EF
330
1F
100
AcDbEntity
  8
0
 62
   255
370
    15
100
AcDbLine
 10
1069.496748233949
 20
968.5359024616762
 30
0.0
 11
1065.581145808889
 21
965.0573014785311
 31
0.0
  0
LINE
  5
F0
330
1F
100
AcDbEntity
  8
0
 62
   255
370
    15
100
AcDbLine
 10
1065.581145808889
 20
965.0573014785311
 30
0.0
 11
1061.950631295111
 21
961.3867690368342
 31
0.0
  0
LINE
  5
F1
330
1F
100
AcDbEntity
  8
0
 62
   255
370
    15
100
AcDbLine
 10
1061.950631295111
 20
961.3867690368342
 30
0.0
 11
1058.619918868326
 21
957.5391815016575
 31
0.0
  0
LINE
  5
F2
330
1F
100
AcDbEntity
  8
0
 62
   255
370
    15
100
AcDbLine
 10
1058.619918868326
 20
957.5391815016575
 30
0.0
 11
1055.602507631131
 21
953.5301328277559
 31
0.0
  0
LINE
  5
F3
330
1F
100
AcDbEntity
  8
0
 62
   255
370
    15
100
AcDbLine
 10
1055.602507631131
 20
953.5301328277559
 30
0.0
 11
1052.910626902256
 21
949.3758713585546
 31
0.0
  0
LINE
  5
F4
330
1F
100
AcDbEntity
  8
0
 62
   255
370
    15
100
AcDbLine
 10
1052.910626902256
 20
949.3758713585546
 30
0.0
 11
1050.555186652145
 21
945.0932339729542
 31
0.0
  0
LINE
  5
F5
330
1F
100
AcDbEntity
  8
0
 62
   255
370
    15
100
AcDbLine
 10
1050.555186652145
 20
945.0932339729542
 30
0.0
 11
1048.545733285747
 21
940.6995778468505
 31
0.0
  0
LINE
  5
F6
330
1F
100
AcDbEntity
  8
0
 62
   255
370
    15
100
AcDbLine
 10
1048.545733285747
 20
940.6995778468505
 30
0.0
 11
1046.890410951724
 21
936.2127101059323
 31
0.0
  0
LINE
  5
F7
330
1F
100
AcDbEntity
  8
0
 62
   255
370
    15
100
AcDbLine
 10
1046.890410951724
 20
936.2127101059323
 30
0.0
 11
1045.595928534889
 21
931.650815654871
 31
0.0
  0
LINE
  5
F8
330
1F
100
AcDbEntity
  8
0
 62
   255
370
    15
100
AcDbLine
 10
1045.595928534889
 20
931.650815654871
 30
0.0
 11
1044.667532465651
 21
927.0323834754026
 31
0.0
  0
LINE
  5
F9
330
1F
100
AcDbEntity
  8
0
 62
   255
370
    15
100
AcDbLine
 10
1044.667532465651
 20
927.0323834754026
 30
0.0
 11
1044.108985456659
 21
922.3761316920107
 31
0.0
  0
LINE
  5
FA
330
1F
100
AcDbEntity
  8
0
 62
   255
370
    15
100
AcDbLine
 10
1044.108985456659
 20
922.3761316920107
 30
0.0
 11
1043.922551252848
 21
917.700931708912
 31
0.0
  0
LINE
  5
FB
330
1F
100
AcDbEntity
  8
0
 62
   255
370
    15
100
AcDbLine
 10
1043.922551252848
 20
917.700931708912
 30
0.0
 11
1227.922551252848
 21
917.700931708912
 31
0.0
  0
SPLINE
  5
FC
330
1F
100
AcDbEntity
  8
0
 62
   255
370
    15
100
AcDbSpline
210
0.0
220
0.0
230
1.0
 70
     8
 71
     3
 72
    12
 73
     8
 74
     0
 42
0.0000000001
 43
0.0000000001
 40
0.0
 40
0.0
 40
0.0
 40
0.0
 40
0.096689338945198
 40
0.516097380009805
 40
0.7290799485329412
 40
0.9439450679618403
 40
1.0
 40
1.0
 40
1.0
 40
1.0
 10
826.1511993900681
 20
992.0482799884029
 30
0.0
 10
826.021118528118
 20
992.1637889428281
 30
0.0
 10
825.3267876662643
 20
992.7803395304817
 30
0.0
 10
824.7098045872245
 20
993.8461377126702
 30
0.0
 10
824.4264578866241
 20
994.9895427188868
 30
0.0
 10
824.516338529288
 20
995.5890610196774
 30
0.0
 10
824.7014481814036
 20
995.8657831884381
 30
0.0
 10
824.7397484434653
 20
995.9230386122405
 30
0.0
  0
LINE
  5
FD
330
1F
100
AcDbEntity
  8
0
 62
   255
370
    15
100
AcDbLine
 10
824.7397484434653
 20
995.9230386122405
 30
0.0
 11
827.7100468180431
 21
999.8647576888915
 31
0.0
  0
LINE
  5
FE
330
1F
100
AcDbEntity
  8
0
 62
   255
370
    15
100
AcDbLine
 10
815.8739138305867
 20
780.014737745545
 30
0.0
 11
814.1906115677402
 21
783.1095748931524
 31
0.0
  0
LINE
  5
FF
330
1F
100
AcDbEntity
  8
0
 62
   255
370
    15
100
AcDbLine
 10
814.1906115677402
 20
783.1095748931524
 30
0.0
 11
811.5991293594558
 21
787.395692650333
 31
0.0
  0
LINE
  5
100
330
1F
100
AcDbEntity
  8
0
 62
   255
370
    15
100
AcDbLine
 10
811.5991293594558
 20
787.395692650333
 30
0.0
 11
808.8512448150774
 21
791.4038198256045
 31
0.0
  0
LINE
  5
101
330
1F
100
AcDbEntity
  8
0
 62
   255
370
    15
100
AcDbLine
 10
808.8512448150774
 20
791.4038198256045
 30
0.0
 11
805.9577384374069
 21
795.118231731286
 31
0.0
  0
LINE
  5
102
330
1F
100
AcDbEntity
  8
0
 62
   255
370
    15
100
AcDbLine
 10
805.9577384374069
 20
795.118231731286
 30
0.0
 11
802.9299620329366
 21
798.5243559836729
 31
0.0
  0
LINE
  5
103
330
1F
100
AcDbEntity
  8
0
 62
   255
370
    15
100
AcDbLine
 10
802.9299620329366
 20
798.5243559836729
 30
0.0
 11
799.7797941764338
 21
801.6088296734243
 31
0.0
  0
LINE
  5
104
330
1F
100
AcDbEntity
  8
0
 62
   255
370
    15
100
AcDbLine
 10
799.7797941764338
 20
801.6088296734243
 30
0.0
 11
796.5195936089061
 21
804.3595517909393
 31
0.0
  0
LINE
  5
105
330
1F
100
AcDbEntity
  8
0
 62
   255
370
    15
100
AcDbLine
 10
796.5195936089061
 20
804.3595517909393
 30
0.0
 11
793.1621507517796
 21
806.7657307010467
 31
0.0
  0
LINE
  5
106
330
1F
100
AcDbEntity
  8
0
 62
   255
370
    15
100
AcDbLine
 10
793.1621507517796
 20
806.7657307010467
 30
0.0
 11
789.7206375275069
 21
808.8179264807573
 31
0.0
  0
LINE
  5
107
330
1F
100
AcDbEntity
  8
0
 62
   255
370
    15
100
AcDbLine
 10
789.7206375275069
 20
808.8179264807573
 30
0.0
 11
786.2085556834718
 21
810.508087953977
 31
0.0
  0
LINE
  5
108
330
1F
100
AcDbEntity
  8
0
 62
   255
370
    15
100
AcDbLine
 10
786.2085556834718
 20
810.508087953977
 30
0.0
 11
782.6396838219217
 21
811.8295842778872
 31
0.0
  0
LINE
  5
109
330
1F
100
AcDbEntity
  8
0
 62
   255
370
    15
100
AcDbLine
 10
782.6396838219217
 20
811.8295842778872
 30
0.0
 11
779.0280233437458
 21
812.7772309570727
 31
0.0
  0
LINE
  5
10A
330
1F
100
AcDbEntity
  8
0
 62
   255
370
    15
100
AcDbLine
 10
779.0280233437458
 20
812.7772309570727
 30
0.0
 11
775.3877435181674
 21
813.3473101833374
 31
0.0
  0
LINE
  5
10B
330
1F
100
AcDbEntity
  8
0
 62
   255
370
    15
100
AcDbLine
 10
775.3877435181674
 20
813.3473101833374
 30
0.0
 11
771.7331258938563
 21
813.5375854214135
 31
0.0
  0
LINE
  5
10C
330
1F
100
AcDbEntity
  8
0
 62
   255
370
    15
100
AcDbLine
 10
771.7331258938563
 20
813.5375854214135
 30
0.0
 11
771.7331258938563
 21
808.5375854214135
 31
0.0
  0
LINE
  5
10D
330
1F
100
AcDbEntity
  8
0
 62
   255
370
    15
100
AcDbLine
 10
771.7331258938563
 20
808.5375854214135
 30
0.0
 11
775.2561417761608
 21
808.351151217602
 31
0.0
  0
LINE
  5
10E
330
1F
100
AcDbEntity
  8
0
 62
   255
370
    15
100
AcDbLine
 10
775.2561417761608
 20
808.351151217602
 30
0.0
 11
778.7648791658343
 21
807.7926042086104
 31
0.0
  0
LINE
  5
10F
330
1F
100
AcDbEntity
  8
0
 62
   255
370
    15
100
AcDbLine
 10
778.7648791658343
 20
807.7926042086104
 30
0.0
 11
782.2451174397976
 21
806.8642081393713
 31
0.0
  0
LINE
  5
110
330
1F
100
AcDbEntity
  8
0
 62
   255
370
    15
100
AcDbLine
 10
782.2451174397976
 20
806.8642081393713
 30
0.0
 11
785.6827514795363
 21
805.569725722537
 31
0.0
  0
LINE
  5
111
330
1F
100
AcDbEntity
  8
0
 62
   255
370
    15
100
AcDbLine
 10
785.6827514795363
 20
805.569725722537
 30
0.0
 11
789.0638488379808
 21
803.9144033885142
 31
0.0
  0
LINE
  5
112
330
1F
100
AcDbEntity
  8
0
 62
   255
370
    15
100
AcDbLine
 10
789.0638488379808
 20
803.9144033885142
 30
0.0
 11
792.3747062065652
 21
801.9049500221162
 31
0.0
  0
LINE
  5
113
330
1F
100
AcDbEntity
  8
0
 62
   255
370
    15
100
AcDbLine
 10
792.3747062065652
 20
801.9049500221162
 30
0.0
 11
795.601904953606
 21
799.549509772005
 31
0.0
  0
LINE
  5
114
330
1F
100
AcDbEntity
  8
0
 62
   255
370
    15
100
AcDbLine
 10
795.601904953606
 20
799.549509772005
 30
0.0
 11
798.7323655089086
 21
796.8576290431296
 31
0.0
  0
LINE
  5
115
330
1F
100
AcDbEntity
  8
0
 62
   255
370
    15
100
AcDbLine
 10
798.7323655089086
 20
796.8576290431296
 30
0.0
 11
801.7534003741864
 21
793.8402178059346
 31
0.0
  0
LINE
  5
116
330
1F
100
AcDbEntity
  8
0
 62
   255
370
    15
100
AcDbLine
 10
801.7534003741864
 20
793.8402178059346
 30
0.0
 11
804.6527655444438
 21
790.5095053791498
 31
0.0
  0
LINE
  5
117
330
1F
100
AcDbEntity
  8
0
 62
   255
370
    15
100
AcDbLine
 10
804.6527655444438
 20
790.5095053791498
 30
0.0
 11
807.4187101319183
 21
786.8789908653712
 31
0.0
  0
LINE
  5
118
330
1F
100
AcDbEntity
  8
0
 62
   255
370
    15
100
AcDbLine
 10
807.4187101319183
 20
786.8789908653712
 30
0.0
 11
810.0400239914587
 21
782.9633884403117
 31
0.0
  0
LINE
  5
119
330
1F
100
AcDbEntity
  8
0
 62
   255
370
    15
100
AcDbLine
 10
810.0400239914587
 20
782.9633884403117
 30
0.0
 11
812.5060831543185
 21
778.778567717462
 31
0.0
  0
LINE
  5
11A
330
1F
100
AcDbEntity
  8
0
 62
   255
370
    15
100
AcDbLine
 10
812.5060831543185
 20
778.778567717462
 30
0.0
 11
813.3367831836345
 21
777.2417916859391
 31
0.0
  0
LINE
  5
11B
330
1F
100
AcDbEntity
  8
0
 62
   255
370
    15
100
AcDbLine
 10
1043.922551252848
 20
917.700931708912
 30
0.0
 11
1038.922551252848
 21
917.700931708912
 31
0.0
  0
LINE
  5
11C
330
1F
100
AcDbEntity
  8
0
 62
   255
370
    15
100
AcDbLine
 10
1038.922551252848
 20
917.700931708912
 30
0.0
 11
1039.112826490924
 21
922.5507731022568
 31
0.0
  0
LINE
  5
11D
330
1F
100
AcDbEntity
  8
0
 62
   255
370
    15
100
AcDbLine
 10
1039.112826490924
 20
922.5507731022568
 30
0.0
 11
1039.682905717188
 21
927.3815875940398
 31
0.0
  0
LINE
  5
11E
330
1F
100
AcDbEntity
  8
0
 62
   255
370
    15
100
AcDbLine
 10
1039.682905717188
 20
927.3815875940398
 30
0.0
 11
1040.630552396374
 21
932.1744229290542
 31
0.0
  0
LINE
  5
11F
330
1F
100
AcDbEntity
  8
0
 62
   255
370
    15
100
AcDbLine
 10
1040.630552396374
 20
932.1744229290542
 30
0.0
 11
1041.952048720284
 21
936.9104758519511
 31
0.0
  0
LINE
  5
120
330
1F
100
AcDbEntity
  8
0
 62
   255
370
    15
100
AcDbLine
 10
1041.952048720284
 20
936.9104758519511
 30
0.0
 11
1043.642210193504
 21
941.5711658761852
 31
0.0
  0
LINE
  5
121
330
1F
100
AcDbEntity
  8
0
 62
   255
370
    15
100
AcDbLine
 10
1043.642210193504
 20
941.5711658761852
 30
0.0
 11
1045.694405973214
 21
946.1382081789942
 31
0.0
  0
LINE
  5
122
330
1F
100
AcDbEntity
  8
0
 62
   255
370
    15
100
AcDbLine
 10
1045.694405973214
 20
946.1382081789942
 30
0.0
 11
1048.100584883322
 21
950.5936853364306
 31
0.0
  0
LINE
  5
123
330
1F
100
AcDbEntity
  8
0
 62
   255
370
    15
100
AcDbLine
 10
1048.100584883322
 20
950.5936853364306
 30
0.0
 11
1050.851307000836
 21
954.9201176170121
 31
0.0
  0
LINE
  5
124
330
1F
100
AcDbEntity
  8
0
 62
   255
370
    15
100
AcDbLine
 10
1050.851307000836
 20
954.9201176170121
 30
0.0
 11
1053.935780690588
 21
959.1005315582192
 31
0.0
  0
LINE
  5
125
330
1F
100
AcDbEntity
  8
0
 62
   255
370
    15
100
AcDbLine
 10
1053.935780690588
 20
959.1005315582192
 30
0.0
 11
1057.341904942975
 21
963.1185265567958
 31
0.0
  0
LINE
  5
126
330
1F
100
AcDbEntity
  8
0
 62
   255
370
    15
100
AcDbLine
 10
1057.341904942975
 20
963.1185265567958
 30
0.0
 11
1061.056316848656
 21
966.9583392116092
 31
0.0
  0
LINE
  5
127
330
1F
100
AcDbEntity
  8
0
 62
   255
370
    15
100
AcDbLine
 10
1061.056316848656
 20
966.9583392116092
 30
0.0
 11
1065.064444023928
 21
970.6049051666373
 31
0.0
  0
LINE
  5
128
330
1F
100
AcDbEntity
  8
0
 62
   255
370
    15
100
AcDbLine
 10
1065.064444023928
 20
970.6049051666373
 30
0.0
 11
1069.350561781108
 21
974.0439182114625
 31
0.0
  0
LINE
  5
129
330
1F
100
AcDbEntity
  8
0
 62
   255
370
    15
100
AcDbLine
 10
1069.350561781108
 20
974.0439182114625
 30
0.0
 11
1073.897854819649
 21
977.2618864074076
 31
0.0
  0
LINE
  5
12A
330
1F
100
AcDbEntity
  8
0
 62
   255
370
    15
100
AcDbLine
 10
1073.897854819649
 20
977.2618864074076
 30
0.0
 11
1078.688483195929
 21
980.2461850191198
 31
0.0
  0
LINE
  5
12B
330
1F
100
AcDbEntity
  8
0
 62
   255
370
    15
100
AcDbLine
 10
1078.688483195929
 20
980.2461850191198
 30
0.0
 11
1083.703652312944
 21
982.9851060439429
 31
0.0
  0
LINE
  5
12C
330
1F
100
AcDbEntity
  8
0
 62
   255
370
    15
100
AcDbLine
 10
1083.703652312944
 20
982.9851060439429
 30
0.0
 11
1088.923686655275
 21
985.4679041447619
 31
0.0
  0
LINE
  5
12D
330
1F
100
AcDbEntity
  8
0
 62
   255
370
    15
100
AcDbLine
 10
1088.923686655275
 20
985.4679041447619
 30
0.0
 11
1094.328106980093
 21
987.6848388061186
 31
0.0
  0
LINE
  5
12E
330
1F
100
AcDbEntity
  8
0
 62
   255
370
    15
100
AcDbLine
 10
1094.328106980093
 20
987.6848388061186
 30
0.0
 11
1099.895710661336
 21
989.627212548209
 31
0.0
  0
ARC
  5
12F
330
1F
100
AcDbEntity
  8
0
 62
   255
370
    15
100
AcDbCircle
 10
1098.651900199157
 20
994.0312850564559
 30
0.0
 40
4.576343422834716
100
AcDbArc
 50
285.7708892252641
 51
333.1837281547236
  0
SPLINE
  5
130
330
1F
100
AcDbEntity
  8
0
 62
   255
370
    15
100
AcDbSpline
210
0.0
220
0.0
230
1.0
 70
     8
 71
     3
 72
    24
 73
    20
 74
     0
 42
0.0000000001
 43
0.0000000001
 40
0.0
 40
0.0
 40
0.0
 40
0.0
 40
0.1249999999999966
 40
0.1249999999999966
 40
0.1874999999999951
 40
0.1874999999999951
 40
0.2499999999999935
 40
0.2499999999999935
 40
0.3749999999999948
 40
0.3749999999999948
 40
0.4999999999999962
 40
0.4999999999999962
 40
0.749999999999999
 40
0.749999999999999
 40
0.8749999999999988
 40
0.8749999999999988
 40
0.9374999999999993
 40
0.9374999999999993
 40
1.0
 40
1.0
 40
1.0
 40
1.0
 10
1102.736093282435
 20
991.9667546056687
 30
0.0
 10
1102.866363687034
 20
992.2520655080772
 30
0.0
 10
1102.95243486276
 20
992.566228753628
 30
0.0
 10
1103.022347750882
 20
993.0764099525367
 30
0.0
 10
1103.035529079768
 20
993.2535779628296
 30
0.0
 10
1103.042608619428
 20
993.6092793646537
 30
0.0
 10
1103.036763699952
 20
993.7891769228465
 30
0.0
 10
1102.99415028334
 20
994.3344492620253
 30
0.0
 10
1102.931618583271
 20
994.7063294986147
 30
0.0
 10
1102.759045285355
 20
995.4309360404488
 30
0.0
 10
1102.648694010487
 20
995.7882359578804
 30
0.0
 10
1102.258318378134
 20
996.8479756154618
 30
0.0
 10
1101.925113932387
 20
997.5224758084034
 30
0.0
 10
1101.361897297923
 20
998.4596988890388
 30
0.0
 10
1101.162382098943
 20
998.7611384795567
 30
0.0
 10
1100.850875373447
 20
999.1909055632044
 30
0.0
 10
1100.7448692437
 20
999.3306332723429
 30
0.0
 10
1100.5285343042
 20
999.6030563725695
 30
0.0
 10
1100.417079367318
 20
999.7370518001655
 30
0.0
 10
1100.305757411172
 20
999.8647576888915
 30
0.0
  0
ARC
  5
131
330
1F
100
AcDbEntity
  8
0
 62
   255
370
    15
100
AcDbCircle
 10
1113.184379549029
 20
997.002075092429
 30
0.0
 40
13.19294735143686
100
AcDbArc
 50
167.467942440932
 51
179.9621539473271
  0
LINE
  5
132
330
1F
100
AcDbEntity
  8
0
 62
   255
370
    15
100
AcDbLine
 10
1099.991435075704
 20
997.0107895378612
 30
0.0
 11
1094.789737615688
 21
998.9279777426626
 31
0.0
  0
LINE
  5
133
330
1F
100
AcDbEntity
  8
0
 62
   255
370
    15
100
AcDbLine
 10
1094.789737615688
 20
998.9279777426626
 30
0.0
 11
1089.747538858252
 21
1001.100012502093
 31
0.0
  0
LINE
  5
134
330
1F
100
AcDbEntity
  8
0
 62
   255
370
    15
100
AcDbLine
 10
1089.747538858252
 20
1001.100012502093
 30
0.0
 11
1084.884390691265
 21
1003.518471423043
 31
0.0
  0
LINE
  5
135
330
1F
100
AcDbEntity
  8
0
 62
   255
370
    15
100
AcDbLine
 10
1084.884390691265
 20
1003.518471423043
 30
0.0
 11
1080.219150706866
 21
1006.17397656547
 31
0.0
  0
LINE
  5
136
330
1F
100
AcDbEntity
  8
0
 62
   255
370
    15
100
AcDbLine
 10
1080.219150706866
 20
1006.17397656547
 30
0.0
 11
1075.769909078299
 21
1009.056230806773
 31
0.0
  0
LINE
  5
137
330
1F
100
AcDbEntity
  8
0
 62
   255
370
    15
100
AcDbLine
 10
1075.769909078299
 20
1009.056230806773
 30
0.0
 11
1071.553918412534
 21
1012.154057770446
 31
0.0
  0
LINE
  5
138
330
1F
100
AcDbEntity
  8
0
 62
   255
370
    15
100
AcDbLine
 10
1071.553918412534
 20
1012.154057770446
 30
0.0
 11
1067.587526850673
 21
1015.455445164164
 31
0.0
  0
LINE
  5
139
330
1F
100
AcDbEntity
  8
0
 62
   255
370
    15
100
AcDbLine
 10
1067.587526850673
 20
1015.455445164164
 30
0.0
 11
1063.886114675564
 21
1018.947591359264
 31
0.0
  0
LINE
  5
13A
330
1F
100
AcDbEntity
  8
0
 62
   255
370
    15
100
AcDbLine
 10
1063.886114675564
 20
1018.947591359264
 30
0.0
 11
1060.464034672426
 21
1022.616955030999
 31
0.0
  0
LINE
  5
13B
330
1F
100
AcDbEntity
  8
0
 62
   255
370
    15
100
AcDbLine
 10
1060.464034672426
 20
1022.616955030999
 30
0.0
 11
1057.33455647376
 21
1026.449307667062
 31
0.0
  0
LINE
  5
13C
330
1F
100
AcDbEntity
  8
0
 62
   255
370
    15
100
AcDbLine
 10
1057.33455647376
 20
1026.449307667062
 30
0.0
 11
1054.509815104337
 21
1030.429788740804
 31
0.0
  0
LINE
  5
13D
330
1F
100
AcDbEntity
  8
0
 62
   255
370
    15
100
AcDbLine
 10
1054.509815104337
 20
1030.429788740804
 30
0.0
 11
1052.000763925809
 21
1034.542963335164
 31
0.0
  0
LINE
  5
13E
330
1F
100
AcDbEntity
  8
0
 62
   255
370
    15
100
AcDbLine
 10
1052.000763925809
 20
1034.542963335164
 30
0.0
 11
1049.817132163394
 21
1038.7728819939
 31
0.0
  0
LINE
  5
13F
330
1F
100
AcDbEntity
  8
0
 62
   255
370
    15
100
AcDbLine
 10
1049.817132163394
 20
1038.7728819939
 30
0.0
 11
1047.967387179332
 21
1043.103142568011
 31
0.0
  0
LINE
  5
140
330
1F
100
AcDbEntity
  8
0
 62
   255
370
    15
100
AcDbLine
 10
1047.967387179332
 20
1043.103142568011
 30
0.0
 11
1046.458701639408
 21
1047.516953817551
 31
0.0
  0
LINE
  5
141
330
1F
100
AcDbEntity
  8
0
 62
   255
370
    15
100
AcDbLine
 10
1046.458701639408
 20
1047.516953817551
 30
0.0
 11
1045.29692569986
 21
1051.997200522201
 31
0.0
  0
LINE
  5
142
330
1F
100
AcDbEntity
  8
0
 62
   255
370
    15
100
AcDbLine
 10
1045.29692569986
 20
1051.997200522201
 30
0.0
 11
1044.486564322509
 21
1056.526509848123
 31
0.0
  0
LINE
  5
143
330
1F
100
AcDbEntity
  8
0
 62
   255
370
    15
100
AcDbLine
 10
1044.486564322509
 20
1056.526509848123
 30
0.0
 11
1044.03075980609
 21
1061.087318713749
 31
0.0
  0
LINE
  5
144
330
1F
100
AcDbEntity
  8
0
 62
   255
370
    15
100
AcDbLine
 10
1044.03075980609
 20
1061.087318713749
 30
0.0
 11
1043.922551252847
 21
1064.649865557615
 31
0.0
  0
ARC
  5
145
330
1F
100
AcDbEntity
  8
0
 62
   255
370
    15
100
AcDbCircle
 10
1135.922551252847
 20
1064.649865557615
 30
0.0
 40
92.0
100
AcDbArc
 50
359.9999999999991
 51
180.0
  0
LINE
  5
146
330
1F
100
AcDbEntity
  8
0
 62
   255
370
    15
100
AcDbLine
 10
1227.922551252847
 20
1064.649865557614
 30
0.0
 11
1227.814342699604
 21
1061.087318713747
 31
0.0
  0
LINE
  5
147
330
1F
100
AcDbEntity
  8
0
 62
   255
370
    15
100
AcDbLine
 10
1227.814342699604
 20
1061.087318713747
 30
0.0
 11
1227.358538183185
 21
1056.526509848122
 31
0.0
  0
LINE
  5
148
330
1F
100
AcDbEntity
  8
0
 62
   255
370
    15
100
AcDbLine
 10
1227.358538183185
 20
1056.526509848122
 30
0.0
 11
1226.548176805834
 21
1051.9972005222
 31
0.0
  0
LINE
  5
149
330
1F
100
AcDbEntity
  8
0
 62
   255
370
    15
100
AcDbLine
 10
1226.548176805834
 20
1051.9972005222
 30
0.0
 11
1225.386400866285
 21
1047.516953817549
 31
0.0
  0
LINE
  5
14A
330
1F
100
AcDbEntity
  8
0
 62
   255
370
    15
100
AcDbLine
 10
1225.386400866285
 20
1047.516953817549
 30
0.0
 11
1223.877715326362
 21
1043.10314256801
 31
0.0
  0
LINE
  5
14B
330
1F
100
AcDbEntity
  8
0
 62
   255
370
    15
100
AcDbLine
 10
1223.877715326362
 20
1043.10314256801
 30
0.0
 11
1222.0279703423
 21
1038.772881993899
 31
0.0
  0
LINE
  5
14C
330
1F
100
AcDbEntity
  8
0
 62
   255
370
    15
100
AcDbLine
 10
1222.0279703423
 20
1038.772881993899
 30
0.0
 11
1219.844338579885
 21
1034.542963335163
 31
0.0
  0
LINE
  5
14D
330
1F
100
AcDbEntity
  8
0
 62
   255
370
    15
100
AcDbLine
 10
1219.844338579885
 20
1034.542963335163
 30
0.0
 11
1217.335287401357
 21
1030.429788740803
 31
0.0
  0
LINE
  5
14E
330
1F
100
AcDbEntity
  8
0
 62
   255
370
    15
100
AcDbLine
 10
1217.335287401357
 20
1030.429788740803
 30
0.0
 11
1214.510546031934
 21
1026.449307667061
 31
0.0
  0
LINE
  5
14F
330
1F
100
AcDbEntity
  8
0
 62
   255
370
    15
100
AcDbLine
 10
1214.510546031934
 20
1026.449307667061
 30
0.0
 11
1211.381067833267
 21
1022.616955030998
 31
0.0
  0
LINE
  5
150
330
1F
100
AcDbEntity
  8
0
 62
   255
370
    15
100
AcDbLine
 10
1211.381067833267
 20
1022.616955030998
 30
0.0
 11
1207.95898783013
 21
1018.947591359264
 31
0.0
  0
LINE
  5
151
330
1F
100
AcDbEntity
  8
0
 62
   255
370
    15
100
AcDbLine
 10
1207.95898783013
 20
1018.947591359264
 30
0.0
 11
1204.25757565502
 21
1015.455445164163
 31
0.0
  0
LINE
  5
152
330
1F
100
AcDbEntity
  8
0
 62
   255
370
    15
100
AcDbLine
 10
1204.25757565502
 20
1015.455445164163
 30
0.0
 11
1200.291184093159
 21
1012.154057770445
 31
0.0
  0
LINE
  5
153
330
1F
100
AcDbEntity
  8
0
 62
   255
370
    15
100
AcDbLine
 10
1200.291184093159
 20
1012.154057770445
 30
0.0
 11
1196.075193427394
 21
1009.056230806772
 31
0.0
  0
LINE
  5
154
330
1F
100
AcDbEntity
  8
0
 62
   255
370
    15
100
AcDbLine
 10
1196.075193427394
 20
1009.056230806772
 30
0.0
 11
1191.625951798827
 21
1006.173976565469
 31
0.0
  0
LINE
  5
155
330
1F
100
AcDbEntity
  8
0
 62
   255
370
    15
100
AcDbLine
 10
1191.625951798827
 20
1006.173976565469
 30
0.0
 11
1186.960711814428
 21
1003.518471423042
 31
0.0
  0
LINE
  5
156
330
1F
100
AcDbEntity
  8
0
 62
   255
370
    15
100
AcDbLine
 10
1186.960711814428
 20
1003.518471423042
 30
0.0
 11
1182.097563647441
 21
1001.100012502092
 31
0.0
  0
LINE
  5
157
330
1F
100
AcDbEntity
  8
0
 62
   255
370
    15
100
AcDbLine
 10
1182.097563647441
 20
1001.100012502092
 30
0.0
 11
1177.055364890005
 21
998.9279777426623
 31
0.0
  0
LINE
  5
158
330
1F
100
AcDbEntity
  8
0
 62
   255
370
    15
100
AcDbLine
 10
1177.055364890005
 20
998.9279777426623
 30
0.0
 11
1171.85366742999
 21
997.0107895378611
 31
0.0
  0
ARC
  5
159
330
1F
100
AcDbEntity
  8
0
 62
   255
370
    15
100
AcDbCircle
 10
1173.156076013538
 20
992.6815106612562
 30
0.0
 40
4.520942789940563
100
AcDbArc
 50
106.7432468917979
 51
154.4085575612536
  0
SPLINE
  5
15A
330
1F
100
AcDbEntity
  8
0
 62
   255
370
    15
100
AcDbSpline
210
0.0
220
0.0
230
1.0
 70
     8
 71
     3
 72
     9
 73
     5
 74
     0
 42
0.0000000001
 43
0.0000000001
 40
0.0
 40
0.0
 40
0.0
 40
0.0
 40
0.8266079318435211
 40
1.0
 40
1.0
 40
1.0
 40
1.0
 10
1169.078651040636
 20
994.6343366392334
 30
0.0
 10
1168.945390900772
 20
994.270477687705
 30
0.0
 10
1168.784177664447
 20
993.830294455109
 30
0.0
 10
1168.824130643944
 20
993.3054520633125
 30
0.0
 10
1168.831058173688
 20
993.2144485555426
 30
0.0
  0
LINE
  5
15B
330
1F
100
AcDbEntity
  8
0
 62
   255
370
    15
100
AcDbLine
 10
813.3367831836342
 20
655.8333791568871
 30
0.0
 11
812.5060831543185
 21
654.2966031253648
 31
0.0
  0
LINE
  5
15C
330
1F
100
AcDbEntity
  8
0
 62
   255
370
    15
100
AcDbLine
 10
812.5060831543185
 20
654.2966031253648
 30
0.0
 11
810.0400239914587
 21
650.1117824025149
 31
0.0
  0
LINE
  5
15D
330
1F
100
AcDbEntity
  8
0
 62
   255
370
    15
100
AcDbLine
 10
810.0400239914587
 20
650.1117824025149
 30
0.0
 11
807.4187101319183
 21
646.1961799774555
 31
0.0
  0
LINE
  5
15E
330
1F
100
AcDbEntity
  8
0
 62
   255
370
    15
100
AcDbLine
 10
807.4187101319183
 20
646.1961799774555
 30
0.0
 11
804.6527655444438
 21
642.5656654636769
 31
0.0
  0
LINE
  5
15F
330
1F
100
AcDbEntity
  8
0
 62
   255
370
    15
100
AcDbLine
 10
804.6527655444438
 20
642.5656654636769
 30
0.0
 11
801.7534003741864
 21
639.2349530368922
 31
0.0
  0
LINE
  5
160
330
1F
100
AcDbEntity
  8
0
 62
   255
370
    15
100
AcDbLine
 10
801.7534003741864
 20
639.2349530368922
 30
0.0
 11
798.7323655089086
 21
636.2175417996972
 31
0.0
  0
LINE
  5
161
330
1F
100
AcDbEntity
  8
0
 62
   255
370
    15
100
AcDbLine
 10
798.7323655089086
 20
636.2175417996972
 30
0.0
 11
795.601904953606
 21
633.5256610708218
 31
0.0
  0
LINE
  5
162
330
1F
100
AcDbEntity
  8
0
 62
   255
370
    15
100
AcDbLine
 10
795.601904953606
 20
633.5256610708218
 30
0.0
 11
792.3747062065652
 21
631.1702208207106
 31
0.0
  0
LINE
  5
163
330
1F
100
AcDbEntity
  8
0
 62
   255
370
    15
100
AcDbLine
 10
792.3747062065652
 20
631.1702208207106
 30
0.0
 11
789.0638488379808
 21
629.1607674543126
 31
0.0
  0
LINE
  5
164
330
1F
100
AcDbEntity
  8
0
 62
   255
370
    15
100
AcDbLine
 10
789.0638488379808
 20
629.1607674543126
 30
0.0
 11
785.6827514795363
 21
627.5054451202899
 31
0.0
  0
LINE
  5
165
330
1F
100
AcDbEntity
  8
0
 62
   255
370
    15
100
AcDbLine
 10
785.6827514795363
 20
627.5054451202899
 30
0.0
 11
782.2451174397976
 21
626.2109627034555
 31
0.0
  0
LINE
  5
166
330
1F
100
AcDbEntity
  8
0
 62
   255
370
    15
100
AcDbLine
 10
782.2451174397976
 20
626.2109627034555
 30
0.0
 11
778.7648791658343
 21
625.2825666342164
 31
0.0
  0
LINE
  5
167
330
1F
100
AcDbEntity
  8
0
 62
   255
370
    15
100
AcDbLine
 10
778.7648791658343
 20
625.2825666342164
 30
0.0
 11
775.2561417761608
 21
624.7240196252249
 31
0.0
  0
LINE
  5
168
330
1F
100
AcDbEntity
  8
0
 62
   255
370
    15
100
AcDbLine
 10
775.2561417761608
 20
624.7240196252249
 30
0.0
 11
771.7331258938563
 21
624.5375854214136
 31
0.0
  0
LINE
  5
169
330
1F
100
AcDbEntity
  8
0
 62
   255
370
    15
100
AcDbLine
 10
771.7331258938563
 20
624.5375854214136
 30
0.0
 11
771.7331258938563
 21
619.5375854214136
 31
0.0
  0
LINE
  5
16A
330
1F
100
AcDbEntity
  8
0
 62
   255
370
    15
100
AcDbLine
 10
771.7331258938563
 20
619.5375854214136
 30
0.0
 11
775.3877435181676
 21
619.7278606594896
 31
0.0
  0
LINE
  5
16B
330
1F
100
AcDbEntity
  8
0
 62
   255
370
    15
100
AcDbLine
 10
775.3877435181676
 20
619.7278606594896
 30
0.0
 11
779.0280233437459
 21
620.2979398857542
 31
0.0
  0
LINE
  5
16C
330
1F
100
AcDbEntity
  8
0
 62
   255
370
    15
100
AcDbLine
 10
779.0280233437459
 20
620.2979398857542
 30
0.0
 11
782.6396838219217
 21
621.2455865649397
 31
0.0
  0
LINE
  5
16D
330
1F
100
AcDbEntity
  8
0
 62
   255
370
    15
100
AcDbLine
 10
782.6396838219217
 20
621.2455865649397
 30
0.0
 11
786.2085556834718
 21
622.5670828888499
 31
0.0
  0
LINE
  5
16E
330
1F
100
AcDbEntity
  8
0
 62
   255
370
    15
100
AcDbLine
 10
786.2085556834718
 20
622.5670828888499
 30
0.0
 11
789.7206375275069
 21
624.2572443620696
 31
0.0
  0
LINE
  5
16F
330
1F
100
AcDbEntity
  8
0
 62
   255
370
    15
100
AcDbLine
 10
789.7206375275069
 20
624.2572443620696
 30
0.0
 11
793.1621507517796
 21
626.3094401417801
 31
0.0
  0
LINE
  5
170
330
1F
100
AcDbEntity
  8
0
 62
   255
370
    15
100
AcDbLine
 10
793.1621507517796
 20
626.3094401417801
 30
0.0
 11
796.5195936089061
 21
628.7156190518874
 31
0.0
  0
LINE
  5
171
330
1F
100
AcDbEntity
  8
0
 62
   255
370
    15
100
AcDbLine
 10
796.5195936089061
 20
628.7156190518874
 30
0.0
 11
799.7797941764338
 21
631.4663411694023
 31
0.0
  0
LINE
  5
172
330
1F
100
AcDbEntity
  8
0
 62
   255
370
    15
100
AcDbLine
 10
799.7797941764338
 20
631.4663411694023
 30
0.0
 11
802.9299620329366
 21
634.5508148591539
 31
0.0
  0
LINE
  5
173
330
1F
100
AcDbEntity
  8
0
 62
   255
370
    15
100
AcDbLine
 10
802.9299620329366
 20
634.5508148591539
 30
0.0
 11
805.9577384374069
 21
637.9569391115408
 31
0.0
  0
LINE
  5
174
330
1F
100
AcDbEntity
  8
0
 62
   255
370
    15
100
AcDbLine
 10
805.9577384374069
 20
637.9569391115408
 30
0.0
 11
808.8512448150774
 21
641.6713510172223
 31
0.0
  0
LINE
  5
175
330
1F
100
AcDbEntity
  8
0
 62
   255
370
    15
100
AcDbLine
 10
808.8512448150774
 20
641.6713510172223
 30
0.0
 11
811.5991293594558
 21
645.6794781924937
 31
0.0
  0
LINE
  5
176
330
1F
100
AcDbEntity
  8
0
 62
   255
370
    15
100
AcDbLine
 10
811.5991293594558
 20
645.6794781924937
 30
0.0
 11
814.1906115677402
 21
649.9655959496743
 31
0.0
  0
LINE
  5
177
330
1F
100
AcDbEntity
  8
0
 62
   255
370
    15
100
AcDbLine
 10
814.1906115677402
 20
649.9655959496743
 30
0.0
 11
815.8739138305865
 21
653.0604330972814
 31
0.0
  0
ENDSEC
  0
SECTION
  2
OBJECTS
  0
DICTIONARY
  5
C
330
0
100
AcDbDictionary
281
     1
  3
ACAD_GROUP
350
D
  3
ACAD_LAYOUT
350
1A
  3
ACAD_MLEADERSTYLE
350
179
  3
ACAD_MLINESTYLE
350
17
  3
ACAD_PLOTSETTINGS
350
19
  3
ACAD_PLOTSTYLENAME
350
E
  3
ACAD_SCALELIST
350
3B
  3
ACAD_TABLESTYLE
350
178
  3
ACAD_VISUALSTYLE
350
2A
  0
DICTIONARY
  5
D
102
{ACAD_REACTORS
330
C
102
}
330
C
100
AcDbDictionary
281
     1
  0
DICTIONARY
  5
1A
102
{ACAD_REACTORS
330
C
102
}
330
C
100
AcDbDictionary
281
     1
  3
Layout1
350
1E
  3
Layout2
350
26
  3
Model
350
22
  0
DICTIONARY
  5
179
102
{ACAD_REACTORS
330
C
102
}
330
C
100
AcDbDictionary
281
     1
  0
DICTIONARY
  5
17
102
{ACAD_REACTORS
330
C
102
}
330
C
100
AcDbDictionary
281
     1
  3
Standard
350
18
  0
DICTIONARY
  5
19
102
{ACAD_REACTORS
330
C
102
}
330
C
100
AcDbDictionary
281
     1
  0
ACDBDICTIONARYWDFLT
  5
E
102
{ACAD_REACTORS
330
C
102
}
330
C
100
AcDbDictionary
281
     1
  3
Normal
350
F
100
AcDbDictionaryWithDefault
340
F
  0
DICTIONARY
  5
3B
102
{ACAD_REACTORS
330
C
102
}
330
C
100
AcDbDictionary
281
     1
  3
A0
350
3C
  3
A1
350
3D
  3
A2
350
3E
  3
A3
350
3F
  3
A4
350
40
  3
A5
350
41
  3
A6
350
42
  3
A7
350
43
  3
A8
350
44
  3
A9
350
45
  3
B0
350
46
  3
B1
350
47
  3
B2
350
48
  3
B3
350
49
  3
B4
350
4A
  3
B5
350
4B
  3
B6
350
4C
  3
B7
350
4D
  3
B8
350
4E
  3
B9
350
4F
  3
C0
350
50
  3
C1
350
51
  3
C2
350
52
  3
C3
350
53
  3
C4
350
54
  3
C5
350
55
  3
C6
350
56
  3
C7
350
57
  3
C8
350
58
  3
C9
350
59
  3
D0
350
5A
  3
D1
350
5B
  3
D2
350
5C
  0
DICTIONARY
  5
178
102
{ACAD_REACTORS
330
C
102
}
330
C
100
AcDbDictionary
281
     1
  0
DICTIONARY
  5
2A
102
{ACAD_REACTORS
330
C
102
}
330
C
100
AcDbDictionary
281
     1
  3
2dWireframe
350
2F
  3
3D Hidden
350
31
  3
3dWireframe
350
30
  3
Basic
350
32
  3
Brighten
350
36
  3
ColorChange
350
3A
  3
Conceptual
350
34
  3
Dim
350
35
  3
Facepattern
350
39
  3
Flat
350
2B
  3
FlatWithEdges
350
2C
  3
Gouraud
350
2D
  3
GouraudWithEdges
350
2E
  3
Linepattern
350
38
  3
Realistic
350
33
  3
Thicken
350
37
  0
LAYOUT
  5
1E
102
{ACAD_REACTORS
330
1A
102
}
330
1A
100
AcDbPlotSettings
  1

  2
none_device
  4

  6

 40
0.0
 41
0.0
 42
0.0
 43
0.0
 44
0.0
 45
0.0
 46
0.0
 47
0.0
 48
0.0
 49
0.0
140
0.0
141
0.0
142
1.0
143
1.0
 70
   688
 72
     0
 73
     0
 74
     5
  7

 75
    16
 76
     0
 77
     2
 78
   300
147
1.0
148
0.0
149
0.0
100
AcDbLayout
  1
Layout1
 70
     1
 71
     1
 10
0.0
 20
0.0
 11
12.0
 21
9.0
 12
0.0
 22
0.0
 32
0.0
 14
1.000000000000000E+20
 24
1.000000000000000E+20
 34
1.000000000000000E+20
 15
-1.000000000000000E+20
 25
-1.000000000000000E+20
 35
-1.000000000000000E+20
146
0.0
 13
0.0
 23
0.0
 33
0.0
 16
1.0
 26
0.0
 36
0.0
 17
0.0
 27
1.0
 37
0.0
 76
     0
330
1B
  0
LAYOUT
  5
26
102
{ACAD_REACTORS
330
1A
102
}
330
1A
100
AcDbPlotSettings
  1

  2
none_device
  4

  6

 40
0.0
 41
0.0
 42
0.0
 43
0.0
 44
0.0
 45
0.0
 46
0.0
 47
0.0
 48
0.0
 49
0.0
140
0.0
141
0.0
142
1.0
143
1.0
 70
   688
 72
     0
 73
     0
 74
     5
  7

 75
    16
 76
     0
 77
     2
 78
   300
147
1.0
148
0.0
149
0.0
100
AcDbLayout
  1
Layout2
 70
     1
 71
     2
 10
0.0
 20
0.0
 11
0.0
 21
0.0
 12
0.0
 22
0.0
 32
0.0
 14
0.0
 24
0.0
 34
0.0
 15
0.0
 25
0.0
 35
0.0
146
0.0
 13
0.0
 23
0.0
 33
0.0
 16
1.0
 26
0.0
 36
0.0
 17
0.0
 27
1.0
 37
0.0
 76
     0
330
23
  0
LAYOUT
  5
22
102
{ACAD_REACTORS
330
1A
102
}
330
1A
100
AcDbPlotSettings
  1

  2
none_device
  4

  6

 40
0.0
 41
0.0
 42
0.0
 43
0.0
 44
0.0
 45
0.0
 46
0.0
 47
0.0
 48
0.0
 49
0.0
140
0.0
141
0.0
142
1.0
143
1.0
 70
  1712
 72
     0
 73
     0
 74
     0
  7

 75
     0
 76
     0
 77
     2
 78
   300
147
1.0
148
0.0
149
0.0
100
AcDbLayout
  1
Model
 70
     1
 71
     0
 10
0.0
 20
0.0
 11
12.0
 21
9.0
 12
0.0
 22
0.0
 32
0.0
 14
771.7331258938563
 24
619.5375854214135
 34
0.0
 15
1232.922551252847
 25
1156.649865557616
 35
0.0
146
0.0
 13
0.0
 23
0.0
 33
0.0
 16
1.0
 26
0.0
 36
0.0
 17
0.0
 27
1.0
 37
0.0
 76
     0
330
1F
331
29
  0
MLINESTYLE
  5
18
102
{ACAD_REACTORS
330
17
102
}
330
17
100
AcDbMlineStyle
  2
Standard
 70
     0
  3

 62
   256
 51
90.0
 52
90.0
 71
     2
 49
0.5
 62
   256
  6
BYLAYER
 49
-0.5
 62
   256
  6
BYLAYER
  0
ACDBPLACEHOLDER
  5
F
102
{ACAD_REACTORS
330
E
102
}
330
E
  0
SCALE
  5
3C
102
{ACAD_REACTORS
330
3B
102
}
330
3B
100
AcDbScale
 70
     0
300
1:1
140
1.0
141
1.0
290
     1
  0
SCALE
  5
3D
102
{ACAD_REACTORS
330
3B
102
}
330
3B
100
AcDbScale
 70
     0
300
1:2
140
1.0
141
2.0
290
     0
  0
SCALE
  5
3E
102
{ACAD_REACTORS
330
3B
102
}
330
3B
100
AcDbScale
 70
     0
300
1:4
140
1.0
141
4.0
290
     0
  0
SCALE
  5
3F
102
{ACAD_REACTORS
330
3B
102
}
330
3B
100
AcDbScale
 70
     0
300
1:5
140
1.0
141
5.0
290
     0
  0
SCALE
  5
40
102
{ACAD_REACTORS
330
3B
102
}
330
3B
100
AcDbScale
 70
     0
300
1:8
140
1.0
141
8.0
290
     0
  0
SCALE
  5
41
102
{ACAD_REACTORS
330
3B
102
}
330
3B
100
AcDbScale
 70
     0
300
1:10
140
1.0
141
10.0
290
     0
  0
SCALE
  5
42
102
{ACAD_REACTORS
330
3B
102
}
330
3B
100
AcDbScale
 70
     0
300
1:16
140
1.0
141
16.0
290
     0
  0
SCALE
  5
43
102
{ACAD_REACTORS
330
3B
102
}
330
3B
100
AcDbScale
 70
     0
300
1:20
140
1.0
141
20.0
290
     0
  0
SCALE
  5
44
102
{ACAD_REACTORS
330
3B
102
}
330
3B
100
AcDbScale
 70
     0
300
1:30
140
1.0
141
30.0
290
     0
  0
SCALE
  5
45
102
{ACAD_REACTORS
330
3B
102
}
330
3B
100
AcDbScale
 70
     0
300
1:40
140
1.0
141
40.0
290
     0
  0
SCALE
  5
46
102
{ACAD_REACTORS
330
3B
102
}
330
3B
100
AcDbScale
 70
     0
300
1:50
140
1.0
141
50.0
290
     0
  0
SCALE
  5
47
102
{ACAD_REACTORS
330
3B
102
}
330
3B
100
AcDbScale
 70
     0
300
1:100
140
1.0
141
100.0
290
     0
  0
SCALE
  5
48
102
{ACAD_REACTORS
330
3B
102
}
330
3B
100
AcDbScale
 70
     0
300
2:1
140
2.0
141
1.0
290
     0
  0
SCALE
  5
49
102
{ACAD_REACTORS
330
3B
102
}
330
3B
100
AcDbScale
 70
     0
300
4:1
140
4.0
141
1.0
290
     0
  0
SCALE
  5
4A
102
{ACAD_REACTORS
330
3B
102
}
330
3B
100
AcDbScale
 70
     0
300
8:1
140
8.0
141
1.0
290
     0
  0
SCALE
  5
4B
102
{ACAD_REACTORS
330
3B
102
}
330
3B
100
AcDbScale
 70
     0
300
10:1
140
10.0
141
1.0
290
     0
  0
SCALE
  5
4C
102
{ACAD_REACTORS
330
3B
102
}
330
3B
100
AcDbScale
 70
     0
300
100:1
140
100.0
141
1.0
290
     0
  0
SCALE
  5
4D
102
{ACAD_REACTORS
330
3B
102
}
330
3B
100
AcDbScale
 70
     0
300
1/128" = 1'-0"
140
0.0078125
141
12.0
290
     0
  0
SCALE
  5
4E
102
{ACAD_REACTORS
330
3B
102
}
330
3B
100
AcDbScale
 70
     0
300
1/64" = 1'-0"
140
0.015625
141
12.0
290
     0
  0
SCALE
  5
4F
102
{ACAD_REACTORS
330
3B
102
}
330
3B
100
AcDbScale
 70
     0
300
1/32" = 1'-0"
140
0.03125
141
12.0
290
     0
  0
SCALE
  5
50
102
{ACAD_REACTORS
330
3B
102
}
330
3B
100
AcDbScale
 70
     0
300
1/16" = 1'-0"
140
0.0625
141
12.0
290
     0
  0
SCALE
  5
51
102
{ACAD_REACTORS
330
3B
102
}
330
3B
100
AcDbScale
 70
     0
300
3/32" = 1'-0"
140
0.09375
141
12.0
290
     0
  0
SCALE
  5
52
102
{ACAD_REACTORS
330
3B
102
}
330
3B
100
AcDbScale
 70
     0
300
1/8" = 1'-0"
140
0.125
141
12.0
290
     0
  0
SCALE
  5
53
102
{ACAD_REACTORS
330
3B
102
}
330
3B
100
AcDbScale
 70
     0
300
3/16" = 1'-0"
140
0.1875
141
12.0
290
     0
  0
SCALE
  5
54
102
{ACAD_REACTORS
330
3B
102
}
330
3B
100
AcDbScale
 70
     0
300
1/4" = 1'-0"
140
0.25
141
12.0
290
     0
  0
SCALE
  5
55
102
{ACAD_REACTORS
330
3B
102
}
330
3B
100
AcDbScale
 70
     0
300
3/8" = 1'-0"
140
0.375
141
12.0
290
     0
  0
SCALE
  5
56
102
{ACAD_REACTORS
330
3B
102
}
330
3B
100
AcDbScale
 70
     0
300
1/2" = 1'-0"
140
0.5
141
12.0
290
     0
  0
SCALE
  5
57
102
{ACAD_REACTORS
330
3B
102
}
330
3B
100
AcDbScale
 70
     0
300
3/4" = 1'-0"
140
0.75
141
12.0
290
     0
  0
SCALE
  5
58
102
{ACAD_REACTORS
330
3B
102
}
330
3B
100
AcDbScale
 70
     0
300
1" = 1'-0"
140
1.0
141
12.0
290
     0
  0
SCALE
  5
59
102
{ACAD_REACTORS
330
3B
102
}
330
3B
100
AcDbScale
 70
     0
300
1-1/2" = 1'-0"
140
1.5
141
12.0
290
     0
  0
SCALE
  5
5A
102
{ACAD_REACTORS
330
3B
102
}
330
3B
100
AcDbScale
 70
     0
300
3" = 1'-0"
140
3.0
141
12.0
290
     0
  0
SCALE
  5
5B
102
{ACAD_REACTORS
330
3B
102
}
330
3B
100
AcDbScale
 70
     0
300
6" = 1'-0"
140
6.0
141
12.0
290
     0
  0
SCALE
  5
5C
102
{ACAD_REACTORS
330
3B
102
}
330
3B
100
AcDbScale
 70
     0
300
1'-0" = 1'-0"
140
12.0
141
12.0
290
     0
  0
VISUALSTYLE
  5
2F
102
{ACAD_REACTORS
330
2A
102
}
330
2A
100
AcDbVisualStyle
  2
2dWireframe
 70
     4
 71
     0
 72
     2
 73
     0
 90
        0
 40
-0.6
 41
-30.0
 62
     5
 63
     7
421
 16777215
 74
     1
 91
        4
 64
     7
 65
   257
 75
     1
175
     1
 42
1.0
 92
        0
 66
   257
 43
1.0
 76
     1
 77
     6
 78
     2
 67
     7
 79
     5
170
     0
171
     0
290
     0
174
     0
 93
        1
 44
0.0
173
     0
291
     0
 45
0.0
1001
ACAD
1000
AcDbSavedByObjectVersion
1070
     0
  0
VISUALSTYLE
  5
31
102
{ACAD_REACTORS
330
2A
102
}
330
2A
100
AcDbVisualStyle
  2
3D Hidden
 70
     6
 71
     1
 72
     2
 73
     2
 90
        0
 40
-0.6
 41
-30.0
 62
     5
 63
     7
421
 16777215
 74
     2
 91
        2
 64
     7
 65
   257
 75
     2
175
     1
 42
40.0
 92
        0
 66
   257
 43
1.0
 76
     1
 77
     6
 78
     2
 67
     7
 79
     3
170
     0
171
     0
290
     0
174
     0
 93
        1
 44
0.0
173
     0
291
     0
 45
0.0
1001
ACAD
1000
AcDbSavedByObjectVersion
1070
     0
  0
VISUALSTYLE
  5
30
102
{ACAD_REACTORS
330
2A
102
}
330
2A
100
AcDbVisualStyle
  2
3dWireframe
 70
     5
 71
     0
 72
     2
 73
     0
 90
        0
 40
-0.6
 41
-30.0
 62
     5
 63
     7
421
 16777215
 74
     1
 91
        4
 64
     7
 65
   257
 75
     1
175
     1
 42
1.0
 92
        0
 66
   257
 43
1.0
 76
     1
 77
     6
 78
     2
 67
     7
 79
     5
170
     0
171
     0
290
     0
174
     0
 93
        1
 44
0.0
173
     0
291
     0
 45
0.0
1001
ACAD
1000
AcDbSavedByObjectVersion
1070
     0
  0
VISUALSTYLE
  5
32
102
{ACAD_REACTORS
330
2A
102
}
330
2A
100
AcDbVisualStyle
  2
Basic
 70
     7
 71
     1
 72
     0
 73
     1
 90
        0
 40
-0.6
 41
-30.0
 62
     5
 63
     7
421
 16777215
 74
     0
 91
        4
 64
     7
 65
   257
 75
     1
175
     1
 42
1.0
 92
        8
 66
     7
 43
1.0
 76
     1
 77
     6
 78
     2
 67
     7
 79
     5
170
     0
171
     0
290
     0
174
     0
 93
        1
 44
0.0
173
     0
291
     1
 45
0.0
1001
ACAD
1000
AcDbSavedByObjectVersion
1070
     0
  0
VISUALSTYLE
  5
36
102
{ACAD_REACTORS
330
2A
102
}
330
2A
100
AcDbVisualStyle
  2
Brighten
 70
    12
 71
     2
 72
     2
 73
     0
 90
        0
 40
-0.6
 41
-30.0
 62
     5
 63
     7
421
 16777215
 74
     1
 91
        4
 64
     7
 65
   257
 75
     1
175
     1
 42
1.0
 92
        8
 66
     7
 43
1.0
 76
     1
 77
     6
 78
     2
 67
     7
 79
     5
170
     0
171
     0
290
     0
174
     0
 93
        1
 44
50.0
173
     0
291
     1
 45
0.0
1001
ACAD
1000
AcDbSavedByObjectVersion
1070
     0
  0
VISUALSTYLE
  5
3A
102
{ACAD_REACTORS
330
2A
102
}
330
2A
100
AcDbVisualStyle
  2
ColorChange
 70
    16
 71
     2
 72
     2
 73
     3
 90
        0
 40
-0.6
 41
-30.0
 62
     5
 63
     8
421
  8421504
 74
     1
 91
        4
 64
     7
 65
   257
 75
     1
175
     1
 42
1.0
 92
        8
 66
     8
424
  8421504
 43
1.0
 76
     1
 77
     6
 78
     2
 67
     7
 79
     5
170
     0
171
     0
290
     0
174
     0
 93
        1
 44
0.0
173
     0
291
     1
 45
0.0
1001
ACAD
1000
AcDbSavedByObjectVersion
1070
     0
  0
VISUALSTYLE
  5
34
102
{ACAD_REACTORS
330
2A
102
}
330
2A
100
AcDbVisualStyle
  2
Conceptual
 70
     9
 71
     3
 72
     2
 73
     0
 90
        0
 40
-0.6
 41
-30.0
 62
     5
 63
     7
421
 16777215
 74
     2
 91
        2
 64
     7
 65
   257
 75
     1
175
     1
 42
40.0
 92
        8
 66
     7
 43
1.0
 76
     1
 77
     6
 78
     2
 67
     7
 79
     3
170
     0
171
     0
290
     0
174
     0
 93
        1
 44
0.0
173
     0
291
     0
 45
0.0
1001
ACAD
1000
AcDbSavedByObjectVersion
1070
     0
  0
VISUALSTYLE
  5
35
102
{ACAD_REACTORS
330
2A
102
}
330
2A
100
AcDbVisualStyle
  2
Dim
 70
    11
 71
     2
 72
     2
 73
     0
 90
        0
 40
-0.6
 41
-30.0
 62
     5
 63
     7
421
 16777215
 74
     1
 91
        4
 64
     7
 65
   257
 75
     1
175
     1
 42
1.0
 92
        8
 66
     7
 43
1.0
 76
     1
 77
     6
 78
     2
 67
     7
 79
     5
170
     0
171
     0
290
     0
174
     0
 93
        1
 44
-50.0
173
     0
291
     1
 45
0.0
1001
ACAD
1000
AcDbSavedByObjectVersion
1070
     0
  0
VISUALSTYLE
  5
39
102
{ACAD_REACTORS
330
2A
102
}
330
2A
100
AcDbVisualStyle
  2
Facepattern
 70
    15
 71
     2
 72
     2
 73
     0
 90
        0
 40
-0.6
 41
-30.0
 62
     5
 63
     7
421
 16777215
 74
     1
 91
        4
 64
     7
 65
   257
 75
     1
175
     1
 42
1.0
 92
        8
 66
     7
 43
1.0
 76
     1
 77
     6
 78
     2
 67
     7
 79
     5
170
     0
171
     0
290
     0
174
     0
 93
        1
 44
0.0
173
     0
291
     1
 45
0.0
1001
ACAD
1000
AcDbSavedByObjectVersion
1070
     0
  0
VISUALSTYLE
  5
2B
102
{ACAD_REACTORS
330
2A
102
}
330
2A
100
AcDbVisualStyle
  2
Flat
 70
     0
 71
     2
 72
     1
 73
     1
 90
        2
 40
-0.6
 41
30.0
 62
     5
 63
     7
421
 16777215
 74
     0
 91
        4
 64
     7
 65
   257
 75
     1
175
     1
 42
1.0
 92
        8
 66
     7
 43
1.0
 76
     1
 77
     6
 78
     2
 67
     7
 79
     5
170
     0
171
     0
290
     0
174
     0
 93
       13
 44
0.0
173
     0
291
     1
 45
0.0
1001
ACAD
1000
AcDbSavedByObjectVersion
1070
     0
  0
VISUALSTYLE
  5
2C
102
{ACAD_REACTORS
330
2A
102
}
330
2A
100
AcDbVisualStyle
  2
FlatWithEdges
 70
     1
 71
     2
 72
     1
 73
     1
 90
        2
 40
-0.6
 41
30.0
 62
     5
 63
     7
421
 16777215
 74
     1
 91
        4
 64
     7
 65
   257
 75
     1
175
     1
 42
1.0
 92
        0
 66
   257
 43
1.0
 76
     1
 77
     6
 78
     2
 67
     7
 79
     5
170
     0
171
     0
290
     0
174
     0
 93
       13
 44
0.0
173
     0
291
     1
 45
0.0
1001
ACAD
1000
AcDbSavedByObjectVersion
1070
     0
  0
VISUALSTYLE
  5
2D
102
{ACAD_REACTORS
330
2A
102
}
330
2A
100
AcDbVisualStyle
  2
Gouraud
 70
     2
 71
     2
 72
     2
 73
     1
 90
        2
 40
-0.6
 41
30.0
 62
     5
 63
     7
421
 16777215
 74
     0
 91
        4
 64
     7
 65
   257
 75
     1
175
     1
 42
1.0
 92
        0
 66
     7
 43
1.0
 76
     1
 77
     6
 78
     2
 67
     7
 79
     5
170
     0
171
     0
290
     0
174
     0
 93
       13
 44
0.0
173
     0
291
     1
 45
0.0
1001
ACAD
1000
AcDbSavedByObjectVersion
1070
     0
  0
VISUALSTYLE
  5
2E
102
{ACAD_REACTORS
330
2A
102
}
330
2A
100
AcDbVisualStyle
  2
GouraudWithEdges
 70
     3
 71
     2
 72
     2
 73
     1
 90
        2
 40
-0.6
 41
30.0
 62
     5
 63
     7
421
 16777215
 74
     1
 91
        4
 64
     7
 65
   257
 75
     1
175
     1
 42
1.0
 92
        0
 66
   257
 43
1.0
 76
     1
 77
     6
 78
     2
 67
     7
 79
     5
170
     0
171
     0
290
     0
174
     0
 93
       13
 44
0.0
173
     0
291
     1
 45
0.0
1001
ACAD
1000
AcDbSavedByObjectVersion
1070
     0
  0
VISUALSTYLE
  5
38
102
{ACAD_REACTORS
330
2A
102
}
330
2A
100
AcDbVisualStyle
  2
Linepattern
 70
    14
 71
     2
 72
     2
 73
     0
 90
        0
 40
-0.6
 41
-30.0
 62
     5
 63
     7
421
 16777215
 74
     1
 91
        4
 64
     7
 65
   257
 75
     7
175
     7
 42
1.0
 92
        8
 66
     7
 43
1.0
 76
     1
 77
     6
 78
     2
 67
     7
 79
     5
170
     0
171
     0
290
     0
174
     0
 93
        1
 44
0.0
173
     0
291
     1
 45
0.0
1001
ACAD
1000
AcDbSavedByObjectVersion
1070
     0
  0
VISUALSTYLE
  5
33
102
{ACAD_REACTORS
330
2A
102
}
330
2A
100
AcDbVisualStyle
  2
Realistic
 70
     8
 71
     2
 72
     2
 73
     0
 90
        0
 40
-0.6
 41
-30.0
 62
     5
 63
     7
421
 16777215
 74
     1
 91
        0
 64
     7
 65
   257
 75
     1
175
     1
 42
1.0
 92
        8
 66
     8
424
  7895160
 43
1.0
 76
     1
 77
     6
 78
     2
 67
     7
 79
     5
170
     0
171
     0
290
     0
174
     0
 93
       13
 44
0.0
173
     0
291
     0
 45
0.0
1001
ACAD
1000
AcDbSavedByObjectVersion
1070
     0
  0
VISUALSTYLE
  5
37
102
{ACAD_REACTORS
330
2A
102
}
330
2A
100
AcDbVisualStyle
  2
Thicken
 70
    13
 71
     2
 72
     2
 73
     0
 90
        0
 40
-0.6
 41
-30.0
 62
     5
 63
     7
421
 16777215
 74
     1
 91
        4
 64
     7
 65
   257
 75
     1
175
     1
 42
1.0
 92
       12
 66
     7
 43
1.0
 76
     1
 77
     6
 78
     2
 67
     7
 79
     5
170
     0
171
     0
290
     0
174
     0
 93
        1
 44
0.0
173
     0
291
     1
 45
0.0
1001
ACAD
1000
AcDbSavedByObjectVersion
1070
     0
  0
ENDSEC
  0
EOF
