  0
SECTION
  2
HEADER
  9
$ACADVER
  1
AC1018
  9
$ACADMAINTVER
 70
     0
  9
$DWGCODEPAGE
  3
ANSI_932
  9
$INSBASE
 10
0.0
 20
0.0
 30
0.0
  9
$EXTMIN
 10
1.000000000000000E+20
 20
1.000000000000000E+20
 30
1.000000000000000E+20
  9
$EXTMAX
 10
-1.000000000000000E+20
 20
-1.000000000000000E+20
 30
-1.000000000000000E+20
  9
$LIMMIN
 10
0.0
 20
0.0
  9
$LIMMAX
 10
12.0
 20
9.0
  9
$ORTHOMODE
 70
     0
  9
$REGENMODE
 70
     1
  9
$FILLMODE
 70
     1
  9
$QTEXTMODE
 70
     0
  9
$MIRRTEXT
 70
     1
  9
$LTSCALE
 40
1.0
  9
$ATTMODE
 70
     1
  9
$TEXTSIZE
 40
0.2
  9
$TRACEWID
 40
0.05
  9
$TEXTSTYLE
  7
Standard
  9
$CLAYER
  8
0
  9
$CELTYPE
  6
ByLayer
  9
$CECOLOR
 62
   256
  9
$CELTSCALE
 40
1.0
  9
$DISPSILH
 70
     0
  9
$DIMSCALE
 40
1.0
  9
$DIMASZ
 40
0.18
  9
$DIMEXO
 40
0.0625
  9
$DIMDLI
 40
0.38
  9
$DIMRND
 40
0.0
  9
$DIMDLE
 40
0.0
  9
$DIMEXE
 40
0.18
  9
$DIMTP
 40
0.0
  9
$DIMTM
 40
0.0
  9
$DIMTXT
 40
0.18
  9
$DIMCEN
 40
0.09
  9
$DIMTSZ
 40
0.0
  9
$DIMTOL
 70
     0
  9
$DIMLIM
 70
     0
  9
$DIMTIH
 70
     1
  9
$DIMTOH
 70
     1
  9
$DIMSE1
 70
     0
  9
$DIMSE2
 70
     0
  9
$DIMTAD
 70
     0
  9
$DIMZIN
 70
     0
  9
$DIMBLK
  1

  9
$DIMASO
 70
     1
  9
$DIMSHO
 70
     1
  9
$DIMPOST
  1

  9
$DIMAPOST
  1

  9
$DIMALT
 70
     0
  9
$DIMALTD
 70
     2
  9
$DIMALTF
 40
25.4
  9
$DIMLFAC
 40
1.0
  9
$DIMTOFL
 70
     0
  9
$DIMTVP
 40
0.0
  9
$DIMTIX
 70
     0
  9
$DIMSOXD
 70
     0
  9
$DIMSAH
 70
     0
  9
$DIMBLK1
  1

  9
$DIMBLK2
  1

  9
$DIMSTYLE
  2
Standard
  9
$DIMCLRD
 70
     0
  9
$DIMCLRE
 70
     0
  9
$DIMCLRT
 70
     0
  9
$DIMTFAC
 40
1.0
  9
$DIMGAP
 40
0.09
  9
$DIMJUST
 70
     0
  9
$DIMSD1
 70
     0
  9
$DIMSD2
 70
     0
  9
$DIMTOLJ
 70
     1
  9
$DIMTZIN
 70
     0
  9
$DIMALTZ
 70
     0
  9
$DIMALTTZ
 70
     0
  9
$DIMUPT
 70
     0
  9
$DIMDEC
 70
     4
  9
$DIMTDEC
 70
     4
  9
$DIMALTU
 70
     2
  9
$DIMALTTD
 70
     2
  9
$DIMTXSTY
  7
Standard
  9
$DIMAUNIT
 70
     0
  9
$DIMADEC
 70
     0
  9
$DIMALTRND
 40
0.0
  9
$DIMAZIN
 70
     0
  9
$DIMDSEP
 70
    46
  9
$DIMATFIT
 70
     3
  9
$DIMFRAC
 70
     0
  9
$DIMLDRBLK
  1

  9
$DIMLUNIT
 70
     2
  9
$DIMLWD
 70
    -2
  9
$DIMLWE
 70
    -2
  9
$DIMTMOVE
 70
     0
  9
$LUNITS
 70
     2
  9
$LUPREC
 70
     4
  9
$SKETCHINC
 40
0.1
  9
$FILLETRAD
 40
0.5
  9
$AUNITS
 70
     0
  9
$AUPREC
 70
     0
  9
$MENU
  1
.
  9
$ELEVATION
 40
0.0
  9
$PELEVATION
 40
0.0
  9
$THICKNESS
 40
0.0
  9
$LIMCHECK
 70
     0
  9
$CHAMFERA
 40
0.5
  9
$CHAMFERB
 40
0.5
  9
$CHAMFERC
 40
1.0
  9
$CHAMFERD
 40
0.0
  9
$SKPOLY
 70
     0
  9
$TDCREATE
 40
2457092.680162037
  9
$TDUCREATE
 40
2457092.63849537
  9
$TDUPDATE
 40
2457092.680162048
  9
$TDUUPDATE
 40
2457092.638495382
  9
$TDINDWG
 40
0.0000000116
  9
$TDUSRTIMER
 40
0.0000000116
  9
$USRTIMER
 70
     1
  9
$ANGBASE
 50
0.0
  9
$ANGDIR
 70
     0
  9
$PDMODE
 70
     0
  9
$PDSIZE
 40
0.0
  9
$PLINEWID
 40
0.0
  9
$SPLFRAME
 70
     0
  9
$SPLINETYPE
 70
     6
  9
$SPLINESEGS
 70
     8
  9
$HANDSEED
  5
266
  9
$SURFTAB1
 70
     6
  9
$SURFTAB2
 70
     6
  9
$SURFTYPE
 70
     6
  9
$SURFU
 70
     6
  9
$SURFV
 70
     6
  9
$UCSBASE
  2

  9
$UCSNAME
  2

  9
$UCSORG
 10
0.0
 20
0.0
 30
0.0
  9
$UCSXDIR
 10
1.0
 20
0.0
 30
0.0
  9
$UCSYDIR
 10
0.0
 20
1.0
 30
0.0
  9
$UCSORTHOREF
  2

  9
$UCSORTHOVIEW
 70
     0
  9
$UCSORGTOP
 10
0.0
 20
0.0
 30
0.0
  9
$UCSORGBOTTOM
 10
0.0
 20
0.0
 30
0.0
  9
$UCSORGLEFT
 10
0.0
 20
0.0
 30
0.0
  9
$UCSORGRIGHT
 10
0.0
 20
0.0
 30
0.0
  9
$UCSORGFRONT
 10
0.0
 20
0.0
 30
0.0
  9
$UCSORGBACK
 10
0.0
 20
0.0
 30
0.0
  9
$PUCSBASE
  2

  9
$PUCSNAME
  2

  9
$PUCSORG
 10
0.0
 20
0.0
 30
0.0
  9
$PUCSXDIR
 10
1.0
 20
0.0
 30
0.0
  9
$PUCSYDIR
 10
0.0
 20
1.0
 30
0.0
  9
$PUCSORTHOREF
  2

  9
$PUCSORTHOVIEW
 70
     0
  9
$PUCSORGTOP
 10
0.0
 20
0.0
 30
0.0
  9
$PUCSORGBOTTOM
 10
0.0
 20
0.0
 30
0.0
  9
$PUCSORGLEFT
 10
0.0
 20
0.0
 30
0.0
  9
$PUCSORGRIGHT
 10
0.0
 20
0.0
 30
0.0
  9
$PUCSORGFRONT
 10
0.0
 20
0.0
 30
0.0
  9
$PUCSORGBACK
 10
0.0
 20
0.0
 30
0.0
  9
$USERI1
 70
     0
  9
$USERI2
 70
     0
  9
$USERI3
 70
     0
  9
$USERI4
 70
     0
  9
$USERI5
 70
     0
  9
$USERR1
 40
0.0
  9
$USERR2
 40
0.0
  9
$USERR3
 40
0.0
  9
$USERR4
 40
0.0
  9
$USERR5
 40
0.0
  9
$WORLDVIEW
 70
     1
  9
$SHADEDGE
 70
     3
  9
$SHADEDIF
 70
    70
  9
$TILEMODE
 70
     1
  9
$MAXACTVP
 70
    64
  9
$PINSBASE
 10
0.0
 20
0.0
 30
0.0
  9
$PLIMCHECK
 70
     0
  9
$PEXTMIN
 10
1.000000000000000E+20
 20
1.000000000000000E+20
 30
1.000000000000000E+20
  9
$PEXTMAX
 10
-1.000000000000000E+20
 20
-1.000000000000000E+20
 30
-1.000000000000000E+20
  9
$PLIMMIN
 10
0.0
 20
0.0
  9
$PLIMMAX
 10
12.0
 20
9.0
  9
$UNITMODE
 70
     0
  9
$VISRETAIN
 70
     1
  9
$PLINEGEN
 70
     0
  9
$PSLTSCALE
 70
     1
  9
$TREEDEPTH
 70
  3020
  9
$CMLSTYLE
  2
Standard
  9
$CMLJUST
 70
     0
  9
$CMLSCALE
 40
1.0
  9
$PROXYGRAPHICS
 70
     1
  9
$MEASUREMENT
 70
     0
  9
$CELWEIGHT
370
    -1
  9
$ENDCAPS
280
     0
  9
$JOINSTYLE
280
     0
  9
$LWDISPLAY
290
     1
  9
$INSUNITS
 70
     1
  9
$HYPERLINKBASE
  1

  9
$STYLESHEET
  1

  9
$XEDIT
290
     1
  9
$CEPSNTYPE
380
     0
  9
$PSTYLEMODE
290
     1
  9
$FINGERPRINTGUID
  2
{7AFC9F4C-7820-27CE-E5AD-787AD9D142C1}
  9
$VERSIONGUID
  2
{FAEB1C32-E019-11D5-929B-00C0DF256EC4}
  9
$EXTNAMES
290
     1
  9
$PSVPSCALE
 40
0.0
  9
$OLESTARTUP
290
     0
  9
$SORTENTS
280
   127
  9
$INDEXCTL
280
     0
  9
$HIDETEXT
280
     1
  9
$XCLIPFRAME
290
     0
  9
$HALOGAP
280
     0
  9
$OBSCOLOR
 70
   257
  9
$OBSLTYPE
280
     0
  9
$INTERSECTIONDISPLAY
280
     0
  9
$INTERSECTIONCOLOR
 70
   257
  9
$DIMASSOC
280
     2
  9
$PROJECTNAME
  1

  0
ENDSEC
  0
SECTION
  2
CLASSES
  0
CLASS
  1
ACDBDICTIONARYWDFLT
  2
AcDbDictionaryWithDefault
  3
ObjectDBX Classes
 90
        0
 91
        3
280
     0
281
     0
  0
CLASS
  1
VISUALSTYLE
  2
AcDbVisualStyle
  3
ObjectDBX Classes
 90
     4095
 91
        3
280
     0
281
     0
  0
ENDSEC
  0
SECTION
  2
TABLES
  0
TABLE
  2
VPORT
  5
8
330
0
100
AcDbSymbolTable
 70
     1
  0
VPORT
  5
29
330
8
100
AcDbSymbolTableRecord
100
AcDbViewportTableRecord
  2
*Active
 70
     0
 10
0.0
 20
0.0
 11
1.0
 21
1.0
 12
0.0
 22
0.0
 13
0.0
 23
0.0
 14
0.5
 24
0.5
 15
0.5
 25
0.5
 16
0.0
 26
0.0
 36
1.0
 17
113.7708333048906
 27
134.7611110774208
 37
0.0
 40
91.72222219929166
 41
0.673076923076923
 42
50.0
 43
0.0
 44
0.0
 50
0.0
 51
0.0
 71
     0
 72
   100
 73
     1
 74
     3
 75
     0
 76
     0
 77
     0
 78
     0
281
     0
 65
     1
110
0.0
120
0.0
130
0.0
111
1.0
121
0.0
131
0.0
112
0.0
122
1.0
132
0.0
 79
     0
146
0.0
  0
ENDTAB
  0
TABLE
  2
LTYPE
  5
5
330
0
100
AcDbSymbolTable
 70
     1
  0
LTYPE
  5
14
330
5
100
AcDbSymbolTableRecord
100
AcDbLinetypeTableRecord
  2
ByBlock
 70
     0
  3

 72
    65
 73
     0
 40
0.0
  0
LTYPE
  5
15
330
5
100
AcDbSymbolTableRecord
100
AcDbLinetypeTableRecord
  2
ByLayer
 70
     0
  3

 72
    65
 73
     0
 40
0.0
  0
LTYPE
  5
16
330
5
100
AcDbSymbolTableRecord
100
AcDbLinetypeTableRecord
  2
Continuous
 70
     0
  3
Solid line
 72
    65
 73
     0
 40
0.0
  0
ENDTAB
  0
TABLE
  2
LAYER
  5
2
330
0
100
AcDbSymbolTable
 70
     2
  0
LAYER
  5
10
330
2
100
AcDbSymbolTableRecord
100
AcDbLayerTableRecord
  2
0
 70
     0
 62
     7
  6
Continuous
370
    -3
390
F
  0
LAYER
  5
3B
330
2
100
AcDbSymbolTableRecord
100
AcDbLayerTableRecord
  2
Livello 1
 70
     0
 62
     7
  6
Continuous
370
    -3
390
F
  0
ENDTAB
  0
TABLE
  2
STYLE
  5
3
330
0
100
AcDbSymbolTable
 70
     1
  0
STYLE
  5
11
330
3
100
AcDbSymbolTableRecord
100
AcDbTextStyleTableRecord
  2
Standard
 70
     0
 40
0.0
 41
1.0
 50
0.0
 71
     0
 42
0.2
  3
txt
  4

  0
ENDTAB
  0
TABLE
  2
VIEW
  5
6
330
0
100
AcDbSymbolTable
 70
     0
  0
ENDTAB
  0
TABLE
  2
UCS
  5
7
330
0
100
AcDbSymbolTable
 70
     0
  0
ENDTAB
  0
TABLE
  2
APPID
  5
9
330
0
100
AcDbSymbolTable
 70
     1
  0
APPID
  5
12
330
9
100
AcDbSymbolTableRecord
100
AcDbRegAppTableRecord
  2
ACAD
 70
     0
  0
ENDTAB
  0
TABLE
  2
DIMSTYLE
  5
A
330
0
100
AcDbSymbolTable
 70
     1
100
AcDbDimStyleTable
  0
DIMSTYLE
105
27
330
A
100
AcDbSymbolTableRecord
100
AcDbDimStyleTableRecord
  2
Standard
 70
     0
340
11
  0
ENDTAB
  0
TABLE
  2
BLOCK_RECORD
  5
1
330
0
100
AcDbSymbolTable
 70
     1
  0
BLOCK_RECORD
  5
1F
330
1
100
AcDbSymbolTableRecord
100
AcDbBlockTableRecord
  2
*Model_Space
340
22
  0
BLOCK_RECORD
  5
1B
330
1
100
AcDbSymbolTableRecord
100
AcDbBlockTableRecord
  2
*Paper_Space
340
1E
  0
BLOCK_RECORD
  5
23
330
1
100
AcDbSymbolTableRecord
100
AcDbBlockTableRecord
  2
*Paper_Space0
340
26
  0
ENDTAB
  0
ENDSEC
  0
SECTION
  2
BLOCKS
  0
BLOCK
  5
20
330
1F
100
AcDbEntity
  8
0
100
AcDbBlockBegin
  2
*Model_Space
 70
     0
 71
     0
 10
0.0
 20
0.0
 30
0.0
  3
*Model_Space
  1

  0
ENDBLK
  5
21
330
1F
100
AcDbEntity
  8
0
100
AcDbBlockEnd
  0
BLOCK
  5
1C
330
1B
100
AcDbEntity
 67
     1
  8
0
100
AcDbBlockBegin
  2
*Paper_Space
 70
     0
 71
     0
 10
0.0
 20
0.0
 30
0.0
  3
*Paper_Space
  1

  0
ENDBLK
  5
1D
330
1B
100
AcDbEntity
 67
     1
  8
0
100
AcDbBlockEnd
  0
BLOCK
  5
24
330
23
100
AcDbEntity
  8
0
100
AcDbBlockBegin
  2
*Paper_Space0
 70
     0
 71
     0
 10
0.0
 20
0.0
 30
0.0
  3
*Paper_Space0
  1

  0
ENDBLK
  5
25
330
23
100
AcDbEntity
  8
0
100
AcDbBlockEnd
  0
ENDSEC
  0
SECTION
  2
ENTITIES
  0
POLYLINE
  5
3C
330
1F
100
AcDbEntity
  8
Livello 1
 62
   178
420
   328448
370
     9
100
AcDb2dPolyline
 66
     1
 10
0.0
 20
0.0
 30
0.0
  0
VERTEX
  5
3D
330
3C
100
AcDbEntity
  8
Livello 1
 62
   178
420
   328448
370
     9
100
AcDbVertex
100
AcDb2dVertex
 10
459.7590168121436
 20
-188.4505126481999
 30
0.0
  0
VERTEX
  5
3E
330
3C
100
AcDbEntity
  8
Livello 1
 62
   178
420
   328448
370
     9
100
AcDbVertex
100
AcDb2dVertex
 10
459.4038274676143
 20
-206.3808566107312
 30
0.0
  0
VERTEX
  5
3F
330
3C
100
AcDbEntity
  8
Livello 1
 62
   178
420
   328448
370
     9
100
AcDbVertex
100
AcDb2dVertex
 10
457.9672226502652
 20
-223.9491210377627
 30
0.0
  0
VERTEX
  5
40
330
3C
100
AcDbEntity
  8
Livello 1
 62
   178
420
   328448
370
     9
100
AcDbVertex
100
AcDb2dVertex
 10
455.814037971984
 20
-241.5149738979546
 30
0.0
  0
VERTEX
  5
41
330
3C
100
AcDbEntity
  8
Livello 1
 62
   178
420
   328448
370
     9
100
AcDbVertex
100
AcDb2dVertex
 10
452.5870170309505
 20
-258.7249483945201
 30
0.0
  0
VERTEX
  5
42
330
3C
100
AcDbEntity
  8
Livello 1
 62
   178
420
   328448
370
     9
100
AcDbVertex
100
AcDb2dVertex
 10
449.0006726308054
 20
-275.9356119101828
 30
0.0
  0
VERTEX
  5
43
330
3C
100
AcDbEntity
  8
Livello 1
 62
   178
420
   328448
370
     9
100
AcDbVertex
100
AcDb2dVertex
 10
443.982202037442
 20
-292.4286620362678
 30
0.0
  0
VERTEX
  5
44
330
3C
100
AcDbEntity
  8
Livello 1
 62
   178
420
   328448
370
     9
100
AcDbVertex
100
AcDb2dVertex
 10
438.6040634754185
 20
-308.5682453655663
 30
0.0
  0
VERTEX
  5
45
330
3C
100
AcDbEntity
  8
Livello 1
 62
   178
420
   328448
370
     9
100
AcDbVertex
100
AcDb2dVertex
 10
432.51003407156
 20
-324.7002494847972
 30
0.0
  0
VERTEX
  5
46
330
3C
100
AcDbEntity
  8
Livello 1
 62
   178
420
   328448
370
     9
100
AcDbVertex
100
AcDb2dVertex
 10
425.3380342903669
 20
-340.1156737430961
 30
0.0
  0
VERTEX
  5
47
330
3C
100
AcDbEntity
  8
Livello 1
 62
   178
420
   328448
370
     9
100
AcDbVertex
100
AcDb2dVertex
 10
417.8080890882563
 20
-355.1800427714481
 30
0.0
  0
VERTEX
  5
48
330
3C
100
AcDbEntity
  8
Livello 1
 62
   178
420
   328448
370
     9
100
AcDbVertex
100
AcDb2dVertex
 10
409.2025850756507
 20
-369.8757865828783
 30
0.0
  0
VERTEX
  5
49
330
3C
100
AcDbEntity
  8
Livello 1
 62
   178
420
   328448
370
     9
100
AcDbVertex
100
AcDb2dVertex
 10
400.2394801516763
 20
-383.8649413102838
 30
0.0
  0
VERTEX
  5
4A
330
3C
100
AcDbEntity
  8
Livello 1
 62
   178
420
   328448
370
     9
100
AcDbVertex
100
AcDb2dVertex
 10
390.2011609267553
 20
-397.844105260782
 30
0.0
  0
VERTEX
  5
4B
330
3C
100
AcDbEntity
  8
Livello 1
 62
   178
420
   328448
370
     9
100
AcDbVertex
100
AcDb2dVertex
 10
379.8042072618198
 20
-411.1104789553821
 30
0.0
  0
VERTEX
  5
4C
330
3C
100
AcDbEntity
  8
Livello 1
 62
   178
420
   328448
370
     9
100
AcDbVertex
100
AcDb2dVertex
 10
369.0462075900301
 20
-423.6661294513751
 30
0.0
  0
VERTEX
  5
4D
330
3C
100
AcDbEntity
  8
Livello 1
 62
   178
420
   328448
370
     9
100
AcDbVertex
100
AcDb2dVertex
 10
357.2133381268425
 20
-435.8600449214169
 30
0.0
  0
VERTEX
  5
4E
330
3C
100
AcDbEntity
  8
Livello 1
 62
   178
420
   328448
370
     9
100
AcDbVertex
100
AcDb2dVertex
 10
345.3801241541064
 20
-447.3253226963284
 30
0.0
  0
VERTEX
  5
4F
330
3C
100
AcDbEntity
  8
Livello 1
 62
   178
420
   328448
370
     9
100
AcDbVertex
100
AcDb2dVertex
 10
332.4758299950061
 20
-458.4323105407739
 30
0.0
  0
VERTEX
  5
50
330
3C
100
AcDbEntity
  8
Livello 1
 62
   178
420
   328448
370
     9
100
AcDbVertex
100
AcDb2dVertex
 10
319.2101453195031
 20
-468.8351208680343
 30
0.0
  0
VERTEX
  5
51
330
3C
100
AcDbEntity
  8
Livello 1
 62
   178
420
   328448
370
     9
100
AcDbVertex
100
AcDb2dVertex
 10
305.5823811085003
 20
-478.5216958439113
 30
0.0
  0
VERTEX
  5
52
330
3C
100
AcDbEntity
  8
Livello 1
 62
   178
420
   328448
370
     9
100
AcDbVertex
100
AcDb2dVertex
 10
291.2414821320507
 20
-487.4785995960123
 30
0.0
  0
VERTEX
  5
53
330
3C
100
AcDbEntity
  8
Livello 1
 62
   178
420
   328448
370
     9
100
AcDbVertex
100
AcDb2dVertex
 10
276.9005831556013
 20
-496.0903047804914
 30
0.0
  0
VERTEX
  5
54
330
3C
100
AcDbEntity
  8
Livello 1
 62
   178
420
   328448
370
     9
100
AcDbVertex
100
AcDb2dVertex
 10
261.4813692922685
 20
-503.6147378298255
 30
0.0
  0
VERTEX
  5
55
330
3C
100
AcDbEntity
  8
Livello 1
 62
   178
420
   328448
370
     9
100
AcDbVertex
100
AcDb2dVertex
 10
246.0624999384844
 20
-510.7798474200481
 30
0.0
  0
VERTEX
  5
56
330
3C
100
AcDbEntity
  8
Livello 1
 62
   178
420
   328448
370
     9
100
AcDbVertex
100
AcDb2dVertex
 10
230.2853406542342
 20
-516.8835230912653
 30
0.0
  0
VERTEX
  5
57
330
3C
100
AcDbEntity
  8
Livello 1
 62
   178
420
   328448
370
     9
100
AcDbVertex
100
AcDb2dVertex
 10
214.1502359490666
 20
-522.6289088320165
 30
0.0
  0
VERTEX
  5
58
330
3C
100
AcDbEntity
  8
Livello 1
 62
   178
420
   328448
370
     9
100
AcDbVertex
100
AcDb2dVertex
 10
197.3009629498067
 20
-527.2739310747787
 30
0.0
  0
VERTEX
  5
59
330
3C
100
AcDbEntity
  8
Livello 1
 62
   178
420
   328448
370
     9
100
AcDbVertex
100
AcDb2dVertex
 10
180.4489338741586
 20
-531.2268336345544
 30
0.0
  0
VERTEX
  5
5A
330
3C
100
AcDbEntity
  8
Livello 1
 62
   178
420
   328448
370
     9
100
AcDbVertex
100
AcDb2dVertex
 10
163.2386148680445
 20
-534.0941866069279
 30
0.0
  0
VERTEX
  5
5B
330
3C
100
AcDbEntity
  8
Livello 1
 62
   178
420
   328448
370
     9
100
AcDbVertex
100
AcDb2dVertex
 10
145.6698336766902
 20
-536.6018716106412
 30
0.0
  0
VERTEX
  5
5C
330
3C
100
AcDbEntity
  8
Livello 1
 62
   178
420
   328448
370
     9
100
AcDbVertex
100
AcDb2dVertex
 10
128.1017415044329
 20
-537.6767414020392
 30
0.0
  0
VERTEX
  5
5D
330
3C
100
AcDbEntity
  8
Livello 1
 62
   178
420
   328448
370
     9
100
AcDbVertex
100
AcDb2dVertex
 10
109.8129353566614
 20
-538.3933212629711
 30
0.0
  0
VERTEX
  5
5E
330
3C
100
AcDbEntity
  8
Livello 1
 62
   178
420
   328448
370
     9
100
AcDbVertex
100
AcDb2dVertex
 10
91.88603648961531
 20
-537.6767414020392
 30
0.0
  0
VERTEX
  5
5F
330
3C
100
AcDbEntity
  8
Livello 1
 62
   178
420
   328448
370
     9
100
AcDbVertex
100
AcDb2dVertex
 10
74.32052813897195
 20
-536.6018716106412
 30
0.0
  0
VERTEX
  5
60
330
3C
100
AcDbEntity
  8
Livello 1
 62
   178
420
   328448
370
     9
100
AcDbVertex
100
AcDb2dVertex
 10
56.74881861645516
 20
-534.0941866069279
 30
0.0
  0
VERTEX
  5
61
330
3C
100
AcDbEntity
  8
Livello 1
 62
   178
420
   328448
370
     9
100
AcDbVertex
100
AcDb2dVertex
 10
39.53849961034107
 20
-531.2268336345544
 30
0.0
  0
VERTEX
  5
62
330
3C
100
AcDbEntity
  8
Livello 1
 62
   178
420
   328448
370
     9
100
AcDbVertex
100
AcDb2dVertex
 10
22.32490776351599
 20
-527.2739310747787
 30
0.0
  0
VERTEX
  5
63
330
3C
100
AcDbEntity
  8
Livello 1
 62
   178
420
   328448
370
     9
100
AcDbVertex
100
AcDb2dVertex
 10
5.837542044981587
 20
-522.6289088320165
 30
0.0
  0
VERTEX
  5
64
330
3C
100
AcDbEntity
  8
Livello 1
 62
   178
420
   328448
370
     9
100
AcDbVertex
100
AcDb2dVertex
 10
-10.3013522652198
 20
-516.8835230912653
 30
0.0
  0
VERTEX
  5
65
330
3C
100
AcDbEntity
  8
Livello 1
 62
   178
420
   328448
370
     9
100
AcDbVertex
100
AcDb2dVertex
 10
-26.07489419921044
 20
-510.7798474200481
 30
0.0
  0
VERTEX
  5
66
330
3C
100
AcDbEntity
  8
Livello 1
 62
   178
420
   328448
370
     9
100
AcDbVertex
100
AcDb2dVertex
 10
-41.85515406939732
 20
-503.6147378298255
 30
0.0
  0
VERTEX
  5
67
330
3C
100
AcDbEntity
  8
Livello 1
 62
   178
420
   328448
370
     9
100
AcDbVertex
100
AcDb2dVertex
 10
-56.90970457561632
 20
-496.0903047804914
 30
0.0
  0
VERTEX
  5
68
330
3C
100
AcDbEntity
  8
Livello 1
 62
   178
420
   328448
370
     9
100
AcDbVertex
100
AcDb2dVertex
 10
-71.61561141872805
 20
-487.4785995960123
 30
0.0
  0
VERTEX
  5
69
330
3C
100
AcDbEntity
  8
Livello 1
 62
   178
420
   328448
370
     9
100
AcDbVertex
100
AcDb2dVertex
 10
-85.5980482099373
 20
-478.5216958439113
 30
0.0
  0
VERTEX
  5
6A
330
3C
100
AcDbEntity
  8
Livello 1
 62
   178
420
   328448
370
     9
100
AcDbVertex
100
AcDb2dVertex
 10
-99.58048500114656
 20
-468.8351208680343
 30
0.0
  0
VERTEX
  5
6B
330
3C
100
AcDbEntity
  8
Livello 1
 62
   178
420
   328448
370
     9
100
AcDbVertex
100
AcDb2dVertex
 10
-112.4852959245697
 20
-458.4323105407739
 30
0.0
  0
VERTEX
  5
6C
330
3C
100
AcDbEntity
  8
Livello 1
 62
   178
420
   328448
370
     9
100
AcDbVertex
100
AcDb2dVertex
 10
-125.3959635103177
 20
-447.3253226963284
 30
0.0
  0
VERTEX
  5
6D
330
3C
100
AcDbEntity
  8
Livello 1
 62
   178
420
   328448
370
     9
100
AcDbVertex
100
AcDb2dVertex
 10
-137.5871229039713
 20
-435.8600449214169
 30
0.0
  0
VERTEX
  5
6E
330
3C
100
AcDbEntity
  8
Livello 1
 62
   178
420
   328448
370
     9
100
AcDbVertex
100
AcDb2dVertex
 10
-149.0618746914672
 20
-423.6661294513751
 30
0.0
  0
VERTEX
  5
6F
330
3C
100
AcDbEntity
  8
Livello 1
 62
   178
420
   328448
370
     9
100
AcDbVertex
100
AcDb2dVertex
 10
-160.1750637077861
 20
-411.1104789553821
 30
0.0
  0
VERTEX
  5
70
330
3C
100
AcDbEntity
  8
Livello 1
 62
   178
420
   328448
370
     9
100
AcDbVertex
100
AcDb2dVertex
 10
-170.5682277676878
 20
-397.844105260782
 30
0.0
  0
VERTEX
  5
71
330
3C
100
AcDbEntity
  8
Livello 1
 62
   178
420
   328448
370
     9
100
AcDbVertex
100
AcDb2dVertex
 10
-180.2515299028538
 20
-383.8649413102838
 30
0.0
  0
VERTEX
  5
72
330
3C
100
AcDbEntity
  8
Livello 1
 62
   178
420
   328448
370
     9
100
AcDbVertex
100
AcDb2dVertex
 10
-189.2153238459254
 20
-369.8757865828783
 30
0.0
  0
VERTEX
  5
73
330
3C
100
AcDbEntity
  8
Livello 1
 62
   178
420
   328448
370
     9
100
AcDbVertex
100
AcDb2dVertex
 10
-197.8204833489824
 20
-355.1800427714481
 30
0.0
  0
VERTEX
  5
74
330
3C
100
AcDbEntity
  8
Livello 1
 62
   178
420
   328448
370
     9
100
AcDbVertex
100
AcDb2dVertex
 10
-205.3506008058672
 20
-340.1156737430961
 30
0.0
  0
VERTEX
  5
75
330
3C
100
AcDbEntity
  8
Livello 1
 62
   178
420
   328448
370
     9
100
AcDbVertex
100
AcDb2dVertex
 10
-212.5193277463493
 20
-324.7002494847972
 30
0.0
  0
VERTEX
  5
76
330
3C
100
AcDbEntity
  8
Livello 1
 62
   178
420
   328448
370
     9
100
AcDbVertex
100
AcDb2dVertex
 10
-218.6166299909188
 20
-308.5682453655663
 30
0.0
  0
VERTEX
  5
77
330
3C
100
AcDbEntity
  8
Livello 1
 62
   178
420
   328448
370
     9
100
AcDbVertex
100
AcDb2dVertex
 10
-224.3556423050222
 20
-292.4286620362678
 30
0.0
  0
VERTEX
  5
78
330
3C
100
AcDbEntity
  8
Livello 1
 62
   178
420
   328448
370
     9
100
AcDbVertex
100
AcDb2dVertex
 10
-229.0165119870167
 20
-275.9356119101828
 30
0.0
  0
VERTEX
  5
79
330
3C
100
AcDbEntity
  8
Livello 1
 62
   178
420
   328448
370
     9
100
AcDbVertex
100
AcDb2dVertex
 10
-232.9575289673683
 20
-258.7249483945201
 30
0.0
  0
VERTEX
  5
7A
330
3C
100
AcDbEntity
  8
Livello 1
 62
   178
420
   328448
370
     9
100
AcDbVertex
100
AcDb2dVertex
 10
-235.8302218377438
 20
-241.5149738979546
 30
0.0
  0
VERTEX
  5
7B
330
3C
100
AcDbEntity
  8
Livello 1
 62
   178
420
   328448
370
     9
100
AcDbVertex
100
AcDb2dVertex
 10
-238.3380790962315
 20
-223.9491210377627
 30
0.0
  0
VERTEX
  5
7C
330
3C
100
AcDbEntity
  8
Livello 1
 62
   178
420
   328448
370
     9
100
AcDbVertex
100
AcDb2dVertex
 10
-239.4127766328552
 20
-206.3808566107312
 30
0.0
  0
VERTEX
  5
7D
330
3C
100
AcDbEntity
  8
Livello 1
 62
   178
420
   328448
370
     9
100
AcDbVertex
100
AcDb2dVertex
 10
-240.1297010033356
 20
-188.4505126481999
 30
0.0
  0
VERTEX
  5
7E
330
3C
100
AcDbEntity
  8
Livello 1
 62
   178
420
   328448
370
     9
100
AcDbVertex
100
AcDb2dVertex
 10
-239.4127766328552
 20
-170.1653238506879
 30
0.0
  0
VERTEX
  5
7F
330
3C
100
AcDbEntity
  8
Livello 1
 62
   178
420
   328448
370
     9
100
AcDbVertex
100
AcDb2dVertex
 10
-238.3380790962315
 20
-152.5970594236563
 30
0.0
  0
VERTEX
  5
80
330
3C
100
AcDbEntity
  8
Livello 1
 62
   178
420
   328448
370
     9
100
AcDbVertex
100
AcDb2dVertex
 10
-235.8302218377438
 20
-135.0281059775277
 30
0.0
  0
VERTEX
  5
81
330
3C
100
AcDbEntity
  8
Livello 1
 62
   178
420
   328448
370
     9
100
AcDbVertex
100
AcDb2dVertex
 10
-232.9575289673683
 20
-117.8143418759284
 30
0.0
  0
VERTEX
  5
82
330
3C
100
AcDbEntity
  8
Livello 1
 62
   178
420
   328448
370
     9
100
AcDbVertex
100
AcDb2dVertex
 10
-229.0165119870167
 20
-100.9688584817022
 30
0.0
  0
VERTEX
  5
83
330
3C
100
AcDbEntity
  8
Livello 1
 62
   178
420
   328448
370
     9
100
AcDbVertex
100
AcDb2dVertex
 10
-224.3556423050222
 20
-84.11407332966593
 30
0.0
  0
VERTEX
  5
84
330
3C
100
AcDbEntity
  8
Livello 1
 62
   178
420
   328448
370
     9
100
AcDbVertex
100
AcDb2dVertex
 10
-218.6166299909188
 20
-67.97483450991602
 30
0.0
  0
VERTEX
  5
85
330
3C
100
AcDbEntity
  8
Livello 1
 62
   178
420
   328448
370
     9
100
AcDbVertex
100
AcDb2dVertex
 10
-212.5193277463493
 20
-52.20422090708784
 30
0.0
  0
VERTEX
  5
86
330
3C
100
AcDbEntity
  8
Livello 1
 62
   178
420
   328448
370
     9
100
AcDbVertex
100
AcDb2dVertex
 10
-205.3506008058672
 20
-36.78259547691546
 30
0.0
  0
VERTEX
  5
87
330
3C
100
AcDbEntity
  8
Livello 1
 62
   178
420
   328448
370
     9
100
AcDbVertex
100
AcDb2dVertex
 10
-197.8204833489824
 20
-21.36613768997097
 30
0.0
  0
VERTEX
  5
88
330
3C
100
AcDbEntity
  8
Livello 1
 62
   178
420
   328448
370
     9
100
AcDbVertex
100
AcDb2dVertex
 10
-189.2153238459254
 20
-7.025238713521468
 30
0.0
  0
VERTEX
  5
89
330
3C
100
AcDbEntity
  8
Livello 1
 62
   178
420
   328448
370
     9
100
AcDbVertex
100
AcDb2dVertex
 10
-180.2515299028538
 20
7.315315753379505
 30
0.0
  0
VERTEX
  5
8A
330
3C
100
AcDbEntity
  8
Livello 1
 62
   178
420
   328448
370
     9
100
AcDbVertex
100
AcDb2dVertex
 10
-170.5682277676878
 20
20.93963486889704
 30
0.0
  0
VERTEX
  5
8B
330
3C
100
AcDbEntity
  8
Livello 1
 62
   178
420
   328448
370
     9
100
AcDbVertex
100
AcDb2dVertex
 10
-160.1750637077861
 20
34.20842013033678
 30
0.0
  0
VERTEX
  5
8C
330
3C
100
AcDbEntity
  8
Livello 1
 62
   178
420
   328448
370
     9
100
AcDbVertex
100
AcDb2dVertex
 10
-149.0618746914672
 20
47.11340330853415
 30
0.0
  0
VERTEX
  5
8D
330
3C
100
AcDbEntity
  8
Livello 1
 62
   178
420
   328448
370
     9
100
AcDbVertex
100
AcDb2dVertex
 10
-137.5871229039713
 20
58.94627277172177
 30
0.0
  0
VERTEX
  5
8E
330
3C
100
AcDbEntity
  8
Livello 1
 62
   178
420
   328448
370
     9
100
AcDbVertex
100
AcDb2dVertex
 10
-125.3959635103177
 20
70.78258733039463
 30
0.0
  0
VERTEX
  5
8F
330
3C
100
AcDbEntity
  8
Livello 1
 62
   178
420
   328448
370
     9
100
AcDbVertex
100
AcDb2dVertex
 10
-112.4852959245697
 20
81.53438583031085
 30
0.0
  0
VERTEX
  5
90
330
3C
100
AcDbEntity
  8
Livello 1
 62
   178
420
   328448
370
     9
100
AcDbVertex
100
AcDb2dVertex
 10
-99.58048500114656
 20
91.93375106208602
 30
0.0
  0
VERTEX
  5
91
330
3C
100
AcDbEntity
  8
Livello 1
 62
   178
420
   328448
370
     9
100
AcDbVertex
100
AcDb2dVertex
 10
-85.5980482099373
 20
101.9724147965555
 30
0.0
  0
VERTEX
  5
92
330
3C
100
AcDbEntity
  8
Livello 1
 62
   178
420
   328448
370
     9
100
AcDbVertex
100
AcDb2dVertex
 10
-71.61561141872805
 20
110.9389648160153
 30
0.0
  0
VERTEX
  5
93
330
3C
100
AcDbEntity
  8
Livello 1
 62
   178
420
   328448
370
     9
100
AcDbVertex
100
AcDb2dVertex
 10
-56.90970457561632
 20
119.5470526502348
 30
0.0
  0
VERTEX
  5
94
330
3C
100
AcDbEntity
  8
Livello 1
 62
   178
420
   328448
370
     9
100
AcDbVertex
100
AcDb2dVertex
 10
-41.85515406939732
 20
127.0776868714424
 30
0.0
  0
VERTEX
  5
95
330
3C
100
AcDbEntity
  8
Livello 1
 62
   178
420
   328448
370
     9
100
AcDbVertex
100
AcDb2dVertex
 10
-26.07489419921044
 20
134.2431409712135
 30
0.0
  0
VERTEX
  5
96
330
3C
100
AcDbEntity
  8
Livello 1
 62
   178
420
   328448
370
     9
100
AcDbVertex
100
AcDb2dVertex
 10
-10.3013522652198
 20
140.3373426298462
 30
0.0
  0
VERTEX
  5
97
330
3C
100
AcDbEntity
  8
Livello 1
 62
   178
420
   328448
370
     9
100
AcDbVertex
100
AcDb2dVertex
 10
5.837542044981587
 20
145.7209933446462
 30
0.0
  0
VERTEX
  5
98
330
3C
100
AcDbEntity
  8
Livello 1
 62
   178
420
   328448
370
     9
100
AcDbVertex
100
AcDb2dVertex
 10
22.32490776351599
 20
150.7401529571066
 30
0.0
  0
VERTEX
  5
99
330
3C
100
AcDbEntity
  8
Livello 1
 62
   178
420
   328448
370
     9
100
AcDbVertex
100
AcDb2dVertex
 10
39.53849961034107
 20
154.67841386107
 30
0.0
  0
VERTEX
  5
9A
330
3C
100
AcDbEntity
  8
Livello 1
 62
   178
420
   328448
370
     9
100
AcDbVertex
100
AcDb2dVertex
 10
56.74881861645516
 20
157.5473171264118
 30
0.0
  0
VERTEX
  5
9B
330
3C
100
AcDbEntity
  8
Livello 1
 62
   178
420
   328448
370
     9
100
AcDbVertex
100
AcDb2dVertex
 10
74.32052813897195
 20
159.7041191549525
 30
0.0
  0
VERTEX
  5
9C
330
3C
100
AcDbEntity
  8
Livello 1
 62
   178
420
   328448
370
     9
100
AcDbVertex
100
AcDb2dVertex
 10
91.88603648961531
 20
161.1369343672679
 30
0.0
  0
VERTEX
  5
9D
330
3C
100
AcDbEntity
  8
Livello 1
 62
   178
420
   328448
370
     9
100
AcDbVertex
100
AcDb2dVertex
 10
109.8129353566614
 20
161.4921237117971
 30
0.0
  0
VERTEX
  5
9E
330
3C
100
AcDbEntity
  8
Livello 1
 62
   178
420
   328448
370
     9
100
AcDbVertex
100
AcDb2dVertex
 10
128.1017415044329
 20
161.1369343672679
 30
0.0
  0
VERTEX
  5
9F
330
3C
100
AcDbEntity
  8
Livello 1
 62
   178
420
   328448
370
     9
100
AcDbVertex
100
AcDb2dVertex
 10
145.6698336766902
 20
159.7041191549525
 30
0.0
  0
VERTEX
  5
A0
330
3C
100
AcDbEntity
  8
Livello 1
 62
   178
420
   328448
370
     9
100
AcDbVertex
100
AcDb2dVertex
 10
163.2386148680445
 20
157.5473171264118
 30
0.0
  0
VERTEX
  5
A1
330
3C
100
AcDbEntity
  8
Livello 1
 62
   178
420
   328448
370
     9
100
AcDbVertex
100
AcDb2dVertex
 10
180.4489338741586
 20
154.67841386107
 30
0.0
  0
VERTEX
  5
A2
330
3C
100
AcDbEntity
  8
Livello 1
 62
   178
420
   328448
370
     9
100
AcDbVertex
100
AcDb2dVertex
 10
197.3009629498067
 20
150.7401529571066
 30
0.0
  0
VERTEX
  5
A3
330
3C
100
AcDbEntity
  8
Livello 1
 62
   178
420
   328448
370
     9
100
AcDbVertex
100
AcDb2dVertex
 10
214.1502359490666
 20
145.7209933446462
 30
0.0
  0
VERTEX
  5
A4
330
3C
100
AcDbEntity
  8
Livello 1
 62
   178
420
   328448
370
     9
100
AcDbVertex
100
AcDb2dVertex
 10
230.2853406542342
 20
140.3373426298462
 30
0.0
  0
VERTEX
  5
A5
330
3C
100
AcDbEntity
  8
Livello 1
 62
   178
420
   328448
370
     9
100
AcDbVertex
100
AcDb2dVertex
 10
246.0624999384844
 20
134.2431409712135
 30
0.0
  0
VERTEX
  5
A6
330
3C
100
AcDbEntity
  8
Livello 1
 62
   178
420
   328448
370
     9
100
AcDbVertex
100
AcDb2dVertex
 10
261.4813692922685
 20
127.0776868714424
 30
0.0
  0
VERTEX
  5
A7
330
3C
100
AcDbEntity
  8
Livello 1
 62
   178
420
   328448
370
     9
100
AcDbVertex
100
AcDb2dVertex
 10
276.9005831556013
 20
119.5470526502348
 30
0.0
  0
VERTEX
  5
A8
330
3C
100
AcDbEntity
  8
Livello 1
 62
   178
420
   328448
370
     9
100
AcDbVertex
100
AcDb2dVertex
 10
291.2414821320507
 20
110.9389648160153
 30
0.0
  0
VERTEX
  5
A9
330
3C
100
AcDbEntity
  8
Livello 1
 62
   178
420
   328448
370
     9
100
AcDbVertex
100
AcDb2dVertex
 10
305.5823811085003
 20
101.9724147965555
 30
0.0
  0
VERTEX
  5
AA
330
3C
100
AcDbEntity
  8
Livello 1
 62
   178
420
   328448
370
     9
100
AcDbVertex
100
AcDb2dVertex
 10
319.2101453195031
 20
91.93375106208602
 30
0.0
  0
VERTEX
  5
AB
330
3C
100
AcDbEntity
  8
Livello 1
 62
   178
420
   328448
370
     9
100
AcDbVertex
100
AcDb2dVertex
 10
332.4758299950061
 20
81.53438583031085
 30
0.0
  0
VERTEX
  5
AC
330
3C
100
AcDbEntity
  8
Livello 1
 62
   178
420
   328448
370
     9
100
AcDbVertex
100
AcDb2dVertex
 10
345.3801241541064
 20
70.78258733039463
 30
0.0
  0
VERTEX
  5
AD
330
3C
100
AcDbEntity
  8
Livello 1
 62
   178
420
   328448
370
     9
100
AcDbVertex
100
AcDb2dVertex
 10
357.2133381268425
 20
58.94627277172177
 30
0.0
  0
VERTEX
  5
AE
330
3C
100
AcDbEntity
  8
Livello 1
 62
   178
420
   328448
370
     9
100
AcDbVertex
100
AcDb2dVertex
 10
369.0462075900301
 20
47.11340330853415
 30
0.0
  0
VERTEX
  5
AF
330
3C
100
AcDbEntity
  8
Livello 1
 62
   178
420
   328448
370
     9
100
AcDbVertex
100
AcDb2dVertex
 10
379.8042072618198
 20
34.20842013033678
 30
0.0
  0
VERTEX
  5
B0
330
3C
100
AcDbEntity
  8
Livello 1
 62
   178
420
   328448
370
     9
100
AcDbVertex
100
AcDb2dVertex
 10
390.2011609267553
 20
20.93963486889704
 30
0.0
  0
VERTEX
  5
B1
330
3C
100
AcDbEntity
  8
Livello 1
 62
   178
420
   328448
370
     9
100
AcDbVertex
100
AcDb2dVertex
 10
400.2394801516763
 20
7.315315753379505
 30
0.0
  0
VERTEX
  5
B2
330
3C
100
AcDbEntity
  8
Livello 1
 62
   178
420
   328448
370
     9
100
AcDbVertex
100
AcDb2dVertex
 10
409.2025850756507
 20
-7.025238713521468
 30
0.0
  0
VERTEX
  5
B3
330
3C
100
AcDbEntity
  8
Livello 1
 62
   178
420
   328448
370
     9
100
AcDbVertex
100
AcDb2dVertex
 10
417.8080890882563
 20
-21.36613768997097
 30
0.0
  0
VERTEX
  5
B4
330
3C
100
AcDbEntity
  8
Livello 1
 62
   178
420
   328448
370
     9
100
AcDbVertex
100
AcDb2dVertex
 10
425.3380342903669
 20
-36.78259547691546
 30
0.0
  0
VERTEX
  5
B5
330
3C
100
AcDbEntity
  8
Livello 1
 62
   178
420
   328448
370
     9
100
AcDbVertex
100
AcDb2dVertex
 10
432.51003407156
 20
-52.20422090708784
 30
0.0
  0
VERTEX
  5
B6
330
3C
100
AcDbEntity
  8
Livello 1
 62
   178
420
   328448
370
     9
100
AcDbVertex
100
AcDb2dVertex
 10
438.6040634754185
 20
-67.97483450991602
 30
0.0
  0
VERTEX
  5
B7
330
3C
100
AcDbEntity
  8
Livello 1
 62
   178
420
   328448
370
     9
100
AcDbVertex
100
AcDb2dVertex
 10
443.982202037442
 20
-84.11407332966593
 30
0.0
  0
VERTEX
  5
B8
330
3C
100
AcDbEntity
  8
Livello 1
 62
   178
420
   328448
370
     9
100
AcDbVertex
100
AcDb2dVertex
 10
449.0006726308054
 20
-100.9688584817022
 30
0.0
  0
VERTEX
  5
B9
330
3C
100
AcDbEntity
  8
Livello 1
 62
   178
420
   328448
370
     9
100
AcDbVertex
100
AcDb2dVertex
 10
452.5870170309505
 20
-117.8143418759284
 30
0.0
  0
VERTEX
  5
BA
330
3C
100
AcDbEntity
  8
Livello 1
 62
   178
420
   328448
370
     9
100
AcDbVertex
100
AcDb2dVertex
 10
455.814037971984
 20
-135.0281059775277
 30
0.0
  0
VERTEX
  5
BB
330
3C
100
AcDbEntity
  8
Livello 1
 62
   178
420
   328448
370
     9
100
AcDbVertex
100
AcDb2dVertex
 10
457.9672226502652
 20
-152.5970594236563
 30
0.0
  0
VERTEX
  5
BC
330
3C
100
AcDbEntity
  8
Livello 1
 62
   178
420
   328448
370
     9
100
AcDbVertex
100
AcDb2dVertex
 10
459.4038274676143
 20
-170.1653238506879
 30
0.0
  0
VERTEX
  5
BD
330
3C
100
AcDbEntity
  8
Livello 1
 62
   178
420
   328448
370
     9
100
AcDbVertex
100
AcDb2dVertex
 10
459.7590168121436
 20
-188.4505126481999
 30
0.0
  0
SEQEND
  5
BE
330
3C
100
AcDbEntity
  8
Livello 1
370
     9
  0
POLYLINE
  5
BF
330
1F
100
AcDbEntity
  8
Livello 1
 62
   178
420
   328448
370
     9
100
AcDb2dPolyline
 66
     1
 10
0.0
 20
0.0
 30
0.0
  0
VERTEX
  5
C0
330
BF
100
AcDbEntity
  8
Livello 1
 62
   178
420
   328448
370
     9
100
AcDbVertex
100
AcDb2dVertex
 10
439.6789332668164
 20
-188.4505126481999
 30
0.0
  0
VERTEX
  5
C1
330
BF
100
AcDbEntity
  8
Livello 1
 62
   178
420
   328448
370
     9
100
AcDbVertex
100
AcDb2dVertex
 10
438.9620088963359
 20
-205.3056423097847
 30
0.0
  0
VERTEX
  5
C2
330
BF
100
AcDbEntity
  8
Livello 1
 62
   178
420
   328448
370
     9
100
AcDbVertex
100
AcDb2dVertex
 10
437.887828124035
 20
-222.1514702135594
 30
0.0
  0
VERTEX
  5
C3
330
BF
100
AcDbEntity
  8
Livello 1
 62
   178
420
   328448
370
     9
100
AcDbVertex
100
AcDb2dVertex
 10
435.7380885412391
 20
-238.6483099446782
 30
0.0
  0
VERTEX
  5
C4
330
BF
100
AcDbEntity
  8
Livello 1
 62
   178
420
   328448
370
     9
100
AcDbVertex
100
AcDb2dVertex
 10
432.8686685115745
 20
-254.7872042548796
 30
0.0
  0
VERTEX
  5
C5
330
BF
100
AcDbEntity
  8
Livello 1
 62
   178
420
   328448
370
     9
100
AcDbVertex
100
AcDb2dVertex
 10
429.2854246973662
 20
-270.5581623672563
 30
0.0
  0
VERTEX
  5
C6
330
BF
100
AcDbEntity
  8
Livello 1
 62
   178
420
   328448
370
     9
100
AcDbVertex
100
AcDb2dVertex
 10
424.6245550153716
 20
-286.3353216515064
 30
0.0
  0
VERTEX
  5
C7
330
BF
100
AcDbEntity
  8
Livello 1
 62
   178
420
   328448
370
     9
100
AcDbVertex
100
AcDb2dVertex
 10
419.6019503074259
 20
-301.7510904193539
 30
0.0
  0
VERTEX
  5
C8
330
BF
100
AcDbEntity
  8
Livello 1
 62
   178
420
   328448
370
     9
100
AcDbVertex
100
AcDb2dVertex
 10
413.508265413116
 20
-316.8113253331236
 30
0.0
  0
VERTEX
  5
C9
330
BF
100
AcDbEntity
  8
Livello 1
 62
   178
420
   328448
370
     9
100
AcDbVertex
100
AcDb2dVertex
 10
407.0531900024034
 20
-331.1522243095731
 30
0.0
  0
VERTEX
  5
CA
330
BF
100
AcDbEntity
  8
Livello 1
 62
   178
420
   328448
370
     9
100
AcDbVertex
100
AcDb2dVertex
 10
399.884290807147
 20
-345.4965683815078
 30
0.0
  0
VERTEX
  5
CB
330
BF
100
AcDbEntity
  8
Livello 1
 62
   178
420
   328448
370
     9
100
AcDbVertex
100
AcDb2dVertex
 10
391.9953666554734
 20
-359.1205429874768
 30
0.0
  0
VERTEX
  5
CC
330
BF
100
AcDbEntity
  8
Livello 1
 62
   178
420
   328448
370
     9
100
AcDbVertex
100
AcDb2dVertex
 10
383.3905516619649
 20
-372.7455511220914
 30
0.0
  0
VERTEX
  5
CD
330
BF
100
AcDbEntity
  8
Livello 1
 62
   178
420
   328448
370
     9
100
AcDbVertex
100
AcDb2dVertex
 10
374.0657117120392
 20
-385.6495007716432
 30
0.0
  0
VERTEX
  5
CE
330
BF
100
AcDbEntity
  8
Livello 1
 62
   178
420
   328448
370
     9
100
AcDbVertex
100
AcDb2dVertex
 10
364.3856824175842
 20
-397.844105260782
 30
0.0
  0
VERTEX
  5
CF
330
BF
100
AcDbEntity
  8
Livello 1
 62
   178
420
   328448
370
     9
100
AcDbVertex
100
AcDb2dVertex
 10
353.9859726762605
 20
-410.0352646544357
 30
0.0
  0
VERTEX
  5
D0
330
BF
100
AcDbEntity
  8
Livello 1
 62
   178
420
   328448
370
     9
100
AcDbVertex
100
AcDb2dVertex
 10
342.872439150393
 20
-421.5160453590307
 30
0.0
  0
VERTEX
  5
D1
330
BF
100
AcDbEntity
  8
Livello 1
 62
   178
420
   328448
370
     9
100
AcDbVertex
100
AcDb2dVertex
 10
331.4013047131566
 20
-432.2643987634617
 30
0.0
  0
VERTEX
  5
D2
330
BF
100
AcDbEntity
  8
Livello 1
 62
   178
420
   328448
370
     9
100
AcDbVertex
100
AcDb2dVertex
 10
319.5649901544838
 20
-442.6678981098191
 30
0.0
  0
VERTEX
  5
D3
330
BF
100
AcDbEntity
  8
Livello 1
 62
   178
420
   328448
370
     9
100
AcDbVertex
100
AcDb2dVertex
 10
307.0151963208157
 20
-452.3410372133037
 30
0.0
  0
VERTEX
  5
D4
330
BF
100
AcDbEntity
  8
Livello 1
 62
   178
420
   328448
370
     9
100
AcDbVertex
100
AcDb2dVertex
 10
294.1105576521668
 20
-461.6696667682631
 30
0.0
  0
VERTEX
  5
D5
330
BF
100
AcDbEntity
  8
Livello 1
 62
   178
420
   328448
370
     9
100
AcDbVertex
100
AcDb2dVertex
 10
280.8414278811786
 20
-470.2813719527422
 30
0.0
  0
VERTEX
  5
D6
330
BF
100
AcDbEntity
  8
Livello 1
 62
   178
420
   328448
370
     9
100
AcDbVertex
100
AcDb2dVertex
 10
267.2174532752096
 20
-478.1634059134453
 30
0.0
  0
VERTEX
  5
D7
330
BF
100
AcDbEntity
  8
Livello 1
 62
   178
420
   328448
370
     9
100
AcDbVertex
100
AcDb2dVertex
 10
252.8762097892115
 20
-485.3288600132164
 30
0.0
  0
VERTEX
  5
D8
330
BF
100
AcDbEntity
  8
Livello 1
 62
   178
420
   328448
370
     9
100
AcDbVertex
100
AcDb2dVertex
 10
238.1773653918445
 20
-492.1491155453655
 30
0.0
  0
VERTEX
  5
D9
330
BF
100
AcDbEntity
  8
Livello 1
 62
   178
420
   328448
370
     9
100
AcDbVertex
100
AcDb2dVertex
 10
223.1195420449146
 20
-497.8820989423698
 30
0.0
  0
VERTEX
  5
DA
330
BF
100
AcDbEntity
  8
Livello 1
 62
   178
420
   328448
370
     9
100
AcDbVertex
100
AcDb2dVertex
 10
208.0558620356597
 20
-503.2554143707139
 30
0.0
  0
VERTEX
  5
DB
330
BF
100
AcDbEntity
  8
Livello 1
 62
   178
420
   328448
370
     9
100
AcDbVertex
100
AcDb2dVertex
 10
192.2821478468948
 20
-507.5679848991497
 30
0.0
  0
VERTEX
  5
DC
330
BF
100
AcDbEntity
  8
Livello 1
 62
   178
420
   328448
370
     9
100
AcDbVertex
100
AcDb2dVertex
 10
176.5015434671593
 20
-511.1508842038095
 30
0.0
  0
VERTEX
  5
DD
330
BF
100
AcDbEntity
  8
Livello 1
 62
   178
420
   328448
370
     9
100
AcDbVertex
100
AcDb2dVertex
 10
160.010904907914
 20
-514.0175481570859
 30
0.0
  0
VERTEX
  5
DE
330
BF
100
AcDbEntity
  8
Livello 1
 62
   178
420
   328448
370
     9
100
AcDbVertex
100
AcDb2dVertex
 10
143.5202663486685
 20
-516.1669432303332
 30
0.0
  0
VERTEX
  5
DF
330
BF
100
AcDbEntity
  8
Livello 1
 62
   178
420
   328448
370
     9
100
AcDbVertex
100
AcDb2dVertex
 10
127.0230821080012
 20
-517.6131943150411
 30
0.0
  0
VERTEX
  5
E0
330
BF
100
AcDbEntity
  8
Livello 1
 62
   178
420
   328448
370
     9
100
AcDbVertex
100
AcDb2dVertex
 10
109.8129353566614
 20
-517.9580483731147
 30
0.0
  0
VERTEX
  5
E1
330
BF
100
AcDbEntity
  8
Livello 1
 62
   178
420
   328448
370
     9
100
AcDbVertex
100
AcDb2dVertex
 10
92.96417912172424
 20
-517.6131943150411
 30
0.0
  0
VERTEX
  5
E2
330
BF
100
AcDbEntity
  8
Livello 1
 62
   178
420
   328448
370
     9
100
AcDbVertex
100
AcDb2dVertex
 10
76.1090494601394
 20
-516.1669432303332
 30
0.0
  0
VERTEX
  5
E3
330
BF
100
AcDbEntity
  8
Livello 1
 62
   178
420
   328448
370
     9
100
AcDbVertex
100
AcDb2dVertex
 10
59.61823864611975
 20
-514.0175481570859
 30
0.0
  0
VERTEX
  5
E4
330
BF
100
AcDbEntity
  8
Livello 1
 62
   178
420
   328448
370
     9
100
AcDbVertex
100
AcDb2dVertex
 10
43.48278943140361
 20
-511.1508842038095
 30
0.0
  0
VERTEX
  5
E5
330
BF
100
AcDbEntity
  8
Livello 1
 62
   178
420
   328448
370
     9
100
AcDbVertex
100
AcDb2dVertex
 10
27.70545789237919
 20
-507.5679848991497
 30
0.0
  0
VERTEX
  5
E6
330
BF
100
AcDbEntity
  8
Livello 1
 62
   178
420
   328448
370
     9
100
AcDbVertex
100
AcDb2dVertex
 10
11.93174370361429
 20
-503.2554143707139
 30
0.0
  0
VERTEX
  5
E7
330
BF
100
AcDbEntity
  8
Livello 1
 62
   178
420
   328448
370
     9
100
AcDbVertex
100
AcDb2dVertex
 10
-3.487642414492673
 20
-497.8820989423698
 30
0.0
  0
VERTEX
  5
E8
330
BF
100
AcDbEntity
  8
Livello 1
 62
   178
420
   328448
370
     9
100
AcDbVertex
100
AcDb2dVertex
 10
-18.18975965257061
 20
-492.1491155453655
 30
0.0
  0
VERTEX
  5
E9
330
BF
100
AcDbEntity
  8
Livello 1
 62
   178
420
   328448
370
     9
100
AcDbVertex
100
AcDb2dVertex
 10
-32.88860404993757
 20
-485.3288600132164
 30
0.0
  0
VERTEX
  5
EA
330
BF
100
AcDbEntity
  8
Livello 1
 62
   178
420
   328448
370
     9
100
AcDbVertex
100
AcDb2dVertex
 10
-47.22950302638707
 20
-478.1634059134453
 30
0.0
  0
VERTEX
  5
EB
330
BF
100
AcDbEntity
  8
Livello 1
 62
   178
420
   328448
370
     9
100
AcDbVertex
100
AcDb2dVertex
 10
-60.85743949216412
 20
-470.2813719527422
 30
0.0
  0
VERTEX
  5
EC
330
BF
100
AcDbEntity
  8
Livello 1
 62
   178
420
   328448
370
     9
100
AcDbVertex
100
AcDb2dVertex
 10
-74.48193086245591
 20
-461.6696667682631
 30
0.0
  0
VERTEX
  5
ED
330
BF
100
AcDbEntity
  8
Livello 1
 62
   178
420
   328448
370
     9
100
AcDbVertex
100
AcDb2dVertex
 10
-87.38622502155623
 20
-452.3410372133037
 30
0.0
  0
VERTEX
  5
EE
330
BF
100
AcDbEntity
  8
Livello 1
 62
   178
420
   328448
370
     9
100
AcDbVertex
100
AcDb2dVertex
 10
-99.58048500114656
 20
-442.6678981098191
 30
0.0
  0
VERTEX
  5
EF
330
BF
100
AcDbEntity
  8
Livello 1
 62
   178
420
   328448
370
     9
100
AcDbVertex
100
AcDb2dVertex
 10
-111.7718166495744
 20
-432.2643987634617
 30
0.0
  0
VERTEX
  5
F0
330
BF
100
AcDbEntity
  8
Livello 1
 62
   178
420
   328448
370
     9
100
AcDbVertex
100
AcDb2dVertex
 10
-123.2431233415851
 20
-421.5160453590307
 30
0.0
  0
VERTEX
  5
F1
330
BF
100
AcDbEntity
  8
Livello 1
 62
   178
420
   328448
370
     9
100
AcDbVertex
100
AcDb2dVertex
 10
-134.001295268149
 20
-410.0352646544357
 30
0.0
  0
VERTEX
  5
F2
330
BF
100
AcDbEntity
  8
Livello 1
 62
   178
420
   328448
370
     9
100
AcDbVertex
100
AcDb2dVertex
 10
-144.3975599139874
 20
-397.844105260782
 30
0.0
  0
VERTEX
  5
F3
330
BF
100
AcDbEntity
  8
Livello 1
 62
   178
420
   328448
370
     9
100
AcDbVertex
100
AcDb2dVertex
 10
-154.0777614632167
 20
-385.6495007716432
 30
0.0
  0
VERTEX
  5
F4
330
BF
100
AcDbEntity
  8
Livello 1
 62
   178
420
   328448
370
     9
100
AcDbVertex
100
AcDb2dVertex
 10
-163.3993285724314
 20
-372.7455511220914
 30
0.0
  0
VERTEX
  5
F5
330
BF
100
AcDbEntity
  8
Livello 1
 62
   178
420
   328448
370
     9
100
AcDbVertex
100
AcDb2dVertex
 10
-172.0079331709737
 20
-359.1205429874768
 30
0.0
  0
VERTEX
  5
F6
330
BF
100
AcDbEntity
  8
Livello 1
 62
   178
420
   328448
370
     9
100
AcDbVertex
100
AcDb2dVertex
 10
-179.8932399723878
 20
-345.4965683815078
 30
0.0
  0
VERTEX
  5
F7
330
BF
100
AcDbEntity
  8
Livello 1
 62
   178
420
   328448
370
     9
100
AcDbVertex
100
AcDb2dVertex
 10
-187.0652397535809
 20
-331.1522243095731
 30
0.0
  0
VERTEX
  5
F8
330
BF
100
AcDbEntity
  8
Livello 1
 62
   178
420
   328448
370
     9
100
AcDbVertex
100
AcDb2dVertex
 10
-193.878949604308
 20
-316.8113253331236
 30
0.0
  0
VERTEX
  5
F9
330
BF
100
AcDbEntity
  8
Livello 1
 62
   178
420
   328448
370
     9
100
AcDbVertex
100
AcDb2dVertex
 10
-199.6148613324748
 20
-301.7510904193539
 30
0.0
  0
VERTEX
  5
FA
330
BF
100
AcDbEntity
  8
Livello 1
 62
   178
420
   328448
370
     9
100
AcDbVertex
100
AcDb2dVertex
 10
-204.9926553849498
 20
-286.3353216515064
 30
0.0
  0
VERTEX
  5
FB
330
BF
100
AcDbEntity
  8
Livello 1
 62
   178
420
   328448
370
     9
100
AcDbVertex
100
AcDb2dVertex
 10
-209.2916177862188
 20
-270.5581623672563
 30
0.0
  0
VERTEX
  5
FC
330
BF
100
AcDbEntity
  8
Livello 1
 62
   178
420
   328448
370
     9
100
AcDbVertex
100
AcDb2dVertex
 10
-212.8807182627521
 20
-254.7872042548796
 30
0.0
  0
VERTEX
  5
FD
330
BF
100
AcDbEntity
  8
Livello 1
 62
   178
420
   328448
370
     9
100
AcDbVertex
100
AcDb2dVertex
 10
-215.7504828019652
 20
-238.6483099446782
 30
0.0
  0
VERTEX
  5
FE
330
BF
100
AcDbEntity
  8
Livello 1
 62
   178
420
   328448
370
     9
100
AcDbVertex
100
AcDb2dVertex
 10
-217.9000501299868
 20
-222.1514702135594
 30
0.0
  0
VERTEX
  5
FF
330
BF
100
AcDbEntity
  8
Livello 1
 62
   178
420
   328448
370
     9
100
AcDbVertex
100
AcDb2dVertex
 10
-219.3363104377875
 20
-205.3056423097847
 30
0.0
  0
VERTEX
  5
100
330
BF
100
AcDbEntity
  8
Livello 1
 62
   178
420
   328448
370
     9
100
AcDbVertex
100
AcDb2dVertex
 10
-219.6944281134792
 20
-188.4505126481999
 30
0.0
  0
VERTEX
  5
101
330
BF
100
AcDbEntity
  8
Livello 1
 62
   178
420
   328448
370
     9
100
AcDbVertex
100
AcDb2dVertex
 10
-219.3363104377875
 20
-171.2405381516343
 30
0.0
  0
VERTEX
  5
102
330
BF
100
AcDbEntity
  8
Livello 1
 62
   178
420
   328448
370
     9
100
AcDbVertex
100
AcDb2dVertex
 10
-217.9000501299868
 20
-154.7467990064522
 30
0.0
  0
VERTEX
  5
103
330
BF
100
AcDbEntity
  8
Livello 1
 62
   178
420
   328448
370
     9
100
AcDbVertex
100
AcDb2dVertex
 10
-215.7504828019652
 20
-138.2554714281098
 30
0.0
  0
VERTEX
  5
104
330
BF
100
AcDbEntity
  8
Livello 1
 62
   178
420
   328448
370
     9
100
AcDbVertex
100
AcDb2dVertex
 10
-212.8807182627521
 20
-121.7624213020247
 30
0.0
  0
VERTEX
  5
105
330
BF
100
AcDbEntity
  8
Livello 1
 62
   178
420
   328448
370
     9
100
AcDbVertex
100
AcDb2dVertex
 10
-209.2916177862188
 20
-105.9845729986775
 30
0.0
  0
VERTEX
  5
106
330
BF
100
AcDbEntity
  8
Livello 1
 62
   178
420
   328448
370
     9
100
AcDbVertex
100
AcDb2dVertex
 10
-204.9926553849498
 20
-90.21085880991257
 30
0.0
  0
VERTEX
  5
107
330
BF
100
AcDbEntity
  8
Livello 1
 62
   178
420
   328448
370
     9
100
AcDbVertex
100
AcDb2dVertex
 10
-199.6148613324748
 20
-75.14993487704585
 30
0.0
  0
VERTEX
  5
108
330
BF
100
AcDbEntity
  8
Livello 1
 62
   178
420
   328448
370
     9
100
AcDbVertex
100
AcDb2dVertex
 10
-193.878949604308
 20
-60.08969996327619
 30
0.0
  0
VERTEX
  5
109
330
BF
100
AcDbEntity
  8
Livello 1
 62
   178
420
   328448
370
     9
100
AcDbVertex
100
AcDb2dVertex
 10
-187.0652397535809
 20
-45.39051105636071
 30
0.0
  0
VERTEX
  5
10A
330
BF
100
AcDbEntity
  8
Livello 1
 62
   178
420
   328448
370
     9
100
AcDbVertex
100
AcDb2dVertex
 10
-179.8932399723878
 20
-31.04651149397449
 30
0.0
  0
VERTEX
  5
10B
330
BF
100
AcDbEntity
  8
Livello 1
 62
   178
420
   328448
370
     9
100
AcDbVertex
100
AcDb2dVertex
 10
-172.0079331709737
 20
-17.42494845484515
 30
0.0
  0
VERTEX
  5
10C
330
BF
100
AcDbEntity
  8
Livello 1
 62
   178
420
   328448
370
     9
100
AcDbVertex
100
AcDb2dVertex
 10
-163.3993285724314
 20
-4.155818683856879
 30
0.0
  0
VERTEX
  5
10D
330
BF
100
AcDbEntity
  8
Livello 1
 62
   178
420
   328448
370
     9
100
AcDbVertex
100
AcDb2dVertex
 10
-154.0777614632167
 20
8.751576061180161
 30
0.0
  0
VERTEX
  5
10E
330
BF
100
AcDbEntity
  8
Livello 1
 62
   178
420
   328448
370
     9
100
AcDbVertex
100
AcDb2dVertex
 10
-144.3975599139874
 20
21.30136989484827
 30
0.0
  0
VERTEX
  5
10F
330
BF
100
AcDbEntity
  8
Livello 1
 62
   178
420
   328448
370
     9
100
AcDbVertex
100
AcDb2dVertex
 10
-134.001295268149
 20
33.13423935803588
 30
0.0
  0
VERTEX
  5
110
330
BF
100
AcDbEntity
  8
Livello 1
 62
   178
420
   328448
370
     9
100
AcDbVertex
100
AcDb2dVertex
 10
-123.2431233415851
 20
44.60227320933554
 30
0.0
  0
VERTEX
  5
111
330
BF
100
AcDbEntity
  8
Livello 1
 62
   178
420
   328448
370
     9
100
AcDbVertex
100
AcDb2dVertex
 10
-111.7718166495744
 20
55.72166339752792
 30
0.0
  0
VERTEX
  5
112
330
BF
100
AcDbEntity
  8
Livello 1
 62
   178
420
   328448
370
     9
100
AcDbVertex
100
AcDb2dVertex
 10
-99.58048500114656
 20
66.1186170624634
 30
0.0
  0
VERTEX
  5
113
330
BF
100
AcDbEntity
  8
Livello 1
 62
   178
420
   328448
370
     9
100
AcDbVertex
100
AcDb2dVertex
 10
-87.38622502155623
 20
75.80174694285512
 30
0.0
  0
VERTEX
  5
114
330
BF
100
AcDbEntity
  8
Livello 1
 62
   178
420
   328448
370
     9
100
AcDbVertex
100
AcDb2dVertex
 10
-74.48193086245591
 20
85.12658689278086
 30
0.0
  0
VERTEX
  5
115
330
BF
100
AcDbEntity
  8
Livello 1
 62
   178
420
   328448
370
     9
100
AcDbVertex
100
AcDb2dVertex
 10
-60.85743949216412
 20
93.72933482899822
 30
0.0
  0
VERTEX
  5
116
330
BF
100
AcDbEntity
  8
Livello 1
 62
   178
420
   328448
370
     9
100
AcDbVertex
100
AcDb2dVertex
 10
-47.22950302638707
 20
101.613780356541
 30
0.0
  0
VERTEX
  5
117
330
BF
100
AcDbEntity
  8
Livello 1
 62
   178
420
   328448
370
     9
100
AcDbVertex
100
AcDb2dVertex
 10
-32.88860404993757
 20
108.7892252332194
 30
0.0
  0
VERTEX
  5
118
330
BF
100
AcDbEntity
  8
Livello 1
 62
   178
420
   328448
370
     9
100
AcDbVertex
100
AcDb2dVertex
 10
-18.18975965257061
 20
115.2413723127695
 30
0.0
  0
VERTEX
  5
119
330
BF
100
AcDbEntity
  8
Livello 1
 62
   178
420
   328448
370
     9
100
AcDbVertex
100
AcDb2dVertex
 10
-3.487642414492673
 20
121.3357462261765
 30
0.0
  0
VERTEX
  5
11A
330
BF
100
AcDbEntity
  8
Livello 1
 62
   178
420
   328448
370
     9
100
AcDbVertex
100
AcDb2dVertex
 10
11.93174370361429
 20
126.354905838637
 30
0.0
  0
VERTEX
  5
11B
330
BF
100
AcDbEntity
  8
Livello 1
 62
   178
420
   328448
370
     9
100
AcDbVertex
100
AcDb2dVertex
 10
27.70545789237919
 20
131.0157755206315
 30
0.0
  0
VERTEX
  5
11C
330
BF
100
AcDbEntity
  8
Livello 1
 62
   178
420
   328448
370
     9
100
AcDbVertex
100
AcDb2dVertex
 10
43.48278943140361
 20
134.6014309016795
 30
0.0
  0
VERTEX
  5
11D
330
BF
100
AcDbEntity
  8
Livello 1
 62
   178
420
   328448
370
     9
100
AcDbVertex
100
AcDb2dVertex
 10
59.61823864611975
 20
137.4677503454074
 30
0.0
  0
VERTEX
  5
11E
330
BF
100
AcDbEntity
  8
Livello 1
 62
   178
420
   328448
370
     9
100
AcDbVertex
100
AcDb2dVertex
 10
76.1090494601394
 20
139.6240356096253
 30
0.0
  0
VERTEX
  5
11F
330
BF
100
AcDbEntity
  8
Livello 1
 62
   178
420
   328448
370
     9
100
AcDbVertex
100
AcDb2dVertex
 10
92.96417912172424
 20
140.6959770698607
 30
0.0
  0
VERTEX
  5
120
330
BF
100
AcDbEntity
  8
Livello 1
 62
   178
420
   328448
370
     9
100
AcDbVertex
100
AcDb2dVertex
 10
109.8129353566614
 20
141.4151407524066
 30
0.0
  0
VERTEX
  5
121
330
BF
100
AcDbEntity
  8
Livello 1
 62
   178
420
   328448
370
     9
100
AcDbVertex
100
AcDb2dVertex
 10
127.0230821080012
 20
140.6959770698607
 30
0.0
  0
VERTEX
  5
122
330
BF
100
AcDbEntity
  8
Livello 1
 62
   178
420
   328448
370
     9
100
AcDbVertex
100
AcDb2dVertex
 10
143.5202663486685
 20
139.6240356096253
 30
0.0
  0
VERTEX
  5
123
330
BF
100
AcDbEntity
  8
Livello 1
 62
   178
420
   328448
370
     9
100
AcDbVertex
100
AcDb2dVertex
 10
160.010904907914
 20
137.4677503454074
 30
0.0
  0
VERTEX
  5
124
330
BF
100
AcDbEntity
  8
Livello 1
 62
   178
420
   328448
370
     9
100
AcDbVertex
100
AcDb2dVertex
 10
176.5015434671593
 20
134.6014309016795
 30
0.0
  0
VERTEX
  5
125
330
BF
100
AcDbEntity
  8
Livello 1
 62
   178
420
   328448
370
     9
100
AcDbVertex
100
AcDb2dVertex
 10
192.2821478468948
 20
131.0157755206315
 30
0.0
  0
VERTEX
  5
126
330
BF
100
AcDbEntity
  8
Livello 1
 62
   178
420
   328448
370
     9
100
AcDbVertex
100
AcDb2dVertex
 10
208.0558620356597
 20
126.354905838637
 30
0.0
  0
VERTEX
  5
127
330
BF
100
AcDbEntity
  8
Livello 1
 62
   178
420
   328448
370
     9
100
AcDbVertex
100
AcDb2dVertex
 10
223.1195420449146
 20
121.3357462261765
 30
0.0
  0
VERTEX
  5
128
330
BF
100
AcDbEntity
  8
Livello 1
 62
   178
420
   328448
370
     9
100
AcDbVertex
100
AcDb2dVertex
 10
238.1773653918445
 20
115.2413723127695
 30
0.0
  0
VERTEX
  5
129
330
BF
100
AcDbEntity
  8
Livello 1
 62
   178
420
   328448
370
     9
100
AcDbVertex
100
AcDb2dVertex
 10
252.8762097892115
 20
108.7892252332194
 30
0.0
  0
VERTEX
  5
12A
330
BF
100
AcDbEntity
  8
Livello 1
 62
   178
420
   328448
370
     9
100
AcDbVertex
100
AcDb2dVertex
 10
267.2174532752096
 20
101.613780356541
 30
0.0
  0
VERTEX
  5
12B
330
BF
100
AcDbEntity
  8
Livello 1
 62
   178
420
   328448
370
     9
100
AcDbVertex
100
AcDb2dVertex
 10
280.8414278811786
 20
93.72933482899822
 30
0.0
  0
VERTEX
  5
12C
330
BF
100
AcDbEntity
  8
Livello 1
 62
   178
420
   328448
370
     9
100
AcDbVertex
100
AcDb2dVertex
 10
294.1105576521668
 20
85.12658689278086
 30
0.0
  0
VERTEX
  5
12D
330
BF
100
AcDbEntity
  8
Livello 1
 62
   178
420
   328448
370
     9
100
AcDbVertex
100
AcDb2dVertex
 10
307.0151963208157
 20
75.80174694285512
 30
0.0
  0
VERTEX
  5
12E
330
BF
100
AcDbEntity
  8
Livello 1
 62
   178
420
   328448
370
     9
100
AcDbVertex
100
AcDb2dVertex
 10
319.5649901544838
 20
66.1186170624634
 30
0.0
  0
VERTEX
  5
12F
330
BF
100
AcDbEntity
  8
Livello 1
 62
   178
420
   328448
370
     9
100
AcDbVertex
100
AcDb2dVertex
 10
331.4013047131566
 20
55.72166339752792
 30
0.0
  0
VERTEX
  5
130
330
BF
100
AcDbEntity
  8
Livello 1
 62
   178
420
   328448
370
     9
100
AcDbVertex
100
AcDb2dVertex
 10
342.872439150393
 20
44.60227320933554
 30
0.0
  0
VERTEX
  5
131
330
BF
100
AcDbEntity
  8
Livello 1
 62
   178
420
   328448
370
     9
100
AcDbVertex
100
AcDb2dVertex
 10
353.9859726762605
 20
33.13423935803588
 30
0.0
  0
VERTEX
  5
132
330
BF
100
AcDbEntity
  8
Livello 1
 62
   178
420
   328448
370
     9
100
AcDbVertex
100
AcDb2dVertex
 10
364.3856824175842
 20
21.30136989484827
 30
0.0
  0
VERTEX
  5
133
330
BF
100
AcDbEntity
  8
Livello 1
 62
   178
420
   328448
370
     9
100
AcDbVertex
100
AcDb2dVertex
 10
374.0657117120392
 20
8.751576061180161
 30
0.0
  0
VERTEX
  5
134
330
BF
100
AcDbEntity
  8
Livello 1
 62
   178
420
   328448
370
     9
100
AcDbVertex
100
AcDb2dVertex
 10
383.3905516619649
 20
-4.155818683856879
 30
0.0
  0
VERTEX
  5
135
330
BF
100
AcDbEntity
  8
Livello 1
 62
   178
420
   328448
370
     9
100
AcDbVertex
100
AcDb2dVertex
 10
391.9953666554734
 20
-17.42494845484515
 30
0.0
  0
VERTEX
  5
136
330
BF
100
AcDbEntity
  8
Livello 1
 62
   178
420
   328448
370
     9
100
AcDbVertex
100
AcDb2dVertex
 10
399.884290807147
 20
-31.04651149397449
 30
0.0
  0
VERTEX
  5
137
330
BF
100
AcDbEntity
  8
Livello 1
 62
   178
420
   328448
370
     9
100
AcDbVertex
100
AcDb2dVertex
 10
407.0531900024034
 20
-45.39051105636071
 30
0.0
  0
VERTEX
  5
138
330
BF
100
AcDbEntity
  8
Livello 1
 62
   178
420
   328448
370
     9
100
AcDbVertex
100
AcDb2dVertex
 10
413.508265413116
 20
-60.08969996327619
 30
0.0
  0
VERTEX
  5
139
330
BF
100
AcDbEntity
  8
Livello 1
 62
   178
420
   328448
370
     9
100
AcDbVertex
100
AcDb2dVertex
 10
419.6019503074259
 20
-75.14993487704585
 30
0.0
  0
VERTEX
  5
13A
330
BF
100
AcDbEntity
  8
Livello 1
 62
   178
420
   328448
370
     9
100
AcDbVertex
100
AcDb2dVertex
 10
424.6245550153716
 20
-90.21085880991257
 30
0.0
  0
VERTEX
  5
13B
330
BF
100
AcDbEntity
  8
Livello 1
 62
   178
420
   328448
370
     9
100
AcDbVertex
100
AcDb2dVertex
 10
429.2854246973662
 20
-105.9845729986775
 30
0.0
  0
VERTEX
  5
13C
330
BF
100
AcDbEntity
  8
Livello 1
 62
   178
420
   328448
370
     9
100
AcDbVertex
100
AcDb2dVertex
 10
432.8686685115745
 20
-121.7624213020247
 30
0.0
  0
VERTEX
  5
13D
330
BF
100
AcDbEntity
  8
Livello 1
 62
   178
420
   328448
370
     9
100
AcDbVertex
100
AcDb2dVertex
 10
435.7380885412391
 20
-138.2554714281098
 30
0.0
  0
VERTEX
  5
13E
330
BF
100
AcDbEntity
  8
Livello 1
 62
   178
420
   328448
370
     9
100
AcDbVertex
100
AcDb2dVertex
 10
437.887828124035
 20
-154.7467990064522
 30
0.0
  0
VERTEX
  5
13F
330
BF
100
AcDbEntity
  8
Livello 1
 62
   178
420
   328448
370
     9
100
AcDbVertex
100
AcDb2dVertex
 10
438.9620088963359
 20
-171.2405381516343
 30
0.0
  0
VERTEX
  5
140
330
BF
100
AcDbEntity
  8
Livello 1
 62
   178
420
   328448
370
     9
100
AcDbVertex
100
AcDb2dVertex
 10
439.6789332668164
 20
-188.4505126481999
 30
0.0
  0
SEQEND
  5
141
330
BF
100
AcDbEntity
  8
Livello 1
370
     9
  0
POLYLINE
  5
142
330
1F
100
AcDbEntity
  8
Livello 1
 62
   178
420
   328448
370
     9
100
AcDb2dPolyline
 66
     1
 10
0.0
 20
0.0
 30
0.0
  0
VERTEX
  5
143
330
142
100
AcDbEntity
  8
Livello 1
 62
   178
420
   328448
370
     9
100
AcDbVertex
100
AcDb2dVertex
 10
448.2878823749072
 20
-188.4505126481999
 30
0.0
  0
VERTEX
  5
144
330
142
100
AcDbEntity
  8
Livello 1
 62
   178
420
   328448
370
     9
100
AcDbVertex
100
AcDb2dVertex
 10
447.5675129089415
 20
-205.6604871447655
 30
0.0
  0
VERTEX
  5
145
330
142
100
AcDbEntity
  8
Livello 1
 62
   178
420
   328448
370
     9
100
AcDbVertex
100
AcDb2dVertex
 10
446.4926431175435
 20
-222.871150660428
 30
0.0
  0
VERTEX
  5
146
330
142
100
AcDbEntity
  8
Livello 1
 62
   178
420
   328448
370
     9
100
AcDbVertex
100
AcDb2dVertex
 10
444.3429035347476
 20
-239.7235242456247
 30
0.0
  0
VERTEX
  5
147
330
142
100
AcDbEntity
  8
Livello 1
 62
   178
420
   328448
370
     9
100
AcDbVertex
100
AcDb2dVertex
 10
441.1148490650685
 20
-256.5755533212728
 30
0.0
  0
VERTEX
  5
148
330
142
100
AcDbEntity
  8
Livello 1
 62
   178
420
   328448
370
     9
100
AcDbVertex
100
AcDb2dVertex
 10
437.5291936840205
 20
-272.7144476314742
 30
0.0
  0
VERTEX
  5
149
330
142
100
AcDbEntity
  8
Livello 1
 62
   178
420
   328448
370
     9
100
AcDbVertex
100
AcDb2dVertex
 10
432.8686685115745
 20
-288.8464517507051
 30
0.0
  0
VERTEX
  5
14A
330
142
100
AcDbEntity
  8
Livello 1
 62
   178
420
   328448
370
     9
100
AcDbVertex
100
AcDb2dVertex
 10
427.4874293636143
 20
-304.6236110349552
 30
0.0
  0
VERTEX
  5
14B
330
142
100
AcDbEntity
  8
Livello 1
 62
   178
420
   328448
370
     9
100
AcDbVertex
100
AcDb2dVertex
 10
421.7547904761585
 20
-320.0393798028027
 30
0.0
  0
VERTEX
  5
14C
330
142
100
AcDbEntity
  8
Livello 1
 62
   178
420
   328448
370
     9
100
AcDbVertex
100
AcDb2dVertex
 10
414.9410806254314
 20
-335.0999592261209
 30
0.0
  0
VERTEX
  5
14D
330
142
100
AcDbEntity
  8
Livello 1
 62
   178
420
   328448
370
     9
100
AcDbVertex
100
AcDb2dVertex
 10
407.4145805188061
 20
-349.4439587885071
 30
0.0
  0
VERTEX
  5
14E
330
142
100
AcDbEntity
  8
Livello 1
 62
   178
420
   328448
370
     9
100
AcDbVertex
100
AcDb2dVertex
 10
399.1639213411813
 20
-363.7786565930832
 30
0.0
  0
VERTEX
  5
14F
330
142
100
AcDbEntity
  8
Livello 1
 62
   178
420
   328448
370
     9
100
AcDbVertex
100
AcDb2dVertex
 10
390.5591063476728
 20
-377.4088323709256
 30
0.0
  0
VERTEX
  5
150
330
142
100
AcDbEntity
  8
Livello 1
 62
   178
420
   328448
370
     9
100
AcDbVertex
100
AcDb2dVertex
 10
380.8790770532178
 20
-390.6721054795889
 30
0.0
  0
VERTEX
  5
151
330
142
100
AcDbEntity
  8
Livello 1
 62
   178
420
   328448
370
     9
100
AcDbVertex
100
AcDb2dVertex
 10
370.8407578282968
 20
-403.586045906048
 30
0.0
  0
VERTEX
  5
152
330
142
100
AcDbEntity
  8
Livello 1
 62
   178
420
   328448
370
     9
100
AcDbVertex
100
AcDb2dVertex
 10
360.4407035774246
 20
-415.7713486373766
 30
0.0
  0
VERTEX
  5
153
330
142
100
AcDbEntity
  8
Livello 1
 62
   178
420
   328448
370
     9
100
AcDbVertex
100
AcDb2dVertex
 10
348.966124044703
 20
-427.6069741769525
 30
0.0
  0
VERTEX
  5
154
330
142
100
AcDbEntity
  8
Livello 1
 62
   178
420
   328448
370
     9
100
AcDbVertex
100
AcDb2dVertex
 10
337.4980901934032
 20
-438.7136175118494
 30
0.0
  0
VERTEX
  5
155
330
142
100
AcDbEntity
  8
Livello 1
 62
   178
420
   328448
370
     9
100
AcDbVertex
100
AcDb2dVertex
 10
324.9448512642499
 20
-449.4750622791243
 30
0.0
  0
VERTEX
  5
156
330
142
100
AcDbEntity
  8
Livello 1
 62
   178
420
   328448
370
     9
100
AcDbVertex
100
AcDb2dVertex
 10
312.3964354687759
 20
-459.5199271854673
 30
0.0
  0
VERTEX
  5
157
330
142
100
AcDbEntity
  8
Livello 1
 62
   178
420
   328448
370
     9
100
AcDbVertex
100
AcDb2dVertex
 10
299.1304062837244
 20
-468.8351208680343
 30
0.0
  0
VERTEX
  5
158
330
142
100
AcDbEntity
  8
Livello 1
 62
   178
420
   328448
370
     9
100
AcDbVertex
100
AcDb2dVertex
 10
285.1440076327071
 20
-477.4340791992179
 30
0.0
  0
VERTEX
  5
159
330
142
100
AcDbEntity
  8
Livello 1
 62
   178
420
   328448
370
     9
100
AcDbVertex
100
AcDb2dVertex
 10
271.1613985867236
 20
-485.687494453231
 30
0.0
  0
VERTEX
  5
15A
330
142
100
AcDbEntity
  8
Livello 1
 62
   178
420
   328448
370
     9
100
AcDbVertex
100
AcDb2dVertex
 10
256.4618651702596
 20
-493.2236408272149
 30
0.0
  0
VERTEX
  5
15B
330
142
100
AcDbEntity
  8
Livello 1
 62
   178
420
   328448
370
     9
100
AcDbVertex
100
AcDb2dVertex
 10
241.7626762633441
 20
-500.0314940156172
 30
0.0
  0
VERTEX
  5
15C
330
142
100
AcDbEntity
  8
Livello 1
 62
   178
420
   328448
370
     9
100
AcDbVertex
100
AcDb2dVertex
 10
226.3441514191084
 20
-506.1227673430874
 30
0.0
  0
VERTEX
  5
15D
330
142
100
AcDbEntity
  8
Livello 1
 62
   178
420
   328448
370
     9
100
AcDbVertex
100
AcDb2dVertex
 10
210.5673366444068
 20
-511.509518643824
 30
0.0
  0
VERTEX
  5
15E
330
142
100
AcDbEntity
  8
Livello 1
 62
   178
420
   328448
370
     9
100
AcDbVertex
100
AcDb2dVertex
 10
194.4315429201421
 20
-515.8083087903187
 30
0.0
  0
VERTEX
  5
15F
330
142
100
AcDbEntity
  8
Livello 1
 62
   178
420
   328448
370
     9
100
AcDbVertex
100
AcDb2dVertex
 10
177.9381482845085
 20
-519.7498425349931
 30
0.0
  0
VERTEX
  5
160
330
142
100
AcDbEntity
  8
Livello 1
 62
   178
420
   328448
370
     9
100
AcDbVertex
100
AcDb2dVertex
 10
161.4444091393264
 20
-522.6289088320165
 30
0.0
  0
VERTEX
  5
161
330
142
100
AcDbEntity
  8
Livello 1
 62
   178
420
   328448
370
     9
100
AcDbVertex
100
AcDb2dVertex
 10
144.5953083948408
 20
-524.7659015615169
 30
0.0
  0
VERTEX
  5
162
330
142
100
AcDbEntity
  8
Livello 1
 62
   178
420
   328448
370
     9
100
AcDbVertex
100
AcDb2dVertex
 10
127.3848171339524
 20
-526.2111191175792
 30
0.0
  0
VERTEX
  5
163
330
142
100
AcDbEntity
  8
Livello 1
 62
   178
420
   328448
370
     9
100
AcDbVertex
100
AcDb2dVertex
 10
109.8129353566614
 20
-526.5697535575937
 30
0.0
  0
VERTEX
  5
164
330
142
100
AcDbEntity
  8
Livello 1
 62
   178
420
   328448
370
     9
100
AcDbVertex
100
AcDb2dVertex
 10
92.60588919125826
 20
-526.2111191175792
 30
0.0
  0
VERTEX
  5
165
330
142
100
AcDbEntity
  8
Livello 1
 62
   178
420
   328448
370
     9
100
AcDbVertex
100
AcDb2dVertex
 10
75.39557018514417
 20
-524.7659015615169
 30
0.0
  0
VERTEX
  5
166
330
142
100
AcDbEntity
  8
Livello 1
 62
   178
420
   328448
370
     9
100
AcDbVertex
100
AcDb2dVertex
 10
58.54009601401081
 20
-522.6289088320165
 30
0.0
  0
VERTEX
  5
167
330
142
100
AcDbEntity
  8
Livello 1
 62
   178
420
   328448
370
     9
100
AcDbVertex
100
AcDb2dVertex
 10
41.69133977907369
 20
-519.7498425349931
 30
0.0
  0
VERTEX
  5
168
330
142
100
AcDbEntity
  8
Livello 1
 62
   178
420
   328448
370
     9
100
AcDbVertex
100
AcDb2dVertex
 10
25.55589056435756
 20
-515.8083087903187
 30
0.0
  0
VERTEX
  5
169
330
142
100
AcDbEntity
  8
Livello 1
 62
   178
420
   328448
370
     9
100
AcDbVertex
100
AcDb2dVertex
 10
9.420441349641418
 20
-511.509518643824
 30
0.0
  0
VERTEX
  5
16A
330
142
100
AcDbEntity
  8
Livello 1
 62
   178
420
   328448
370
     9
100
AcDbVertex
100
AcDb2dVertex
 10
-6.353789603446275
 20
-506.1227673430874
 30
0.0
  0
VERTEX
  5
16B
330
142
100
AcDbEntity
  8
Livello 1
 62
   178
420
   328448
370
     9
100
AcDbVertex
100
AcDb2dVertex
 10
-21.77248670245618
 20
-500.0314940156172
 30
0.0
  0
VERTEX
  5
16C
330
142
100
AcDbEntity
  8
Livello 1
 62
   178
420
   328448
370
     9
100
AcDbVertex
100
AcDb2dVertex
 10
-36.8334106353229
 20
-493.2236408272149
 30
0.0
  0
VERTEX
  5
16D
330
142
100
AcDbEntity
  8
Livello 1
 62
   178
420
   328448
370
     9
100
AcDbVertex
100
AcDb2dVertex
 10
-51.17430961177239
 20
-485.687494453231
 30
0.0
  0
VERTEX
  5
16E
330
142
100
AcDbEntity
  8
Livello 1
 62
   178
420
   328448
370
     9
100
AcDbVertex
100
AcDb2dVertex
 10
-65.51813691938436
 20
-477.4340791992179
 30
0.0
  0
VERTEX
  5
16F
330
142
100
AcDbEntity
  8
Livello 1
 62
   178
420
   328448
370
     9
100
AcDbVertex
100
AcDb2dVertex
 10
-79.14555662083862
 20
-468.8351208680343
 30
0.0
  0
VERTEX
  5
170
330
142
100
AcDbEntity
  8
Livello 1
 62
   178
420
   328448
370
     9
100
AcDbVertex
100
AcDb2dVertex
 10
-92.40848521995343
 20
-459.5199271854673
 30
0.0
  0
VERTEX
  5
171
330
142
100
AcDbEntity
  8
Livello 1
 62
   178
420
   328448
370
     9
100
AcDbVertex
100
AcDb2dVertex
 10
-105.3165689840875
 20
-449.4750622791243
 30
0.0
  0
VERTEX
  5
172
330
142
100
AcDbEntity
  8
Livello 1
 62
   178
420
   328448
370
     9
100
AcDbVertex
100
AcDb2dVertex
 10
-117.5073838681926
 20
-438.7136175118494
 30
0.0
  0
VERTEX
  5
173
330
142
100
AcDbEntity
  8
Livello 1
 62
   178
420
   328448
370
     9
100
AcDbVertex
100
AcDb2dVertex
 10
-129.337497254992
 20
-427.6069741769525
 30
0.0
  0
VERTEX
  5
174
330
142
100
AcDbEntity
  8
Livello 1
 62
   178
420
   328448
370
     9
100
AcDbVertex
100
AcDb2dVertex
 10
-140.4536146024734
 20
-415.7713486373766
 30
0.0
  0
VERTEX
  5
175
330
142
100
AcDbEntity
  8
Livello 1
 62
   178
420
   328448
370
     9
100
AcDbVertex
100
AcDb2dVertex
 10
-150.8500515030861
 20
-403.586045906048
 30
0.0
  0
VERTEX
  5
176
330
142
100
AcDbEntity
  8
Livello 1
 62
   178
420
   328448
370
     9
100
AcDbVertex
100
AcDb2dVertex
 10
-160.8914713139438
 20
-390.6721054795889
 30
0.0
  0
VERTEX
  5
177
330
142
100
AcDbEntity
  8
Livello 1
 62
   178
420
   328448
370
     9
100
AcDbVertex
100
AcDb2dVertex
 10
-170.5682277676878
 20
-377.4088323709256
 30
0.0
  0
VERTEX
  5
178
330
142
100
AcDbEntity
  8
Livello 1
 62
   178
420
   328448
370
     9
100
AcDbVertex
100
AcDb2dVertex
 10
-179.1766601114558
 20
-363.7786565930832
 30
0.0
  0
VERTEX
  5
179
330
142
100
AcDbEntity
  8
Livello 1
 62
   178
420
   328448
370
     9
100
AcDbVertex
100
AcDb2dVertex
 10
-187.4237019388212
 20
-349.4439587885071
 30
0.0
  0
VERTEX
  5
17A
330
142
100
AcDbEntity
  8
Livello 1
 62
   178
420
   328448
370
     9
100
AcDbVertex
100
AcDb2dVertex
 10
-194.9541639052545
 20
-335.0999592261209
 30
0.0
  0
VERTEX
  5
17B
330
142
100
AcDbEntity
  8
Livello 1
 62
   178
420
   328448
370
     9
100
AcDbVertex
100
AcDb2dVertex
 10
-201.7644286604964
 20
-320.0393798028027
 30
0.0
  0
VERTEX
  5
17C
330
142
100
AcDbEntity
  8
Livello 1
 62
   178
420
   328448
370
     9
100
AcDbVertex
100
AcDb2dVertex
 10
-207.8619031598401
 20
-304.6236110349552
 30
0.0
  0
VERTEX
  5
17D
330
142
100
AcDbEntity
  8
Livello 1
 62
   178
420
   328448
370
     9
100
AcDbVertex
100
AcDb2dVertex
 10
-212.8807182627521
 20
-288.8464517507051
 30
0.0
  0
VERTEX
  5
17E
330
142
100
AcDbEntity
  8
Livello 1
 62
   178
420
   328448
370
     9
100
AcDbVertex
100
AcDb2dVertex
 10
-217.5414156899723
 20
-272.7144476314742
 30
0.0
  0
VERTEX
  5
17F
330
142
100
AcDbEntity
  8
Livello 1
 62
   178
420
   328448
370
     9
100
AcDbVertex
100
AcDb2dVertex
 10
-221.4862222753576
 20
-256.5755533212728
 30
0.0
  0
VERTEX
  5
180
330
142
100
AcDbEntity
  8
Livello 1
 62
   178
420
   328448
370
     9
100
AcDbVertex
100
AcDb2dVertex
 10
-224.3556423050222
 20
-239.7235242456247
 30
0.0
  0
VERTEX
  5
181
330
142
100
AcDbEntity
  8
Livello 1
 62
   178
420
   328448
370
     9
100
AcDbVertex
100
AcDb2dVertex
 10
-226.5052096330438
 20
-222.871150660428
 30
0.0
  0
VERTEX
  5
182
330
142
100
AcDbEntity
  8
Livello 1
 62
   178
420
   328448
370
     9
100
AcDbVertex
100
AcDb2dVertex
 10
-227.9416421956188
 20
-205.6604871447655
 30
0.0
  0
VERTEX
  5
183
330
142
100
AcDbEntity
  8
Livello 1
 62
   178
420
   328448
370
     9
100
AcDbVertex
100
AcDb2dVertex
 10
-228.2999321260847
 20
-188.4505126481999
 30
0.0
  0
VERTEX
  5
184
330
142
100
AcDbEntity
  8
Livello 1
 62
   178
420
   328448
370
     9
100
AcDbVertex
100
AcDb2dVertex
 10
-227.9416421956188
 20
-170.8853488071051
 30
0.0
  0
VERTEX
  5
185
330
142
100
AcDbEntity
  8
Livello 1
 62
   178
420
   328448
370
     9
100
AcDbVertex
100
AcDb2dVertex
 10
-226.5052096330438
 20
-153.668484119569
 30
0.0
  0
VERTEX
  5
186
330
142
100
AcDbEntity
  8
Livello 1
 62
   178
420
   328448
370
     9
100
AcDbVertex
100
AcDb2dVertex
 10
-224.3556423050222
 20
-136.8230007253429
 30
0.0
  0
VERTEX
  5
187
330
142
100
AcDbEntity
  8
Livello 1
 62
   178
420
   328448
370
     9
100
AcDbVertex
100
AcDb2dVertex
 10
-221.4862222753576
 20
-120.325471975127
 30
0.0
  0
VERTEX
  5
188
330
142
100
AcDbEntity
  8
Livello 1
 62
   178
420
   328448
370
     9
100
AcDbVertex
100
AcDb2dVertex
 10
-217.5414156899723
 20
-103.8317328299449
 30
0.0
  0
VERTEX
  5
189
330
142
100
AcDbEntity
  8
Livello 1
 62
   178
420
   328448
370
     9
100
AcDbVertex
100
AcDb2dVertex
 10
-212.8807182627521
 20
-87.69972871071396
 30
0.0
  0
VERTEX
  5
18A
330
142
100
AcDbEntity
  8
Livello 1
 62
   178
420
   328448
370
     9
100
AcDbVertex
100
AcDb2dVertex
 10
-207.8619031598401
 20
-71.92256942646381
 30
0.0
  0
VERTEX
  5
18B
330
142
100
AcDbEntity
  8
Livello 1
 62
   178
420
   328448
370
     9
100
AcDbVertex
100
AcDb2dVertex
 10
-201.7644286604964
 20
-56.50680065861636
 30
0.0
  0
VERTEX
  5
18C
330
142
100
AcDbEntity
  8
Livello 1
 62
   178
420
   328448
370
     9
100
AcDbVertex
100
AcDb2dVertex
 10
-194.9541639052545
 20
-41.80072156073038
 30
0.0
  0
VERTEX
  5
18D
330
142
100
AcDbEntity
  8
Livello 1
 62
   178
420
   328448
370
     9
100
AcDbVertex
100
AcDb2dVertex
 10
-187.4237019388212
 20
-27.1015326538149
 30
0.0
  0
VERTEX
  5
18E
330
142
100
AcDbEntity
  8
Livello 1
 62
   178
420
   328448
370
     9
100
AcDbVertex
100
AcDb2dVertex
 10
-179.1766601114558
 20
-13.11926811737991
 30
0.0
  0
VERTEX
  5
18F
330
142
100
AcDbEntity
  8
Livello 1
 62
   178
420
   328448
370
     9
100
AcDbVertex
100
AcDb2dVertex
 10
-170.5682277676878
 20
0.8633409286036092
 30
0.0
  0
VERTEX
  5
190
330
142
100
AcDbEntity
  8
Livello 1
 62
   178
420
   328448
370
     9
100
AcDbVertex
100
AcDb2dVertex
 10
-160.8914713139438
 20
14.12592501816991
 30
0.0
  0
VERTEX
  5
191
330
142
100
AcDbEntity
  8
Livello 1
 62
   178
420
   328448
370
     9
100
AcDbVertex
100
AcDb2dVertex
 10
-150.8500515030861
 20
26.68226453325999
 30
0.0
  0
VERTEX
  5
192
330
142
100
AcDbEntity
  8
Livello 1
 62
   178
420
   328448
370
     9
100
AcDbVertex
100
AcDb2dVertex
 10
-140.4536146024734
 20
39.22861327144285
 30
0.0
  0
VERTEX
  5
193
330
142
100
AcDbEntity
  8
Livello 1
 62
   178
420
   328448
370
     9
100
AcDbVertex
100
AcDb2dVertex
 10
-129.337497254992
 20
50.70009221822776
 30
0.0
  0
VERTEX
  5
194
330
142
100
AcDbEntity
  8
Livello 1
 62
   178
420
   328448
370
     9
100
AcDbVertex
100
AcDb2dVertex
 10
-117.5073838681926
 20
62.17467175094939
 30
0.0
  0
VERTEX
  5
195
330
142
100
AcDbEntity
  8
Livello 1
 62
   178
420
   328448
370
     9
100
AcDbVertex
100
AcDb2dVertex
 10
-105.3165689840875
 20
72.57093639678783
 30
0.0
  0
VERTEX
  5
196
330
142
100
AcDbEntity
  8
Livello 1
 62
   178
420
   328448
370
     9
100
AcDbVertex
100
AcDb2dVertex
 10
-92.40848521995343
 20
82.612011698097
 30
0.0
  0
VERTEX
  5
197
330
142
100
AcDbEntity
  8
Livello 1
 62
   178
420
   328448
370
     9
100
AcDbVertex
100
AcDb2dVertex
 10
-79.14555662083862
 20
92.29238550210052
 30
0.0
  0
VERTEX
  5
198
330
142
100
AcDbEntity
  8
Livello 1
 62
   178
420
   328448
370
     9
100
AcDbVertex
100
AcDb2dVertex
 10
-65.51813691938436
 20
100.8944444192208
 30
0.0
  0
VERTEX
  5
199
330
142
100
AcDbEntity
  8
Livello 1
 62
   178
420
   328448
370
     9
100
AcDbVertex
100
AcDb2dVertex
 10
-51.17430961177239
 20
109.1444145777486
 30
0.0
  0
VERTEX
  5
19A
330
142
100
AcDbEntity
  8
Livello 1
 62
   178
420
   328448
370
     9
100
AcDbVertex
100
AcDb2dVertex
 10
-36.8334106353229
 20
116.674876544182
 30
0.0
  0
VERTEX
  5
19B
330
142
100
AcDbEntity
  8
Livello 1
 62
   178
420
   328448
370
     9
100
AcDbVertex
100
AcDb2dVertex
 10
-21.77248670245618
 20
123.4853135541981
 30
0.0
  0
VERTEX
  5
19C
330
142
100
AcDbEntity
  8
Livello 1
 62
   178
420
   328448
370
     9
100
AcDbVertex
100
AcDb2dVertex
 10
-6.353789603446275
 20
129.2244981230758
 30
0.0
  0
VERTEX
  5
19D
330
142
100
AcDbEntity
  8
Livello 1
 62
   178
420
   328448
370
     9
100
AcDbVertex
100
AcDb2dVertex
 10
9.420441349641418
 20
134.6014309016795
 30
0.0
  0
VERTEX
  5
19E
330
142
100
AcDbEntity
  8
Livello 1
 62
   178
420
   328448
370
     9
100
AcDbVertex
100
AcDb2dVertex
 10
25.55589056435756
 20
139.262300583674
 30
0.0
  0
VERTEX
  5
19F
330
142
100
AcDbEntity
  8
Livello 1
 62
   178
420
   328448
370
     9
100
AcDbVertex
100
AcDb2dVertex
 10
41.69133977907369
 20
142.8488172385934
 30
0.0
  0
VERTEX
  5
1A0
330
142
100
AcDbEntity
  8
Livello 1
 62
   178
420
   328448
370
     9
100
AcDbVertex
100
AcDb2dVertex
 10
58.54009601401081
 20
146.0760104344012
 30
0.0
  0
VERTEX
  5
1A1
330
142
100
AcDbEntity
  8
Livello 1
 62
   178
420
   328448
370
     9
100
AcDbVertex
100
AcDb2dVertex
 10
75.39557018514417
 20
148.2255777624228
 30
0.0
  0
VERTEX
  5
1A2
330
142
100
AcDbEntity
  8
Livello 1
 62
   178
420
   328448
370
     9
100
AcDbVertex
100
AcDb2dVertex
 10
92.60588919125826
 20
149.3040649040802
 30
0.0
  0
VERTEX
  5
1A3
330
142
100
AcDbEntity
  8
Livello 1
 62
   178
420
   328448
370
     9
100
AcDbVertex
100
AcDb2dVertex
 10
109.8129353566614
 20
150.0175441790755
 30
0.0
  0
VERTEX
  5
1A4
330
142
100
AcDbEntity
  8
Livello 1
 62
   178
420
   328448
370
     9
100
AcDbVertex
100
AcDb2dVertex
 10
127.3848171339524
 20
149.3040649040802
 30
0.0
  0
VERTEX
  5
1A5
330
142
100
AcDbEntity
  8
Livello 1
 62
   178
420
   328448
370
     9
100
AcDbVertex
100
AcDb2dVertex
 10
144.5953083948408
 20
148.2255777624228
 30
0.0
  0
VERTEX
  5
1A6
330
142
100
AcDbEntity
  8
Livello 1
 62
   178
420
   328448
370
     9
100
AcDbVertex
100
AcDb2dVertex
 10
161.4444091393264
 20
146.0760104344012
 30
0.0
  0
VERTEX
  5
1A7
330
142
100
AcDbEntity
  8
Livello 1
 62
   178
420
   328448
370
     9
100
AcDbVertex
100
AcDb2dVertex
 10
177.9381482845085
 20
142.8488172385934
 30
0.0
  0
VERTEX
  5
1A8
330
142
100
AcDbEntity
  8
Livello 1
 62
   178
420
   328448
370
     9
100
AcDbVertex
100
AcDb2dVertex
 10
194.4315429201421
 20
139.262300583674
 30
0.0
  0
VERTEX
  5
1A9
330
142
100
AcDbEntity
  8
Livello 1
 62
   178
420
   328448
370
     9
100
AcDbVertex
100
AcDb2dVertex
 10
210.5673366444068
 20
134.6014309016795
 30
0.0
  0
VERTEX
  5
1AA
330
142
100
AcDbEntity
  8
Livello 1
 62
   178
420
   328448
370
     9
100
AcDbVertex
100
AcDb2dVertex
 10
226.3441514191084
 20
129.2244981230758
 30
0.0
  0
VERTEX
  5
1AB
330
142
100
AcDbEntity
  8
Livello 1
 62
   178
420
   328448
370
     9
100
AcDbVertex
100
AcDb2dVertex
 10
241.7626762633441
 20
123.4853135541981
 30
0.0
  0
VERTEX
  5
1AC
330
142
100
AcDbEntity
  8
Livello 1
 62
   178
420
   328448
370
     9
100
AcDbVertex
100
AcDb2dVertex
 10
256.4618651702596
 20
116.674876544182
 30
0.0
  0
VERTEX
  5
1AD
330
142
100
AcDbEntity
  8
Livello 1
 62
   178
420
   328448
370
     9
100
AcDbVertex
100
AcDb2dVertex
 10
271.1613985867236
 20
109.1444145777486
 30
0.0
  0
VERTEX
  5
1AE
330
142
100
AcDbEntity
  8
Livello 1
 62
   178
420
   328448
370
     9
100
AcDbVertex
100
AcDb2dVertex
 10
285.1440076327071
 20
100.8944444192208
 30
0.0
  0
VERTEX
  5
1AF
330
142
100
AcDbEntity
  8
Livello 1
 62
   178
420
   328448
370
     9
100
AcDbVertex
100
AcDb2dVertex
 10
299.1304062837244
 20
92.29238550210052
 30
0.0
  0
VERTEX
  5
1B0
330
142
100
AcDbEntity
  8
Livello 1
 62
   178
420
   328448
370
     9
100
AcDbVertex
100
AcDb2dVertex
 10
312.3964354687759
 20
82.612011698097
 30
0.0
  0
VERTEX
  5
1B1
330
142
100
AcDbEntity
  8
Livello 1
 62
   178
420
   328448
370
     9
100
AcDbVertex
100
AcDb2dVertex
 10
324.9448512642499
 20
72.57093639678783
 30
0.0
  0
VERTEX
  5
1B2
330
142
100
AcDbEntity
  8
Livello 1
 62
   178
420
   328448
370
     9
100
AcDbVertex
100
AcDb2dVertex
 10
337.4980901934032
 20
62.17467175094939
 30
0.0
  0
VERTEX
  5
1B3
330
142
100
AcDbEntity
  8
Livello 1
 62
   178
420
   328448
370
     9
100
AcDbVertex
100
AcDb2dVertex
 10
348.966124044703
 20
50.70009221822776
 30
0.0
  0
VERTEX
  5
1B4
330
142
100
AcDbEntity
  8
Livello 1
 62
   178
420
   328448
370
     9
100
AcDbVertex
100
AcDb2dVertex
 10
360.4407035774246
 20
39.22861327144285
 30
0.0
  0
VERTEX
  5
1B5
330
142
100
AcDbEntity
  8
Livello 1
 62
   178
420
   328448
370
     9
100
AcDbVertex
100
AcDb2dVertex
 10
370.8407578282968
 20
26.68226453325999
 30
0.0
  0
VERTEX
  5
1B6
330
142
100
AcDbEntity
  8
Livello 1
 62
   178
420
   328448
370
     9
100
AcDbVertex
100
AcDb2dVertex
 10
380.8790770532178
 20
14.12592501816991
 30
0.0
  0
VERTEX
  5
1B7
330
142
100
AcDbEntity
  8
Livello 1
 62
   178
420
   328448
370
     9
100
AcDbVertex
100
AcDb2dVertex
 10
390.5591063476728
 20
0.8633409286036092
 30
0.0
  0
VERTEX
  5
1B8
330
142
100
AcDbEntity
  8
Livello 1
 62
   178
420
   328448
370
     9
100
AcDbVertex
100
AcDb2dVertex
 10
399.1639213411813
 20
-13.11926811737991
 30
0.0
  0
VERTEX
  5
1B9
330
142
100
AcDbEntity
  8
Livello 1
 62
   178
420
   328448
370
     9
100
AcDbVertex
100
AcDb2dVertex
 10
407.4145805188061
 20
-27.1015326538149
 30
0.0
  0
VERTEX
  5
1BA
330
142
100
AcDbEntity
  8
Livello 1
 62
   178
420
   328448
370
     9
100
AcDbVertex
100
AcDb2dVertex
 10
414.9410806254314
 20
-41.80072156073038
 30
0.0
  0
VERTEX
  5
1BB
330
142
100
AcDbEntity
  8
Livello 1
 62
   178
420
   328448
370
     9
100
AcDbVertex
100
AcDb2dVertex
 10
421.7547904761585
 20
-56.50680065861636
 30
0.0
  0
VERTEX
  5
1BC
330
142
100
AcDbEntity
  8
Livello 1
 62
   178
420
   328448
370
     9
100
AcDbVertex
100
AcDb2dVertex
 10
427.4874293636143
 20
-71.92256942646381
 30
0.0
  0
VERTEX
  5
1BD
330
142
100
AcDbEntity
  8
Livello 1
 62
   178
420
   328448
370
     9
100
AcDbVertex
100
AcDb2dVertex
 10
432.8686685115745
 20
-87.69972871071396
 30
0.0
  0
VERTEX
  5
1BE
330
142
100
AcDbEntity
  8
Livello 1
 62
   178
420
   328448
370
     9
100
AcDbVertex
100
AcDb2dVertex
 10
437.5291936840205
 20
-103.8317328299449
 30
0.0
  0
VERTEX
  5
1BF
330
142
100
AcDbEntity
  8
Livello 1
 62
   178
420
   328448
370
     9
100
AcDbVertex
100
AcDb2dVertex
 10
441.1148490650685
 20
-120.325471975127
 30
0.0
  0
VERTEX
  5
1C0
330
142
100
AcDbEntity
  8
Livello 1
 62
   178
420
   328448
370
     9
100
AcDbVertex
100
AcDb2dVertex
 10
444.3429035347476
 20
-136.8230007253429
 30
0.0
  0
VERTEX
  5
1C1
330
142
100
AcDbEntity
  8
Livello 1
 62
   178
420
   328448
370
     9
100
AcDbVertex
100
AcDb2dVertex
 10
446.4926431175435
 20
-153.668484119569
 30
0.0
  0
VERTEX
  5
1C2
330
142
100
AcDbEntity
  8
Livello 1
 62
   178
420
   328448
370
     9
100
AcDbVertex
100
AcDb2dVertex
 10
447.5675129089415
 20
-170.8853488071051
 30
0.0
  0
VERTEX
  5
1C3
330
142
100
AcDbEntity
  8
Livello 1
 62
   178
420
   328448
370
     9
100
AcDbVertex
100
AcDb2dVertex
 10
448.2878823749072
 20
-188.4505126481999
 30
0.0
  0
SEQEND
  5
1C4
330
142
100
AcDbEntity
  8
Livello 1
370
     9
  0
POLYLINE
  5
1C5
330
1F
100
AcDbEntity
  8
Livello 1
 62
   178
420
   328448
370
     9
100
AcDb2dPolyline
 66
     1
 10
0.0
 20
0.0
 30
0.0
  0
VERTEX
  5
1C6
330
1C5
100
AcDbEntity
  8
Livello 1
 62
   178
420
   328448
370
     9
100
AcDbVertex
100
AcDb2dVertex
 10
-133.281442566506
 20
266.1773789482126
 30
0.0
  0
VERTEX
  5
1C7
330
1C5
100
AcDbEntity
  8
Livello 1
 62
   178
420
   328448
370
     9
100
AcDbVertex
100
AcDb2dVertex
 10
-133.281442566506
 20
266.5391139741639
 30
0.0
  0
VERTEX
  5
1C8
330
1C5
100
AcDbEntity
  8
Livello 1
 62
   178
420
   328448
370
     9
100
AcDbVertex
100
AcDb2dVertex
 10
-133.6431775924573
 20
266.8974039046298
 30
0.0
  0
VERTEX
  5
1C9
330
1C5
100
AcDbEntity
  8
Livello 1
 62
   178
420
   328448
370
     9
100
AcDbVertex
100
AcDb2dVertex
 10
-133.6431775924573
 20
267.9726182055763
 30
0.0
  0
VERTEX
  5
1CA
330
1C5
100
AcDbEntity
  8
Livello 1
 62
   178
420
   328448
370
     9
100
AcDbVertex
100
AcDb2dVertex
 10
-134.001295268149
 20
269.4087062586027
 30
0.0
  0
VERTEX
  5
1CB
330
1C5
100
AcDbEntity
  8
Livello 1
 62
   178
420
   328448
370
     9
100
AcDbVertex
100
AcDb2dVertex
 10
-134.359585198615
 20
270.8382486302071
 30
0.0
  0
VERTEX
  5
1CC
330
1C5
100
AcDbEntity
  8
Livello 1
 62
   178
420
   328448
370
     9
100
AcDbVertex
100
AcDb2dVertex
 10
-135.0759928047727
 20
272.9910887989398
 30
0.0
  0
VERTEX
  5
1CD
330
1C5
100
AcDbEntity
  8
Livello 1
 62
   178
420
   328448
370
     9
100
AcDbVertex
100
AcDb2dVertex
 10
-135.4342827352387
 20
275.1413451460584
 30
0.0
  0
VERTEX
  5
1CE
330
1C5
100
AcDbEntity
  8
Livello 1
 62
   178
420
   328448
370
     9
100
AcDbVertex
100
AcDb2dVertex
 10
-135.7927449204789
 20
277.6519584809342
 30
0.0
  0
VERTEX
  5
1CF
330
1C5
100
AcDbEntity
  8
Livello 1
 62
   178
420
   328448
370
     9
100
AcDbVertex
100
AcDb2dVertex
 10
-136.8676147118769
 20
283.3880424638753
 30
0.0
  0
VERTEX
  5
1D0
330
1C5
100
AcDbEntity
  8
Livello 1
 62
   178
420
   328448
370
     9
100
AcDbVertex
100
AcDb2dVertex
 10
-137.5871229039713
 20
290.2017523146023
 30
0.0
  0
VERTEX
  5
1D1
330
1C5
100
AcDbEntity
  8
Livello 1
 62
   178
420
   328448
370
     9
100
AcDbVertex
100
AcDb2dVertex
 10
-138.3040472744518
 20
297.7320420262615
 30
0.0
  0
VERTEX
  5
1D2
330
1C5
100
AcDbEntity
  8
Livello 1
 62
   178
420
   328448
370
     9
100
AcDbVertex
100
AcDb2dVertex
 10
-138.3040472744518
 20
305.620966177935
 30
0.0
  0
VERTEX
  5
1D3
330
1C5
100
AcDbEntity
  8
Livello 1
 62
   178
420
   328448
370
     9
100
AcDbVertex
100
AcDb2dVertex
 10
-138.3040472744518
 20
313.8642184002666
 30
0.0
  0
VERTEX
  5
1D4
330
1C5
100
AcDbEntity
  8
Livello 1
 62
   178
420
   328448
370
     9
100
AcDbVertex
100
AcDb2dVertex
 10
-137.5871229039713
 20
322.8309406745006
 30
0.0
  0
VERTEX
  5
1D5
330
1C5
100
AcDbEntity
  8
Livello 1
 62
   178
420
   328448
370
     9
100
AcDbVertex
100
AcDb2dVertex
 10
-136.1512071057192
 20
331.432999591621
 30
0.0
  0
VERTEX
  5
1D6
330
1C5
100
AcDbEntity
  8
Livello 1
 62
   178
420
   328448
370
     9
100
AcDbVertex
100
AcDb2dVertex
 10
-134.359585198615
 20
340.3995496110807
 30
0.0
  0
VERTEX
  5
1D7
330
1C5
100
AcDbEntity
  8
Livello 1
 62
   178
420
   328448
370
     9
100
AcDbVertex
100
AcDb2dVertex
 10
-131.1353203339696
 20
349.0045368593634
 30
0.0
  0
VERTEX
  5
1D8
330
1C5
100
AcDbEntity
  8
Livello 1
 62
   178
420
   328448
370
     9
100
AcDbVertex
100
AcDb2dVertex
 10
-129.337497254992
 20
353.307805629989
 30
0.0
  0
VERTEX
  5
1D9
330
1C5
100
AcDbEntity
  8
Livello 1
 62
   178
420
   328448
370
     9
100
AcDbVertex
100
AcDb2dVertex
 10
-127.1875854174219
 20
357.2484781007921
 30
0.0
  0
VERTEX
  5
1DA
330
1C5
100
AcDbEntity
  8
Livello 1
 62
   178
420
   328448
370
     9
100
AcDbVertex
100
AcDb2dVertex
 10
-125.0376735798517
 20
361.1960407625656
 30
0.0
  0
VERTEX
  5
1DB
330
1C5
100
AcDbEntity
  8
Livello 1
 62
   178
420
   328448
370
     9
100
AcDbVertex
100
AcDb2dVertex
 10
-122.5296440665898
 20
365.1374022524657
 30
0.0
  0
VERTEX
  5
1DC
330
1C5
100
AcDbEntity
  8
Livello 1
 62
   178
420
   328448
370
     9
100
AcDbVertex
100
AcDb2dVertex
 10
-119.2990057752968
 20
368.7230576335137
 30
0.0
  0
VERTEX
  5
1DD
330
1C5
100
AcDbEntity
  8
Livello 1
 62
   178
420
   328448
370
     9
100
AcDbVertex
100
AcDb2dVertex
 10
-116.071123560392
 20
372.308885269336
 30
0.0
  0
VERTEX
  5
1DE
330
1C5
100
AcDbEntity
  8
Livello 1
 62
   178
420
   328448
370
     9
100
AcDbVertex
100
AcDb2dVertex
 10
-108.9020521103613
 20
379.1200112984492
 30
0.0
  0
VERTEX
  5
1DF
330
1C5
100
AcDbEntity
  8
Livello 1
 62
   178
420
   328448
370
     9
100
AcDbVertex
100
AcDb2dVertex
 10
-100.297409371627
 20
386.2952839203533
 30
0.0
  0
VERTEX
  5
1E0
330
1C5
100
AcDbEntity
  8
Livello 1
 62
   178
420
   328448
370
     9
100
AcDbVertex
100
AcDb2dVertex
 10
-91.33361542855549
 20
393.4667669372236
 30
0.0
  0
VERTEX
  5
1E1
330
1C5
100
AcDbEntity
  8
Livello 1
 62
   178
420
   328448
370
     9
100
AcDbVertex
100
AcDb2dVertex
 10
-81.6535861341005
 20
400.6329100560918
 30
0.0
  0
VERTEX
  5
1E2
330
1C5
100
AcDbEntity
  8
Livello 1
 62
   178
420
   328448
370
     9
100
AcDbVertex
100
AcDb2dVertex
 10
-71.97062850848305
 20
408.8794351191343
 30
0.0
  0
VERTEX
  5
1E3
330
1C5
100
AcDbEntity
  8
Livello 1
 62
   178
420
   328448
370
     9
100
AcDbVertex
100
AcDb2dVertex
 10
-61.9321370287878
 20
417.1299220419849
 30
0.0
  0
VERTEX
  5
1E4
330
1C5
100
AcDbEntity
  8
Livello 1
 62
   178
420
   328448
370
     9
100
AcDbVertex
100
AcDb2dVertex
 10
-51.89054496315584
 20
426.0964720614447
 30
0.0
  0
VERTEX
  5
1E5
330
1C5
100
AcDbEntity
  8
Livello 1
 62
   178
420
   328448
370
     9
100
AcDbVertex
100
AcDb2dVertex
 10
-42.21068792347511
 20
435.7734007699629
 30
0.0
  0
VERTEX
  5
1E6
330
1C5
100
AcDbEntity
  8
Livello 1
 62
   178
420
   328448
370
     9
100
AcDbVertex
100
AcDb2dVertex
 10
-33.24706623517782
 20
446.1694931610271
 30
0.0
  0
VERTEX
  5
1E7
330
1C5
100
AcDbEntity
  8
Livello 1
 62
   178
420
   328448
370
     9
100
AcDbVertex
100
AcDb2dVertex
 10
-28.9444864836493
 20
451.5503877994388
 30
0.0
  0
VERTEX
  5
1E8
330
1C5
100
AcDbEntity
  8
Livello 1
 62
   178
420
   328448
370
     9
100
AcDbVertex
100
AcDb2dVertex
 10
-25.00036891736102
 20
457.2890556039937
 30
0.0
  0
VERTEX
  5
1E9
330
1C5
100
AcDbEntity
  8
Livello 1
 62
   178
420
   328448
370
     9
100
AcDbVertex
100
AcDb2dVertex
 10
-21.4141967719902
 20
463.3832572626264
 30
0.0
  0
VERTEX
  5
1EA
330
1C5
100
AcDbEntity
  8
Livello 1
 62
   178
420
   328448
370
     9
100
AcDbVertex
100
AcDb2dVertex
 10
-17.83129746733037
 20
469.8352320874023
 30
0.0
  0
VERTEX
  5
1EB
330
1C5
100
AcDbEntity
  8
Livello 1
 62
   178
420
   328448
370
     9
100
AcDbVertex
100
AcDb2dVertex
 10
-14.60375976197406
 20
476.2913410267605
 30
0.0
  0
VERTEX
  5
1EC
330
1C5
100
AcDbEntity
  8
Livello 1
 62
   178
420
   328448
370
     9
100
AcDbVertex
100
AcDb2dVertex
 10
-11.73416747753521
 20
483.1010890176796
 30
0.0
  0
VERTEX
  5
1ED
330
1C5
100
AcDbEntity
  8
Livello 1
 62
   178
420
   328448
370
     9
100
AcDbVertex
100
AcDb2dVertex
 10
-9.223037378336603
 20
489.9147988684068
 30
0.0
  0
VERTEX
  5
1EE
330
1C5
100
AcDbEntity
  8
Livello 1
 62
   178
420
   328448
370
     9
100
AcDbVertex
100
AcDb2dVertex
 10
-7.076570636251691
 20
497.4452608348401
 30
0.0
  0
VERTEX
  5
1EF
330
1C5
100
AcDbEntity
  8
Livello 1
 62
   178
420
   328448
370
     9
100
AcDbVertex
100
AcDb2dVertex
 10
-5.278575302499801
 20
504.9691771198515
 30
0.0
  0
VERTEX
  5
1F0
330
1C5
100
AcDbEntity
  8
Livello 1
 62
   178
420
   328448
370
     9
100
AcDbVertex
100
AcDb2dVertex
 10
-3.845587835410131
 20
512.8644746981728
 30
0.0
  0
VERTEX
  5
1F1
330
1C5
100
AcDbEntity
  8
Livello 1
 62
   178
420
   328448
370
     9
100
AcDbVertex
100
AcDb2dVertex
 10
-3.125735133767177
 20
521.4636052841306
 30
0.0
  0
VERTEX
  5
1F2
330
1C5
100
AcDbEntity
  8
Livello 1
 62
   178
420
   328448
370
     9
100
AcDbVertex
100
AcDb2dVertex
 10
-2.770718044012182
 20
530.0716931183501
 30
0.0
  0
VERTEX
  5
1F3
330
1C5
100
AcDbEntity
  8
Livello 1
 62
   178
420
   328448
370
     9
100
AcDbVertex
100
AcDb2dVertex
 10
-3.125735133767177
 20
539.0351425518732
 30
0.0
  0
VERTEX
  5
1F4
330
1C5
100
AcDbEntity
  8
Livello 1
 62
   178
420
   328448
370
     9
100
AcDbVertex
100
AcDb2dVertex
 10
-3.845587835410131
 20
548.354125839474
 30
0.0
  0
VERTEX
  5
1F5
330
1C5
100
AcDbEntity
  8
Livello 1
 62
   178
420
   328448
370
     9
100
AcDbVertex
100
AcDb2dVertex
 10
-4.561995441567834
 20
557.6851669612731
 30
0.0
  0
VERTEX
  5
1F6
330
1C5
100
AcDbEntity
  8
Livello 1
 62
   178
420
   328448
370
     9
100
AcDbVertex
100
AcDb2dVertex
 10
-5.640482583225296
 20
566.2873981331678
 30
0.0
  0
VERTEX
  5
1F7
330
1C5
100
AcDbEntity
  8
Livello 1
 62
   178
420
   328448
370
     9
100
AcDbVertex
100
AcDb2dVertex
 10
-6.714835610300458
 20
574.5306503554993
 30
0.0
  0
VERTEX
  5
1F8
330
1C5
100
AcDbEntity
  8
Livello 1
 62
   178
420
   328448
370
     9
100
AcDbVertex
100
AcDb2dVertex
 10
-7.790049911246932
 20
582.0611123219327
 30
0.0
  0
VERTEX
  5
1F9
330
1C5
100
AcDbEntity
  8
Livello 1
 62
   178
420
   328448
370
     9
100
AcDbVertex
100
AcDb2dVertex
 10
-9.223037378336603
 20
589.591574288366
 30
0.0
  0
VERTEX
  5
1FA
330
1C5
100
AcDbEntity
  8
Livello 1
 62
   178
420
   328448
370
     9
100
AcDbVertex
100
AcDb2dVertex
 10
-10.3013522652198
 20
596.0435491131419
 30
0.0
  0
VERTEX
  5
1FB
330
1C5
100
AcDbEntity
  8
Livello 1
 62
   178
420
   328448
370
     9
100
AcDbVertex
100
AcDb2dVertex
 10
-11.37604980184349
 20
602.4989690334031
 30
0.0
  0
VERTEX
  5
1FC
330
1C5
100
AcDbEntity
  8
Livello 1
 62
   178
420
   328448
370
     9
100
AcDbVertex
100
AcDb2dVertex
 10
-12.09573024871218
 20
608.592653927713
 30
0.0
  0
VERTEX
  5
1FD
330
1C5
100
AcDbEntity
  8
Livello 1
 62
   178
420
   328448
370
     9
100
AcDbVertex
100
AcDb2dVertex
 10
-13.17042778533587
 20
613.9742375852218
 30
0.0
  0
VERTEX
  5
1FE
330
1C5
100
AcDbEntity
  8
Livello 1
 62
   178
420
   328448
370
     9
100
AcDbVertex
100
AcDb2dVertex
 10
-14.24202473602283
 20
619.3477252683401
 30
0.0
  0
VERTEX
  5
1FF
330
1C5
100
AcDbEntity
  8
Livello 1
 62
   178
420
   328448
370
     9
100
AcDbVertex
100
AcDb2dVertex
 10
-14.96204969244004
 20
624.3670571355749
 30
0.0
  0
VERTEX
  5
200
330
1C5
100
AcDbEntity
  8
Livello 1
 62
   178
420
   328448
370
     9
100
AcDbVertex
100
AcDb2dVertex
 10
-15.67845729859775
 20
629.0279268175694
 30
0.0
  0
VERTEX
  5
201
330
1C5
100
AcDbEntity
  8
Livello 1
 62
   178
420
   328448
370
     9
100
AcDbVertex
100
AcDb2dVertex
 10
-16.7533270899957
 20
637.6361869065632
 30
0.0
  0
VERTEX
  5
202
330
1C5
100
AcDbEntity
  8
Livello 1
 62
   178
420
   328448
370
     9
100
AcDbVertex
100
AcDb2dVertex
 10
-17.11161702046168
 20
645.1664766182223
 30
0.0
  0
VERTEX
  5
203
330
1C5
100
AcDbEntity
  8
Livello 1
 62
   178
420
   328448
370
     9
100
AcDbVertex
100
AcDb2dVertex
 10
-17.11161702046168
 20
652.3384763994154
 30
0.0
  0
VERTEX
  5
204
330
1C5
100
AcDbEntity
  8
Livello 1
 62
   178
420
   328448
370
     9
100
AcDbVertex
100
AcDb2dVertex
 10
-16.03674722906373
 20
658.7913124980627
 30
0.0
  0
VERTEX
  5
205
330
1C5
100
AcDbEntity
  8
Livello 1
 62
   178
420
   328448
370
     9
100
AcDbVertex
100
AcDb2dVertex
 10
-13.88390706033111
 20
665.2462156540009
 30
0.0
  0
VERTEX
  5
206
330
1C5
100
AcDbEntity
  8
Livello 1
 62
   178
420
   328448
370
     9
100
AcDbVertex
100
AcDb2dVertex
 10
-12.80920952370742
 20
668.4740978689058
 30
0.0
  0
VERTEX
  5
207
330
1C5
100
AcDbEntity
  8
Livello 1
 62
   178
420
   328448
370
     9
100
AcDbVertex
100
AcDb2dVertex
 10
-11.01758761660324
 20
671.6987072430996
 30
0.0
  0
VERTEX
  5
208
330
1C5
100
AcDbEntity
  8
Livello 1
 62
   178
420
   328448
370
     9
100
AcDbVertex
100
AcDb2dVertex
 10
-9.223037378336603
 20
675.2845348789219
 30
0.0
  0
VERTEX
  5
209
330
1C5
100
AcDbEntity
  8
Livello 1
 62
   178
420
   328448
370
     9
100
AcDbVertex
100
AcDb2dVertex
 10
-7.076570636251691
 20
678.5124170938268
 30
0.0
  0
VERTEX
  5
20A
330
1C5
100
AcDbEntity
  8
Livello 1
 62
   178
420
   328448
370
     9
100
AcDbVertex
100
AcDb2dVertex
 10
-4.203877765876114
 20
682.0954886532609
 30
0.0
  0
VERTEX
  5
20B
330
1C5
100
AcDbEntity
  8
Livello 1
 62
   178
420
   328448
370
     9
100
AcDbVertex
100
AcDb2dVertex
 10
-1.337558322148249
 20
685.6844168750199
 30
0.0
  0
VERTEX
  5
20C
330
1C5
100
AcDbEntity
  8
Livello 1
 62
   178
420
   328448
370
     9
100
AcDbVertex
100
AcDb2dVertex
 10
1.531689452742078
 20
689.2709335299393
 30
0.0
  0
VERTEX
  5
20D
330
1C5
100
AcDbEntity
  8
Livello 1
 62
   178
420
   328448
370
     9
100
AcDbVertex
100
AcDb2dVertex
 10
5.114761012176171
 20
693.2150510962275
 30
0.0
  0
VERTEX
  5
20E
330
1C5
100
AcDbEntity
  8
Livello 1
 62
   178
420
   328448
370
     9
100
AcDbVertex
100
AcDb2dVertex
 10
9.058878578464448
 20
697.5141857522708
 30
0.0
  0
VERTEX
  5
20F
330
1C5
100
AcDbEntity
  8
Livello 1
 62
   178
420
   328448
370
     9
100
AcDbVertex
100
AcDb2dVertex
 10
13.36455891592969
 20
701.8200383445103
 30
0.0
  0
VERTEX
  5
210
330
1C5
100
AcDbEntity
  8
Livello 1
 62
   178
420
   328448
370
     9
100
AcDbVertex
100
AcDb2dVertex
 10
22.68629827991871
 20
710.4251978475673
 30
0.0
  0
VERTEX
  5
211
330
1C5
100
AcDbEntity
  8
Livello 1
 62
   178
420
   328448
370
     9
100
AcDbVertex
100
AcDb2dVertex
 10
32.00786538913345
 20
717.9556598140007
 30
0.0
  0
VERTEX
  5
212
330
1C5
100
AcDbEntity
  8
Livello 1
 62
   178
420
   328448
370
     9
100
AcDbVertex
100
AcDb2dVertex
 10
40.97475991814173
 20
724.4076346387766
 30
0.0
  0
VERTEX
  5
213
330
1C5
100
AcDbEntity
  8
Livello 1
 62
   178
420
   328448
370
     9
100
AcDbVertex
100
AcDb2dVertex
 10
50.296671536905
 20
730.5018362974093
 30
0.0
  0
VERTEX
  5
214
330
1C5
100
AcDbEntity
  8
Livello 1
 62
   178
420
   328448
370
     9
100
AcDbVertex
100
AcDb2dVertex
 10
59.26029322520229
 20
735.8792858403358
 30
0.0
  0
VERTEX
  5
215
330
1C5
100
AcDbEntity
  8
Livello 1
 62
   178
420
   328448
370
     9
100
AcDbVertex
100
AcDb2dVertex
 10
67.86528047348507
 20
740.5436006178155
 30
0.0
  0
VERTEX
  5
216
330
1C5
100
AcDbEntity
  8
Livello 1
 62
   178
420
   328448
370
     9
100
AcDbVertex
100
AcDb2dVertex
 10
76.1090494601394
 20
744.8425630190845
 30
0.0
  0
VERTEX
  5
217
330
1C5
100
AcDbEntity
  8
Livello 1
 62
   178
420
   328448
370
     9
100
AcDbVertex
100
AcDb2dVertex
 10
84.00055743342695
 20
749.148415611324
 30
0.0
  0
VERTEX
  5
218
330
1C5
100
AcDbEntity
  8
Livello 1
 62
   178
420
   328448
370
     9
100
AcDbVertex
100
AcDb2dVertex
 10
91.16635604274661
 20
753.0896048464499
 30
0.0
  0
VERTEX
  5
219
330
1C5
100
AcDbEntity
  8
Livello 1
 62
   178
420
   328448
370
     9
100
AcDbVertex
100
AcDb2dVertex
 10
97.62504880371874
 20
757.0338946675124
 30
0.0
  0
VERTEX
  5
21A
330
1C5
100
AcDbEntity
  8
Livello 1
 62
   178
420
   328448
370
     9
100
AcDbVertex
100
AcDb2dVertex
 10
103.7190782075772
 20
761.3397472597519
 30
0.0
  0
VERTEX
  5
21B
330
1C5
100
AcDbEntity
  8
Livello 1
 62
   178
420
   328448
370
     9
100
AcDbVertex
100
AcDb2dVertex
 10
108.3799478895717
 20
765.6392264253437
 30
0.0
  0
VERTEX
  5
21C
330
1C5
100
AcDbEntity
  8
Livello 1
 62
   178
420
   328448
370
     9
100
AcDbVertex
100
AcDb2dVertex
 10
112.6823553863259
 20
770.2999238525639
 30
0.0
  0
VERTEX
  5
21D
330
1C5
100
AcDbEntity
  8
Livello 1
 62
   178
420
   328448
370
     9
100
AcDbVertex
100
AcDb2dVertex
 10
114.1187879489009
 20
772.8110539517626
 30
0.0
  0
VERTEX
  5
21E
330
1C5
100
AcDbEntity
  8
Livello 1
 62
   178
420
   328448
370
     9
100
AcDbVertex
100
AcDb2dVertex
 10
115.5519476707648
 20
775.6772011407162
 30
0.0
  0
VERTEX
  5
21F
330
1C5
100
AcDbEntity
  8
Livello 1
 62
   178
420
   328448
370
     9
100
AcDbVertex
100
AcDb2dVertex
 10
116.6268174621627
 20
778.188503494689
 30
0.0
  0
VERTEX
  5
220
330
1C5
100
AcDbEntity
  8
Livello 1
 62
   178
420
   328448
370
     9
100
AcDbVertex
100
AcDb2dVertex
 10
117.3464979090314
 20
781.4162134548196
 30
0.0
  0
VERTEX
  5
221
330
1C5
100
AcDbEntity
  8
Livello 1
 62
   178
420
   328448
370
     9
100
AcDbVertex
100
AcDb2dVertex
 10
118.0598049292524
 20
784.6408228290135
 30
0.0
  0
VERTEX
  5
222
330
1C5
100
AcDbEntity
  8
Livello 1
 62
   178
420
   328448
370
     9
100
AcDbVertex
100
AcDb2dVertex
 10
118.0598049292524
 20
787.8685327891441
 30
0.0
  0
SEQEND
  5
223
330
1C5
100
AcDbEntity
  8
Livello 1
370
     9
  0
POLYLINE
  5
224
330
1F
100
AcDbEntity
  8
Livello 1
 62
   178
420
   328448
370
     9
100
AcDb2dPolyline
 66
     1
 10
0.0
 20
0.0
 30
0.0
  0
VERTEX
  5
225
330
224
100
AcDbEntity
  8
Livello 1
 62
   178
420
   328448
370
     9
100
AcDbVertex
100
AcDb2dVertex
 10
-217.5414156899723
 20
254.347782325736
 30
0.0
  0
VERTEX
  5
226
330
224
100
AcDbEntity
  8
Livello 1
 62
   178
420
   328448
370
     9
100
AcDbVertex
100
AcDb2dVertex
 10
-218.975092176159
 20
254.347782325736
 30
0.0
  0
VERTEX
  5
227
330
224
100
AcDbEntity
  8
Livello 1
 62
   178
420
   328448
370
     9
100
AcDbVertex
100
AcDb2dVertex
 10
-220.0497897127827
 20
254.7062445109762
 30
0.0
  0
VERTEX
  5
228
330
224
100
AcDbEntity
  8
Livello 1
 62
   178
420
   328448
370
     9
100
AcDbVertex
100
AcDb2dVertex
 10
-225.0720499111799
 20
256.1388874685174
 30
0.0
  0
VERTEX
  5
229
330
224
100
AcDbEntity
  8
Livello 1
 62
   178
420
   328448
370
     9
100
AcDbVertex
100
AcDb2dVertex
 10
-230.4494994541064
 20
258.2891438156361
 30
0.0
  0
VERTEX
  5
22A
330
224
100
AcDbEntity
  8
Livello 1
 62
   178
420
   328448
370
     9
100
AcDbVertex
100
AcDb2dVertex
 10
-231.5245415002786
 20
260.4419839843687
 30
0.0
  0
VERTEX
  5
22B
330
224
100
AcDbEntity
  8
Livello 1
 62
   178
420
   328448
370
     9
100
AcDbVertex
100
AcDb2dVertex
 10
-230.4494994541064
 20
261.8782442921693
 30
0.0
  0
VERTEX
  5
22C
330
224
100
AcDbEntity
  8
Livello 1
 62
   178
420
   328448
370
     9
100
AcDbVertex
100
AcDb2dVertex
 10
-225.4270670009349
 20
264.3862738054312
 30
0.0
  0
VERTEX
  5
22D
330
224
100
AcDbEntity
  8
Livello 1
 62
   178
420
   328448
370
     9
100
AcDbVertex
100
AcDb2dVertex
 10
-220.0497897127827
 20
265.8196057820694
 30
0.0
  0
VERTEX
  5
22E
330
224
100
AcDbEntity
  8
Livello 1
 62
   178
420
   328448
370
     9
100
AcDbVertex
100
AcDb2dVertex
 10
-219.3363104377875
 20
266.1773789482126
 30
0.0
  0
VERTEX
  5
22F
330
224
100
AcDbEntity
  8
Livello 1
 62
   178
420
   328448
370
     9
100
AcDbVertex
100
AcDb2dVertex
 10
-218.2616129011638
 20
266.1773789482126
 30
0.0
  0
VERTEX
  5
230
330
224
100
AcDbEntity
  8
Livello 1
 62
   178
420
   328448
370
     9
100
AcDbVertex
100
AcDb2dVertex
 10
452.2318276864212
 20
266.1773789482126
 30
0.0
  0
SEQEND
  5
231
330
224
100
AcDbEntity
  8
Livello 1
370
     9
  0
POLYLINE
  5
232
330
1F
100
AcDbEntity
  8
Livello 1
 62
   178
420
   328448
370
     9
100
AcDb2dPolyline
 66
     1
 10
0.0
 20
0.0
 30
0.0
  0
VERTEX
  5
233
330
232
100
AcDbEntity
  8
Livello 1
 62
   178
420
   328448
370
     9
100
AcDbVertex
100
AcDb2dVertex
 10
-217.5414156899723
 20
254.347782325736
 30
0.0
  0
VERTEX
  5
234
330
232
100
AcDbEntity
  8
Livello 1
 62
   178
420
   328448
370
     9
100
AcDbVertex
100
AcDb2dVertex
 10
450.4365884290576
 20
254.347782325736
 30
0.0
  0
VERTEX
  5
235
330
232
100
AcDbEntity
  8
Livello 1
 62
   178
420
   328448
370
     9
100
AcDbVertex
100
AcDb2dVertex
 10
451.8735377559552
 20
254.347782325736
 30
0.0
  0
VERTEX
  5
236
330
232
100
AcDbEntity
  8
Livello 1
 62
   178
420
   328448
370
     9
100
AcDbVertex
100
AcDb2dVertex
 10
452.5870170309505
 20
254.7062445109762
 30
0.0
  0
VERTEX
  5
237
330
232
100
AcDbEntity
  8
Livello 1
 62
   178
420
   328448
370
     9
100
AcDbVertex
100
AcDb2dVertex
 10
457.9672226502652
 20
256.1388874685174
 30
0.0
  0
VERTEX
  5
238
330
232
100
AcDbEntity
  8
Livello 1
 62
   178
420
   328448
370
     9
100
AcDbVertex
100
AcDb2dVertex
 10
463.3446721931916
 20
258.2891438156361
 30
0.0
  0
VERTEX
  5
239
330
232
100
AcDbEntity
  8
Livello 1
 62
   178
420
   328448
370
     9
100
AcDbVertex
100
AcDb2dVertex
 10
464.4198864941381
 20
260.4419839843687
 30
0.0
  0
VERTEX
  5
23A
330
232
100
AcDbEntity
  8
Livello 1
 62
   178
420
   328448
370
     9
100
AcDbVertex
100
AcDb2dVertex
 10
463.3446721931916
 20
261.8782442921693
 30
0.0
  0
VERTEX
  5
23B
330
232
100
AcDbEntity
  8
Livello 1
 62
   178
420
   328448
370
     9
100
AcDbVertex
100
AcDb2dVertex
 10
458.3255125807311
 20
264.3862738054312
 30
0.0
  0
VERTEX
  5
23C
330
232
100
AcDbEntity
  8
Livello 1
 62
   178
420
   328448
370
     9
100
AcDbVertex
100
AcDb2dVertex
 10
452.9487520569017
 20
265.8196057820694
 30
0.0
  0
VERTEX
  5
23D
330
232
100
AcDbEntity
  8
Livello 1
 62
   178
420
   328448
370
     9
100
AcDbVertex
100
AcDb2dVertex
 10
452.2318276864212
 20
266.1773789482126
 30
0.0
  0
VERTEX
  5
23E
330
232
100
AcDbEntity
  8
Livello 1
 62
   178
420
   328448
370
     9
100
AcDbVertex
100
AcDb2dVertex
 10
451.1531682899895
 20
266.1773789482126
 30
0.0
  0
SEQEND
  5
23F
330
232
100
AcDbEntity
  8
Livello 1
370
     9
  0
POLYLINE
  5
240
330
1F
100
AcDbEntity
  8
Livello 1
 62
   178
420
   328448
370
     9
100
AcDb2dPolyline
 66
     1
 10
0.0
 20
0.0
 30
0.0
  0
VERTEX
  5
241
330
240
100
AcDbEntity
  8
Livello 1
 62
   178
420
   328448
370
     9
100
AcDbVertex
100
AcDb2dVertex
 10
-230.4494994541064
 20
261.8782442921693
 30
0.0
  0
VERTEX
  5
242
330
240
100
AcDbEntity
  8
Livello 1
 62
   178
420
   328448
370
     9
100
AcDbVertex
100
AcDb2dVertex
 10
463.3446721931916
 20
261.8782442921693
 30
0.0
  0
SEQEND
  5
243
330
240
100
AcDbEntity
  8
Livello 1
370
     9
  0
POLYLINE
  5
244
330
1F
100
AcDbEntity
  8
Livello 1
 62
   178
420
   328448
370
     9
100
AcDb2dPolyline
 66
     1
 10
0.0
 20
0.0
 30
0.0
  0
VERTEX
  5
245
330
244
100
AcDbEntity
  8
Livello 1
 62
   178
420
   328448
370
     9
100
AcDbVertex
100
AcDb2dVertex
 10
-230.4494994541064
 20
258.2891438156361
 30
0.0
  0
VERTEX
  5
246
330
244
100
AcDbEntity
  8
Livello 1
 62
   178
420
   328448
370
     9
100
AcDbVertex
100
AcDb2dVertex
 10
463.3446721931916
 20
258.2891438156361
 30
0.0
  0
SEQEND
  5
247
330
244
100
AcDbEntity
  8
Livello 1
370
     9
  0
POLYLINE
  5
248
330
1F
100
AcDbEntity
  8
Livello 1
 62
   178
420
   328448
370
     9
100
AcDb2dPolyline
 66
     1
 10
0.0
 20
0.0
 30
0.0
  0
VERTEX
  5
249
330
248
100
AcDbEntity
  8
Livello 1
 62
   178
420
   328448
370
     9
100
AcDbVertex
100
AcDb2dVertex
 10
52.08812118923492
 20
797.5520071790843
 30
0.0
  0
VERTEX
  5
24A
330
248
100
AcDbEntity
  8
Livello 1
 62
   178
420
   328448
370
     9
100
AcDbVertex
100
AcDb2dVertex
 10
52.08812118923492
 20
832.6890527974701
 30
0.0
  0
VERTEX
  5
24B
330
248
100
AcDbEntity
  8
Livello 1
 62
   178
420
   328448
370
     9
100
AcDbVertex
100
AcDb2dVertex
 10
210.5673366444068
 20
832.6890527974701
 30
0.0
  0
VERTEX
  5
24C
330
248
100
AcDbEntity
  8
Livello 1
 62
   178
420
   328448
370
     9
100
AcDbVertex
100
AcDb2dVertex
 10
210.5673366444068
 20
797.5520071790843
 30
0.0
  0
SEQEND
  5
24D
330
248
100
AcDbEntity
  8
Livello 1
370
     9
  0
POLYLINE
  5
24E
330
1F
100
AcDbEntity
  8
Livello 1
 62
   178
420
   328448
370
     9
100
AcDb2dPolyline
 66
     1
 10
0.0
 20
0.0
 30
0.0
  0
VERTEX
  5
24F
330
24E
100
AcDbEntity
  8
Livello 1
 62
   178
420
   328448
370
     9
100
AcDbVertex
100
AcDb2dVertex
 10
210.5673366444068
 20
797.5520071790843
 30
0.0
  0
VERTEX
  5
264
330
24E
100
AcDbEntity
  8
0
100
AcDbVertex
100
AcDb2dVertex
 10
210.5673366444068
 20
797.5520071790843
 30
0.0
  0
SEQEND
  5
250
330
24E
100
AcDbEntity
  8
Livello 1
370
     9
  0
POLYLINE
  5
251
330
1F
100
AcDbEntity
  8
Livello 1
 62
   178
420
   328448
370
     9
100
AcDb2dPolyline
 66
     1
 10
0.0
 20
0.0
 30
0.0
  0
VERTEX
  5
252
330
251
100
AcDbEntity
  8
Livello 1
 62
   178
420
   328448
370
     9
100
AcDbVertex
100
AcDb2dVertex
 10
241.0433403260239
 20
787.8685327891441
 30
0.0
  0
VERTEX
  5
253
330
251
100
AcDbEntity
  8
Livello 1
 62
   178
420
   328448
370
     9
100
AcDbVertex
100
AcDb2dVertex
 10
18.74218071363043
 20
787.8685327891441
 30
0.0
  0
VERTEX
  5
254
330
251
100
AcDbEntity
  8
Livello 1
 62
   178
420
   328448
370
     9
100
AcDbVertex
100
AcDb2dVertex
 10
18.74218071363043
 20
797.5520071790843
 30
0.0
  0
VERTEX
  5
255
330
251
100
AcDbEntity
  8
Livello 1
 62
   178
420
   328448
370
     9
100
AcDbVertex
100
AcDb2dVertex
 10
241.0433403260239
 20
797.5520071790843
 30
0.0
  0
VERTEX
  5
256
330
251
100
AcDbEntity
  8
Livello 1
 62
   178
420
   328448
370
     9
100
AcDbVertex
100
AcDb2dVertex
 10
241.0433403260239
 20
787.8685327891441
 30
0.0
  0
SEQEND
  5
257
330
251
100
AcDbEntity
  8
Livello 1
370
     9
  0
POLYLINE
  5
258
330
1F
100
AcDbEntity
  8
Livello 1
 62
   178
420
   328448
370
     9
100
AcDb2dPolyline
 66
     1
 10
0.0
 20
0.0
 30
0.0
  0
VERTEX
  5
259
330
258
100
AcDbEntity
  8
Livello 1
 62
   178
420
   328448
370
     9
100
AcDbVertex
100
AcDb2dVertex
 10
62.84594860625032
 20
787.8685327891441
 30
0.0
  0
VERTEX
  5
25A
330
258
100
AcDbEntity
  8
Livello 1
 62
   178
420
   328448
370
     9
100
AcDbVertex
100
AcDb2dVertex
 10
-145.1177571251789
 20
266.1773789482126
 30
0.0
  0
SEQEND
  5
25B
330
258
100
AcDbEntity
  8
Livello 1
370
     9
  0
POLYLINE
  5
25C
330
1F
100
AcDbEntity
  8
Livello 1
 62
   178
420
   328448
370
     9
100
AcDb2dPolyline
 66
     1
 10
0.0
 20
0.0
 30
0.0
  0
VERTEX
  5
25D
330
25C
100
AcDbEntity
  8
Livello 1
 62
   178
420
   328448
370
     9
100
AcDbVertex
100
AcDb2dVertex
 10
197.3009629498067
 20
787.8685327891441
 30
0.0
  0
VERTEX
  5
25E
330
25C
100
AcDbEntity
  8
Livello 1
 62
   178
420
   328448
370
     9
100
AcDbVertex
100
AcDb2dVertex
 10
404.9000053241222
 20
266.1773789482126
 30
0.0
  0
SEQEND
  5
25F
330
25C
100
AcDbEntity
  8
Livello 1
370
     9
  0
POLYLINE
  5
260
330
1F
100
AcDbEntity
  8
Livello 1
 62
   178
420
   328448
370
     9
100
AcDb2dPolyline
 66
     1
 10
0.0
 20
0.0
 30
0.0
  0
VERTEX
  5
261
330
260
100
AcDbEntity
  8
Livello 1
 62
   178
420
   328448
370
     9
100
AcDbVertex
100
AcDb2dVertex
 10
129.89267439244
 20
787.8685327891441
 30
0.0
  0
VERTEX
  5
262
330
260
100
AcDbEntity
  8
Livello 1
 62
   178
420
   328448
370
     9
100
AcDbVertex
100
AcDb2dVertex
 10
129.89267439244
 20
266.1773789482126
 30
0.0
  0
SEQEND
  5
263
330
260
100
AcDbEntity
  8
Livello 1
370
     9
  0
ENDSEC
  0
SECTION
  2
OBJECTS
  0
DICTIONARY
  5
C
330
0
100
AcDbDictionary
281
     1
  3
ACAD_GROUP
350
D
  3
ACAD_LAYOUT
350
1A
  3
ACAD_MLINESTYLE
350
17
  3
ACAD_PLOTSETTINGS
350
19
  3
ACAD_PLOTSTYLENAME
350
E
  3
ACAD_TABLESTYLE
350
265
  3
ACAD_VISUALSTYLE
350
2A
  0
DICTIONARY
  5
D
102
{ACAD_REACTORS
330
C
102
}
330
C
100
AcDbDictionary
281
     1
  0
DICTIONARY
  5
1A
102
{ACAD_REACTORS
330
C
102
}
330
C
100
AcDbDictionary
281
     1
  3
Layout1
350
1E
  3
Layout2
350
26
  3
Model
350
22
  0
DICTIONARY
  5
17
102
{ACAD_REACTORS
330
C
102
}
330
C
100
AcDbDictionary
281
     1
  3
Standard
350
18
  0
DICTIONARY
  5
19
102
{ACAD_REACTORS
330
C
102
}
330
C
100
AcDbDictionary
281
     1
  0
ACDBDICTIONARYWDFLT
  5
E
102
{ACAD_REACTORS
330
C
102
}
330
C
100
AcDbDictionary
281
     1
  3
Normal
350
F
100
AcDbDictionaryWithDefault
340
F
  0
DICTIONARY
  5
265
102
{ACAD_REACTORS
330
C
102
}
330
C
100
AcDbDictionary
281
     1
  0
DICTIONARY
  5
2A
102
{ACAD_REACTORS
330
C
102
}
330
C
100
AcDbDictionary
281
     1
  3
2dWireframe
350
2F
  3
3D Hidden
350
31
  3
3dWireframe
350
30
  3
Basic
350
32
  3
Brighten
350
36
  3
ColorChange
350
3A
  3
Conceptual
350
34
  3
Dim
350
35
  3
Facepattern
350
39
  3
Flat
350
2B
  3
FlatWithEdges
350
2C
  3
Gouraud
350
2D
  3
GouraudWithEdges
350
2E
  3
Linepattern
350
38
  3
Realistic
350
33
  3
Thicken
350
37
  0
LAYOUT
  5
1E
102
{ACAD_REACTORS
330
1A
102
}
330
1A
100
AcDbPlotSettings
  1

  2
none_device
  4

  6

 40
0.0
 41
0.0
 42
0.0
 43
0.0
 44
0.0
 45
0.0
 46
0.0
 47
0.0
 48
0.0
 49
0.0
140
0.0
141
0.0
142
1.0
143
1.0
 70
   688
 72
     0
 73
     0
 74
     5
  7

 75
    16
 76
     0
 77
     2
 78
   300
147
1.0
148
0.0
149
0.0
100
AcDbLayout
  1
Layout1
 70
     1
 71
     1
 10
0.0
 20
0.0
 11
12.0
 21
9.0
 12
0.0
 22
0.0
 32
0.0
 14
1.000000000000000E+20
 24
1.000000000000000E+20
 34
1.000000000000000E+20
 15
-1.000000000000000E+20
 25
-1.000000000000000E+20
 35
-1.000000000000000E+20
146
0.0
 13
0.0
 23
0.0
 33
0.0
 16
1.0
 26
0.0
 36
0.0
 17
0.0
 27
1.0
 37
0.0
 76
     0
330
1B
  0
LAYOUT
  5
26
102
{ACAD_REACTORS
330
1A
102
}
330
1A
100
AcDbPlotSettings
  1

  2
none_device
  4

  6

 40
0.0
 41
0.0
 42
0.0
 43
0.0
 44
0.0
 45
0.0
 46
0.0
 47
0.0
 48
0.0
 49
0.0
140
0.0
141
0.0
142
1.0
143
1.0
 70
   688
 72
     0
 73
     0
 74
     5
  7

 75
    16
 76
     0
 77
     2
 78
   300
147
1.0
148
0.0
149
0.0
100
AcDbLayout
  1
Layout2
 70
     1
 71
     2
 10
0.0
 20
0.0
 11
0.0
 21
0.0
 12
0.0
 22
0.0
 32
0.0
 14
0.0
 24
0.0
 34
0.0
 15
0.0
 25
0.0
 35
0.0
146
0.0
 13
0.0
 23
0.0
 33
0.0
 16
1.0
 26
0.0
 36
0.0
 17
0.0
 27
1.0
 37
0.0
 76
     0
330
23
  0
LAYOUT
  5
22
102
{ACAD_REACTORS
330
1A
102
}
330
1A
100
AcDbPlotSettings
  1

  2
none_device
  4

  6

 40
0.0
 41
0.0
 42
0.0
 43
0.0
 44
0.0
 45
0.0
 46
0.0
 47
0.0
 48
0.0
 49
0.0
140
0.0
141
0.0
142
1.0
143
1.0
 70
  1712
 72
     0
 73
     0
 74
     0
  7

 75
     0
 76
     0
 77
     2
 78
   300
147
1.0
148
0.0
149
0.0
100
AcDbLayout
  1
Model
 70
     1
 71
     0
 10
0.0
 20
0.0
 11
12.0
 21
9.0
 12
0.0
 22
0.0
 32
0.0
 14
1.000000000000000E+20
 24
1.000000000000000E+20
 34
1.000000000000000E+20
 15
-1.000000000000000E+20
 25
-1.000000000000000E+20
 35
-1.000000000000000E+20
146
0.0
 13
0.0
 23
0.0
 33
0.0
 16
1.0
 26
0.0
 36
0.0
 17
0.0
 27
1.0
 37
0.0
 76
     0
330
1F
331
29
  0
MLINESTYLE
  5
18
102
{ACAD_REACTORS
330
17
102
}
330
17
100
AcDbMlineStyle
  2
Standard
 70
     0
  3

 62
   256
 51
90.0
 52
90.0
 71
     2
 49
0.5
 62
   256
  6
BYLAYER
 49
-0.5
 62
   256
  6
BYLAYER
  0
ACDBPLACEHOLDER
  5
F
102
{ACAD_REACTORS
330
E
102
}
330
E
  0
VISUALSTYLE
  5
2F
102
{ACAD_REACTORS
330
2A
102
}
330
2A
100
AcDbVisualStyle
  2
2dWireframe
 70
     4
 71
     0
 72
     2
 73
     0
 90
        0
 40
-0.6
 41
-30.0
 62
     5
 63
     7
421
 16777215
 74
     1
 91
        4
 64
     7
 65
   257
 75
     1
175
     1
 42
1.0
 92
        0
 66
   257
 43
1.0
 76
     1
 77
     6
 78
     2
 67
     7
 79
     5
170
     0
171
     0
290
     0
174
     0
 93
        1
 44
0.0
173
     0
291
     0
 45
0.0
1001
ACAD
1000
AcDbSavedByObjectVersion
1070
     0
  0
VISUALSTYLE
  5
31
102
{ACAD_REACTORS
330
2A
102
}
330
2A
100
AcDbVisualStyle
  2
3D Hidden
 70
     6
 71
     1
 72
     2
 73
     2
 90
        0
 40
-0.6
 41
-30.0
 62
     5
 63
     7
421
 16777215
 74
     2
 91
        2
 64
     7
 65
   257
 75
     2
175
     1
 42
40.0
 92
        0
 66
   257
 43
1.0
 76
     1
 77
     6
 78
     2
 67
     7
 79
     3
170
     0
171
     0
290
     0
174
     0
 93
        1
 44
0.0
173
     0
291
     0
 45
0.0
1001
ACAD
1000
AcDbSavedByObjectVersion
1070
     0
  0
VISUALSTYLE
  5
30
102
{ACAD_REACTORS
330
2A
102
}
330
2A
100
AcDbVisualStyle
  2
3dWireframe
 70
     5
 71
     0
 72
     2
 73
     0
 90
        0
 40
-0.6
 41
-30.0
 62
     5
 63
     7
421
 16777215
 74
     1
 91
        4
 64
     7
 65
   257
 75
     1
175
     1
 42
1.0
 92
        0
 66
   257
 43
1.0
 76
     1
 77
     6
 78
     2
 67
     7
 79
     5
170
     0
171
     0
290
     0
174
     0
 93
        1
 44
0.0
173
     0
291
     0
 45
0.0
1001
ACAD
1000
AcDbSavedByObjectVersion
1070
     0
  0
VISUALSTYLE
  5
32
102
{ACAD_REACTORS
330
2A
102
}
330
2A
100
AcDbVisualStyle
  2
Basic
 70
     7
 71
     1
 72
     0
 73
     1
 90
        0
 40
-0.6
 41
-30.0
 62
     5
 63
     7
421
 16777215
 74
     0
 91
        4
 64
     7
 65
   257
 75
     1
175
     1
 42
1.0
 92
        8
 66
     7
 43
1.0
 76
     1
 77
     6
 78
     2
 67
     7
 79
     5
170
     0
171
     0
290
     0
174
     0
 93
        1
 44
0.0
173
     0
291
     1
 45
0.0
1001
ACAD
1000
AcDbSavedByObjectVersion
1070
     0
  0
VISUALSTYLE
  5
36
102
{ACAD_REACTORS
330
2A
102
}
330
2A
100
AcDbVisualStyle
  2
Brighten
 70
    12
 71
     2
 72
     2
 73
     0
 90
        0
 40
-0.6
 41
-30.0
 62
     5
 63
     7
421
 16777215
 74
     1
 91
        4
 64
     7
 65
   257
 75
     1
175
     1
 42
1.0
 92
        8
 66
     7
 43
1.0
 76
     1
 77
     6
 78
     2
 67
     7
 79
     5
170
     0
171
     0
290
     0
174
     0
 93
        1
 44
50.0
173
     0
291
     1
 45
0.0
1001
ACAD
1000
AcDbSavedByObjectVersion
1070
     0
  0
VISUALSTYLE
  5
3A
102
{ACAD_REACTORS
330
2A
102
}
330
2A
100
AcDbVisualStyle
  2
ColorChange
 70
    16
 71
     2
 72
     2
 73
     3
 90
        0
 40
-0.6
 41
-30.0
 62
     5
 63
     8
421
  8421504
 74
     1
 91
        4
 64
     7
 65
   257
 75
     1
175
     1
 42
1.0
 92
        8
 66
     8
424
  8421504
 43
1.0
 76
     1
 77
     6
 78
     2
 67
     7
 79
     5
170
     0
171
     0
290
     0
174
     0
 93
        1
 44
0.0
173
     0
291
     1
 45
0.0
1001
ACAD
1000
AcDbSavedByObjectVersion
1070
     0
  0
VISUALSTYLE
  5
34
102
{ACAD_REACTORS
330
2A
102
}
330
2A
100
AcDbVisualStyle
  2
Conceptual
 70
     9
 71
     3
 72
     2
 73
     0
 90
        0
 40
-0.6
 41
-30.0
 62
     5
 63
     7
421
 16777215
 74
     2
 91
        2
 64
     7
 65
   257
 75
     1
175
     1
 42
40.0
 92
        8
 66
     7
 43
1.0
 76
     1
 77
     6
 78
     2
 67
     7
 79
     3
170
     0
171
     0
290
     0
174
     0
 93
        1
 44
0.0
173
     0
291
     0
 45
0.0
1001
ACAD
1000
AcDbSavedByObjectVersion
1070
     0
  0
VISUALSTYLE
  5
35
102
{ACAD_REACTORS
330
2A
102
}
330
2A
100
AcDbVisualStyle
  2
Dim
 70
    11
 71
     2
 72
     2
 73
     0
 90
        0
 40
-0.6
 41
-30.0
 62
     5
 63
     7
421
 16777215
 74
     1
 91
        4
 64
     7
 65
   257
 75
     1
175
     1
 42
1.0
 92
        8
 66
     7
 43
1.0
 76
     1
 77
     6
 78
     2
 67
     7
 79
     5
170
     0
171
     0
290
     0
174
     0
 93
        1
 44
-50.0
173
     0
291
     1
 45
0.0
1001
ACAD
1000
AcDbSavedByObjectVersion
1070
     0
  0
VISUALSTYLE
  5
39
102
{ACAD_REACTORS
330
2A
102
}
330
2A
100
AcDbVisualStyle
  2
Facepattern
 70
    15
 71
     2
 72
     2
 73
     0
 90
        0
 40
-0.6
 41
-30.0
 62
     5
 63
     7
421
 16777215
 74
     1
 91
        4
 64
     7
 65
   257
 75
     1
175
     1
 42
1.0
 92
        8
 66
     7
 43
1.0
 76
     1
 77
     6
 78
     2
 67
     7
 79
     5
170
     0
171
     0
290
     0
174
     0
 93
        1
 44
0.0
173
     0
291
     1
 45
0.0
1001
ACAD
1000
AcDbSavedByObjectVersion
1070
     0
  0
VISUALSTYLE
  5
2B
102
{ACAD_REACTORS
330
2A
102
}
330
2A
100
AcDbVisualStyle
  2
Flat
 70
     0
 71
     2
 72
     1
 73
     1
 90
        2
 40
-0.6
 41
30.0
 62
     5
 63
     7
421
 16777215
 74
     0
 91
        4
 64
     7
 65
   257
 75
     1
175
     1
 42
1.0
 92
        8
 66
     7
 43
1.0
 76
     1
 77
     6
 78
     2
 67
     7
 79
     5
170
     0
171
     0
290
     0
174
     0
 93
       13
 44
0.0
173
     0
291
     1
 45
0.0
1001
ACAD
1000
AcDbSavedByObjectVersion
1070
     0
  0
VISUALSTYLE
  5
2C
102
{ACAD_REACTORS
330
2A
102
}
330
2A
100
AcDbVisualStyle
  2
FlatWithEdges
 70
     1
 71
     2
 72
     1
 73
     1
 90
        2
 40
-0.6
 41
30.0
 62
     5
 63
     7
421
 16777215
 74
     1
 91
        4
 64
     7
 65
   257
 75
     1
175
     1
 42
1.0
 92
        0
 66
   257
 43
1.0
 76
     1
 77
     6
 78
     2
 67
     7
 79
     5
170
     0
171
     0
290
     0
174
     0
 93
       13
 44
0.0
173
     0
291
     1
 45
0.0
1001
ACAD
1000
AcDbSavedByObjectVersion
1070
     0
  0
VISUALSTYLE
  5
2D
102
{ACAD_REACTORS
330
2A
102
}
330
2A
100
AcDbVisualStyle
  2
Gouraud
 70
     2
 71
     2
 72
     2
 73
     1
 90
        2
 40
-0.6
 41
30.0
 62
     5
 63
     7
421
 16777215
 74
     0
 91
        4
 64
     7
 65
   257
 75
     1
175
     1
 42
1.0
 92
        0
 66
     7
 43
1.0
 76
     1
 77
     6
 78
     2
 67
     7
 79
     5
170
     0
171
     0
290
     0
174
     0
 93
       13
 44
0.0
173
     0
291
     1
 45
0.0
1001
ACAD
1000
AcDbSavedByObjectVersion
1070
     0
  0
VISUALSTYLE
  5
2E
102
{ACAD_REACTORS
330
2A
102
}
330
2A
100
AcDbVisualStyle
  2
GouraudWithEdges
 70
     3
 71
     2
 72
     2
 73
     1
 90
        2
 40
-0.6
 41
30.0
 62
     5
 63
     7
421
 16777215
 74
     1
 91
        4
 64
     7
 65
   257
 75
     1
175
     1
 42
1.0
 92
        0
 66
   257
 43
1.0
 76
     1
 77
     6
 78
     2
 67
     7
 79
     5
170
     0
171
     0
290
     0
174
     0
 93
       13
 44
0.0
173
     0
291
     1
 45
0.0
1001
ACAD
1000
AcDbSavedByObjectVersion
1070
     0
  0
VISUALSTYLE
  5
38
102
{ACAD_REACTORS
330
2A
102
}
330
2A
100
AcDbVisualStyle
  2
Linepattern
 70
    14
 71
     2
 72
     2
 73
     0
 90
        0
 40
-0.6
 41
-30.0
 62
     5
 63
     7
421
 16777215
 74
     1
 91
        4
 64
     7
 65
   257
 75
     7
175
     7
 42
1.0
 92
        8
 66
     7
 43
1.0
 76
     1
 77
     6
 78
     2
 67
     7
 79
     5
170
     0
171
     0
290
     0
174
     0
 93
        1
 44
0.0
173
     0
291
     1
 45
0.0
1001
ACAD
1000
AcDbSavedByObjectVersion
1070
     0
  0
VISUALSTYLE
  5
33
102
{ACAD_REACTORS
330
2A
102
}
330
2A
100
AcDbVisualStyle
  2
Realistic
 70
     8
 71
     2
 72
     2
 73
     0
 90
        0
 40
-0.6
 41
-30.0
 62
     5
 63
     7
421
 16777215
 74
     1
 91
        0
 64
     7
 65
   257
 75
     1
175
     1
 42
1.0
 92
        8
 66
     8
424
  7895160
 43
1.0
 76
     1
 77
     6
 78
     2
 67
     7
 79
     5
170
     0
171
     0
290
     0
174
     0
 93
       13
 44
0.0
173
     0
291
     0
 45
0.0
1001
ACAD
1000
AcDbSavedByObjectVersion
1070
     0
  0
VISUALSTYLE
  5
37
102
{ACAD_REACTORS
330
2A
102
}
330
2A
100
AcDbVisualStyle
  2
Thicken
 70
    13
 71
     2
 72
     2
 73
     0
 90
        0
 40
-0.6
 41
-30.0
 62
     5
 63
     7
421
 16777215
 74
     1
 91
        4
 64
     7
 65
   257
 75
     1
175
     1
 42
1.0
 92
       12
 66
     7
 43
1.0
 76
     1
 77
     6
 78
     2
 67
     7
 79
     5
170
     0
171
     0
290
     0
174
     0
 93
        1
 44
0.0
173
     0
291
     1
 45
0.0
1001
ACAD
1000
AcDbSavedByObjectVersion
1070
     0
  0
ENDSEC
  0
EOF
