  0
SECTION
  2
HEADER
  9
$ACADVER
  1
AC1009
  9
$DWGCODEPAGE
  3
mac-roman
  9
$INSBASE
 10
0.0
 20
0.0
 30
0.0
  9
$EXTMIN
 10
89.36842780495243
 20
87.56399374687899
 30
-0.0000000000000004
  9
$EXTMAX
 10
2606.534222862064
 20
3523.976331914721
 30
0.000000000000001
  9
$LIMMIN
 10
0.0
 20
0.0
  9
$LIMMAX
 10
12.0
 20
9.0
  9
$ORTHOMODE
 70
     0
  9
$REGENMODE
 70
     1
  9
$FILLMODE
 70
     1
  9
$QTEXTMODE
 70
     0
  9
$MIRRTEXT
 70
     1
  9
$DRAGMODE
 70
     2
  9
$LTSCALE
 40
1.0
  9
$OSMODE
 70
    37
  9
$ATTMODE
 70
     1
  9
$TEXTSIZE
 40
0.2
  9
$TRACEWID
 40
0.05
  9
$TEXTSTYLE
  7
STANDARD
  9
$CLAYER
  8
PREDEFINITO
  9
$CELTYPE
  6
BYLAYER
  9
$CECOLOR
 62
   256
  9
$DIMSCALE
 40
1.0
  9
$DIMASZ
 40
0.18
  9
$DIMEXO
 40
0.0625
  9
$DIMDLI
 40
0.38
  9
$DIMRND
 40
0.0
  9
$DIMDLE
 40
0.0
  9
$DIMEXE
 40
0.18
  9
$DIMTP
 40
0.0
  9
$DIMTM
 40
0.0
  9
$DIMTXT
 40
0.18
  9
$DIMCEN
 40
0.09
  9
$DIMTSZ
 40
0.0
  9
$DIMTOL
 70
     0
  9
$DIMLIM
 70
     0
  9
$DIMTIH
 70
     1
  9
$DIMTOH
 70
     1
  9
$DIMSE1
 70
     0
  9
$DIMSE2
 70
     0
  9
$DIMTAD
 70
     0
  9
$DIMZIN
 70
     0
  9
$DIMBLK
  1

  9
$DIMASO
 70
     1
  9
$DIMSHO
 70
     1
  9
$DIMPOST
  1

  9
$DIMAPOST
  1

  9
$DIMALT
 70
     0
  9
$DIMALTD
 70
     2
  9
$DIMALTF
 40
25.4
  9
$DIMLFAC
 40
1.0
  9
$DIMTOFL
 70
     0
  9
$DIMTVP
 40
0.0
  9
$DIMTIX
 70
     0
  9
$DIMSOXD
 70
     0
  9
$DIMSAH
 70
     0
  9
$DIMBLK1
  1

  9
$DIMBLK2
  1

  9
$DIMSTYLE
  2
STANDARD
  9
$DIMCLRD
 70
     0
  9
$DIMCLRE
 70
     0
  9
$DIMCLRT
 70
     0
  9
$DIMTFAC
 40
1.0
  9
$DIMGAP
 40
0.09
  9
$LUNITS
 70
     2
  9
$LUPREC
 70
     3
  9
$SKETCHINC
 40
0.1
  9
$FILLETRAD
 40
0.5
  9
$AUNITS
 70
     0
  9
$AUPREC
 70
     0
  9
$MENU
  1
.
  9
$ELEVATION
 40
0.0
  9
$PELEVATION
 40
0.0
  9
$THICKNESS
 40
0.0
  9
$LIMCHECK
 70
     0
  9
$CHAMFERA
 40
0.0
  9
$CHAMFERB
 40
0.0
  9
$SKPOLY
 70
     0
  9
$TDCREATE
 40
2458968.751898136
  9
$TDUPDATE
 40
2458968.75190971
  9
$TDINDWG
 40
0.0000000116
  9
$TDUSRTIMER
 40
0.0000000116
  9
$USRTIMER
 70
     1
  9
$ANGBASE
 50
0.0
  9
$ANGDIR
 70
     0
  9
$PDMODE
 70
     0
  9
$PDSIZE
 40
0.0
  9
$PLINEWID
 40
0.0
  9
$COORDS
 70
     1
  9
$SPLFRAME
 70
     0
  9
$SPLINETYPE
 70
     6
  9
$SPLINESEGS
 70
     8
  9
$ATTDIA
 70
     0
  9
$ATTREQ
 70
     1
  9
$HANDLING
 70
     1
  9
$HANDSEED
  5
3F2
  9
$SURFTAB1
 70
     6
  9
$SURFTAB2
 70
     6
  9
$SURFTYPE
 70
     6
  9
$SURFU
 70
     6
  9
$SURFV
 70
     6
  9
$UCSNAME
  2

  9
$UCSORG
 10
0.0
 20
0.0
 30
0.0
  9
$UCSXDIR
 10
1.0
 20
0.0
 30
0.0
  9
$UCSYDIR
 10
0.0
 20
1.0
 30
0.0
  9
$PUCSNAME
  2

  9
$PUCSORG
 10
0.0
 20
0.0
 30
0.0
  9
$PUCSXDIR
 10
1.0
 20
0.0
 30
0.0
  9
$PUCSYDIR
 10
0.0
 20
1.0
 30
0.0
  9
$USERI1
 70
     0
  9
$USERI2
 70
     0
  9
$USERI3
 70
     0
  9
$USERI4
 70
     0
  9
$USERI5
 70
     0
  9
$USERR1
 40
0.0
  9
$USERR2
 40
0.0
  9
$USERR3
 40
0.0
  9
$USERR4
 40
0.0
  9
$USERR5
 40
0.0
  9
$WORLDVIEW
 70
     1
  9
$SHADEDGE
 70
     3
  9
$SHADEDIF
 70
    70
  9
$TILEMODE
 70
     1
  9
$MAXACTVP
 70
    64
  9
$PLIMCHECK
 70
     0
  9
$PEXTMIN
 10
1.000000000000000E+20
 20
1.000000000000000E+20
 30
1.000000000000000E+20
  9
$PEXTMAX
 10
-1.000000000000000E+20
 20
-1.000000000000000E+20
 30
-1.000000000000000E+20
  9
$PLIMMIN
 10
0.0
 20
0.0
  9
$PLIMMAX
 10
12.0
 20
9.0
  9
$UNITMODE
 70
     0
  9
$VISRETAIN
 70
     1
  9
$PLINEGEN
 70
     0
  9
$PSLTSCALE
 70
     1
  0
ENDSEC
  0
SECTION
  2
TABLES
  0
TABLE
  2
VPORT
 70
     1
  0
VPORT
  2
*ACTIVE
 70
     0
 10
0.0
 20
0.0
 11
1.0
 21
1.0
 12
1347.951325333508
 22
1805.7701628308
 13
0.0
 23
0.0
 14
0.5
 24
0.5
 15
0.5
 25
0.5
 16
0.0
 26
0.0
 36
1.0
 17
0.0
 27
0.0
 37
0.0
 40
3505.140584931199
 41
0.7324981833813238
 42
50.0
 43
0.0
 44
0.0
 50
0.0
 51
0.0
 71
     0
 72
   100
 73
     1
 74
     3
 75
     0
 76
     0
 77
     0
 78
     0
  0
ENDTAB
  0
TABLE
  2
LTYPE
 70
     1
  0
LTYPE
  2
CONTINUOUS
 70
     0
  3
Solid line
 72
    65
 73
     0
 40
0.0
  0
ENDTAB
  0
TABLE
  2
LAYER
 70
     3
  0
LAYER
  2
0
 70
     0
 62
     7
  6
CONTINUOUS
  0
LAYER
  2
PREDEFINITO
 70
     0
 62
   178
  6
CONTINUOUS
  0
LAYER
  2
CREA2D$VISIBILI$LINEE
 70
     0
 62
   178
  6
CONTINUOUS
  0
ENDTAB
  0
TABLE
  2
STYLE
 70
     1
  0
STYLE
  2
STANDARD
 70
     0
 40
0.0
 41
1.0
 50
0.0
 71
     0
 42
0.2
  3
txt
  4

  0
ENDTAB
  0
TABLE
  2
VIEW
 70
     0
  0
ENDTAB
  0
TABLE
  2
UCS
 70
     0
  0
ENDTAB
  0
TABLE
  2
APPID
 70
     1
  0
APPID
  2
ACAD
 70
     0
  0
ENDTAB
  0
TABLE
  2
DIMSTYLE
 70
     1
  0
DIMSTYLE
  2
STANDARD
 70
     0
  3

  4

  5

  6

  7

 40
1.0
 41
0.18
 42
0.0625
 43
0.38
 44
0.18
 45
0.0
 46
0.0
 47
0.0
 48
0.0
140
0.18
141
0.09
142
0.0
143
25.4
144
1.0
145
0.0
146
1.0
147
0.09
 71
     0
 72
     0
 73
     1
 74
     1
 75
     0
 76
     0
 77
     0
 78
     0
170
     0
171
     2
172
     0
173
     0
174
     0
175
     0
176
     0
177
     0
178
     0
  0
ENDTAB
  0
ENDSEC
  0
SECTION
  2
BLOCKS
  0
BLOCK
  8
0
  2
$MODEL_SPACE
 70
     0
 10
0.0
 20
0.0
 30
0.0
  3
$MODEL_SPACE
  1

  0
ENDBLK
  5
21
  8
0
  0
BLOCK
 67
     1
  8
0
  2
$PAPER_SPACE
 70
     0
 10
0.0
 20
0.0
 30
0.0
  3
$PAPER_SPACE
  1

  0
ENDBLK
  5
1D
 67
     1
  8
0
  0
ENDSEC
  0
SECTION
  2
ENTITIES
  0
LINE
  5
6B
  8
PREDEFINITO
 10
119.6553071232947
 20
3464.274874450664
 30
0.0
 11
119.6553071232945
 21
3483.976331914721
 31
0.0
  0
LINE
  5
6C
  8
PREDEFINITO
 10
118.7044258535711
 20
3464.274874450664
 30
0.0
 11
118.7044258535713
 21
3483.976331914721
 31
0.0
  0
LINE
  5
6D
  8
PREDEFINITO
 10
117.9044258535714
 20
3464.274874450664
 30
0.0
 11
117.9044258535719
 21
3483.976331914721
 31
0.0
  0
LINE
  5
6E
  8
PREDEFINITO
 10
116.9553071232945
 20
3464.274874450664
 30
0.0
 11
116.9553071232941
 21
3483.976331914721
 31
0.0
  0
POLYLINE
  5
70
  8
CREA2D$VISIBILI$LINEE
 66
     1
 10
0.0
 20
0.0
 30
0.0
  0
VERTEX
  5
71
  8
CREA2D$VISIBILI$LINEE
 10
89.36842780495243
 20
3485.976331914721
 30
0.0
  0
VERTEX
  5
72
  8
CREA2D$VISIBILI$LINEE
 10
89.36842780495252
 20
3521.976331914721
 30
0.0
 42
-0.4142135623730977
  0
VERTEX
  5
73
  8
CREA2D$VISIBILI$LINEE
 10
91.36842780495297
 20
3523.976331914721
 30
0.0
  0
VERTEX
  5
74
  8
CREA2D$VISIBILI$LINEE
 10
147.3684278049524
 20
3523.976331914721
 30
0.0
 42
-0.4142135623732144
  0
VERTEX
  5
75
  8
CREA2D$VISIBILI$LINEE
 10
149.3684278049528
 20
3521.97633191472
 30
0.0
  0
VERTEX
  5
76
  8
CREA2D$VISIBILI$LINEE
 10
149.3684278049525
 20
3485.976331914721
 30
0.0
 42
-0.4142135623730813
  0
VERTEX
  5
77
  8
CREA2D$VISIBILI$LINEE
 10
147.3684278049566
 20
3483.976331914721
 30
0.0
  0
VERTEX
  5
78
  8
CREA2D$VISIBILI$LINEE
 10
91.36842780495243
 20
3483.976331914721
 30
0.0
 42
-0.4142135623731535
  0
VERTEX
  5
79
  8
CREA2D$VISIBILI$LINEE
 10
89.36842780495249
 20
3485.976331914716
 30
0.0
  0
SEQEND
  5
7A
  8
CREA2D$VISIBILI$LINEE
  0
POLYLINE
  5
7B
  8
CREA2D$VISIBILI$LINEE
 66
     1
 10
0.0
 20
0.0
 30
0.0
  0
VERTEX
  5
7C
  8
CREA2D$VISIBILI$LINEE
 10
1938.698187369172
 20
87.5639937468791
 30
0.0
  0
VERTEX
  5
7D
  8
CREA2D$VISIBILI$LINEE
 10
2334.698187369172
 20
87.56399374687899
 30
0.0
 42
0.4142135623731013
  0
VERTEX
  5
7E
  8
CREA2D$VISIBILI$LINEE
 10
2336.698187369172
 20
89.56399374688263
 30
0.0
  0
VERTEX
  5
7F
  8
CREA2D$VISIBILI$LINEE
 10
2336.698187369172
 20
145.5639937468791
 30
0.0
 42
0.4142135623731865
  0
VERTEX
  5
80
  8
CREA2D$VISIBILI$LINEE
 10
2334.69818736917
 20
147.5639937468791
 30
0.0
  0
VERTEX
  5
81
  8
CREA2D$VISIBILI$LINEE
 10
1938.698187369172
 20
147.5639937468791
 30
0.0
 42
0.4142134636168427
  0
VERTEX
  5
82
  8
CREA2D$VISIBILI$LINEE
 10
1936.698187369172
 20
145.5639937468791
 30
0.0
  0
VERTEX
  5
83
  8
CREA2D$VISIBILI$LINEE
 10
1936.698187369172
 20
89.5639937468791
 30
0.0
 42
0.4142135623731199
  0
VERTEX
  5
84
  8
CREA2D$VISIBILI$LINEE
 10
1938.698187369172
 20
87.56399374687908
 30
0.0
  0
SEQEND
  5
85
  8
CREA2D$VISIBILI$LINEE
  0
LINE
  5
86
  8
PREDEFINITO
 10
2426.003025246548
 20
109.7843349000553
 30
0.0
 11
2336.698187369172
 21
109.7843349000553
 31
0.0
  0
LINE
  5
87
  8
PREDEFINITO
 10
2336.698187369172
 20
126.7905353190574
 30
0.0
 11
2425.998084278536
 21
126.7905353190574
 31
0.0
  0
LINE
  5
88
  8
PREDEFINITO
 10
1626.904041167729
 20
126.7905353190575
 30
0.0
 11
1936.698187369172
 21
126.7905353190574
 31
0.0
  0
LINE
  5
89
  8
PREDEFINITO
 10
1936.698187369172
 20
109.7843349000553
 30
0.0
 11
1626.941215887799
 21
109.7843349000553
 31
0.0
  0
POLYLINE
  5
8A
  8
CREA2D$VISIBILI$LINEE
 66
     1
 10
0.0
 20
0.0
 30
0.0
  0
VERTEX
  5
8B
  8
CREA2D$VISIBILI$LINEE
 10
2336.698187369172
 20
3521.97633191472
 30
0.0
  0
VERTEX
  5
8C
  8
CREA2D$VISIBILI$LINEE
 10
2336.698187369172
 20
3485.97633191472
 30
0.0
 42
-0.4142135623730204
  0
VERTEX
  5
8D
  8
CREA2D$VISIBILI$LINEE
 10
2334.698187369173
 20
3483.97633191472
 30
0.0
  0
VERTEX
  5
8E
  8
CREA2D$VISIBILI$LINEE
 10
1938.698187369172
 20
3483.97633191472
 30
0.0
 42
-0.4142135623730692
  0
VERTEX
  5
8F
  8
CREA2D$VISIBILI$LINEE
 10
1936.698187369172
 20
3485.976331914718
 30
0.0
  0
VERTEX
  5
90
  8
CREA2D$VISIBILI$LINEE
 10
1936.698187369172
 20
3521.97633191472
 30
0.0
 42
-0.4142135623730943
  0
VERTEX
  5
91
  8
CREA2D$VISIBILI$LINEE
 10
1938.69818736917
 20
3523.976331914721
 30
0.0
  0
VERTEX
  5
92
  8
CREA2D$VISIBILI$LINEE
 10
2334.698187369172
 20
3523.976331914721
 30
0.0
 42
-0.4142135623729732
  0
VERTEX
  5
93
  8
CREA2D$VISIBILI$LINEE
 10
2336.698187369173
 20
3521.976331914722
 30
0.0
  0
SEQEND
  5
94
  8
CREA2D$VISIBILI$LINEE
  0
LINE
  5
95
  8
PREDEFINITO
 10
2308.482129530562
 20
3480.252254244443
 30
0.0
 11
2308.482129530562
 21
3483.97633191472
 31
0.0
  0
LINE
  5
96
  8
PREDEFINITO
 10
2307.682129530562
 20
3480.252254244443
 30
0.0
 11
2307.682129530561
 21
3483.97633191472
 31
0.0
  0
LINE
  5
97
  8
PREDEFINITO
 10
2289.353604331314
 20
3480.252254244443
 30
0.0
 11
2289.353604331314
 21
3483.97633191472
 31
0.0
  0
LINE
  5
98
  8
PREDEFINITO
 10
2286.653604331314
 20
3480.252254244443
 30
0.0
 11
2286.653604331314
 21
3483.97633191472
 31
0.0
  0
LINE
  5
99
  8
PREDEFINITO
 10
109.7843349001306
 20
3008.364548092221
 30
0.0
 11
109.7843349001306
 21
3045.244174700166
 31
0.0
  0
LINE
  5
9A
  8
PREDEFINITO
 10
109.7843349001306
 20
2085.550247744952
 30
0.0
 11
109.7843349001306
 21
3005.342361621678
 31
0.0
  0
ARC
  5
9B
  8
PREDEFINITO
 10
2108.730430107034
 20
2567.339465013609
 30
0.0
 40
497.8037016712372
 50
66.77454828927158
 51
67.98481316879196
  0
ARC
  5
9C
  8
PREDEFINITO
 10
2108.730430118981
 20
2567.339465042316
 30
0.0
 40
497.8037016401449
 50
68.32185310180337
 51
113.2254633807281
  0
POLYLINE
  5
9D
  8
PREDEFINITO
 66
     1
 10
0.0
 20
0.0
 30
0.0
  0
VERTEX
  5
9E
  8
PREDEFINITO
 10
113.6585767024676
 20
3060.130848953589
 30
0.0
 42
-0.0223475988942577
  0
VERTEX
  5
9F
  8
PREDEFINITO
 10
115.7360321145876
 20
3063.721307542095
 30
0.0
 42
-0.5573082794068525
  0
VERTEX
  5
A0
  8
PREDEFINITO
 10
120.8388381046448
 20
3063.721307542141
 30
0.0
 42
-0.0801078027253212
  0
VERTEX
  5
A1
  8
PREDEFINITO
 10
126.626134156197
 20
3050.440504349189
 30
0.0
 42
-0.0633792912450409
  0
VERTEX
  5
A2
  8
PREDEFINITO
 10
126.790535304449
 20
3049.166232787978
 30
0.0
  0
SEQEND
  5
A3
  8
PREDEFINITO
  0
POLYLINE
  5
A4
  8
PREDEFINITO
 66
     1
 10
0.0
 20
0.0
 30
0.0
  0
VERTEX
  5
A5
  8
PREDEFINITO
 10
1626.941245051665
 20
109.7844729185111
 30
0.0
 42
-0.0653254854055564
  0
VERTEX
  5
A6
  8
PREDEFINITO
 10
1625.629386109542
 20
109.9487360629873
 30
0.0
 42
-0.0801074850162974
  0
VERTEX
  5
A7
  8
PREDEFINITO
 10
1612.348582916629
 20
115.7360321145126
 30
0.0
 42
-0.5573082794067389
  0
VERTEX
  5
A8
  8
PREDEFINITO
 10
1612.348582916581
 20
120.8388381045702
 30
0.0
 42
-0.080107802725186
  0
VERTEX
  5
A9
  8
PREDEFINITO
 10
1625.629386109535
 20
126.6261341561218
 30
0.0
 42
-0.0633792912451495
  0
VERTEX
  5
AA
  8
PREDEFINITO
 10
1626.903657670746
 20
126.7905353043736
 30
0.0
  0
SEQEND
  5
AB
  8
PREDEFINITO
  0
LINE
  5
AC
  8
PREDEFINITO
 10
2590.55671235958
 20
109.7843349000553
 30
0.0
 11
2426.003025246548
 21
109.7843349000553
 31
0.0
  0
LINE
  5
AD
  8
PREDEFINITO
 10
2425.998084278536
 20
126.7905353190574
 30
0.0
 11
2590.556712354309
 21
126.7905353190574
 31
0.0
  0
CIRCLE
  5
AE
  8
PREDEFINITO
 10
2108.730376763744
 20
2567.33944997654
 30
0.0
 40
465.4004282836486
  0
CIRCLE
  5
AF
  8
PREDEFINITO
 10
2108.730376763744
 20
2567.339449976541
 30
0.0
 40
479.6896764664987
  0
CIRCLE
  5
B0
  8
PREDEFINITO
 10
2108.730376763745
 20
2567.339449976541
 30
0.0
 40
480.284543278332
  0
ARC
  5
B1
  8
PREDEFINITO
 10
2108.730374669449
 20
2567.339437054382
 30
0.0
 40
497.8037097660773
 50
114.6473228979555
 51
179.9999985126965
  0
ARC
  5
B2
  8
PREDEFINITO
 10
2108.730381355831
 20
2567.339442921704
 30
0.0
 40
497.8037164524583
 50
179.9999991880085
 51
65.3452567901439
  0
LINE
  5
B3
  8
PREDEFINITO
 10
1915.45376860773
 20
3494.752254198613
 30
0.0
 11
1915.45376860773
 21
3492.752254198613
 31
0.0
  0
LINE
  5
B4
  8
PREDEFINITO
 10
1903.45376860773
 20
3494.752254198613
 30
0.0
 11
1915.45376860773
 21
3494.752254198613
 31
0.0
  0
LINE
  5
B5
  8
PREDEFINITO
 10
1903.45376860773
 20
3492.752254198613
 30
0.0
 11
1903.45376860773
 21
3494.752254198613
 31
0.0
  0
LINE
  5
B6
  8
PREDEFINITO
 10
1915.45376860773
 20
3492.752254198613
 30
0.0
 11
1903.45376860773
 21
3492.752254198613
 31
0.0
  0
LINE
  5
B7
  8
PREDEFINITO
 10
2304.957048758108
 20
3237.707027892107
 30
0.0
 11
2304.957048758108
 21
3224.307554798163
 31
0.0
  0
LINE
  5
B8
  8
PREDEFINITO
 10
2304.957048623396
 20
3246.316033861339
 30
0.0
 11
2304.957048758108
 21
3237.707027892107
 31
0.0
  0
ARC
  5
B9
  8
PREDEFINITO
 10
213560.5220504203
 20
3246.317438854178
 30
0.0
 40
211255.565001797
 50
179.9890130324262
 51
180.0000003810558
  0
ARC
  5
BA
  8
PREDEFINITO
 10
100409.5511047949
 20
3268.015126333855
 30
0.0
 40
98104.5919758109
 50
179.9653533692613
 51
179.989013030936
  0
ARC
  5
BB
  8
PREDEFINITO
 10
69627.37030602123
 20
3286.629050056746
 30
0.0
 40
67322.40554913638
 50
179.9469646270669
 51
179.9653533735398
  0
ARC
  5
BC
  8
PREDEFINITO
 10
37059.24571587968
 20
3316.775476354744
 30
0.0
 40
34754.26700659758
 50
179.9113444984954
 51
179.9469646232571
  0
ARC
  5
BD
  8
PREDEFINITO
 10
33561.93243428811
 20
3322.186974829187
 30
0.0
 40
31256.94953832101
 50
179.8763339984866
 51
179.911344489316
  0
LINE
  5
BE
  8
PREDEFINITO
 10
2305.07591687604
 20
3408.75449139618
 30
0.0
 11
2305.055702743156
 21
3389.651262784068
 31
0.0
  0
LINE
  5
BF
  8
PREDEFINITO
 10
2305.076318759326
 20
3423.754491398104
 30
0.0
 11
2305.07591687604
 21
3408.75449139618
 31
0.0
  0
ARC
  5
C0
  8
PREDEFINITO
 10
2284.346776416687
 20
3423.754491398085
 30
0.0
 40
20.7295423426394
 50
0.000000000054047
 51
6.880605555298866
  0
ARC
  5
C1
  8
PREDEFINITO
 10
2282.643025446501
 20
3423.548900012368
 30
0.0
 40
22.44565282459846
 50
6.880605555256039
 51
13.20266584093262
  0
ARC
  5
C2
  8
PREDEFINITO
 10
2280.810353657049
 20
3423.118960762868
 30
0.0
 40
24.32808041845489
 50
13.20266584105608
 51
18.78059723020865
  0
ARC
  5
C3
  8
PREDEFINITO
 10
2275.236212776929
 20
3421.223474578596
 30
0.0
 40
30.21568726896695
 50
18.78059723031049
 51
23.22210731320055
  0
ARC
  5
C4
  8
PREDEFINITO
 10
2270.951670457106
 20
3419.385160214988
 30
0.0
 40
34.87795094553079
 50
23.22210731335031
 51
27.09949411834744
  0
ARC
  5
C5
  8
PREDEFINITO
 10
2257.698521808727
 20
3412.603329068835
 30
0.0
 40
49.76550221466027
 50
27.09949411846409
 51
29.7851351337773
  0
ARC
  5
C6
  8
PREDEFINITO
 10
2246.35033351459
 20
3406.108069623449
 30
0.0
 40
62.84104322916679
 50
29.78513513368389
 51
32.00851731769431
  0
ARC
  5
C7
  8
PREDEFINITO
 10
2191.322303695263
 20
3371.711364975371
 30
0.0
 40
127.7349362888679
 50
32.00851731758959
 51
33.09038031866687
  0
ARC
  5
C8
  8
PREDEFINITO
 10
2083.968796106426
 20
3301.754174718716
 30
0.0
 40
255.870739483105
 50
33.09038031846443
 51
33.64930715562671
  0
ARC
  5
C9
  8
PREDEFINITO
 10
2497.848784184285
 20
3577.249072835043
 30
0.0
 40
241.315426273198
 50
213.063074657819
 51
213.6493071556878
  0
ARC
  5
CA
  8
PREDEFINITO
 10
2397.79915171779
 20
3512.119379384919
 30
0.0
 40
121.9344984597994
 50
211.9532037496649
 51
213.063074657829
  0
ARC
  5
CB
  8
PREDEFINITO
 10
2344.65784861352
 20
3478.973327314329
 30
0.0
 40
59.30336511953428
 50
209.6974924258013
 51
211.9532037498401
  0
ARC
  5
CC
  8
PREDEFINITO
 10
2333.538502527846
 20
3472.631609235927
 30
0.0
 40
46.50269148261467
 50
206.9759504919337
 51
209.6974924257156
  0
ARC
  5
CD
  8
PREDEFINITO
 10
2320.497594164152
 20
3465.993827992654
 30
0.0
 40
31.86966613637086
 50
203.0563808261789
 51
206.9759504918779
  0
ARC
  5
CE
  8
PREDEFINITO
 10
2316.272374952876
 20
3464.195419907357
 30
0.0
 40
27.27763510156722
 50
198.5695275409707
 51
203.0563808260379
  0
ARC
  5
CF
  8
PREDEFINITO
 10
2310.787031943926
 20
3462.352645213384
 30
0.0
 40
21.49102931763937
 50
192.947602415746
 51
198.5695275409015
  0
ARC
  5
D0
  8
PREDEFINITO
 10
2309.013837723423
 20
3461.944978747345
 30
0.0
 40
19.67157618794451
 50
186.7365123153119
 51
192.9476024158031
  0
ARC
  5
D1
  8
PREDEFINITO
 10
2307.382226102553
 20
3461.752254244457
 30
0.0
 40
18.0286217712387
 50
180.0000000000404
 51
186.7365123153381
  0
LINE
  5
D2
  8
PREDEFINITO
 10
2289.353604331314
 20
3480.252254244443
 30
0.0
 11
2289.353604331314
 21
3461.752254244444
 31
0.0
  0
LINE
  5
D3
  8
PREDEFINITO
 10
1917.45376860773
 20
3523.752254198613
 30
0.0
 11
1917.45376860773
 21
3521.752254198613
 31
0.0
  0
LINE
  5
D4
  8
PREDEFINITO
 10
1901.469948973278
 20
3523.752254198613
 30
0.0
 11
1917.45376860773
 21
3523.752254198613
 31
0.0
  0
LINE
  5
D5
  8
PREDEFINITO
 10
1901.469948973278
 20
3521.752254198613
 30
0.0
 11
1901.469948973278
 21
3523.752254198613
 31
0.0
  0
LINE
  5
D6
  8
PREDEFINITO
 10
1917.45376860773
 20
3521.752254198613
 30
0.0
 11
1901.469948973278
 21
3521.752254198613
 31
0.0
  0
LINE
  5
D7
  8
PREDEFINITO
 10
1906.478810555105
 20
3482.752254198613
 30
0.0
 11
1906.45376860773
 21
3492.752254198613
 31
0.0
  0
LINE
  5
D8
  8
PREDEFINITO
 10
1912.45376860773
 20
3482.752254198613
 30
0.0
 11
1906.478810555105
 21
3482.752254198613
 31
0.0
  0
LINE
  5
D9
  8
PREDEFINITO
 10
1912.45376860773
 20
3492.752254198613
 30
0.0
 11
1912.45376860773
 21
3482.752254198613
 31
0.0
  0
ARC
  5
DA
  8
PREDEFINITO
 10
1911.799068429154
 20
3025.496734599299
 30
0.0
 40
2.745299821423941
 50
179.999999998994
 51
183.5835252586415
  0
LINE
  5
DB
  8
PREDEFINITO
 10
1909.05376860773
 20
3482.752254198613
 30
0.0
 11
1909.05376860773
 21
3025.496734599347
 31
0.0
  0
LINE
  5
DC
  8
PREDEFINITO
 10
2302.257048758042
 20
3160.392409218574
 30
0.0
 11
2302.257048758053
 21
3173.80755479803
 31
0.0
  0
LINE
  5
DD
  8
PREDEFINITO
 10
2302.257048757977
 20
3111.907226567807
 30
0.0
 11
2302.257048758042
 21
3160.392409218574
 31
0.0
  0
ARC
  5
DE
  8
PREDEFINITO
 10
2190.43093612645
 20
3111.909400672245
 30
0.0
 40
111.8261126526617
 50
357.0092319725243
 51
359.9988860651098
  0
ARC
  5
DF
  8
PREDEFINITO
 10
2154.309995446555
 20
3113.819557384717
 30
0.0
 40
147.9975192679671
 50
354.7438079985544
 51
357.0003497482215
  0
ARC
  5
E0
  8
PREDEFINITO
 10
2129.146221955662
 20
3116.173110738691
 30
0.0
 40
173.2710914081264
 50
352.755816361811
 51
354.7311027182702
  0
LINE
  5
E1
  8
PREDEFINITO
 10
2300.21449315219
 20
3088.428008751109
 30
0.0
 11
2301.03422116718
 21
3094.323926661836
 31
0.0
  0
ARC
  5
E2
  8
PREDEFINITO
 10
1934.958558257717
 20
3143.53993734608
 30
0.0
 40
369.3903391388207
 50
349.8825335360241
 51
351.4196058755111
  0
LINE
  5
E3
  8
PREDEFINITO
 10
2296.863442425688
 20
3068.89497888468
 30
0.0
 11
2298.604757259138
 21
3078.650303344095
 31
0.0
  0
LINE
  5
E4
  8
PREDEFINITO
 10
2295.256725467952
 20
3059.552998975326
 30
0.0
 11
2296.863442425688
 21
3068.89497888468
 31
0.0
  0
ARC
  5
E5
  8
PREDEFINITO
 10
2541.775496959887
 20
3018.757998231817
 30
0.0
 40
249.8714405120274
 50
170.6036008283808
 51
172.8020189056055
  0
ARC
  5
E6
  8
PREDEFINITO
 10
2478.368859510865
 20
3026.804266315398
 30
0.0
 40
185.9563237502097
 50
172.8137624014113
 51
175.5819127075792
  0
ARC
  5
E7
  8
PREDEFINITO
 10
2410.877237384468
 20
3032.038540922048
 30
0.0
 40
118.262039761855
 50
175.5914019215178
 51
180.0009912753904
  0
LINE
  5
E8
  8
PREDEFINITO
 10
2292.615197640312
 20
3030.03649486821
 30
0.0
 11
2292.615197640312
 21
3032.036494868209
 31
0.0
  0
LINE
  5
E9
  8
PREDEFINITO
 10
2292.645425586704
 20
3028.445948081887
 30
0.0
 11
2292.615197640312
 21
3030.03649486821
 31
0.0
  0
LINE
  5
EA
  8
PREDEFINITO
 10
2292.712785589053
 20
3027.069581740333
 30
0.0
 11
2292.645425586704
 21
3028.445948081887
 31
0.0
  0
LINE
  5
EB
  8
PREDEFINITO
 10
2292.796591601758
 20
3025.819320454459
 30
0.0
 11
2292.712785589053
 21
3027.069581740333
 31
0.0
  0
LINE
  5
EC
  8
PREDEFINITO
 10
2292.87106026483
 20
3024.701460486671
 30
0.0
 11
2292.796591601758
 21
3025.819320454459
 31
0.0
  0
LINE
  5
ED
  8
PREDEFINITO
 10
2292.895813437714
 20
3023.224188937628
 30
0.0
 11
2292.87106026483
 21
3024.701460486671
 31
0.0
  0
ARC
  5
EE
  8
PREDEFINITO
 10
2290.678919506396
 20
3023.285005704065
 30
0.0
 40
2.21772797741149
 50
339.2788299394041
 51
358.428580526682
  0
ARC
  5
EF
  8
PREDEFINITO
 10
2294.022495443905
 20
3022.078240564426
 30
0.0
 40
1.337644933576213
 50
161.6062616767351
 51
269.2086431620284
  0
ARC
  5
F0
  8
PREDEFINITO
 10
2294.097662777073
 20
3022.036019077384
 30
0.0
 40
1.298676322802205
 50
265.8650575119566
 51
314.2116483569038
  0
LINE
  5
F1
  8
PREDEFINITO
 10
2295.258498700475
 20
3021.493721128299
 30
0.0
 11
2295.003243851934
 21
3021.105168333032
 31
0.0
  0
ARC
  5
F2
  8
PREDEFINITO
 10
2290.833968719473
 20
3023.25772454026
 30
0.0
 40
4.763210428923341
 50
338.2634635119055
 51
355.9868666695447
  0
LINE
  5
F3
  8
PREDEFINITO
 10
2295.57838234361
 20
3024.632763848162
 30
0.0
 11
2295.585499920679
 21
3022.924370622981
 31
0.0
  0
LINE
  5
F4
  8
PREDEFINITO
 10
2295.409671741671
 20
3027.202900606714
 30
0.0
 11
2295.57838234361
 21
3024.632763848162
 31
0.0
  0
LINE
  5
F5
  8
PREDEFINITO
 10
2295.342445595069
 20
3028.575089976758
 30
0.0
 11
2295.409671741671
 21
3027.202900606714
 31
0.0
  0
LINE
  5
F6
  8
PREDEFINITO
 10
2295.315197640311
 20
3030.03649486821
 30
0.0
 11
2295.342445595069
 21
3028.575089976758
 31
0.0
  0
LINE
  5
F7
  8
PREDEFINITO
 10
2295.315197640311
 20
3032.036494868209
 30
0.0
 11
2295.315197640311
 21
3030.03649486821
 31
0.0
  0
ARC
  5
F8
  8
PREDEFINITO
 10
2411.102237592042
 20
3032.029888773637
 30
0.0
 40
115.787040140182
 50
175.6014874897328
 51
179.9967310561026
  0
ARC
  5
F9
  8
PREDEFINITO
 10
2479.301996734723
 20
3026.709540869748
 30
0.0
 40
184.1939826661491
 50
172.8258494346874
 51
175.5783991381963
  0
ARC
  5
FA
  8
PREDEFINITO
 10
2542.601952263983
 20
3018.637536385877
 30
0.0
 40
248.0064709569019
 50
170.6037213186809
 51
172.8019254420056
  0
LINE
  5
FB
  8
PREDEFINITO
 10
2299.524763632694
 20
3068.439222812682
 30
0.0
 11
2297.923041807509
 21
3059.127540267447
 31
0.0
  0
LINE
  5
FC
  8
PREDEFINITO
 10
2301.265505557822
 20
3078.19131900199
 30
0.0
 11
2299.524763632694
 21
3068.439222812682
 31
0.0
  0
ARC
  5
FD
  8
PREDEFINITO
 10
1934.505366036461
 20
3143.614427894902
 30
0.0
 40
372.5495713578828
 50
349.8858919156512
 51
351.4207009039658
  0
LINE
  5
FE
  8
PREDEFINITO
 10
2303.710553513361
 20
3093.966887246894
 30
0.0
 11
2302.886235650882
 21
3088.038191776711
 31
0.0
  0
ARC
  5
FF
  8
PREDEFINITO
 10
2127.765893567442
 20
3116.324717719311
 30
0.0
 40
177.3595104495907
 50
352.7580620764585
 51
354.719007938904
  0
ARC
  5
100
  8
PREDEFINITO
 10
2153.802943826922
 20
3113.856370008594
 30
0.0
 40
151.2058051170009
 50
354.7422791668099
 51
356.9890471022345
  0
ARC
  5
101
  8
PREDEFINITO
 10
2190.434387278526
 20
3111.909342697438
 30
0.0
 40
114.5226614990022
 50
356.9991556075589
 51
359.9989412986463
  0
LINE
  5
102
  8
PREDEFINITO
 10
2304.957048758042
 20
3160.392409218574
 30
0.0
 11
2304.957048757977
 21
3111.907226567807
 31
0.0
  0
LINE
  5
103
  8
PREDEFINITO
 10
2304.957048758108
 20
3173.80755479803
 30
0.0
 11
2304.957048758042
 21
3160.392409218574
 31
0.0
  0
LINE
  5
104
  8
PREDEFINITO
 10
1903.45376860773
 20
3494.952254198613
 30
0.0
 11
1903.45376860773
 21
3521.752254198613
 31
0.0
  0
LINE
  5
105
  8
PREDEFINITO
 10
1915.45376860773
 20
3494.952254198613
 30
0.0
 11
1903.45376860773
 21
3494.952254198613
 31
0.0
  0
LINE
  5
106
  8
PREDEFINITO
 10
1915.45376860773
 20
3521.752254198613
 30
0.0
 11
1915.45376860773
 21
3494.952254198613
 31
0.0
  0
LINE
  5
107
  8
PREDEFINITO
 10
2314.518175255328
 20
3022.813159698186
 30
0.0
 11
2316.352721017242
 21
3022.015476498473
 31
0.0
  0
LINE
  5
108
  8
PREDEFINITO
 10
2308.557293324983
 20
3025.405055593795
 30
0.0
 11
2314.518175255328
 21
3022.813159698186
 31
0.0
  0
LINE
  5
109
  8
PREDEFINITO
 10
2306.722738999656
 20
3026.202711814968
 30
0.0
 11
2308.557293324983
 21
3025.405055593795
 31
0.0
  0
ARC
  5
10A
  8
PREDEFINITO
 10
2306.313349156057
 20
3025.279816830079
 30
0.0
 40
1.009621313748627
 50
66.07825660045395
 51
154.9385853396253
  0
LINE
  5
10B
  8
PREDEFINITO
 10
2305.018791210266
 20
3024.873674343753
 30
0.0
 11
2305.398779380926
 21
3025.707481796602
 31
0.0
  0
LINE
  5
10C
  8
PREDEFINITO
 10
2305.941231309534
 20
3022.870417009624
 30
0.0
 11
2305.018791210266
 21
3024.873674343753
 31
0.0
  0
ARC
  5
10D
  8
PREDEFINITO
 10
2307.935448458662
 20
3023.83170653544
 30
0.0
 40
2.213815617959265
 50
205.7358586354844
 51
245.0220442370165
  0
LINE
  5
10E
  8
PREDEFINITO
 10
2312.961512053876
 20
3019.233079435767
 30
0.0
 11
2307.000621570372
 21
3021.824948383781
 31
0.0
  0
ARC
  5
10F
  8
PREDEFINITO
 10
2313.791390371265
 20
3021.280047953417
 30
0.0
 40
2.208795629732072
 50
247.9314702278611
 51
287.310626898147
  0
LINE
  5
110
  8
PREDEFINITO
 10
2316.542814125439
 20
3019.862886570903
 30
0.0
 11
2314.448621823812
 21
3019.171298335348
 31
0.0
  0
LINE
  5
111
  8
PREDEFINITO
 10
2316.893470595759
 20
3020.709446679722
 30
0.0
 11
2316.542814125439
 21
3019.862886570903
 31
0.0
  0
ARC
  5
112
  8
PREDEFINITO
 10
2315.957267368791
 20
3021.086781476832
 30
0.0
 40
1.009384976753182
 50
338.0482014902869
 51
66.93489565808471
  0
POLYLINE
  5
113
  8
PREDEFINITO
 66
     1
 10
0.0
 20
0.0
 30
0.0
  0
VERTEX
  5
114
  8
PREDEFINITO
 10
2297.131783218714
 20
3173.80755479803
 30
0.0
  0
VERTEX
  5
115
  8
PREDEFINITO
 10
2310.106969658102
 20
3173.807554797999
 30
0.0
  0
VERTEX
  5
116
  8
PREDEFINITO
 10
2310.107047239403
 20
3173.807554797998
 30
0.0
  0
VERTEX
  5
117
  8
PREDEFINITO
 10
2310.094681525109
 20
3173.807554797995
 30
0.0
  0
SEQEND
  5
118
  8
PREDEFINITO
  0
LINE
  5
119
  8
PREDEFINITO
 10
2297.131783218714
 20
3224.307554798164
 30
0.0
 11
2297.131783218714
 21
3173.80755479803
 31
0.0
  0
POLYLINE
  5
11A
  8
PREDEFINITO
 66
     1
 10
0.0
 20
0.0
 30
0.0
  0
VERTEX
  5
11B
  8
PREDEFINITO
 10
2310.094681525109
 20
3224.307554798161
 30
0.0
  0
VERTEX
  5
11C
  8
PREDEFINITO
 10
2310.107047239404
 20
3224.307554798161
 30
0.0
  0
VERTEX
  5
11D
  8
PREDEFINITO
 10
2310.106969658102
 20
3224.307554798161
 30
0.0
  0
VERTEX
  5
11E
  8
PREDEFINITO
 10
2297.131783218714
 20
3224.307554798164
 30
0.0
  0
SEQEND
  5
11F
  8
PREDEFINITO
  0
LINE
  5
120
  8
PREDEFINITO
 10
2310.094681525109
 20
3173.807554797997
 30
0.0
 11
2310.094681525109
 21
3224.307554798164
 31
0.0
  0
LINE
  5
121
  8
PREDEFINITO
 10
2286.653604331314
 20
3461.752254244444
 30
0.0
 11
2286.653604331314
 21
3480.252254244443
 31
0.0
  0
ARC
  5
122
  8
PREDEFINITO
 10
2307.382226101582
 20
3461.752254244404
 30
0.0
 40
20.72862177026763
 50
179.9999999998906
 51
186.7365123155041
  0
ARC
  5
123
  8
PREDEFINITO
 10
2309.01383772178
 20
3461.944978747058
 30
0.0
 40
22.37157618627841
 50
186.7365123150728
 51
192.9476024160288
  0
ARC
  5
124
  8
PREDEFINITO
 10
2310.787031944206
 20
3462.352645213468
 30
0.0
 40
24.19102931793077
 50
192.9476024157981
 51
198.5695275408766
  0
ARC
  5
125
  8
PREDEFINITO
 10
2316.27237495171
 20
3464.195419906903
 30
0.0
 40
29.97763510031676
 50
198.5695275408488
 51
203.056380826124
  0
ARC
  5
126
  8
PREDEFINITO
 10
2320.497594162852
 20
3465.993827992055
 30
0.0
 40
34.56966613493967
 50
203.0563808261104
 51
206.9759504919697
  0
ARC
  5
127
  8
PREDEFINITO
 10
2333.538502525749
 20
3472.631609234782
 30
0.0
 40
49.20269148022552
 50
206.9759504918487
 51
209.6974924257746
  0
ARC
  5
128
  8
PREDEFINITO
 10
2344.657848614932
 20
3478.973327315152
 30
0.0
 40
62.00336512116817
 50
209.6974924258178
 51
211.9532037497899
  0
ARC
  5
129
  8
PREDEFINITO
 10
2397.799151719265
 20
3512.119379386003
 30
0.0
 40
124.6344984616258
 50
211.9532037497299
 51
213.0630746578765
  0
ARC
  5
12A
  8
PREDEFINITO
 10
2497.848784138193
 20
3577.249072804322
 30
0.0
 40
244.0154262178083
 50
213.063074657678
 51
213.6493071556792
  0
ARC
  5
12B
  8
PREDEFINITO
 10
2083.968796170825
 20
3301.754174760856
 30
0.0
 40
253.1707394061445
 50
33.09038031843092
 51
33.64930715576376
  0
ARC
  5
12C
  8
PREDEFINITO
 10
2191.32230367647
 20
3371.71136496352
 30
0.0
 40
125.0349363110832
 50
32.00851731762686
 51
33.09038031851821
  0
ARC
  5
12D
  8
PREDEFINITO
 10
2246.350333513858
 20
3406.108069622959
 30
0.0
 40
60.14104323004653
 50
29.78513513374285
 51
32.0085173177189
  0
ARC
  5
12E
  8
PREDEFINITO
 10
2257.698521805611
 20
3412.603329067148
 30
0.0
 40
47.06550221820285
 50
27.09949411856377
 51
29.78513513368084
  0
ARC
  5
12F
  8
PREDEFINITO
 10
2270.951670457009
 20
3419.385160214955
 30
0.0
 40
32.17795094563193
 50
23.22210731334901
 51
27.09949411830921
  0
ARC
  5
130
  8
PREDEFINITO
 10
2275.236212776816
 20
3421.223474578553
 30
0.0
 40
27.51568726908765
 50
18.78059723031567
 51
23.22210731319264
  0
ARC
  5
131
  8
PREDEFINITO
 10
2280.810353658234
 20
3423.1189607632
 30
0.0
 40
21.62808041722556
 50
13.20266584093557
 51
18.78059723036887
  0
ARC
  5
132
  8
PREDEFINITO
 10
2282.643025447167
 20
3423.548900012472
 30
0.0
 40
19.74565282392678
 50
6.880605555187628
 51
13.20266584108317
  0
ARC
  5
133
  8
PREDEFINITO
 10
2284.34677641619
 20
3423.754491398071
 30
0.0
 40
18.0295423431362
 50
0.0000000001069399
 51
6.88060555515926
  0
LINE
  5
134
  8
PREDEFINITO
 10
2302.377122526487
 20
3408.754491396821
 30
0.0
 11
2302.376318759326
 21
3423.754491398104
 31
0.0
  0
ARC
  5
135
  8
PREDEFINITO
 10
-6545.653871013345
 20
3408.382096310047
 30
0.0
 40
8848.031001376496
 50
359.8787454279363
 51
0.0024114593163785
  0
ARC
  5
136
  8
PREDEFINITO
 10
33561.91510475274
 20
3322.18701289809
 30
0.0
 40
31259.63060121729
 50
179.8763339806136
 51
179.9113444962586
  0
ARC
  5
137
  8
PREDEFINITO
 10
37059.25249110472
 20
3316.775471976304
 30
0.0
 40
34756.97217429111
 50
179.9113444962503
 51
179.9469646190136
  0
ARC
  5
138
  8
PREDEFINITO
 10
69627.36133393859
 20
3286.62905935148
 30
0.0
 40
67325.09496951633
 50
179.9469646241074
 51
179.965353374349
  0
ARC
  5
139
  8
PREDEFINITO
 10
100407.8637190096
 20
3268.015799585608
 30
0.0
 40
98105.60298239361
 50
179.9653531648392
 51
179.9890132346277
  0
ARC
  5
13A
  8
PREDEFINITO
 10
213575.5586983091
 20
3242.124291526663
 30
0.0
 40
211273.3008875016
 50
179.9878766631636
 51
179.9988632300268
  0
LINE
  5
13B
  8
PREDEFINITO
 10
2302.257048758108
 20
3237.707027892107
 30
0.0
 11
2302.257852390418
 21
3246.316033861339
 31
0.0
  0
LINE
  5
13C
  8
PREDEFINITO
 10
2302.257048758097
 20
3224.307554798164
 30
0.0
 11
2302.257048758108
 21
3237.707027892107
 31
0.0
  0
LINE
  5
13D
  8
PREDEFINITO
 10
1900.91800323638
 20
3019.715343094389
 30
0.0
 11
1900.567346378535
 21
3020.561904165022
 31
0.0
  0
LINE
  5
13E
  8
PREDEFINITO
 10
1903.012195537958
 20
3019.023754858886
 30
0.0
 11
1900.91800323638
 21
3019.715343094389
 31
0.0
  0
ARC
  5
13F
  8
PREDEFINITO
 10
1903.66920571023
 20
3021.137830832829
 30
0.0
 40
2.213815617903017
 50
252.7358586352621
 51
292.0220442371926
  0
LINE
  5
140
  8
PREDEFINITO
 10
1910.460195791432
 20
3021.6774049073
 30
0.0
 11
1904.499305307929
 21
3019.085535959286
 31
0.0
  0
ARC
  5
141
  8
PREDEFINITO
 10
1909.529113440429
 20
3023.68036865877
 30
0.0
 40
2.208795629760707
 50
294.931470228435
 51
334.310626898263
  0
LINE
  5
142
  8
PREDEFINITO
 10
1912.442026151553
 20
3024.726130867239
 30
0.0
 11
1911.519586052238
 21
3022.722873533097
 31
0.0
  0
LINE
  5
143
  8
PREDEFINITO
 10
1912.062038420028
 20
3025.559937380715
 30
0.0
 11
1912.442026151553
 21
3024.726130867239
 31
0.0
  0
ARC
  5
144
  8
PREDEFINITO
 10
1911.147584155317
 20
3025.132583401719
 30
0.0
 40
1.009384973938548
 50
25.04820133365463
 51
113.934895814731
  0
LINE
  5
145
  8
PREDEFINITO
 10
1908.903532589994
 20
3025.257485169686
 30
0.0
 11
1910.738078351908
 21
3026.055168369398
 31
0.0
  0
LINE
  5
146
  8
PREDEFINITO
 10
1902.94264210649
 20
3022.665616221672
 30
0.0
 11
1908.903532589994
 21
3025.257485169686
 31
0.0
  0
LINE
  5
147
  8
PREDEFINITO
 10
1901.108096350106
 20
3021.867933015462
 30
0.0
 11
1902.94264210649
 21
3022.665616221672
 31
0.0
  0
ARC
  5
148
  8
PREDEFINITO
 10
1901.503855850573
 20
3020.939111356442
 30
0.0
 40
1.009621343115741
 50
113.0782582974923
 51
201.9385850852023
  0
LINE
  5
149
  8
PREDEFINITO
 10
2307.682129530562
 20
3025.785556990692
 30
0.0
 11
2307.682129530562
 21
3173.80755479803
 31
0.0
  0
LINE
  5
14A
  8
PREDEFINITO
 10
2308.482129530562
 20
3173.80755479803
 30
0.0
 11
2308.482129530562
 21
3025.437707075146
 31
0.0
  0
LINE
  5
14B
  8
PREDEFINITO
 10
2308.482129530562
 20
3480.252254244443
 30
0.0
 11
2308.482129530562
 21
3224.307554798164
 31
0.0
  0
LINE
  5
14C
  8
PREDEFINITO
 10
2307.682129530562
 20
3224.307554798164
 30
0.0
 11
2307.682129530562
 21
3480.252254244443
 31
0.0
  0
LINE
  5
14D
  8
PREDEFINITO
 10
1903.753768607729
 20
3494.752254198613
 30
0.0
 11
1903.753768607729
 21
3494.952254198613
 31
0.0
  0
LINE
  5
14E
  8
PREDEFINITO
 10
1915.15376860773
 20
3494.952254198613
 30
0.0
 11
1915.15376860773
 21
3494.752254198613
 31
0.0
  0
LINE
  5
14F
  8
PREDEFINITO
 10
1909.85376860773
 20
3482.752254198613
 30
0.0
 11
1909.85376860773
 21
3025.670659549331
 31
0.0
  0
LINE
  5
150
  8
PREDEFINITO
 10
119.6494814293201
 20
3221.729648098327
 30
0.0
 11
119.6494814293201
 21
3208.330175004384
 31
0.0
  0
LINE
  5
151
  8
PREDEFINITO
 10
119.6494841874278
 20
3230.338654067559
 30
0.0
 11
119.6494814293201
 21
3221.729648098327
 31
0.0
  0
LINE
  5
152
  8
PREDEFINITO
 10
119.6496737630382
 20
3270.850416626916
 30
0.0
 11
119.6494841874278
 21
3230.338654067559
 31
0.0
  0
ARC
  5
153
  8
PREDEFINITO
 10
1994252.110377829
 20
3252.458785481702
 30
0.0000116301998264
 40
1994132.460788878
 50
179.9983075771734
 51
179.9994715682816
  0
ARC
  5
154
  8
PREDEFINITO
 10
1378408.732092005
 20
3270.647168851197
 30
0.0
 40
1378289.082234465
 50
179.9974092545122
 51
179.9983074684966
  0
ARC
  5
155
  8
PREDEFINITO
 10
711767.7847494466
 20
3300.790630007234
 30
0.0000008678136257
 40
711648.134210409
 50
179.9956696289933
 51
179.9974092489992
  0
ARC
  5
156
  8
PREDEFINITO
 10
639988.6662706559
 20
3306.215497804566
 30
-0.0000004489135301
 40
639869.0155266202
 50
179.9939593201998
 51
179.9956696162017
  0
LINE
  5
157
  8
PREDEFINITO
 10
119.6553071186336
 20
3392.777111603041
 30
0.0
 11
119.654300246184
 21
3373.676729025052
 31
0.0
  0
LINE
  5
158
  8
PREDEFINITO
 10
119.6553071224653
 20
3439.101420892811
 30
0.0
 11
119.6553071186336
 21
3392.777111603041
 31
0.0
  0
LINE
  5
159
  8
PREDEFINITO
 10
119.6553071232429
 20
3441.257506928842
 30
0.0
 11
119.6553071224653
 21
3439.101420892811
 31
0.0
  0
LINE
  5
15A
  8
PREDEFINITO
 10
119.6553071232811
 20
3443.501691938901
 30
0.0
 11
119.6553071232429
 21
3441.257506928842
 31
0.0
  0
LINE
  5
15B
  8
PREDEFINITO
 10
119.6553071232943
 20
3445.774874450665
 30
0.0
 11
119.6553071232811
 21
3443.501691938901
 31
0.0
  0
LINE
  5
15C
  8
PREDEFINITO
 10
119.6553071232947
 20
3464.274874450664
 30
0.0
 11
119.6553071232943
 21
3445.774874450665
 31
0.0
  0
LINE
  5
15D
  8
PREDEFINITO
 10
116.9553071232945
 20
3445.774874450665
 30
0.0
 11
116.9553071232945
 21
3464.274874450664
 31
0.0
  0
LINE
  5
15E
  8
PREDEFINITO
 10
116.9553071232813
 20
3443.501691938901
 30
0.0
 11
116.9553071232945
 21
3445.774874450665
 31
0.0
  0
LINE
  5
15F
  8
PREDEFINITO
 10
116.9553071232426
 20
3441.257506928842
 30
0.0
 11
116.9553071232813
 21
3443.501691938901
 31
0.0
  0
LINE
  5
160
  8
PREDEFINITO
 10
116.955307118626
 20
3439.101420892811
 30
0.0
 11
116.9553071232426
 21
3441.257506928842
 31
0.0
  0
LINE
  5
161
  8
PREDEFINITO
 10
116.9543002462237
 20
3373.676871518647
 30
0.0
 11
116.955307118626
 21
3439.101420892811
 31
0.0
  0
ARC
  5
162
  8
PREDEFINITO
 10
639988.6703480234
 20
3306.215494207285
 30
0.0000053869851369
 40
639871.719603988
 50
179.9939593326462
 51
179.9956696250326
  0
ARC
  5
163
  8
PREDEFINITO
 10
711767.6444050128
 20
3300.79064237097
 30
-0.0000008678165716
 40
711650.6938659748
 50
179.9956696373397
 51
179.9974092543929
  0
ARC
  5
164
  8
PREDEFINITO
 10
1378411.744160608
 20
3270.647067042478
 30
0.0
 40
1378294.794303069
 50
179.9974092584765
 51
179.9983074696192
  0
ARC
  5
165
  8
PREDEFINITO
 10
1994252.271931574
 20
3252.458768893151
 30
0.0
 40
1994135.322342623
 50
179.9983075779783
 51
179.9994715681995
  0
LINE
  5
166
  8
PREDEFINITO
 10
116.949484187639
 20
3230.33865406756
 30
0.0
 11
116.9496737629797
 21
3270.850429286089
 31
0.0
  0
LINE
  5
167
  8
PREDEFINITO
 10
116.9494814293203
 20
3221.729648098327
 30
0.0
 11
116.949484187639
 21
3230.33865406756
 31
0.0
  0
LINE
  5
168
  8
PREDEFINITO
 10
116.9494814293203
 20
3208.330175004384
 30
0.0
 11
116.9494814293203
 21
3221.729648098327
 31
0.0
  0
LINE
  5
169
  8
PREDEFINITO
 10
117.9044258535714
 20
3208.330175004385
 30
0.0
 11
117.9044258535714
 21
3464.274874450664
 31
0.0
  0
LINE
  5
16A
  8
PREDEFINITO
 10
118.7044258535711
 20
3464.274874450664
 30
0.0
 11
118.7044258535711
 21
3208.330175004385
 31
0.0
  0
LINE
  5
16B
  8
PREDEFINITO
 10
118.8659937587131
 20
3208.330175004384
 30
0.0
 11
111.8118486620551
 21
3208.330175004384
 31
0.0
  0
POLYLINE
  5
16C
  8
PREDEFINITO
 66
     1
 10
0.0
 20
0.0
 30
0.0556295953230209
210
4.896093243082496E-18
220
1.733911171500431E-5
230
0.9999999998496777
  0
VERTEX
  5
16D
  8
PREDEFINITO
 10
124.7963881509946
 20
3208.330174522104
 30
0.0556295953230209
  0
VERTEX
  5
16E
  8
PREDEFINITO
 10
124.7992038587489
 20
3208.330174522103
 30
0.0556295953230209
  0
VERTEX
  5
16F
  8
PREDEFINITO
 10
124.7994342340119
 20
3208.330174522103
 30
0.0556295953230209
  0
VERTEX
  5
170
  8
PREDEFINITO
 10
124.7994727829977
 20
3208.330174522103
 30
0.0556295953230209
  0
VERTEX
  5
171
  8
PREDEFINITO
 10
124.7989696670909
 20
3208.330174522103
 30
0.0556295953230209
  0
VERTEX
  5
172
  8
PREDEFINITO
 10
124.789052014539
 20
3208.330174522103
 30
0.0556295953230209
  0
VERTEX
  5
173
  8
PREDEFINITO
 10
124.7294914327485
 20
3208.330174522103
 30
0.0556295953230209
  0
VERTEX
  5
174
  8
PREDEFINITO
 10
124.4394124786661
 20
3208.330174522102
 30
0.0556295953230209
  0
VERTEX
  5
175
  8
PREDEFINITO
 10
123.1545845684326
 20
3208.330174522101
 30
0.0556295953230209
  0
VERTEX
  5
176
  8
PREDEFINITO
 10
118.8659937587131
 20
3208.3301745221
 30
0.0556295953230209
  0
SEQEND
  5
177
  8
PREDEFINITO
  0
LINE
  5
178
  8
PREDEFINITO
 10
124.7699177630911
 20
3157.830175004218
 30
0.0
 11
124.7963881509945
 21
3208.330175004384
 31
0.0
  0
LINE
  5
179
  8
PREDEFINITO
 10
118.8659937587131
 20
3157.830175004251
 30
0.0
 11
124.7699177630911
 21
3157.830175004218
 31
0.0
  0
LINE
  5
17A
  8
PREDEFINITO
 10
111.8143575921294
 20
3157.830175004218
 30
0.0000000000000004
 11
118.8659937587131
 21
3157.830175004251
 31
0.0
  0
LINE
  5
17B
  8
PREDEFINITO
 10
111.8118486620551
 20
3208.330175004384
 30
0.0
 11
111.8143575921295
 21
3157.830175004218
 31
0.0
  0
LINE
  5
17C
  8
PREDEFINITO
 10
118.7044258532324
 20
3009.634261276061
 30
0.0
 11
118.7044258535711
 21
3157.830175004251
 31
0.0
  0
ARC
  5
17D
  8
PREDEFINITO
 10
118.3902597139216
 20
3009.809844769972
 30
-0.0000000000000014
 40
0.3599026624291271
 50
256.2024533807289
 51
330.7997257651943
  0
ARC
  5
17E
  8
PREDEFINITO
 10
118.2186143799325
 20
3009.809779427891
 30
0.0000000000000005
 40
0.3598338668305647
 50
209.1733572842056
 51
283.7965662217212
  0
LINE
  5
17F
  8
PREDEFINITO
 10
117.9044258535714
 20
3157.830175004251
 30
0.0
 11
117.9044258568238
 21
3009.634377079945
 31
0.0
  0
ARC
  5
180
  8
PREDEFINITO
 10
183.2777123902633
 20
3016.06227141812
 30
0.0000000000000311
 40
80.57772582936093
 50
173.5121321414665
 51
180.0022443568662
  0
LINE
  5
181
  8
PREDEFINITO
 10
102.6999866227216
 20
3014.059115074431
 30
0.0
 11
102.6999866227216
 21
3016.059115074429
 31
0.0
  0
ARC
  5
182
  8
PREDEFINITO
 10
109.9901353313663
 20
3014.06704014732
 30
0.0
 40
7.290153016290794
 50
180.062285841919
 51
194.6260787881005
  0
ARC
  5
183
  8
PREDEFINITO
 10
110.3345086069868
 20
3014.174973622062
 30
0.0
 40
7.650640872455673
 50
194.7569733917612
 51
208.6262802604796
  0
ARC
  5
184
  8
PREDEFINITO
 10
110.9646156732179
 20
3014.531431449761
 30
0.0000000000000093
 40
8.374509963465558
 50
208.7015714394878
 51
220.9031382058713
  0
ARC
  5
185
  8
PREDEFINITO
 10
112.6944312176347
 20
3016.051246997255
 30
-0.0000000000001867
 40
10.67709525927962
 50
220.9892711074054
 51
230.157029632197
  0
ARC
  5
186
  8
PREDEFINITO
 10
116.7511595606027
 20
3020.701772024732
 30
0.000000000000023
 40
16.84741419105584
 50
229.6970773304405
 51
240.3400082025467
  0
ARC
  5
187
  8
PREDEFINITO
 10
119.4071259722762
 20
3025.334437696777
 30
-0.0000000000000663
 40
22.18741106408253
 50
240.3000061035579
 51
247.9950713896244
  0
ARC
  5
188
  8
PREDEFINITO
 10
110.836614845584
 20
3005.302680988448
 30
0.0000000000000026
 40
0.5975217682854636
 50
295.494829848865
 51
342.9805474228672
  0
POLYLINE
  5
189
  8
PREDEFINITO
 66
     1
 10
0.0
 20
0.0
 30
0.0
  0
VERTEX
  5
18A
  8
PREDEFINITO
 10
112.1043973930205
 20
3007.267081607639
 30
0.0
 42
-0.2279980320729041
  0
VERTEX
  5
18B
  8
PREDEFINITO
 10
112.1046480902596
 20
3006.901580364558
 30
0.0
 42
-0.0637317406118598
  0
VERTEX
  5
18C
  8
PREDEFINITO
 10
111.4079684093163
 20
3005.127788539253
 30
0.0
  0
SEQEND
  5
18D
  8
PREDEFINITO
  0
ARC
  5
18E
  8
PREDEFINITO
 10
120.4532900358211
 20
3027.917954475544
 30
0.0000000000002786
 40
22.27470669991831
 50
241.1305439772077
 51
247.987125125821
  0
ARC
  5
18F
  8
PREDEFINITO
 10
115.5837011930535
 20
3019.07531680683
 30
0.0000000000000183
 40
12.17990152616074
 50
229.1591371103389
 51
241.1072244780258
  0
LINE
  5
190
  8
PREDEFINITO
 10
106.6881286620655
 20
3010.793961510554
 30
0.0
 11
107.6185288866423
 21
3009.860869926189
 31
0.0
  0
ARC
  5
191
  8
PREDEFINITO
 10
111.1777756047644
 20
3014.659902050295
 30
0.0000000000000091
 40
5.924730029874706
 50
208.7660623616519
 51
220.731049054205
  0
ARC
  5
192
  8
PREDEFINITO
 10
110.280010685419
 20
3014.183247312539
 30
0.0000000000000135
 40
4.908394422593113
 50
195.0507772845177
 51
208.9318639138001
  0
ARC
  5
193
  8
PREDEFINITO
 10
109.7170481353996
 20
3014.026120349939
 30
-0.0000000000000111
 40
4.323945319474951
 50
179.5627889192777
 51
194.9772405160176
  0
LINE
  5
194
  8
PREDEFINITO
 10
105.3999866227218
 20
3016.059115074429
 30
0.0
 11
105.3932287041598
 21
3014.059115074431
 31
0.0
  0
ARC
  5
195
  8
PREDEFINITO
 10
183.2774199320835
 20
3016.062266237852
 30
-0.000000000000031
 40
77.87743337311468
 50
173.4981315640352
 51
180.0023183656281
  0
LINE
  5
196
  8
PREDEFINITO
 10
118.7828897862273
 20
3083.973131662644
 30
0.0
 11
118.7044258535711
 21
3083.407224309849
 31
0.0
  0
ARC
  5
197
  8
PREDEFINITO
 10
16.51069681413479
 20
3097.892801956135
 30
-0.0000000000004762
 40
103.2151087602994
 50
352.2494303272474
 51
355.5695150393861
  0
ARC
  5
198
  8
PREDEFINITO
 10
41.6512016548207
 20
3095.932269403218
 30
-0.0000000000001343
 40
77.99827981538706
 50
355.5787577441413
 51
359.9982203911647
  0
LINE
  5
199
  8
PREDEFINITO
 10
119.6494814309522
 20
3144.415029424794
 30
0.0
 11
119.6494814325843
 21
3095.929846774028
 31
0.0
  0
LINE
  5
19A
  8
PREDEFINITO
 10
119.6494814293201
 20
3157.830175004251
 30
0.0
 11
119.6494814309522
 21
3144.415029424794
 31
0.0
  0
ARC
  5
19B
  8
PREDEFINITO
 10
276.777841717542
 20
3002.026881576563
 30
0.0
 40
172.485017981903
 50
166.2608341195741
 51
169.4299187329181
  0
LINE
  5
19C
  8
PREDEFINITO
 10
111.5973373545371
 20
3052.315752591692
 30
0.0
 11
109.2281381201301
 21
3042.992455570306
 31
0.0
  0
ARC
  5
19D
  8
PREDEFINITO
 10
21612.78375268613
 20
-2614.463925022611
 30
-0.0000000019442785
 40
22235.40890520033
 50
165.2090864180126
 51
165.2350744496197
  0
ARC
  5
19E
  8
PREDEFINITO
 10
-140.0798224494283
 20
3129.177981189634
 30
0.0000000000008074
 40
262.9576155954989
 50
345.2137543985739
 51
347.4223748351118
  0
ARC
  5
19F
  8
PREDEFINITO
 10
-63.43302165152233
 20
3112.054561146826
 30
0.0000000000003649
 40
184.4213633687727
 50
347.4291229687935
 51
349.3258767643705
  0
LINE
  5
1A0
  8
PREDEFINITO
 10
117.904425853571
 20
3078.472248619216
 30
0.0
 11
117.7972158441203
 21
3077.895517189627
 31
0.0
  0
LINE
  5
1A1
  8
PREDEFINITO
 10
121.3674834543281
 20
3003.25569964202
 30
0.0
 11
121.3181684117681
 21
3005.84662994131
 31
0.0
  0
ARC
  5
1A2
  8
PREDEFINITO
 10
121.1877795840383
 20
3003.271393999297
 30
0.0
 40
0.1803878982840846
 50
205.4399949971731
 51
355.0087628976327
  0
ARC
  5
1A3
  8
PREDEFINITO
 10
118.299341208104
 20
2998.155254752623
 30
0.0
 40
5.728575687194246
 50
61.58985287689109
 51
118.4101471240267
  0
ARC
  5
1A4
  8
PREDEFINITO
 10
115.4106070067164
 20
3003.26975387538
 30
0.0
 40
0.1799576840748736
 50
184.4792145420909
 51
335.0720275596265
  0
LINE
  5
1A5
  8
PREDEFINITO
 10
115.2821907760231
 20
3005.934724735168
 30
0.0
 11
115.2311989617983
 21
3003.255699641987
 31
0.0
  0
POLYLINE
  5
1A6
  8
PREDEFINITO
 66
     1
 10
0.0
 20
0.0
 30
0.0
  0
VERTEX
  5
1A7
  8
PREDEFINITO
 10
121.3164916401042
 20
3005.934724735168
 30
0.0
  0
VERTEX
  5
1A8
  8
PREDEFINITO
 10
121.3163066478613
 20
3005.92140231079
 30
0.0
  0
VERTEX
  5
1A9
  8
PREDEFINITO
 10
121.3157483339992
 20
3005.908021107623
 30
0.0
  0
VERTEX
  5
1AA
  8
PREDEFINITO
 10
121.3148117465519
 20
3005.894583236441
 30
0.0
  0
VERTEX
  5
1AB
  8
PREDEFINITO
 10
121.3134920093767
 20
3005.881090870873
 30
0.0
  0
VERTEX
  5
1AC
  8
PREDEFINITO
 10
121.3117843274238
 20
3005.86754624724
 30
0.0
  0
VERTEX
  5
1AD
  8
PREDEFINITO
 10
121.3096839920589
 20
3005.85395166429
 30
0.0
  0
VERTEX
  5
1AE
  8
PREDEFINITO
 10
121.3071863864307
 20
3005.840309482882
 30
0.0
  0
VERTEX
  5
1AF
  8
PREDEFINITO
 10
121.3042869908779
 20
3005.826622125582
 30
0.0
  0
VERTEX
  5
1B0
  8
PREDEFINITO
 10
121.3009813883671
 20
3005.812892076176
 30
0.0
  0
VERTEX
  5
1B1
  8
PREDEFINITO
 10
121.2972652699553
 20
3005.799121879114
 30
0.0
  0
VERTEX
  5
1B2
  8
PREDEFINITO
 10
121.2931344402674
 20
3005.785314138857
 30
0.0
  0
VERTEX
  5
1B3
  8
PREDEFINITO
 10
121.2885848229829
 20
3005.771471519155
 30
0.0
  0
VERTEX
  5
1B4
  8
PREDEFINITO
 10
121.2836124663207
 20
3005.757596742226
 30
0.0
  0
VERTEX
  5
1B5
  8
PREDEFINITO
 10
121.2782135485155
 20
3005.743692587863
 30
0.0
  0
VERTEX
  5
1B6
  8
PREDEFINITO
 10
121.2723843832748
 20
3005.729761892438
 30
0.0
  0
VERTEX
  5
1B7
  8
PREDEFINITO
 10
121.2661214252095
 20
3005.715807547834
 30
0.0
  0
VERTEX
  5
1B8
  8
PREDEFINITO
 10
121.2594212752261
 20
3005.701832500277
 30
0.0
  0
VERTEX
  5
1B9
  8
PREDEFINITO
 10
121.2522806858726
 20
3005.687839749081
 30
0.0
  0
VERTEX
  5
1BA
  8
PREDEFINITO
 10
121.2446965666282
 20
3005.673832345313
 30
0.0
  0
VERTEX
  5
1BB
  8
PREDEFINITO
 10
121.2366659891247
 20
3005.659813390353
 30
0.0
  0
VERTEX
  5
1BC
  8
PREDEFINITO
 10
121.2281861922926
 20
3005.645786034376
 30
0.0
  0
VERTEX
  5
1BD
  8
PREDEFINITO
 10
121.2192545874182
 20
3005.631753474742
 30
0.0
  0
VERTEX
  5
1BE
  8
PREDEFINITO
 10
121.2098687631042
 20
3005.617718954295
 30
0.0
  0
VERTEX
  5
1BF
  8
PREDEFINITO
 10
121.200026490121
 20
3005.603685759578
 30
0.0
  0
VERTEX
  5
1C0
  8
PREDEFINITO
 10
121.1897257261396
 20
3005.589657218958
 30
0.0
  0
VERTEX
  5
1C1
  8
PREDEFINITO
 10
121.1789646203347
 20
3005.575636700663
 30
0.0
  0
VERTEX
  5
1C2
  8
PREDEFINITO
 10
121.1677415178479
 20
3005.561627610743
 30
0.0
  0
VERTEX
  5
1C3
  8
PREDEFINITO
 10
121.1560549641007
 20
3005.547633390934
 30
0.0
  0
VERTEX
  5
1C4
  8
PREDEFINITO
 10
121.1439037089451
 20
3005.533657516456
 30
0.0
  0
VERTEX
  5
1C5
  8
PREDEFINITO
 10
121.1312867106449
 20
3005.51970349372
 30
0.0
  0
VERTEX
  5
1C6
  8
PREDEFINITO
 10
121.1182031396733
 20
3005.505774857964
 30
0.0
  0
VERTEX
  5
1C7
  8
PREDEFINITO
 10
121.1046523823204
 20
3005.491875170812
 30
0.0
  0
VERTEX
  5
1C8
  8
PREDEFINITO
 10
121.0906340440986
 20
3005.478008017761
 30
0.0
  0
VERTEX
  5
1C9
  8
PREDEFINITO
 10
121.076147952937
 20
3005.464177005602
 30
0.0
  0
VERTEX
  5
1CA
  8
PREDEFINITO
 10
121.045772953209
 20
3005.436637921633
 30
0.0
  0
VERTEX
  5
1CB
  8
PREDEFINITO
 10
121.0135305621154
 20
3005.409287096929
 30
0.0
  0
VERTEX
  5
1CC
  8
PREDEFINITO
 10
120.9794276830448
 20
3005.382153874566
 30
0.0
  0
VERTEX
  5
1CD
  8
PREDEFINITO
 10
120.9434750036912
 20
3005.355267669949
 30
0.0
  0
VERTEX
  5
1CE
  8
PREDEFINITO
 10
120.9056870387822
 20
3005.328657875359
 30
0.0
  0
VERTEX
  5
1CF
  8
PREDEFINITO
 10
120.8660821548439
 20
3005.302353762336
 30
0.0
  0
VERTEX
  5
1D0
  8
PREDEFINITO
 10
120.824682576353
 20
3005.276384382528
 30
0.0
  0
VERTEX
  5
1D1
  8
PREDEFINITO
 10
120.7815143727767
 20
3005.250778467658
 30
0.0
  0
VERTEX
  5
1D2
  8
PREDEFINITO
 10
120.7366074261681
 20
3005.225564329296
 30
0.0
  0
VERTEX
  5
1D3
  8
PREDEFINITO
 10
120.6899953791594
 20
3005.200769759116
 30
0.0
  0
VERTEX
  5
1D4
  8
PREDEFINITO
 10
120.6417155633712
 20
3005.176421930375
 30
0.0
  0
VERTEX
  5
1D5
  8
PREDEFINITO
 10
120.5918089084464
 20
3005.152547301297
 30
0.0
  0
VERTEX
  5
1D6
  8
PREDEFINITO
 10
120.5403198320953
 20
3005.129171521083
 30
0.0
  0
VERTEX
  5
1D7
  8
PREDEFINITO
 10
120.4872961117272
 20
3005.106319339233
 30
0.0
  0
VERTEX
  5
1D8
  8
PREDEFINITO
 10
120.4327887384195
 20
3005.084014518837
 30
0.0
  0
VERTEX
  5
1D9
  8
PREDEFINITO
 10
120.3195420733728
 20
3005.041136595353
 30
0.0
  0
VERTEX
  5
1DA
  8
PREDEFINITO
 10
120.2010454724435
 20
3005.000705141914
 30
0.0
  0
VERTEX
  5
1DB
  8
PREDEFINITO
 10
120.0778040588562
 20
3004.962867099975
 30
0.0
  0
VERTEX
  5
1DC
  8
PREDEFINITO
 10
119.9503553519065
 20
3004.927747215843
 30
0.0
  0
VERTEX
  5
1DD
  8
PREDEFINITO
 10
119.8192616468561
 20
3004.895446761871
 30
0.0
  0
VERTEX
  5
1DE
  8
PREDEFINITO
 10
119.6851020879365
 20
3004.86604274863
 30
0.0
  0
VERTEX
  5
1DF
  8
PREDEFINITO
 10
119.5484646602575
 20
3004.839587633924
 30
0.0
  0
VERTEX
  5
1E0
  8
PREDEFINITO
 10
119.4099383200501
 20
3004.816109516386
 30
0.0
  0
VERTEX
  5
1E1
  8
PREDEFINITO
 10
119.2701054665896
 20
3004.795612784761
 30
0.0
  0
VERTEX
  5
1E2
  8
PREDEFINITO
 10
119.1295349348639
 20
3004.778079179701
 30
0.0
  0
VERTEX
  5
1E3
  8
PREDEFINITO
 10
118.9887756575418
 20
3004.763469213588
 30
0.0
  0
VERTEX
  5
1E4
  8
PREDEFINITO
 10
118.8483511102644
 20
3004.751723885874
 30
0.0
  0
VERTEX
  5
1E5
  8
PREDEFINITO
 10
118.7087546179895
 20
3004.742766626927
 30
0.0
  0
VERTEX
  5
1E6
  8
PREDEFINITO
 10
118.5704455641875
 20
3004.736505402098
 30
0.0
  0
VERTEX
  5
1E7
  8
PREDEFINITO
 10
118.4338465109573
 20
3004.732834909542
 30
0.0
  0
VERTEX
  5
1E8
  8
PREDEFINITO
 10
118.2993412080637
 20
3004.731638809583
 30
0.0
  0
VERTEX
  5
1E9
  8
PREDEFINITO
 10
118.1648359051701
 20
3004.732834909542
 30
0.0
  0
VERTEX
  5
1EA
  8
PREDEFINITO
 10
118.0282368519398
 20
3004.736505402098
 30
0.0
  0
VERTEX
  5
1EB
  8
PREDEFINITO
 10
117.8899277981378
 20
3004.742766626927
 30
0.0
  0
VERTEX
  5
1EC
  8
PREDEFINITO
 10
117.7503313058629
 20
3004.751723885874
 30
0.0
  0
VERTEX
  5
1ED
  8
PREDEFINITO
 10
117.6099067585855
 20
3004.763469213588
 30
0.0
  0
VERTEX
  5
1EE
  8
PREDEFINITO
 10
117.4691474812634
 20
3004.778079179701
 30
0.0
  0
VERTEX
  5
1EF
  8
PREDEFINITO
 10
117.3285769495377
 20
3004.795612784761
 30
0.0
  0
VERTEX
  5
1F0
  8
PREDEFINITO
 10
117.1887440960772
 20
3004.816109516386
 30
0.0
  0
VERTEX
  5
1F1
  8
PREDEFINITO
 10
117.0502177558698
 20
3004.839587633924
 30
0.0
  0
VERTEX
  5
1F2
  8
PREDEFINITO
 10
116.9135803281908
 20
3004.86604274863
 30
0.0
  0
VERTEX
  5
1F3
  8
PREDEFINITO
 10
116.7794207692712
 20
3004.895446761871
 30
0.0
  0
VERTEX
  5
1F4
  8
PREDEFINITO
 10
116.6483270642208
 20
3004.927747215843
 30
0.0
  0
VERTEX
  5
1F5
  8
PREDEFINITO
 10
116.5208783572711
 20
3004.962867099975
 30
0.0
  0
VERTEX
  5
1F6
  8
PREDEFINITO
 10
116.3976369436838
 20
3005.000705141914
 30
0.0
  0
VERTEX
  5
1F7
  8
PREDEFINITO
 10
116.2791403427545
 20
3005.041136595353
 30
0.0
  0
VERTEX
  5
1F8
  8
PREDEFINITO
 10
116.1658936777078
 20
3005.084014518837
 30
0.0
  0
VERTEX
  5
1F9
  8
PREDEFINITO
 10
116.1113863044001
 20
3005.106319339233
 30
0.0
  0
VERTEX
  5
1FA
  8
PREDEFINITO
 10
116.0583625840319
 20
3005.129171521083
 30
0.0
  0
VERTEX
  5
1FB
  8
PREDEFINITO
 10
116.0068735076809
 20
3005.152547301297
 30
0.0
  0
VERTEX
  5
1FC
  8
PREDEFINITO
 10
115.9569668527561
 20
3005.176421930375
 30
0.0
  0
VERTEX
  5
1FD
  8
PREDEFINITO
 10
115.9086870369679
 20
3005.200769759116
 30
0.0
  0
VERTEX
  5
1FE
  8
PREDEFINITO
 10
115.8620749899591
 20
3005.225564329296
 30
0.0
  0
VERTEX
  5
1FF
  8
PREDEFINITO
 10
115.8171680433505
 20
3005.250778467658
 30
0.0
  0
VERTEX
  5
200
  8
PREDEFINITO
 10
115.7739998397742
 20
3005.276384382528
 30
0.0
  0
VERTEX
  5
201
  8
PREDEFINITO
 10
115.7326002612834
 20
3005.302353762336
 30
0.0
  0
VERTEX
  5
202
  8
PREDEFINITO
 10
115.6929953773451
 20
3005.328657875359
 30
0.0
  0
VERTEX
  5
203
  8
PREDEFINITO
 10
115.6552074124361
 20
3005.355267669949
 30
0.0
  0
VERTEX
  5
204
  8
PREDEFINITO
 10
115.6192547330825
 20
3005.382153874566
 30
0.0
  0
VERTEX
  5
205
  8
PREDEFINITO
 10
115.5851518540119
 20
3005.409287096929
 30
0.0
  0
VERTEX
  5
206
  8
PREDEFINITO
 10
115.5529094629183
 20
3005.436637921633
 30
0.0
  0
VERTEX
  5
207
  8
PREDEFINITO
 10
115.5225344631902
 20
3005.464177005602
 30
0.0
  0
VERTEX
  5
208
  8
PREDEFINITO
 10
115.5080483720286
 20
3005.478008017761
 30
0.0
  0
VERTEX
  5
209
  8
PREDEFINITO
 10
115.4940300338068
 20
3005.491875170812
 30
0.0
  0
VERTEX
  5
20A
  8
PREDEFINITO
 10
115.480479276454
 20
3005.505774857964
 30
0.0
  0
VERTEX
  5
20B
  8
PREDEFINITO
 10
115.4673957054824
 20
3005.51970349372
 30
0.0
  0
VERTEX
  5
20C
  8
PREDEFINITO
 10
115.4547787071821
 20
3005.533657516456
 30
0.0
  0
VERTEX
  5
20D
  8
PREDEFINITO
 10
115.4426274520266
 20
3005.547633390934
 30
0.0
  0
VERTEX
  5
20E
  8
PREDEFINITO
 10
115.4309408982793
 20
3005.561627610743
 30
0.0
  0
VERTEX
  5
20F
  8
PREDEFINITO
 10
115.4197177957926
 20
3005.575636700663
 30
0.0
  0
VERTEX
  5
210
  8
PREDEFINITO
 10
115.4089566899877
 20
3005.589657218958
 30
0.0
  0
VERTEX
  5
211
  8
PREDEFINITO
 10
115.3986559260063
 20
3005.603685759578
 30
0.0
  0
VERTEX
  5
212
  8
PREDEFINITO
 10
115.3888136530231
 20
3005.617718954295
 30
0.0
  0
VERTEX
  5
213
  8
PREDEFINITO
 10
115.3794278287091
 20
3005.631753474742
 30
0.0
  0
VERTEX
  5
214
  8
PREDEFINITO
 10
115.3704962238347
 20
3005.645786034376
 30
0.0
  0
VERTEX
  5
215
  8
PREDEFINITO
 10
115.3620164270026
 20
3005.659813390353
 30
0.0
  0
VERTEX
  5
216
  8
PREDEFINITO
 10
115.3539858494991
 20
3005.673832345313
 30
0.0
  0
VERTEX
  5
217
  8
PREDEFINITO
 10
115.3464017302547
 20
3005.687839749081
 30
0.0
  0
VERTEX
  5
218
  8
PREDEFINITO
 10
115.3392611409012
 20
3005.701832500277
 30
0.0
  0
VERTEX
  5
219
  8
PREDEFINITO
 10
115.3325609909178
 20
3005.715807547834
 30
0.0
  0
VERTEX
  5
21A
  8
PREDEFINITO
 10
115.3262980328524
 20
3005.729761892438
 30
0.0
  0
VERTEX
  5
21B
  8
PREDEFINITO
 10
115.3204688676118
 20
3005.743692587863
 30
0.0
  0
VERTEX
  5
21C
  8
PREDEFINITO
 10
115.3150699498066
 20
3005.757596742226
 30
0.0
  0
VERTEX
  5
21D
  8
PREDEFINITO
 10
115.3100975931444
 20
3005.771471519155
 30
0.0
  0
VERTEX
  5
21E
  8
PREDEFINITO
 10
115.3055479758599
 20
3005.785314138857
 30
0.0
  0
VERTEX
  5
21F
  8
PREDEFINITO
 10
115.301417146172
 20
3005.799121879114
 30
0.0
  0
VERTEX
  5
220
  8
PREDEFINITO
 10
115.2977010277602
 20
3005.812892076176
 30
0.0
  0
VERTEX
  5
221
  8
PREDEFINITO
 10
115.2943954252494
 20
3005.826622125582
 30
0.0
  0
VERTEX
  5
222
  8
PREDEFINITO
 10
115.2914960296966
 20
3005.840309482882
 30
0.0
  0
VERTEX
  5
223
  8
PREDEFINITO
 10
115.2889984240684
 20
3005.85395166429
 30
0.0
  0
VERTEX
  5
224
  8
PREDEFINITO
 10
115.2868980887035
 20
3005.86754624724
 30
0.0
  0
VERTEX
  5
225
  8
PREDEFINITO
 10
115.2851904067506
 20
3005.881090870873
 30
0.0
  0
VERTEX
  5
226
  8
PREDEFINITO
 10
115.2838706695754
 20
3005.894583236441
 30
0.0
  0
VERTEX
  5
227
  8
PREDEFINITO
 10
115.2829340821281
 20
3005.908021107623
 30
0.0
  0
VERTEX
  5
228
  8
PREDEFINITO
 10
115.282375768266
 20
3005.92140231079
 30
0.0
  0
VERTEX
  5
229
  8
PREDEFINITO
 10
115.2821907760231
 20
3005.934724735168
 30
0.0
  0
SEQEND
  5
22A
  8
PREDEFINITO
  0
LINE
  5
22B
  8
PREDEFINITO
 10
121.3165188237081
 20
3008.526594006858
 30
0.0
 11
121.3164916401042
 21
3005.934724735168
 31
0.0
  0
POLYLINE
  5
22C
  8
PREDEFINITO
 66
     1
 10
0.0
 20
0.0
 30
0.0
  0
VERTEX
  5
22D
  8
PREDEFINITO
 10
118.6854208116106
 20
3010.259908351565
 30
0.0
  0
VERTEX
  5
22E
  8
PREDEFINITO
 10
118.7221284813561
 20
3010.264812354976
 30
0.0
  0
VERTEX
  5
22F
  8
PREDEFINITO
 10
118.7583542418863
 20
3010.268623514557
 30
0.0
  0
VERTEX
  5
230
  8
PREDEFINITO
 10
118.7941213324826
 20
3010.271402669356
 30
0.0
  0
VERTEX
  5
231
  8
PREDEFINITO
 10
118.8294529924266
 20
3010.273210658423
 30
0.0
  0
VERTEX
  5
232
  8
PREDEFINITO
 10
118.864372461
 20
3010.274108320807
 30
0.0
  0
VERTEX
  5
233
  8
PREDEFINITO
 10
118.8989029774843
 20
3010.274156495558
 30
0.0
  0
VERTEX
  5
234
  8
PREDEFINITO
 10
118.933067781161
 20
3010.273416021725
 30
0.0
  0
VERTEX
  5
235
  8
PREDEFINITO
 10
118.9668901113118
 20
3010.271947738356
 30
0.0
  0
VERTEX
  5
236
  8
PREDEFINITO
 10
119.0003932072181
 20
3010.269812484502
 30
0.0
  0
VERTEX
  5
237
  8
PREDEFINITO
 10
119.0336003081616
 20
3010.267071099211
 30
0.0
  0
VERTEX
  5
238
  8
PREDEFINITO
 10
119.0992194822863
 20
3010.260013290516
 30
0.0
  0
VERTEX
  5
239
  8
PREDEFINITO
 10
119.1639335479384
 20
3010.251261024666
 30
0.0
  0
VERTEX
  5
23A
  8
PREDEFINITO
 10
119.2279284193705
 20
3010.241301014054
 30
0.0
  0
VERTEX
  5
23B
  8
PREDEFINITO
 10
119.3441731189579
 20
3010.220943601187
 30
0.0
  0
VERTEX
  5
23C
  8
PREDEFINITO
 10
119.4585161990047
 20
3010.198115734824
 30
0.0
  0
VERTEX
  5
23D
  8
PREDEFINITO
 10
119.5708602841218
 20
3010.172786427625
 30
0.0
  0
VERTEX
  5
23E
  8
PREDEFINITO
 10
119.6811079989199
 20
3010.144924692254
 30
0.0
  0
VERTEX
  5
23F
  8
PREDEFINITO
 10
119.7891619680098
 20
3010.114499541367
 30
0.0
  0
VERTEX
  5
240
  8
PREDEFINITO
 10
119.8949248160023
 20
3010.081479987628
 30
0.0
  0
VERTEX
  5
241
  8
PREDEFINITO
 10
119.9982991675082
 20
3010.045835043696
 30
0.0
  0
VERTEX
  5
242
  8
PREDEFINITO
 10
120.0991876471384
 20
3010.007533722232
 30
0.0
  0
VERTEX
  5
243
  8
PREDEFINITO
 10
120.194417554365
 20
3009.967858618404
 30
0.0
  0
VERTEX
  5
244
  8
PREDEFINITO
 10
120.2410987591412
 20
3009.947015527258
 30
0.0
  0
VERTEX
  5
245
  8
PREDEFINITO
 10
120.2871438699607
 20
3009.925469717581
 30
0.0
  0
VERTEX
  5
246
  8
PREDEFINITO
 10
120.3325426907749
 20
3009.903196920086
 30
0.0
  0
VERTEX
  5
247
  8
PREDEFINITO
 10
120.3772850255348
 20
3009.880172865492
 30
0.0
  0
VERTEX
  5
248
  8
PREDEFINITO
 10
120.4213606781916
 20
3009.856373284512
 30
0.0
  0
VERTEX
  5
249
  8
PREDEFINITO
 10
120.4647594526964
 20
3009.831773907865
 30
0.0
  0
VERTEX
  5
24A
  8
PREDEFINITO
 10
120.5074711530004
 20
3009.806350466266
 30
0.0
  0
VERTEX
  5
24B
  8
PREDEFINITO
 10
120.5494855830547
 20
3009.78007869043
 30
0.0
  0
VERTEX
  5
24C
  8
PREDEFINITO
 10
120.5907925468106
 20
3009.752934311074
 30
0.0
  0
VERTEX
  5
24D
  8
PREDEFINITO
 10
120.6313818482191
 20
3009.724893058914
 30
0.0
  0
VERTEX
  5
24E
  8
PREDEFINITO
 10
120.6712432912314
 20
3009.695930664666
 30
0.0
  0
VERTEX
  5
24F
  8
PREDEFINITO
 10
120.7103666797987
 20
3009.666022859046
 30
0.0
  0
VERTEX
  5
250
  8
PREDEFINITO
 10
120.7487418178721
 20
3009.635145372771
 30
0.0
  0
VERTEX
  5
251
  8
PREDEFINITO
 10
120.7863585094027
 20
3009.603273936556
 30
0.0
  0
VERTEX
  5
252
  8
PREDEFINITO
 10
120.8172937429702
 20
3009.575774793971
 30
0.0
  0
VERTEX
  5
253
  8
PREDEFINITO
 10
120.8476568723111
 20
3009.547544813573
 30
0.0
  0
VERTEX
  5
254
  8
PREDEFINITO
 10
120.8774158604653
 20
3009.518568583522
 30
0.0
  0
VERTEX
  5
255
  8
PREDEFINITO
 10
120.9065386704728
 20
3009.488830691977
 30
0.0
  0
VERTEX
  5
256
  8
PREDEFINITO
 10
120.9349932653734
 20
3009.458315727098
 30
0.0
  0
VERTEX
  5
257
  8
PREDEFINITO
 10
120.9627476082073
 20
3009.427008277042
 30
0.0
  0
VERTEX
  5
258
  8
PREDEFINITO
 10
120.9897696620143
 20
3009.39489292997
 30
0.0
  0
VERTEX
  5
259
  8
PREDEFINITO
 10
121.0160273898343
 20
3009.361954274041
 30
0.0
  0
VERTEX
  5
25A
  8
PREDEFINITO
 10
121.0472397096532
 20
3009.320278344137
 30
0.0
  0
VERTEX
  5
25B
  8
PREDEFINITO
 10
121.077158515186
 20
3009.277375052223
 30
0.0
  0
VERTEX
  5
25C
  8
PREDEFINITO
 10
121.105696330051
 20
3009.233287222146
 30
0.0
  0
VERTEX
  5
25D
  8
PREDEFINITO
 10
121.1194200296137
 20
3009.210812487749
 30
0.0
  0
VERTEX
  5
25E
  8
PREDEFINITO
 10
121.1327656778664
 20
3009.188057677754
 30
0.0
  0
VERTEX
  5
25F
  8
PREDEFINITO
 10
121.1457223402614
 20
3009.165028145143
 30
0.0
  0
VERTEX
  5
260
  8
PREDEFINITO
 10
121.1582790822508
 20
3009.141729242896
 30
0.0
  0
VERTEX
  5
261
  8
PREDEFINITO
 10
121.1704249692871
 20
3009.118166323995
 30
0.0
  0
VERTEX
  5
262
  8
PREDEFINITO
 10
121.1821490668225
 20
3009.094344741419
 30
0.0
  0
VERTEX
  5
263
  8
PREDEFINITO
 10
121.1934404403092
 20
3009.070269848151
 30
0.0
  0
VERTEX
  5
264
  8
PREDEFINITO
 10
121.2042881551997
 20
3009.045946997171
 30
0.0
  0
VERTEX
  5
265
  8
PREDEFINITO
 10
121.2146812769462
 20
3009.02138154146
 30
0.0
  0
VERTEX
  5
266
  8
PREDEFINITO
 10
121.2246088710009
 20
3008.996578833998
 30
0.0
  0
VERTEX
  5
267
  8
PREDEFINITO
 10
121.2351220604246
 20
3008.968638630537
 30
0.0
  0
VERTEX
  5
268
  8
PREDEFINITO
 10
121.2450347514816
 20
3008.940427033579
 30
0.0
  0
VERTEX
  5
269
  8
PREDEFINITO
 10
121.2543393704681
 20
3008.91196123178
 30
0.0
  0
VERTEX
  5
26A
  8
PREDEFINITO
 10
121.2630283436805
 20
3008.883258413799
 30
0.0
  0
VERTEX
  5
26B
  8
PREDEFINITO
 10
121.2710940974151
 20
3008.854335768291
 30
0.0
  0
VERTEX
  5
26C
  8
PREDEFINITO
 10
121.2785290579682
 20
3008.825210483914
 30
0.0
  0
VERTEX
  5
26D
  8
PREDEFINITO
 10
121.2853256516361
 20
3008.795899749324
 30
0.0
  0
VERTEX
  5
26E
  8
PREDEFINITO
 10
121.2914763047152
 20
3008.766420753178
 30
0.0
  0
VERTEX
  5
26F
  8
PREDEFINITO
 10
121.2969734435018
 20
3008.736790684135
 30
0.0
  0
VERTEX
  5
270
  8
PREDEFINITO
 10
121.3018094942922
 20
3008.70702673085
 30
0.0
  0
VERTEX
  5
271
  8
PREDEFINITO
 10
121.3059768833827
 20
3008.67714608198
 30
0.0
  0
VERTEX
  5
272
  8
PREDEFINITO
 10
121.3094680370696
 20
3008.647165926183
 30
0.0
  0
VERTEX
  5
273
  8
PREDEFINITO
 10
121.3122753816493
 20
3008.617103452116
 30
0.0
  0
VERTEX
  5
274
  8
PREDEFINITO
 10
121.3143913434181
 20
3008.586975848434
 30
0.0
  0
VERTEX
  5
275
  8
PREDEFINITO
 10
121.3158083486722
 20
3008.556800303796
 30
0.0
  0
VERTEX
  5
276
  8
PREDEFINITO
 10
121.3165188237081
 20
3008.526594006858
 30
0.0
  0
SEQEND
  5
277
  8
PREDEFINITO
  0
POLYLINE
  5
278
  8
PREDEFINITO
 66
     1
 10
0.0
 20
0.0
 30
0.0
  0
VERTEX
  5
279
  8
PREDEFINITO
 10
120.3166439449478
 20
3009.427648852422
 30
0.0
  0
VERTEX
  5
27A
  8
PREDEFINITO
 10
120.3165506208828
 20
3009.435396388462
 30
0.0
  0
VERTEX
  5
27B
  8
PREDEFINITO
 10
120.316269181591
 20
3009.443178689944
 30
0.0
  0
VERTEX
  5
27C
  8
PREDEFINITO
 10
120.3157974467132
 20
3009.450994890502
 30
0.0
  0
VERTEX
  5
27D
  8
PREDEFINITO
 10
120.3151332643212
 20
3009.458844098966
 30
0.0
  0
VERTEX
  5
27E
  8
PREDEFINITO
 10
120.3142745126625
 20
3009.466725399366
 30
0.0
  0
VERTEX
  5
27F
  8
PREDEFINITO
 10
120.31321910192
 20
3009.474637850957
 30
0.0
  0
VERTEX
  5
280
  8
PREDEFINITO
 10
120.3119649759864
 20
3009.482580488271
 30
0.0
  0
VERTEX
  5
281
  8
PREDEFINITO
 10
120.3105101142508
 20
3009.490552321176
 30
0.0
  0
VERTEX
  5
282
  8
PREDEFINITO
 10
120.3088525333966
 20
3009.498552334976
 30
0.0
  0
VERTEX
  5
283
  8
PREDEFINITO
 10
120.3069902892074
 20
3009.506579490524
 30
0.0
  0
VERTEX
  5
284
  8
PREDEFINITO
 10
120.3049214783809
 20
3009.514632724357
 30
0.0
  0
VERTEX
  5
285
  8
PREDEFINITO
 10
120.302644240347
 20
3009.522710948855
 30
0.0
  0
VERTEX
  5
286
  8
PREDEFINITO
 10
120.3001567590895
 20
3009.530813052429
 30
0.0
  0
VERTEX
  5
287
  8
PREDEFINITO
 10
120.2974572649687
 20
3009.538937899732
 30
0.0
  0
VERTEX
  5
288
  8
PREDEFINITO
 10
120.2945440365417
 20
3009.54708433189
 30
0.0
  0
VERTEX
  5
289
  8
PREDEFINITO
 10
120.2914154023807
 20
3009.555251166761
 30
0.0
  0
VERTEX
  5
28A
  8
PREDEFINITO
 10
120.2880697428849
 20
3009.563437199221
 30
0.0
  0
VERTEX
  5
28B
  8
PREDEFINITO
 10
120.2845054920834
 20
3009.571641201474
 30
0.0
  0
VERTEX
  5
28C
  8
PREDEFINITO
 10
120.2807211394294
 20
3009.579861923391
 30
0.0
  0
VERTEX
  5
28D
  8
PREDEFINITO
 10
120.2767152315794
 20
3009.588098092866
 30
0.0
  0
VERTEX
  5
28E
  8
PREDEFINITO
 10
120.2724863741593
 20
3009.596348416213
 30
0.0
  0
VERTEX
  5
28F
  8
PREDEFINITO
 10
120.2680332335103
 20
3009.604611578571
 30
0.0
  0
VERTEX
  5
290
  8
PREDEFINITO
 10
120.2633545384159
 20
3009.612886244356
 30
0.0
  0
VERTEX
  5
291
  8
PREDEFINITO
 10
120.2584490818053
 20
3009.621171057719
 30
0.0
  0
VERTEX
  5
292
  8
PREDEFINITO
 10
120.2533157224313
 20
3009.629464643047
 30
0.0
  0
VERTEX
  5
293
  8
PREDEFINITO
 10
120.2479533865194
 20
3009.637765605485
 30
0.0
  0
VERTEX
  5
294
  8
PREDEFINITO
 10
120.242361069387
 20
3009.646072531474
 30
0.0
  0
VERTEX
  5
295
  8
PREDEFINITO
 10
120.236537837028
 20
3009.654383989334
 30
0.0
  0
VERTEX
  5
296
  8
PREDEFINITO
 10
120.230482827662
 20
3009.662698529857
 30
0.0
  0
VERTEX
  5
297
  8
PREDEFINITO
 10
120.2241952532438
 20
3009.671014686935
 30
0.0
  0
VERTEX
  5
298
  8
PREDEFINITO
 10
120.2109196345143
 20
3009.687645905743
 30
0.0
  0
VERTEX
  5
299
  8
PREDEFINITO
 10
120.196706205862
 20
3009.704265604211
 30
0.0
  0
VERTEX
  5
29A
  8
PREDEFINITO
 10
120.1815514612309
 20
3009.720861514567
 30
0.0
  0
VERTEX
  5
29B
  8
PREDEFINITO
 10
120.1654532034084
 20
3009.737421167122
 30
0.0
  0
VERTEX
  5
29C
  8
PREDEFINITO
 10
120.1484105803032
 20
3009.753931916025
 30
0.0
  0
VERTEX
  5
29D
  8
PREDEFINITO
 10
120.1304241172696
 20
3009.770380966372
 30
0.0
  0
VERTEX
  5
29E
  8
PREDEFINITO
 10
120.1114957451871
 20
3009.786755402595
 30
0.0
  0
VERTEX
  5
29F
  8
PREDEFINITO
 10
120.0916288240212
 20
3009.803042217992
 30
0.0
  0
VERTEX
  5
2A0
  8
PREDEFINITO
 10
120.0708281616158
 20
3009.819228345301
 30
0.0
  0
VERTEX
  5
2A1
  8
PREDEFINITO
 10
120.0491000274899
 20
3009.835300688173
 30
0.0
  0
VERTEX
  5
2A2
  8
PREDEFINITO
 10
120.0264521614431
 20
3009.851246153403
 30
0.0
  0
VERTEX
  5
2A3
  8
PREDEFINITO
 10
120.0028937768032
 20
3009.867051683775
 30
0.0
  0
VERTEX
  5
2A4
  8
PREDEFINITO
 10
119.9784355581821
 20
3009.882704291346
 30
0.0
  0
VERTEX
  5
2A5
  8
PREDEFINITO
 10
119.9530896536438
 20
3009.898191091017
 30
0.0
  0
VERTEX
  5
2A6
  8
PREDEFINITO
 10
119.9268696612243
 20
3009.913499334211
 30
0.0
  0
VERTEX
  5
2A7
  8
PREDEFINITO
 10
119.8997906097816
 20
3009.928616442482
 30
0.0
  0
VERTEX
  5
2A8
  8
PREDEFINITO
 10
119.8718689341944
 20
3009.943530040875
 30
0.0
  0
VERTEX
  5
2A9
  8
PREDEFINITO
 10
119.8135702923531
 20
3009.972698422656
 30
0.0
  0
VERTEX
  5
2AA
  8
PREDEFINITO
 10
119.7521320440279
 20
3010.000910784584
 30
0.0
  0
VERTEX
  5
2AB
  8
PREDEFINITO
 10
119.6877324912928
 20
3010.028078716533
 30
0.0
  0
VERTEX
  5
2AC
  8
PREDEFINITO
 10
119.6205682150736
 20
3010.054120012504
 30
0.0
  0
VERTEX
  5
2AD
  8
PREDEFINITO
 10
119.5508520790715
 20
3010.078959498062
 30
0.0
  0
VERTEX
  5
2AE
  8
PREDEFINITO
 10
119.4788109949368
 20
3010.102529748504
 30
0.0
  0
VERTEX
  5
2AF
  8
PREDEFINITO
 10
119.404683497624
 20
3010.124771683486
 30
0.0
  0
VERTEX
  5
2B0
  8
PREDEFINITO
 10
119.3287171845415
 20
3010.145635027439
 30
0.0
  0
VERTEX
  5
2B1
  8
PREDEFINITO
 10
119.2511660747791
 20
3010.165078629087
 30
0.0
  0
VERTEX
  5
2B2
  8
PREDEFINITO
 10
119.1722879453086
 20
3010.183070637449
 30
0.0
  0
VERTEX
  5
2B3
  8
PREDEFINITO
 10
119.0923416996289
 20
3010.199588535722
 30
0.0
  0
VERTEX
  5
2B4
  8
PREDEFINITO
 10
119.0115848210431
 20
3010.214619038225
 30
0.0
  0
VERTEX
  5
2B5
  8
PREDEFINITO
 10
118.9302709578331
 20
3010.22815785903
 30
0.0
  0
VERTEX
  5
2B6
  8
PREDEFINITO
 10
118.8486476813649
 20
3010.240209363793
 30
0.0
  0
VERTEX
  5
2B7
  8
PREDEFINITO
 10
118.6854208116109
 20
3010.259908351565
 30
0.0
  0
SEQEND
  5
2B8
  8
PREDEFINITO
  0
LINE
  5
2B9
  8
PREDEFINITO
 10
120.3166439449478
 20
3006.835779904407
 30
0.0
 11
120.3166439449478
 21
3009.427648852422
 31
0.0
  0
POLYLINE
  5
2BA
  8
PREDEFINITO
 66
     1
 10
0.0
 20
0.0
 30
0.0
  0
VERTEX
  5
2BB
  8
PREDEFINITO
 10
116.2820384711795
 20
3006.835779904407
 30
0.0
  0
VERTEX
  5
2BC
  8
PREDEFINITO
 10
116.2821621591978
 20
3006.826872372693
 30
0.0
  0
VERTEX
  5
2BD
  8
PREDEFINITO
 10
116.2825354544999
 20
3006.81792554078
 30
0.0
  0
VERTEX
  5
2BE
  8
PREDEFINITO
 10
116.2831616680293
 20
3006.808940819957
 30
0.0
  0
VERTEX
  5
2BF
  8
PREDEFINITO
 10
116.2840440600331
 20
3006.799919663538
 30
0.0
  0
VERTEX
  5
2C0
  8
PREDEFINITO
 10
116.2851858365388
 20
3006.790863566753
 30
0.0
  0
VERTEX
  5
2C1
  8
PREDEFINITO
 10
116.2865901457953
 20
3006.781774066575
 30
0.0
  0
VERTEX
  5
2C2
  8
PREDEFINITO
 10
116.2882600746844
 20
3006.7726527415
 30
0.0
  0
VERTEX
  5
2C3
  8
PREDEFINITO
 10
116.2901986451057
 20
3006.763501211284
 30
0.0
  0
VERTEX
  5
2C4
  8
PREDEFINITO
 10
116.2924088103401
 20
3006.754321136619
 30
0.0
  0
VERTEX
  5
2C5
  8
PREDEFINITO
 10
116.2948934513985
 20
3006.745114218751
 30
0.0
  0
VERTEX
  5
2C6
  8
PREDEFINITO
 10
116.2976553733586
 20
3006.735882199057
 30
0.0
  0
VERTEX
  5
2C7
  8
PREDEFINITO
 10
116.3006973016968
 20
3006.726626858549
 30
0.0
  0
VERTEX
  5
2C8
  8
PREDEFINITO
 10
116.304021878621
 20
3006.717350017337
 30
0.0
  0
VERTEX
  5
2C9
  8
PREDEFINITO
 10
116.3076316594092
 20
3006.708053534021
 30
0.0
  0
VERTEX
  5
2CA
  8
PREDEFINITO
 10
116.3115291087604
 20
3006.698739305036
 30
0.0
  0
VERTEX
  5
2CB
  8
PREDEFINITO
 10
116.315716597164
 20
3006.689409263928
 30
0.0
  0
VERTEX
  5
2CC
  8
PREDEFINITO
 10
116.3201963972945
 20
3006.680065380578
 30
0.0
  0
VERTEX
  5
2CD
  8
PREDEFINITO
 10
116.3249706804368
 20
3006.670709660365
 30
0.0
  0
VERTEX
  5
2CE
  8
PREDEFINITO
 10
116.3300415129503
 20
3006.661344143268
 30
0.0
  0
VERTEX
  5
2CF
  8
PREDEFINITO
 10
116.3354108527765
 20
3006.651970902905
 30
0.0
  0
VERTEX
  5
2D0
  8
PREDEFINITO
 10
116.3410805459996
 20
3006.642592045523
 30
0.0
  0
VERTEX
  5
2D1
  8
PREDEFINITO
 10
116.3470523234644
 20
3006.633209708913
 30
0.0
  0
VERTEX
  5
2D2
  8
PREDEFINITO
 10
116.3533277974598
 20
3006.623826061281
 30
0.0
  0
VERTEX
  5
2D3
  8
PREDEFINITO
 10
116.3599084584754
 20
3006.614443300047
 30
0.0
  0
VERTEX
  5
2D4
  8
PREDEFINITO
 10
116.3667956720365
 20
3006.605063650597
 30
0.0
  0
VERTEX
  5
2D5
  8
PREDEFINITO
 10
116.3739906756272
 20
3006.595689364971
 30
0.0
  0
VERTEX
  5
2D6
  8
PREDEFINITO
 10
116.3814945757054
 20
3006.586322720492
 30
0.0
  0
VERTEX
  5
2D7
  8
PREDEFINITO
 10
116.3893083448197
 20
3006.576966018347
 30
0.0
  0
VERTEX
  5
2D8
  8
PREDEFINITO
 10
116.3974328188338
 20
3006.567621582108
 30
0.0
  0
VERTEX
  5
2D9
  8
PREDEFINITO
 10
116.4058686942652
 20
3006.558291756205
 30
0.0
  0
VERTEX
  5
2DA
  8
PREDEFINITO
 10
116.4146165257452
 20
3006.548978904339
 30
0.0
  0
VERTEX
  5
2DB
  8
PREDEFINITO
 10
116.4236767236075
 20
3006.539685407853
 30
0.0
  0
VERTEX
  5
2DC
  8
PREDEFINITO
 10
116.4330495516114
 20
3006.530413664057
 30
0.0
  0
VERTEX
  5
2DD
  8
PREDEFINITO
 10
116.4427351248055
 20
3006.521166084491
 30
0.0
  0
VERTEX
  5
2DE
  8
PREDEFINITO
 10
116.4630442116291
 20
3006.502753124742
 30
0.0
  0
VERTEX
  5
2DF
  8
PREDEFINITO
 10
116.4846018585751
 20
3006.484466037381
 30
0.0
  0
VERTEX
  5
2E0
  8
PREDEFINITO
 10
116.5074034499555
 20
3006.466324441539
 30
0.0
  0
VERTEX
  5
2E1
  8
PREDEFINITO
 10
116.5314418398509
 20
3006.448348004706
 30
0.0
  0
VERTEX
  5
2E2
  8
PREDEFINITO
 10
116.5567073235413
 20
3006.43055637891
 30
0.0
  0
VERTEX
  5
2E3
  8
PREDEFINITO
 10
116.5831876209485
 20
3006.412969135454
 30
0.0
  0
VERTEX
  5
2E4
  8
PREDEFINITO
 10
116.6108678725225
 20
3006.395605698614
 30
0.0
  0
VERTEX
  5
2E5
  8
PREDEFINITO
 10
116.6397306479069
 20
3006.378485278765
 30
0.0
  0
VERTEX
  5
2E6
  8
PREDEFINITO
 10
116.6697559676047
 20
3006.361626805357
 30
0.0
  0
VERTEX
  5
2E7
  8
PREDEFINITO
 10
116.7009213377514
 20
3006.345048860236
 30
0.0
  0
VERTEX
  5
2E8
  8
PREDEFINITO
 10
116.7332017979801
 20
3006.328769611765
 30
0.0
  0
VERTEX
  5
2E9
  8
PREDEFINITO
 10
116.7665699822441
 20
3006.312806750229
 30
0.0
  0
VERTEX
  5
2EA
  8
PREDEFINITO
 10
116.8009961923328
 20
3006.297177424989
 30
0.0
  0
VERTEX
  5
2EB
  8
PREDEFINITO
 10
116.8364484837011
 20
3006.281898183854
 30
0.0
  0
VERTEX
  5
2EC
  8
PREDEFINITO
 10
116.8728927631066
 20
3006.266984915112
 30
0.0
  0
VERTEX
  5
2ED
  8
PREDEFINITO
 10
116.9486108330165
 20
3006.238316224456
 30
0.0
  0
VERTEX
  5
2EE
  8
PREDEFINITO
 10
117.0278390726255
 20
3006.21128327283
 30
0.0
  0
VERTEX
  5
2EF
  8
PREDEFINITO
 10
117.1102397505257
 20
3006.18598430704
 30
0.0
  0
VERTEX
  5
2F0
  8
PREDEFINITO
 10
117.1954534749101
 20
3006.162502733955
 30
0.0
  0
VERTEX
  5
2F1
  8
PREDEFINITO
 10
117.2831042884652
 20
3006.140906265477
 30
0.0
  0
VERTEX
  5
2F2
  8
PREDEFINITO
 10
117.3728049684557
 20
3006.12124639179
 30
0.0
  0
VERTEX
  5
2F3
  8
PREDEFINITO
 10
117.4641623810296
 20
3006.103558186809
 30
0.0
  0
VERTEX
  5
2F4
  8
PREDEFINITO
 10
117.5567827430319
 20
3006.087860437614
 30
0.0
  0
VERTEX
  5
2F5
  8
PREDEFINITO
 10
117.6502766553661
 20
3006.074156078572
 30
0.0
  0
VERTEX
  5
2F6
  8
PREDEFINITO
 10
117.7442637881799
 20
3006.062432901266
 30
0.0
  0
VERTEX
  5
2F7
  8
PREDEFINITO
 10
117.838377118549
 20
3006.052664503803
 30
0.0
  0
VERTEX
  5
2F8
  8
PREDEFINITO
 10
117.9322666444208
 20
3006.044811437714
 30
0.0
  0
VERTEX
  5
2F9
  8
PREDEFINITO
 10
118.0256025228494
 20
3006.038822507631
 30
0.0
  0
VERTEX
  5
2FA
  8
PREDEFINITO
 10
118.1180776045714
 20
3006.03463617809
 30
0.0
  0
VERTEX
  5
2FB
  8
PREDEFINITO
 10
118.2094093595316
 20
3006.032182043022
 30
0.0
  0
VERTEX
  5
2FC
  8
PREDEFINITO
 10
118.2993412080637
 20
3006.031382316334
 30
0.0
  0
VERTEX
  5
2FD
  8
PREDEFINITO
 10
118.3892730565957
 20
3006.032182043022
 30
0.0
  0
VERTEX
  5
2FE
  8
PREDEFINITO
 10
118.4806048115559
 20
3006.03463617809
 30
0.0
  0
VERTEX
  5
2FF
  8
PREDEFINITO
 10
118.573079893278
 20
3006.038822507631
 30
0.0
  0
VERTEX
  5
300
  8
PREDEFINITO
 10
118.6664157717065
 20
3006.044811437714
 30
0.0
  0
VERTEX
  5
301
  8
PREDEFINITO
 10
118.7603052975784
 20
3006.052664503803
 30
0.0
  0
VERTEX
  5
302
  8
PREDEFINITO
 10
118.8544186279474
 20
3006.062432901266
 30
0.0
  0
VERTEX
  5
303
  8
PREDEFINITO
 10
118.9484057607613
 20
3006.074156078572
 30
0.0
  0
VERTEX
  5
304
  8
PREDEFINITO
 10
119.0418996730954
 20
3006.087860437614
 30
0.0
  0
VERTEX
  5
305
  8
PREDEFINITO
 10
119.1345200350977
 20
3006.103558186809
 30
0.0
  0
VERTEX
  5
306
  8
PREDEFINITO
 10
119.2258774476717
 20
3006.12124639179
 30
0.0
  0
VERTEX
  5
307
  8
PREDEFINITO
 10
119.3155781276621
 20
3006.140906265477
 30
0.0
  0
VERTEX
  5
308
  8
PREDEFINITO
 10
119.4032289412172
 20
3006.162502733955
 30
0.0
  0
VERTEX
  5
309
  8
PREDEFINITO
 10
119.4884426656016
 20
3006.18598430704
 30
0.0
  0
VERTEX
  5
30A
  8
PREDEFINITO
 10
119.5708433435018
 20
3006.21128327283
 30
0.0
  0
VERTEX
  5
30B
  8
PREDEFINITO
 10
119.6500715831108
 20
3006.238316224456
 30
0.0
  0
VERTEX
  5
30C
  8
PREDEFINITO
 10
119.7257896530206
 20
3006.266984915112
 30
0.0
  0
VERTEX
  5
30D
  8
PREDEFINITO
 10
119.7622339324262
 20
3006.281898183854
 30
0.0
  0
VERTEX
  5
30E
  8
PREDEFINITO
 10
119.7976862237944
 20
3006.297177424989
 30
0.0
  0
VERTEX
  5
30F
  8
PREDEFINITO
 10
119.8321124338832
 20
3006.312806750229
 30
0.0
  0
VERTEX
  5
310
  8
PREDEFINITO
 10
119.8654806181471
 20
3006.328769611765
 30
0.0
  0
VERTEX
  5
311
  8
PREDEFINITO
 10
119.8977610783759
 20
3006.345048860236
 30
0.0
  0
VERTEX
  5
312
  8
PREDEFINITO
 10
119.9289264485226
 20
3006.361626805357
 30
0.0
  0
VERTEX
  5
313
  8
PREDEFINITO
 10
119.9589517682204
 20
3006.378485278765
 30
0.0
  0
VERTEX
  5
314
  8
PREDEFINITO
 10
119.9878145436048
 20
3006.395605698614
 30
0.0
  0
VERTEX
  5
315
  8
PREDEFINITO
 10
120.0154947951788
 20
3006.412969135454
 30
0.0
  0
VERTEX
  5
316
  8
PREDEFINITO
 10
120.041975092586
 20
3006.43055637891
 30
0.0
  0
VERTEX
  5
317
  8
PREDEFINITO
 10
120.0672405762765
 20
3006.448348004706
 30
0.0
  0
VERTEX
  5
318
  8
PREDEFINITO
 10
120.0912789661718
 20
3006.466324441539
 30
0.0
  0
VERTEX
  5
319
  8
PREDEFINITO
 10
120.1140805575522
 20
3006.484466037381
 30
0.0
  0
VERTEX
  5
31A
  8
PREDEFINITO
 10
120.1356382044982
 20
3006.502753124742
 30
0.0
  0
VERTEX
  5
31B
  8
PREDEFINITO
 10
120.1559472913218
 20
3006.521166084491
 30
0.0
  0
VERTEX
  5
31C
  8
PREDEFINITO
 10
120.1656328645159
 20
3006.530413664057
 30
0.0
  0
VERTEX
  5
31D
  8
PREDEFINITO
 10
120.1750056925197
 20
3006.539685407853
 30
0.0
  0
VERTEX
  5
31E
  8
PREDEFINITO
 10
120.1840658903821
 20
3006.548978904339
 30
0.0
  0
VERTEX
  5
31F
  8
PREDEFINITO
 10
120.1928137218621
 20
3006.558291756205
 30
0.0
  0
VERTEX
  5
320
  8
PREDEFINITO
 10
120.2012495972934
 20
3006.567621582108
 30
0.0
  0
VERTEX
  5
321
  8
PREDEFINITO
 10
120.2093740713076
 20
3006.576966018347
 30
0.0
  0
VERTEX
  5
322
  8
PREDEFINITO
 10
120.2171878404219
 20
3006.586322720492
 30
0.0
  0
VERTEX
  5
323
  8
PREDEFINITO
 10
120.2246917405
 20
3006.595689364971
 30
0.0
  0
VERTEX
  5
324
  8
PREDEFINITO
 10
120.2318867440907
 20
3006.605063650597
 30
0.0
  0
VERTEX
  5
325
  8
PREDEFINITO
 10
120.2387739576519
 20
3006.614443300047
 30
0.0
  0
VERTEX
  5
326
  8
PREDEFINITO
 10
120.2453546186674
 20
3006.623826061281
 30
0.0
  0
VERTEX
  5
327
  8
PREDEFINITO
 10
120.2516300926629
 20
3006.633209708913
 30
0.0
  0
VERTEX
  5
328
  8
PREDEFINITO
 10
120.2576018701276
 20
3006.642592045523
 30
0.0
  0
VERTEX
  5
329
  8
PREDEFINITO
 10
120.2632715633508
 20
3006.651970902905
 30
0.0
  0
VERTEX
  5
32A
  8
PREDEFINITO
 10
120.268640903177
 20
3006.661344143268
 30
0.0
  0
VERTEX
  5
32B
  8
PREDEFINITO
 10
120.2737117356904
 20
3006.670709660365
 30
0.0
  0
VERTEX
  5
32C
  8
PREDEFINITO
 10
120.2784860188328
 20
3006.680065380578
 30
0.0
  0
VERTEX
  5
32D
  8
PREDEFINITO
 10
120.2829658189633
 20
3006.689409263928
 30
0.0
  0
VERTEX
  5
32E
  8
PREDEFINITO
 10
120.2871533073669
 20
3006.698739305036
 30
0.0
  0
VERTEX
  5
32F
  8
PREDEFINITO
 10
120.2910507567181
 20
3006.708053534021
 30
0.0
  0
VERTEX
  5
330
  8
PREDEFINITO
 10
120.2946605375063
 20
3006.717350017337
 30
0.0
  0
VERTEX
  5
331
  8
PREDEFINITO
 10
120.2979851144305
 20
3006.726626858549
 30
0.0
  0
VERTEX
  5
332
  8
PREDEFINITO
 10
120.3010270427687
 20
3006.735882199057
 30
0.0
  0
VERTEX
  5
333
  8
PREDEFINITO
 10
120.3037889647287
 20
3006.745114218751
 30
0.0
  0
VERTEX
  5
334
  8
PREDEFINITO
 10
120.3062736057872
 20
3006.754321136619
 30
0.0
  0
VERTEX
  5
335
  8
PREDEFINITO
 10
120.3084837710216
 20
3006.763501211284
 30
0.0
  0
VERTEX
  5
336
  8
PREDEFINITO
 10
120.3104223414428
 20
3006.7726527415
 30
0.0
  0
VERTEX
  5
337
  8
PREDEFINITO
 10
120.312092270332
 20
3006.781774066575
 30
0.0
  0
VERTEX
  5
338
  8
PREDEFINITO
 10
120.3134965795885
 20
3006.790863566753
 30
0.0
  0
VERTEX
  5
339
  8
PREDEFINITO
 10
120.3146383560941
 20
3006.799919663538
 30
0.0
  0
VERTEX
  5
33A
  8
PREDEFINITO
 10
120.315520748098
 20
3006.808940819957
 30
0.0
  0
VERTEX
  5
33B
  8
PREDEFINITO
 10
120.3161469616274
 20
3006.81792554078
 30
0.0
  0
VERTEX
  5
33C
  8
PREDEFINITO
 10
120.3165202569295
 20
3006.826872372693
 30
0.0
  0
VERTEX
  5
33D
  8
PREDEFINITO
 10
120.3166439449478
 20
3006.835779904407
 30
0.0
  0
SEQEND
  5
33E
  8
PREDEFINITO
  0
LINE
  5
33F
  8
PREDEFINITO
 10
116.2820384711795
 20
3009.427648852422
 30
0.0
 11
116.2820384711795
 21
3006.835779904407
 31
0.0
  0
POLYLINE
  5
340
  8
PREDEFINITO
 66
     1
 10
0.0
 20
0.0
 30
-0.0000000000000001
  0
VERTEX
  5
341
  8
PREDEFINITO
 10
117.9044258527237
 20
3010.25926412432
 30
-0.0000000000000001
  0
VERTEX
  5
342
  8
PREDEFINITO
 10
117.7415885903491
 20
3010.239177727009
 30
-0.0000000000000001
  0
VERTEX
  5
343
  8
PREDEFINITO
 10
117.6602087623728
 20
3010.22694904318
 30
-0.0000000000000001
  0
VERTEX
  5
344
  8
PREDEFINITO
 10
117.5791687309744
 20
3010.213245868674
 30
-0.0000000000000001
  0
VERTEX
  5
345
  8
PREDEFINITO
 10
117.4987140442502
 20
3010.198065096059
 30
-0.0000000000000001
  0
VERTEX
  5
346
  8
PREDEFINITO
 10
117.4190959519464
 20
3010.181412162802
 30
-0.0000000000000001
  0
VERTEX
  5
347
  8
PREDEFINITO
 10
117.340569187028
 20
3010.16330137677
 30
-0.0000000000000001
  0
VERTEX
  5
348
  8
PREDEFINITO
 10
117.2633895833634
 20
3010.143756126537
 30
-0.0000000000000001
  0
VERTEX
  5
349
  8
PREDEFINITO
 10
117.1878115701219
 20
3010.12280896568
 30
-0.0000000000000001
  0
VERTEX
  5
34A
  8
PREDEFINITO
 10
117.1140855893751
 20
3010.100501563107
 30
-0.0000000000000001
  0
VERTEX
  5
34B
  8
PREDEFINITO
 10
117.0424554879642
 20
3010.07688451482
 30
-0.0000000000000001
  0
VERTEX
  5
34C
  8
PREDEFINITO
 10
116.9731559376893
 20
3010.052017016187
 30
-0.0000000000000001
  0
VERTEX
  5
34D
  8
PREDEFINITO
 10
116.906409939036
 20
3010.025966397703
 30
-0.0000000000000001
  0
VERTEX
  5
34E
  8
PREDEFINITO
 10
116.8424264628697
 20
3009.998807531129
 30
-0.0000000000000001
  0
VERTEX
  5
34F
  8
PREDEFINITO
 10
116.7813982817518
 20
3009.97062211669
 30
-0.0000000000000001
  0
VERTEX
  5
350
  8
PREDEFINITO
 10
116.7235000378406
 20
3009.941497865464
 30
-0.0000000000000001
  0
VERTEX
  5
351
  8
PREDEFINITO
 10
116.6957738469661
 20
3009.926612508071
 30
-0.0000000000000001
  0
VERTEX
  5
352
  8
PREDEFINITO
 10
116.6688865879221
 20
3009.91152759412
 30
-0.0000000000000001
  0
VERTEX
  5
353
  8
PREDEFINITO
 10
116.6428543055914
 20
3009.896255363673
 30
-0.0000000000000001
  0
VERTEX
  5
354
  8
PREDEFINITO
 10
116.6176916582416
 20
3009.88080825147
 30
-0.0000000000000001
  0
VERTEX
  5
355
  8
PREDEFINITO
 10
116.593411894
 20
3009.865198854281
 30
-0.0000000000000001
  0
VERTEX
  5
356
  8
PREDEFINITO
 10
116.5700268328397
 20
3009.849439898042
 30
-0.0000000000000001
  0
VERTEX
  5
357
  8
PREDEFINITO
 10
116.5475468540898
 20
3009.833544204954
 30
-0.0000000000000001
  0
VERTEX
  5
358
  8
PREDEFINITO
 10
116.5259808894453
 20
3009.817524660702
 30
-0.0000000000000001
  0
VERTEX
  5
359
  8
PREDEFINITO
 10
116.5053364214115
 20
3009.801394181976
 30
-0.0000000000000001
  0
VERTEX
  5
35A
  8
PREDEFINITO
 10
116.4856194870876
 20
3009.785165684448
 30
-0.0000000000000001
  0
VERTEX
  5
35B
  8
PREDEFINITO
 10
116.4668346871531
 20
3009.768852051352
 30
-0.0000000000000001
  0
VERTEX
  5
35C
  8
PREDEFINITO
 10
116.4489851998959
 20
3009.752466102831
 30
-0.0000000000000001
  0
VERTEX
  5
35D
  8
PREDEFINITO
 10
116.4320728000855
 20
3009.736020566166
 30
-0.0000000000000001
  0
VERTEX
  5
35E
  8
PREDEFINITO
 10
116.4160978824709
 20
3009.719528047031
 30
-0.0000000000000001
  0
VERTEX
  5
35F
  8
PREDEFINITO
 10
116.4010594896574
 20
3009.703001001882
 30
-0.0000000000000001
  0
VERTEX
  5
360
  8
PREDEFINITO
 10
116.3869553440961
 20
3009.68645171159
 30
-0.0000000000000001
  0
VERTEX
  5
361
  8
PREDEFINITO
 10
116.3737818839002
 20
3009.6698922564
 30
-0.0000000000000001
  0
VERTEX
  5
362
  8
PREDEFINITO
 10
116.3675427061536
 20
3009.661612431344
 30
-0.0000000000000001
  0
VERTEX
  5
363
  8
PREDEFINITO
 10
116.3615343021894
 20
3009.653334492317
 30
-0.0000000000000001
  0
VERTEX
  5
364
  8
PREDEFINITO
 10
116.3557558836006
 20
3009.645059882647
 30
-0.0000000000000001
  0
VERTEX
  5
365
  8
PREDEFINITO
 10
116.350206589649
 20
3009.636790028968
 30
-0.0000000000000001
  0
VERTEX
  5
366
  8
PREDEFINITO
 10
116.3448854887481
 20
3009.628526340607
 30
-0.0000000000000001
  0
VERTEX
  5
367
  8
PREDEFINITO
 10
116.3397915799843
 20
3009.620270209005
 30
-0.0000000000000001
  0
VERTEX
  5
368
  8
PREDEFINITO
 10
116.3349237946722
 20
3009.612023007159
 30
-0.0000000000000001
  0
VERTEX
  5
369
  8
PREDEFINITO
 10
116.3302809979431
 20
3009.603786089094
 30
-0.0000000000000001
  0
VERTEX
  5
36A
  8
PREDEFINITO
 10
116.3258619903629
 20
3009.595560789352
 30
-0.0000000000000001
  0
VERTEX
  5
36B
  8
PREDEFINITO
 10
116.3216655095774
 20
3009.587348422519
 30
-0.0000000000000001
  0
VERTEX
  5
36C
  8
PREDEFINITO
 10
116.3176902319823
 20
3009.579150282767
 30
-0.0000000000000001
  0
VERTEX
  5
36D
  8
PREDEFINITO
 10
116.3139347744153
 20
3009.570967643427
 30
-0.0000000000000001
  0
VERTEX
  5
36E
  8
PREDEFINITO
 10
116.3103976958683
 20
3009.562801756586
 30
-0.0000000000000001
  0
VERTEX
  5
36F
  8
PREDEFINITO
 10
116.3070774992164
 20
3009.554653852711
 30
-0.0000000000000001
  0
VERTEX
  5
370
  8
PREDEFINITO
 10
116.3039726329617
 20
3009.546525140296
 30
-0.0000000000000001
  0
VERTEX
  5
371
  8
PREDEFINITO
 10
116.3010814929901
 20
3009.538416805541
 30
-0.0000000000000001
  0
VERTEX
  5
372
  8
PREDEFINITO
 10
116.2984024243376
 20
3009.530330012042
 30
-0.0000000000000001
  0
VERTEX
  5
373
  8
PREDEFINITO
 10
116.2959337229641
 20
3009.522265900527
 30
-0.0000000000000001
  0
VERTEX
  5
374
  8
PREDEFINITO
 10
116.2936736375335
 20
3009.514225588593
 30
-0.0000000000000001
  0
VERTEX
  5
375
  8
PREDEFINITO
 10
116.2916203711966
 20
3009.506210170491
 30
-0.0000000000000001
  0
VERTEX
  5
376
  8
PREDEFINITO
 10
116.289772083375
 20
3009.498220716911
 30
-0.0000000000000001
  0
VERTEX
  5
377
  8
PREDEFINITO
 10
116.2881268915443
 20
3009.490258274816
 30
-0.0000000000000001
  0
VERTEX
  5
378
  8
PREDEFINITO
 10
116.2866828730141
 20
3009.482323867275
 30
-0.0000000000000001
  0
VERTEX
  5
379
  8
PREDEFINITO
 10
116.2854380667031
 20
3009.474418493339
 30
-0.0000000000000001
  0
VERTEX
  5
37A
  8
PREDEFINITO
 10
116.2843904749075
 20
3009.466543127927
 30
-0.0000000000000001
  0
VERTEX
  5
37B
  8
PREDEFINITO
 10
116.2835380650601
 20
3009.458698721738
 30
-0.0000000000000001
  0
VERTEX
  5
37C
  8
PREDEFINITO
 10
116.2828787714794
 20
3009.450886201187
 30
-0.0000000000000001
  0
VERTEX
  5
37D
  8
PREDEFINITO
 10
116.2824104971063
 20
3009.443106468357
 30
-0.0000000000000001
  0
VERTEX
  5
37E
  8
PREDEFINITO
 10
116.2821311152269
 20
3009.435360400979
 30
-0.0000000000000001
  0
VERTEX
  5
37F
  8
PREDEFINITO
 10
116.2820384711795
 20
3009.427648852422
 30
-0.0000000000000001
  0
SEQEND
  5
380
  8
PREDEFINITO
  0
POLYLINE
  5
381
  8
PREDEFINITO
 66
     1
 10
0.0
 20
0.0
 30
0.0
  0
VERTEX
  5
382
  8
PREDEFINITO
 10
115.2829084342625
 20
3008.525812678269
 30
0.0
  0
VERTEX
  5
383
  8
PREDEFINITO
 10
115.283256508973
 20
3008.551452870209
 30
0.0
  0
VERTEX
  5
384
  8
PREDEFINITO
 10
115.2841287039996
 20
3008.576994392752
 30
0.0
  0
VERTEX
  5
385
  8
PREDEFINITO
 10
115.2855177206737
 20
3008.602432119827
 30
0.0
  0
VERTEX
  5
386
  8
PREDEFINITO
 10
115.2874162603266
 20
3008.627760925363
 30
0.0
  0
VERTEX
  5
387
  8
PREDEFINITO
 10
115.2898170242897
 20
3008.652975683291
 30
0.0
  0
VERTEX
  5
388
  8
PREDEFINITO
 10
115.2927127138943
 20
3008.67807126754
 30
0.0
  0
VERTEX
  5
389
  8
PREDEFINITO
 10
115.2960960304717
 20
3008.703042552041
 30
0.0
  0
VERTEX
  5
38A
  8
PREDEFINITO
 10
115.2999596753533
 20
3008.727884410721
 30
0.0
  0
VERTEX
  5
38B
  8
PREDEFINITO
 10
115.3042963498704
 20
3008.752591717511
 30
0.0
  0
VERTEX
  5
38C
  8
PREDEFINITO
 10
115.3090987553543
 20
3008.777159346341
 30
0.0
  0
VERTEX
  5
38D
  8
PREDEFINITO
 10
115.3143595931364
 20
3008.80158217114
 30
0.0
  0
VERTEX
  5
38E
  8
PREDEFINITO
 10
115.320071564548
 20
3008.825855065837
 30
0.0
  0
VERTEX
  5
38F
  8
PREDEFINITO
 10
115.3262273709205
 20
3008.849972904363
 30
0.0
  0
VERTEX
  5
390
  8
PREDEFINITO
 10
115.3328197135851
 20
3008.873930560647
 30
0.0
  0
VERTEX
  5
391
  8
PREDEFINITO
 10
115.3398412938733
 20
3008.897722908619
 30
0.0
  0
VERTEX
  5
392
  8
PREDEFINITO
 10
115.3472848131163
 20
3008.921344822207
 30
0.0
  0
VERTEX
  5
393
  8
PREDEFINITO
 10
115.3551429726456
 20
3008.944791175342
 30
0.0
  0
VERTEX
  5
394
  8
PREDEFINITO
 10
115.3634084737923
 20
3008.968056841954
 30
0.0
  0
VERTEX
  5
395
  8
PREDEFINITO
 10
115.372074017888
 20
3008.991136695971
 30
0.0
  0
VERTEX
  5
396
  8
PREDEFINITO
 10
115.3811323062638
 20
3009.014025611324
 30
0.0
  0
VERTEX
  5
397
  8
PREDEFINITO
 10
115.4003979211814
 20
3009.059210121754
 30
0.0
  0
VERTEX
  5
398
  8
PREDEFINITO
 10
115.4211469291959
 20
3009.103569364682
 30
0.0
  0
VERTEX
  5
399
  8
PREDEFINITO
 10
115.4433209409579
 20
3009.147062331544
 30
0.0
  0
VERTEX
  5
39A
  8
PREDEFINITO
 10
115.4668615671181
 20
3009.189648013777
 30
0.0
  0
VERTEX
  5
39B
  8
PREDEFINITO
 10
115.4917104183273
 20
3009.231285402818
 30
0.0
  0
VERTEX
  5
39C
  8
PREDEFINITO
 10
115.5178091052361
 20
3009.271933490103
 30
0.0
  0
VERTEX
  5
39D
  8
PREDEFINITO
 10
115.5474308241081
 20
3009.314821784211
 30
0.0
  0
VERTEX
  5
39E
  8
PREDEFINITO
 10
115.5783832162338
 20
3009.356512380417
 30
0.0
  0
VERTEX
  5
39F
  8
PREDEFINITO
 10
115.6105982523121
 20
3009.397017117173
 30
0.0
  0
VERTEX
  5
3A0
  8
PREDEFINITO
 10
115.6440079030415
 20
3009.436347832931
 30
0.0
  0
VERTEX
  5
3A1
  8
PREDEFINITO
 10
115.6785441391208
 20
3009.474516366144
 30
0.0
  0
VERTEX
  5
3A2
  8
PREDEFINITO
 10
115.7141389312487
 20
3009.511534555264
 30
0.0
  0
VERTEX
  5
3A3
  8
PREDEFINITO
 10
115.7507242501239
 20
3009.547414238745
 30
0.0
  0
VERTEX
  5
3A4
  8
PREDEFINITO
 10
115.7882320664451
 20
3009.582167255036
 30
0.0
  0
VERTEX
  5
3A5
  8
PREDEFINITO
 10
115.8253697021915
 20
3009.614754869994
 30
0.0
  0
VERTEX
  5
3A6
  8
PREDEFINITO
 10
115.8632953463439
 20
3009.646322678528
 30
0.0
  0
VERTEX
  5
3A7
  8
PREDEFINITO
 10
115.9019960359604
 20
3009.676895905425
 30
0.0
  0
VERTEX
  5
3A8
  8
PREDEFINITO
 10
115.9414588080993
 20
3009.706499775468
 30
0.0
  0
VERTEX
  5
3A9
  8
PREDEFINITO
 10
115.9816706998187
 20
3009.735159513441
 30
0.0
  0
VERTEX
  5
3AA
  8
PREDEFINITO
 10
116.0226187481768
 20
3009.762900344128
 30
0.0
  0
VERTEX
  5
3AB
  8
PREDEFINITO
 10
116.0642899902318
 20
3009.789747492313
 30
0.0
  0
VERTEX
  5
3AC
  8
PREDEFINITO
 10
116.1066714630417
 20
3009.81572618278
 30
0.0
  0
VERTEX
  5
3AD
  8
PREDEFINITO
 10
116.1497502036649
 20
3009.840861640311
 30
0.0
  0
VERTEX
  5
3AE
  8
PREDEFINITO
 10
116.1935132491594
 20
3009.865179089692
 30
0.0
  0
VERTEX
  5
3AF
  8
PREDEFINITO
 10
116.2379476365835
 20
3009.888703755706
 30
0.0
  0
VERTEX
  5
3B0
  8
PREDEFINITO
 10
116.2830404029952
 20
3009.911460863137
 30
0.0
  0
VERTEX
  5
3B1
  8
PREDEFINITO
 10
116.3287785854529
 20
3009.933475636768
 30
0.0
  0
VERTEX
  5
3B2
  8
PREDEFINITO
 10
116.3751492210145
 20
3009.954773301384
 30
0.0
  0
VERTEX
  5
3B3
  8
PREDEFINITO
 10
116.4697359996827
 20
3009.995318202704
 30
0.0
  0
VERTEX
  5
3B4
  8
PREDEFINITO
 10
116.5351419153975
 20
3010.021295110463
 30
0.0
  0
VERTEX
  5
3B5
  8
PREDEFINITO
 10
116.6016280861809
 20
3010.046110120332
 30
0.0
  0
VERTEX
  5
3B6
  8
PREDEFINITO
 10
116.6691861610996
 20
3010.069777735447
 30
0.0
  0
VERTEX
  5
3B7
  8
PREDEFINITO
 10
116.7378077892206
 20
3010.092312458941
 30
0.0
  0
VERTEX
  5
3B8
  8
PREDEFINITO
 10
116.8074846196104
 20
3010.113728793948
 30
0.0
  0
VERTEX
  5
3B9
  8
PREDEFINITO
 10
116.8782083013361
 20
3010.134041243605
 30
0.0
  0
VERTEX
  5
3BA
  8
PREDEFINITO
 10
117.0227628150616
 20
3010.171412499401
 30
0.0
  0
VERTEX
  5
3BB
  8
PREDEFINITO
 10
117.1273372228952
 20
3010.195159499895
 30
0.0
  0
VERTEX
  5
3BC
  8
PREDEFINITO
 10
117.2338081829959
 20
3010.216279355649
 30
0.0
  0
VERTEX
  5
3BD
  8
PREDEFINITO
 10
117.3420322009265
 20
3010.234261989405
 30
0.0
  0
VERTEX
  5
3BE
  8
PREDEFINITO
 10
117.3967567645664
 20
3010.241917448893
 30
0.0
  0
VERTEX
  5
3BF
  8
PREDEFINITO
 10
117.4518657822497
 20
3010.248597323911
 30
0.0
  0
VERTEX
  5
3C0
  8
PREDEFINITO
 10
117.5073413171719
 20
3010.254237854802
 30
0.0
  0
VERTEX
  5
3C1
  8
PREDEFINITO
 10
117.5631654325283
 20
3010.25877528191
 30
0.0
  0
VERTEX
  5
3C2
  8
PREDEFINITO
 10
117.6193201915142
 20
3010.262145845578
 30
0.0
  0
VERTEX
  5
3C3
  8
PREDEFINITO
 10
117.675787657325
 20
3010.264285786148
 30
0.0
  0
VERTEX
  5
3C4
  8
PREDEFINITO
 10
117.732549893156
 20
3010.265131343965
 30
0.0
  0
VERTEX
  5
3C5
  8
PREDEFINITO
 10
117.7895889622026
 20
3010.26461875937
 30
0.0
  0
VERTEX
  5
3C6
  8
PREDEFINITO
 10
117.8468869276601
 20
3010.262684272707
 30
0.0
  0
VERTEX
  5
3C7
  8
PREDEFINITO
 10
117.9044258527238
 20
3010.25926412432
 30
0.0
  0
SEQEND
  5
3C8
  8
PREDEFINITO
  0
LINE
  5
3C9
  8
PREDEFINITO
 10
115.2821907760231
 20
3005.934724735168
 30
0.0
 11
115.2829084342625
 21
3008.525812678269
 31
0.0
  0
LINE
  5
3CA
  8
PREDEFINITO
 10
116.9494814309523
 20
3144.415029424794
 30
0.0
 11
116.9494814293203
 21
3157.830175004251
 31
0.0
  0
LINE
  5
3CB
  8
PREDEFINITO
 10
116.949481432584
 20
3095.929846774027
 30
0.0
 11
116.9494814309523
 21
3144.415029424794
 31
0.0
  0
ARC
  5
3CC
  8
PREDEFINITO
 10
41.65163177084018
 20
3095.932265539962
 30
0.0000000000002675
 40
75.29784970059238
 50
355.5688216231258
 51
359.9981595081363
  0
ARC
  5
3CD
  8
PREDEFINITO
 10
16.51461713822289
 20
3097.892452982702
 30
0.0000000000014238
 40
100.5111741124524
 50
352.2360239175534
 51
355.5618655270798
  0
ARC
  5
3CE
  8
PREDEFINITO
 10
-1.91109063662743
 20
3100.428712258823
 30
0.0000000000003146
 40
119.1106052554333
 50
349.3359728977877
 51
352.2245599823933
  0
LINE
  5
3CF
  8
PREDEFINITO
 10
113.934110949745
 20
3072.512758216943
 30
0.0
 11
115.1423759399358
 21
3078.387336468618
 31
0.0
  0
ARC
  5
3D0
  8
PREDEFINITO
 10
-140.9290392487426
 20
3129.38473122045
 30
0.0
 40
261.1314738640452
 50
345.2120098008175
 51
347.4207042911681
  0
LINE
  5
3D1
  8
PREDEFINITO
 10
108.9801370330324
 20
3052.979739601996
 30
0.0
 11
111.5529536949862
 21
3062.732725387382
 31
0.0
  0
LINE
  5
3D2
  8
PREDEFINITO
 10
106.6078122326949
 20
3043.643592534722
 30
0.0
 11
108.9801370330324
 21
3052.979739601996
 31
0.0
  0
ARC
  5
3D3
  8
PREDEFINITO
 10
276.9855858016997
 20
3001.982089972169
 30
0.000000000001433
 40
175.3974530091604
 50
166.2594153988961
 51
169.4335024972184
  0
LINE
  5
3D4
  8
PREDEFINITO
 10
115.2311837313141
 20
3003.797198572351
 30
0.0
 11
115.2311837313141
 21
3003.798670335301
 31
0.0
  0
ARC
  5
3D5
  8
PREDEFINITO
 10
110.2732615424104
 20
3014.150737450176
 30
0.0
 40
4.885258155434738
 50
194.7882018014742
 51
201.6670847379763
  0
POLYLINE
  5
3D6
  8
PREDEFINITO
 66
     1
 10
0.0
 20
0.0
 30
0.0
  0
VERTEX
  5
3D7
  8
PREDEFINITO
 10
109.7844729185866
 20
2085.550247744952
 30
0.0
 42
0.0653254854058594
  0
VERTEX
  5
3D8
  8
PREDEFINITO
 10
109.9487360630626
 20
2084.238388802828
 30
0.0
 42
0.0801074850160688
  0
VERTEX
  5
3D9
  8
PREDEFINITO
 10
115.7360321145878
 20
2070.957585609915
 30
0.0
 42
0.5573082794064961
  0
VERTEX
  5
3DA
  8
PREDEFINITO
 10
120.8388381046456
 20
2070.957585609868
 30
0.0
 42
0.0801078027253036
  0
VERTEX
  5
3DB
  8
PREDEFINITO
 10
126.6261341561971
 20
2084.238388802822
 30
0.0
 42
0.0633792912447667
  0
VERTEX
  5
3DC
  8
PREDEFINITO
 10
126.7905353044491
 20
2085.512660364033
 30
0.0
  0
SEQEND
  5
3DD
  8
PREDEFINITO
  0
LINE
  5
3DE
  8
PREDEFINITO
 10
126.7905353191327
 20
2085.512660364033
 30
0.0
 11
126.7905353191327
 21
3049.166232787978
 31
0.0
  0
POLYLINE
  5
3DF
  8
PREDEFINITO
 66
     1
 10
0.0
 20
0.0
 30
0.0
  0
VERTEX
  5
3E0
  8
PREDEFINITO
 10
2590.519642713772
 20
109.7844729185115
 30
0.0
 42
0.0653254854061784
  0
VERTEX
  5
3E1
  8
PREDEFINITO
 10
2591.831501655895
 20
109.9487360629876
 30
0.0
 42
0.0801074850162966
  0
VERTEX
  5
3E2
  8
PREDEFINITO
 10
2605.112304848808
 20
115.7360321145127
 30
0.0
 42
0.5573082794066271
  0
VERTEX
  5
3E3
  8
PREDEFINITO
 10
2605.112304848855
 20
120.8388381045704
 30
0.0
 42
0.0801078027253029
  0
VERTEX
  5
3E4
  8
PREDEFINITO
 10
2591.831501655902
 20
126.6261341561217
 30
0.0
 42
0.0633792912448172
  0
VERTEX
  5
3E5
  8
PREDEFINITO
 10
2590.557230094691
 20
126.7905353043741
 30
0.0
  0
SEQEND
  5
3E6
  8
PREDEFINITO
  0
ARC
  5
3E7
  8
PREDEFINITO
 10
230.4538410424842
 20
3010.712019138073
 30
0.0000000000000804
 40
128.0539039598354
 50
169.4554544707488
 51
173.4948230736517
  0
ARC
  5
3E8
  8
PREDEFINITO
 10
230.4534936183776
 20
3010.712094103453
 30
-0.0000000000003232
 40
125.3535488299812
 50
169.4562278319132
 51
173.4857904912616
  0
ENDSEC
  0
EOF
