  0
SECTION
  2
HEADER
  9
$ACADVER
  1
AC1009
  9
$DWGCODEPAGE
  3
mac-roman
  9
$INSBASE
 10
0.0
 20
0.0
 30
0.0
  9
$EXTMIN
 10
-4147.644628935114
 20
88.07701022204913
 30
0.0
  9
$EXTMAX
 10
-622.783812849081
 20
4390.581499773847
 30
0.0
  9
$LIMMIN
 10
0.0
 20
0.0
  9
$LIMMAX
 10
12.0
 20
9.0
  9
$ORTHOMODE
 70
     0
  9
$REGENMODE
 70
     1
  9
$FILLMODE
 70
     1
  9
$QTEXTMODE
 70
     0
  9
$MIRRTEXT
 70
     1
  9
$DRAGMODE
 70
     2
  9
$LTSCALE
 40
1.0
  9
$OSMODE
 70
    37
  9
$ATTMODE
 70
     1
  9
$TEXTSIZE
 40
0.2
  9
$TRACEWID
 40
0.05
  9
$TEXTSTYLE
  7
STANDARD
  9
$CLAYER
  8
PREDEFINITO
  9
$CELTYPE
  6
BYLAYER
  9
$CECOLOR
 62
   256
  9
$DIMSCALE
 40
1.0
  9
$DIMASZ
 40
0.18
  9
$DIMEXO
 40
0.0625
  9
$DIMDLI
 40
0.38
  9
$DIMRND
 40
0.0
  9
$DIMDLE
 40
0.0
  9
$DIMEXE
 40
0.18
  9
$DIMTP
 40
0.0
  9
$DIMTM
 40
0.0
  9
$DIMTXT
 40
0.18
  9
$DIMCEN
 40
0.09
  9
$DIMTSZ
 40
0.0
  9
$DIMTOL
 70
     0
  9
$DIMLIM
 70
     0
  9
$DIMTIH
 70
     1
  9
$DIMTOH
 70
     1
  9
$DIMSE1
 70
     0
  9
$DIMSE2
 70
     0
  9
$DIMTAD
 70
     0
  9
$DIMZIN
 70
     0
  9
$DIMBLK
  1

  9
$DIMASO
 70
     1
  9
$DIMSHO
 70
     1
  9
$DIMPOST
  1

  9
$DIMAPOST
  1

  9
$DIMALT
 70
     0
  9
$DIMALTD
 70
     2
  9
$DIMALTF
 40
25.4
  9
$DIMLFAC
 40
1.0
  9
$DIMTOFL
 70
     0
  9
$DIMTVP
 40
0.0
  9
$DIMTIX
 70
     0
  9
$DIMSOXD
 70
     0
  9
$DIMSAH
 70
     0
  9
$DIMBLK1
  1

  9
$DIMBLK2
  1

  9
$DIMSTYLE
  2
STANDARD
  9
$DIMCLRD
 70
     0
  9
$DIMCLRE
 70
     0
  9
$DIMCLRT
 70
     0
  9
$DIMTFAC
 40
1.0
  9
$DIMGAP
 40
0.09
  9
$LUNITS
 70
     2
  9
$LUPREC
 70
     3
  9
$SKETCHINC
 40
0.1
  9
$FILLETRAD
 40
0.5
  9
$AUNITS
 70
     0
  9
$AUPREC
 70
     0
  9
$MENU
  1
.
  9
$ELEVATION
 40
0.0
  9
$PELEVATION
 40
0.0
  9
$THICKNESS
 40
0.0
  9
$LIMCHECK
 70
     0
  9
$CHAMFERA
 40
0.0
  9
$CHAMFERB
 40
0.0
  9
$SKPOLY
 70
     0
  9
$TDCREATE
 40
2458968.779305544
  9
$TDUPDATE
 40
2458968.779317118
  9
$TDINDWG
 40
0.0000000116
  9
$TDUSRTIMER
 40
0.0000000116
  9
$USRTIMER
 70
     1
  9
$ANGBASE
 50
0.0
  9
$ANGDIR
 70
     0
  9
$PDMODE
 70
     0
  9
$PDSIZE
 40
0.0
  9
$PLINEWID
 40
0.0
  9
$COORDS
 70
     1
  9
$SPLFRAME
 70
     0
  9
$SPLINETYPE
 70
     6
  9
$SPLINESEGS
 70
     8
  9
$ATTDIA
 70
     0
  9
$ATTREQ
 70
     1
  9
$HANDLING
 70
     1
  9
$HANDSEED
  5
661
  9
$SURFTAB1
 70
     6
  9
$SURFTAB2
 70
     6
  9
$SURFTYPE
 70
     6
  9
$SURFU
 70
     6
  9
$SURFV
 70
     6
  9
$UCSNAME
  2

  9
$UCSORG
 10
0.0
 20
0.0
 30
0.0
  9
$UCSXDIR
 10
1.0
 20
0.0
 30
0.0
  9
$UCSYDIR
 10
0.0
 20
1.0
 30
0.0
  9
$PUCSNAME
  2

  9
$PUCSORG
 10
0.0
 20
0.0
 30
0.0
  9
$PUCSXDIR
 10
1.0
 20
0.0
 30
0.0
  9
$PUCSYDIR
 10
0.0
 20
1.0
 30
0.0
  9
$USERI1
 70
     0
  9
$USERI2
 70
     0
  9
$USERI3
 70
     0
  9
$USERI4
 70
     0
  9
$USERI5
 70
     0
  9
$USERR1
 40
0.0
  9
$USERR2
 40
0.0
  9
$USERR3
 40
0.0
  9
$USERR4
 40
0.0
  9
$USERR5
 40
0.0
  9
$WORLDVIEW
 70
     1
  9
$SHADEDGE
 70
     3
  9
$SHADEDIF
 70
    70
  9
$TILEMODE
 70
     1
  9
$MAXACTVP
 70
    64
  9
$PLIMCHECK
 70
     0
  9
$PEXTMIN
 10
1.000000000000000E+20
 20
1.000000000000000E+20
 30
1.000000000000000E+20
  9
$PEXTMAX
 10
-1.000000000000000E+20
 20
-1.000000000000000E+20
 30
-1.000000000000000E+20
  9
$PLIMMIN
 10
0.0
 20
0.0
  9
$PLIMMAX
 10
12.0
 20
9.0
  9
$UNITMODE
 70
     0
  9
$VISRETAIN
 70
     1
  9
$PLINEGEN
 70
     0
  9
$PSLTSCALE
 70
     1
  0
ENDSEC
  0
SECTION
  2
TABLES
  0
TABLE
  2
VPORT
 70
     1
  0
VPORT
  2
*ACTIVE
 70
     0
 10
0.0
 20
0.0
 11
1.0
 21
1.0
 12
-2385.214220892098
 22
2239.329254997948
 13
0.0
 23
0.0
 14
0.5
 24
0.5
 15
0.5
 25
0.5
 16
0.0
 26
0.0
 36
1.0
 17
0.0
 27
0.0
 37
0.0
 40
4388.554579342835
 41
0.8192579054004022
 42
50.0
 43
0.0
 44
0.0
 50
0.0
 51
0.0
 71
     0
 72
   100
 73
     1
 74
     3
 75
     0
 76
     0
 77
     0
 78
     0
  0
ENDTAB
  0
TABLE
  2
LTYPE
 70
     1
  0
LTYPE
  2
CONTINUOUS
 70
     0
  3
Solid line
 72
    65
 73
     0
 40
0.0
  0
ENDTAB
  0
TABLE
  2
LAYER
 70
     3
  0
LAYER
  2
0
 70
     0
 62
     7
  6
CONTINUOUS
  0
LAYER
  2
PREDEFINITO
 70
     0
 62
   178
  6
CONTINUOUS
  0
LAYER
  2
CREA2D$VISIBILI$LINEE
 70
     0
 62
   178
  6
CONTINUOUS
  0
ENDTAB
  0
TABLE
  2
STYLE
 70
     1
  0
STYLE
  2
STANDARD
 70
     0
 40
0.0
 41
1.0
 50
0.0
 71
     0
 42
0.2
  3
txt
  4

  0
ENDTAB
  0
TABLE
  2
VIEW
 70
     0
  0
ENDTAB
  0
TABLE
  2
UCS
 70
     0
  0
ENDTAB
  0
TABLE
  2
APPID
 70
     1
  0
APPID
  2
ACAD
 70
     0
  0
ENDTAB
  0
TABLE
  2
DIMSTYLE
 70
     1
  0
DIMSTYLE
  2
STANDARD
 70
     0
  3

  4

  5

  6

  7

 40
1.0
 41
0.18
 42
0.0625
 43
0.38
 44
0.18
 45
0.0
 46
0.0
 47
0.0
 48
0.0
140
0.18
141
0.09
142
0.0
143
25.4
144
1.0
145
0.0
146
1.0
147
0.09
 71
     0
 72
     0
 73
     1
 74
     1
 75
     0
 76
     0
 77
     0
 78
     0
170
     0
171
     2
172
     0
173
     0
174
     0
175
     0
176
     0
177
     0
178
     0
  0
ENDTAB
  0
ENDSEC
  0
SECTION
  2
BLOCKS
  0
BLOCK
  8
0
  2
$MODEL_SPACE
 70
     0
 10
0.0
 20
0.0
 30
0.0
  3
$MODEL_SPACE
  1

  0
ENDBLK
  5
21
  8
0
  0
BLOCK
 67
     1
  8
0
  2
$PAPER_SPACE
 70
     0
 10
0.0
 20
0.0
 30
0.0
  3
$PAPER_SPACE
  1

  0
ENDBLK
  5
1D
 67
     1
  8
0
  0
ENDSEC
  0
SECTION
  2
ENTITIES
  0
LINE
  5
6B
  8
PREDEFINITO
 10
-1405.826721246669
 20
126.6276073165584
 30
0.0
 11
-1988.206857907977
 21
126.6276073165584
 31
0.0
  0
LINE
  5
6C
  8
PREDEFINITO
 10
-919.1106163313939
 20
126.6276073165583
 30
0.0
 11
-1005.826721246669
 21
126.6276073165583
 31
0.0
  0
LINE
  5
6D
  8
PREDEFINITO
 10
-1005.826721246669
 20
109.8463524714672
 30
0.0
 11
-918.8046488266677
 21
109.7858080604919
 31
0.0
  0
LINE
  5
6E
  8
PREDEFINITO
 10
-1988.206857907969
 20
109.9502092234258
 30
0.0
 11
-1405.826721246669
 21
109.9502092234258
 31
0.0
  0
POLYLINE
  5
70
  8
CREA2D$VISIBILI$LINEE
 66
     1
 10
0.0
 20
0.0
 30
0.0
  0
VERTEX
  5
71
  8
CREA2D$VISIBILI$LINEE
 10
-1403.826721246669
 20
88.07701022204927
 30
0.0
  0
VERTEX
  5
72
  8
CREA2D$VISIBILI$LINEE
 10
-1007.826721246669
 20
88.07701022204913
 30
0.0
 42
0.4142135623729587
  0
VERTEX
  5
73
  8
CREA2D$VISIBILI$LINEE
 10
-1005.826721246669
 20
90.07701022204776
 30
0.0
  0
VERTEX
  5
74
  8
CREA2D$VISIBILI$LINEE
 10
-1005.82672124667
 20
146.0770102220493
 30
0.0
 42
0.414213562373044
  0
VERTEX
  5
75
  8
CREA2D$VISIBILI$LINEE
 10
-1007.826721246672
 20
148.0770102220493
 30
0.0
  0
VERTEX
  5
76
  8
CREA2D$VISIBILI$LINEE
 10
-1403.826721246669
 20
148.0770102220493
 30
0.0
 42
0.4142134636169544
  0
VERTEX
  5
77
  8
CREA2D$VISIBILI$LINEE
 10
-1405.826721246669
 20
146.0770102220493
 30
0.0
  0
VERTEX
  5
78
  8
CREA2D$VISIBILI$LINEE
 10
-1405.826721246669
 20
90.07701022204927
 30
0.0
 42
0.41421356237306
  0
VERTEX
  5
79
  8
CREA2D$VISIBILI$LINEE
 10
-1403.826721246671
 20
88.07701022204935
 30
0.0
  0
SEQEND
  5
7A
  8
CREA2D$VISIBILI$LINEE
  0
POLYLINE
  5
7B
  8
CREA2D$VISIBILI$LINEE
 66
     1
 10
0.0
 20
0.0
 30
0.0
  0
VERTEX
  5
7C
  8
CREA2D$VISIBILI$LINEE
 10
-4147.644628935113
 20
4384.49915993274
 30
0.0
  0
VERTEX
  5
7D
  8
CREA2D$VISIBILI$LINEE
 10
-4147.644628935113
 20
4348.49915993274
 30
0.0
 42
0.4142135623729456
  0
VERTEX
  5
7E
  8
CREA2D$VISIBILI$LINEE
 10
-4145.644628935115
 20
4346.49915993274
 30
0.0
  0
VERTEX
  5
7F
  8
CREA2D$VISIBILI$LINEE
 10
-4089.644628935113
 20
4346.49915993274
 30
0.0
 42
0.4142135623731502
  0
VERTEX
  5
80
  8
CREA2D$VISIBILI$LINEE
 10
-4087.644628935113
 20
4348.49915993274
 30
0.0
  0
VERTEX
  5
81
  8
CREA2D$VISIBILI$LINEE
 10
-4087.644628935113
 20
4384.49915993274
 30
0.0
 42
0.414213562373009
  0
VERTEX
  5
82
  8
CREA2D$VISIBILI$LINEE
 10
-4089.644628935113
 20
4386.499159932739
 30
0.0
  0
VERTEX
  5
83
  8
CREA2D$VISIBILI$LINEE
 10
-4145.644628935113
 20
4386.49915993274
 30
0.0
 42
0.4142135623731892
  0
VERTEX
  5
84
  8
CREA2D$VISIBILI$LINEE
 10
-4147.644628935114
 20
4384.499159932739
 30
0.0
  0
SEQEND
  5
85
  8
CREA2D$VISIBILI$LINEE
  0
POLYLINE
  5
86
  8
CREA2D$VISIBILI$LINEE
 66
     1
 10
0.0
 20
0.0
 30
0.0
  0
VERTEX
  5
87
  8
CREA2D$VISIBILI$LINEE
 10
-1005.826721246669
 20
4384.49915993274
 30
0.0
  0
VERTEX
  5
88
  8
CREA2D$VISIBILI$LINEE
 10
-1005.826721246668
 20
4348.49915993274
 30
0.0
 42
-0.4142135623728889
  0
VERTEX
  5
89
  8
CREA2D$VISIBILI$LINEE
 10
-1007.826721246674
 20
4346.49915993274
 30
0.0
  0
VERTEX
  5
8A
  8
CREA2D$VISIBILI$LINEE
 10
-1403.826721246669
 20
4346.49915993274
 30
0.0
 42
-0.4142135623732817
  0
VERTEX
  5
8B
  8
CREA2D$VISIBILI$LINEE
 10
-1405.82672124667
 20
4348.499159932742
 30
0.0
  0
VERTEX
  5
8C
  8
CREA2D$VISIBILI$LINEE
 10
-1405.826721246669
 20
4384.49915993274
 30
0.0
 42
-0.4142135623730714
  0
VERTEX
  5
8D
  8
CREA2D$VISIBILI$LINEE
 10
-1403.826721246671
 20
4386.499159932738
 30
0.0
  0
VERTEX
  5
8E
  8
CREA2D$VISIBILI$LINEE
 10
-1007.826721246669
 20
4386.49915993274
 30
0.0
 42
-0.414213562373148
  0
VERTEX
  5
8F
  8
CREA2D$VISIBILI$LINEE
 10
-1005.82672124667
 20
4384.499159932744
 30
0.0
  0
SEQEND
  5
90
  8
CREA2D$VISIBILI$LINEE
  0
LINE
  5
91
  8
PREDEFINITO
 10
-4114.737918212233
 20
3942.853557671265
 30
0.0
 11
-4114.686928794234
 21
3940.088140748525
 31
0.0
  0
POLYLINE
  5
92
  8
PREDEFINITO
 66
     1
 10
0.0
 20
0.0
 30
0.0
  0
VERTEX
  5
93
  8
PREDEFINITO
 10
-4117.296579378955
 20
3947.129787830166
 30
0.0
  0
VERTEX
  5
94
  8
PREDEFINITO
 10
-4117.177345808877
 20
3947.119346811129
 30
0.0
  0
VERTEX
  5
95
  8
PREDEFINITO
 10
-4117.059135101863
 20
3947.106502463401
 30
0.0
  0
VERTEX
  5
96
  8
PREDEFINITO
 10
-4116.942188746866
 20
3947.09128204275
 30
0.0
  0
VERTEX
  5
97
  8
PREDEFINITO
 10
-4116.826748232847
 20
3947.073712804944
 30
0.0
  0
VERTEX
  5
98
  8
PREDEFINITO
 10
-4116.710415468454
 20
3947.053323513783
 30
0.0
  0
VERTEX
  5
99
  8
PREDEFINITO
 10
-4116.596006209531
 20
3947.030471691543
 30
0.0
  0
VERTEX
  5
9A
  8
PREDEFINITO
 10
-4116.483614704905
 20
3947.00512521911
 30
0.0
  0
VERTEX
  5
9B
  8
PREDEFINITO
 10
-4116.373335203402
 20
3946.977251977371
 30
0.0
  0
VERTEX
  5
9C
  8
PREDEFINITO
 10
-4116.265261953852
 20
3946.946819847213
 30
0.0
  0
VERTEX
  5
9D
  8
PREDEFINITO
 10
-4116.159489205083
 20
3946.913796709523
 30
0.0
  0
VERTEX
  5
9E
  8
PREDEFINITO
 10
-4116.056111205923
 20
3946.878150445188
 30
0.0
  0
VERTEX
  5
9F
  8
PREDEFINITO
 10
-4115.955222205199
 20
3946.839848935095
 30
0.0
  0
VERTEX
  5
A0
  8
PREDEFINITO
 10
-4115.859992297972
 20
3946.800173831266
 30
0.0
  0
VERTEX
  5
A1
  8
PREDEFINITO
 10
-4115.813311093196
 20
3946.77933074012
 30
0.0
  0
VERTEX
  5
A2
  8
PREDEFINITO
 10
-4115.767265982377
 20
3946.757784930442
 30
0.0
  0
VERTEX
  5
A3
  8
PREDEFINITO
 10
-4115.721867161563
 20
3946.735512132947
 30
0.0
  0
VERTEX
  5
A4
  8
PREDEFINITO
 10
-4115.677124826803
 20
3946.712488078352
 30
0.0
  0
VERTEX
  5
A5
  8
PREDEFINITO
 10
-4115.633049174146
 20
3946.688688497373
 30
0.0
  0
VERTEX
  5
A6
  8
PREDEFINITO
 10
-4115.589650399641
 20
3946.664089120726
 30
0.0
  0
VERTEX
  5
A7
  8
PREDEFINITO
 10
-4115.546938699337
 20
3946.638665679126
 30
0.0
  0
VERTEX
  5
A8
  8
PREDEFINITO
 10
-4115.504924269283
 20
3946.61239390329
 30
0.0
  0
VERTEX
  5
A9
  8
PREDEFINITO
 10
-4115.463617305528
 20
3946.585249523935
 30
0.0
  0
VERTEX
  5
AA
  8
PREDEFINITO
 10
-4115.423028004119
 20
3946.557208271774
 30
0.0
  0
VERTEX
  5
AB
  8
PREDEFINITO
 10
-4115.383166561107
 20
3946.528245877527
 30
0.0
  0
VERTEX
  5
AC
  8
PREDEFINITO
 10
-4115.344043172539
 20
3946.498338071908
 30
0.0
  0
VERTEX
  5
AD
  8
PREDEFINITO
 10
-4115.305668034465
 20
3946.467460585633
 30
0.0
  0
VERTEX
  5
AE
  8
PREDEFINITO
 10
-4115.268051342935
 20
3946.435589149418
 30
0.0
  0
VERTEX
  5
AF
  8
PREDEFINITO
 10
-4115.237116109367
 20
3946.408090006832
 30
0.0
  0
VERTEX
  5
B0
  8
PREDEFINITO
 10
-4115.206752980026
 20
3946.379860026436
 30
0.0
  0
VERTEX
  5
B1
  8
PREDEFINITO
 10
-4115.176993991872
 20
3946.350883796385
 30
0.0
  0
VERTEX
  5
B2
  8
PREDEFINITO
 10
-4115.147871181865
 20
3946.321145904842
 30
0.0
  0
VERTEX
  5
B3
  8
PREDEFINITO
 10
-4115.119416586964
 20
3946.290630939963
 30
0.0
  0
VERTEX
  5
B4
  8
PREDEFINITO
 10
-4115.091662244131
 20
3946.259323489908
 30
0.0
  0
VERTEX
  5
B5
  8
PREDEFINITO
 10
-4115.064640190323
 20
3946.227208142836
 30
0.0
  0
VERTEX
  5
B6
  8
PREDEFINITO
 10
-4115.038382462504
 20
3946.194269486908
 30
0.0
  0
VERTEX
  5
B7
  8
PREDEFINITO
 10
-4115.007170142686
 20
3946.152593557003
 30
0.0
  0
VERTEX
  5
B8
  8
PREDEFINITO
 10
-4114.977251337152
 20
3946.109690265089
 30
0.0
  0
VERTEX
  5
B9
  8
PREDEFINITO
 10
-4114.948713522287
 20
3946.065602435012
 30
0.0
  0
VERTEX
  5
BA
  8
PREDEFINITO
 10
-4114.934989822725
 20
3946.043127700615
 30
0.0
  0
VERTEX
  5
BB
  8
PREDEFINITO
 10
-4114.921644174472
 20
3946.02037289062
 30
0.0
  0
VERTEX
  5
BC
  8
PREDEFINITO
 10
-4114.908687512078
 20
3945.997343358008
 30
0.0
  0
VERTEX
  5
BD
  8
PREDEFINITO
 10
-4114.896130770088
 20
3945.974044455761
 30
0.0
  0
VERTEX
  5
BE
  8
PREDEFINITO
 10
-4114.883984883052
 20
3945.95048153686
 30
0.0
  0
VERTEX
  5
BF
  8
PREDEFINITO
 10
-4114.872260785517
 20
3945.926659954283
 30
0.0
  0
VERTEX
  5
C0
  8
PREDEFINITO
 10
-4114.86096941203
 20
3945.902585061015
 30
0.0
  0
VERTEX
  5
C1
  8
PREDEFINITO
 10
-4114.85012169714
 20
3945.878262210035
 30
0.0
  0
VERTEX
  5
C2
  8
PREDEFINITO
 10
-4114.839728575394
 20
3945.853696754324
 30
0.0
  0
VERTEX
  5
C3
  8
PREDEFINITO
 10
-4114.829800981339
 20
3945.828894046863
 30
0.0
  0
VERTEX
  5
C4
  8
PREDEFINITO
 10
-4114.816960021978
 20
3945.794195774894
 30
0.0
  0
VERTEX
  5
C5
  8
PREDEFINITO
 10
-4114.810508893705
 20
3945.775112933949
 30
0.0
  0
VERTEX
  5
C6
  8
PREDEFINITO
 10
-4114.803847260806
 20
3945.754034201325
 30
0.0
  0
VERTEX
  5
C7
  8
PREDEFINITO
 10
-4114.789322264436
 20
3945.703368795921
 30
0.0
  0
VERTEX
  5
C8
  8
PREDEFINITO
 10
-4114.772244599484
 20
3945.637159028445
 30
0.0
  0
VERTEX
  5
C9
  8
PREDEFINITO
 10
-4114.737961662251
 20
3945.36347441358
 30
0.0
  0
VERTEX
  5
CA
  8
PREDEFINITO
 10
-4114.738103204476
 20
3942.839277189112
 30
0.0
  0
VERTEX
  5
CB
  8
PREDEFINITO
 10
-4114.738661518338
 20
3942.824933701201
 30
0.0
  0
VERTEX
  5
CC
  8
PREDEFINITO
 10
-4114.739598105785
 20
3942.810529470097
 30
0.0
  0
VERTEX
  5
CD
  8
PREDEFINITO
 10
-4114.740917842961
 20
3942.796066825746
 30
0.0
  0
VERTEX
  5
CE
  8
PREDEFINITO
 10
-4114.742625524913
 20
3942.781548165284
 30
0.0
  0
VERTEX
  5
CF
  8
PREDEFINITO
 10
-4114.744725860279
 20
3942.766975952773
 30
0.0
  0
VERTEX
  5
D0
  8
PREDEFINITO
 10
-4114.747223465906
 20
3942.752352718848
 30
0.0
  0
VERTEX
  5
D1
  8
PREDEFINITO
 10
-4114.750122861459
 20
3942.73768106029
 30
0.0
  0
VERTEX
  5
D2
  8
PREDEFINITO
 10
-4114.753428463971
 20
3942.722963639502
 30
0.0
  0
VERTEX
  5
D3
  8
PREDEFINITO
 10
-4114.757144582382
 20
3942.70820318391
 30
0.0
  0
VERTEX
  5
D4
  8
PREDEFINITO
 10
-4114.76127541207
 20
3942.693402485275
 30
0.0
  0
VERTEX
  5
D5
  8
PREDEFINITO
 10
-4114.765825029354
 20
3942.678564398902
 30
0.0
  0
VERTEX
  5
D6
  8
PREDEFINITO
 10
-4114.770797386017
 20
3942.663691842776
 30
0.0
  0
VERTEX
  5
D7
  8
PREDEFINITO
 10
-4114.776196303822
 20
3942.64878779659
 30
0.0
  0
VERTEX
  5
D8
  8
PREDEFINITO
 10
-4114.782025469062
 20
3942.63385530069
 30
0.0
  0
VERTEX
  5
D9
  8
PREDEFINITO
 10
-4114.788288427128
 20
3942.618897454925
 30
0.0
  0
VERTEX
  5
DA
  8
PREDEFINITO
 10
-4114.794988577111
 20
3942.60391741739
 30
0.0
  0
VERTEX
  5
DB
  8
PREDEFINITO
 10
-4114.802129166465
 20
3942.588918403093
 30
0.0
  0
VERTEX
  5
DC
  8
PREDEFINITO
 10
-4114.809713285709
 20
3942.57390368251
 30
0.0
  0
VERTEX
  5
DD
  8
PREDEFINITO
 10
-4114.817743863212
 20
3942.558876580052
 30
0.0
  0
VERTEX
  5
DE
  8
PREDEFINITO
 10
-4114.826223660045
 20
3942.543840472435
 30
0.0
  0
VERTEX
  5
DF
  8
PREDEFINITO
 10
-4114.835155264919
 20
3942.528798786946
 30
0.0
  0
VERTEX
  5
E0
  8
PREDEFINITO
 10
-4114.844541089233
 20
3942.513754999638
 30
0.0
  0
VERTEX
  5
E1
  8
PREDEFINITO
 10
-4114.854383362217
 20
3942.498712633398
 30
0.0
  0
VERTEX
  5
E2
  8
PREDEFINITO
 10
-4114.864684126198
 20
3942.483675255946
 30
0.0
  0
VERTEX
  5
E3
  8
PREDEFINITO
 10
-4114.875445232003
 20
3942.468646477729
 30
0.0
  0
VERTEX
  5
E4
  8
PREDEFINITO
 10
-4114.88666833449
 20
3942.453629949738
 30
0.0
  0
VERTEX
  5
E5
  8
PREDEFINITO
 10
-4114.898354888237
 20
3942.438629361214
 30
0.0
  0
VERTEX
  5
E6
  8
PREDEFINITO
 10
-4114.910506143391
 20
3942.423648437292
 30
0.0
  0
VERTEX
  5
E7
  8
PREDEFINITO
 10
-4114.923123141692
 20
3942.40869093654
 30
0.0
  0
VERTEX
  5
E8
  8
PREDEFINITO
 10
-4114.936206712664
 20
3942.393760648427
 30
0.0
  0
VERTEX
  5
E9
  8
PREDEFINITO
 10
-4114.949757470017
 20
3942.378861390703
 30
0.0
  0
VERTEX
  5
EA
  8
PREDEFINITO
 10
-4114.963775808239
 20
3942.363997006712
 30
0.0
  0
VERTEX
  5
EB
  8
PREDEFINITO
 10
-4114.978261899401
 20
3942.349171362618
 30
0.0
  0
VERTEX
  5
EC
  8
PREDEFINITO
 10
-4115.00863689913
 20
3942.319651855809
 30
0.0
  0
VERTEX
  5
ED
  8
PREDEFINITO
 10
-4115.040879290223
 20
3942.290334146586
 30
0.0
  0
VERTEX
  5
EE
  8
PREDEFINITO
 10
-4115.074982169293
 20
3942.261249688178
 30
0.0
  0
VERTEX
  5
EF
  8
PREDEFINITO
 10
-4115.110934848647
 20
3942.232430011347
 30
0.0
  0
VERTEX
  5
F0
  8
PREDEFINITO
 10
-4115.148722813557
 20
3942.203906622063
 30
0.0
  0
VERTEX
  5
F1
  8
PREDEFINITO
 10
-4115.188327697494
 20
3942.175710896876
 30
0.0
  0
VERTEX
  5
F2
  8
PREDEFINITO
 10
-4115.229727275985
 20
3942.147873976632
 30
0.0
  0
VERTEX
  5
F3
  8
PREDEFINITO
 10
-4115.272895479561
 20
3942.120426659242
 30
0.0
  0
VERTEX
  5
F4
  8
PREDEFINITO
 10
-4115.317802426171
 20
3942.09339929225
 30
0.0
  0
VERTEX
  5
F5
  8
PREDEFINITO
 10
-4115.364414473179
 20
3942.066821665918
 30
0.0
  0
VERTEX
  5
F6
  8
PREDEFINITO
 10
-4115.412694288967
 20
3942.040722907618
 30
0.0
  0
VERTEX
  5
F7
  8
PREDEFINITO
 10
-4115.462600943892
 20
3942.01513137827
 30
0.0
  0
VERTEX
  5
F8
  8
PREDEFINITO
 10
-4115.514090020242
 20
3941.990074571589
 30
0.0
  0
VERTEX
  5
F9
  8
PREDEFINITO
 10
-4115.56711374061
 20
3941.96557901689
 30
0.0
  0
VERTEX
  5
FA
  8
PREDEFINITO
 10
-4115.621621113919
 20
3941.941670186144
 30
0.0
  0
VERTEX
  5
FB
  8
PREDEFINITO
 10
-4115.677558098188
 20
3941.918372405974
 30
0.0
  0
VERTEX
  5
FC
  8
PREDEFINITO
 10
-4115.734867778965
 20
3941.89570877524
 30
0.0
  0
VERTEX
  5
FD
  8
PREDEFINITO
 10
-4115.853364379894
 20
3941.852369767797
 30
0.0
  0
VERTEX
  5
FE
  8
PREDEFINITO
 10
-4115.976605793482
 20
3941.811810672299
 30
0.0
  0
VERTEX
  5
FF
  8
PREDEFINITO
 10
-4116.104054500432
 20
3941.774165205954
 30
0.0
  0
VERTEX
  5
100
  8
PREDEFINITO
 10
-4116.235148205482
 20
3941.739541923929
 30
0.0
  0
VERTEX
  5
101
  8
PREDEFINITO
 10
-4116.369307764402
 20
3941.708023374872
 30
0.0
  0
VERTEX
  5
102
  8
PREDEFINITO
 10
-4116.505945192082
 20
3941.679665788994
 30
0.0
  0
VERTEX
  5
103
  8
PREDEFINITO
 10
-4116.644471532288
 20
3941.654499285587
 30
0.0
  0
VERTEX
  5
104
  8
PREDEFINITO
 10
-4116.784304385747
 20
3941.632528569007
 30
0.0
  0
VERTEX
  5
105
  8
PREDEFINITO
 10
-4116.924874917474
 20
3941.613734066818
 30
0.0
  0
VERTEX
  5
106
  8
PREDEFINITO
 10
-4117.065634194796
 20
3941.598073451721
 30
0.0
  0
VERTEX
  5
107
  8
PREDEFINITO
 10
-4117.206058742074
 20
3941.585483480254
 30
0.0
  0
VERTEX
  5
108
  8
PREDEFINITO
 10
-4117.345655234349
 20
3941.575882076417
 30
0.0
  0
VERTEX
  5
109
  8
PREDEFINITO
 10
-4117.48396428815
 20
3941.56917058706
 30
0.0
  0
VERTEX
  5
10A
  8
PREDEFINITO
 10
-4117.62056334138
 20
3941.565236137748
 30
0.0
  0
VERTEX
  5
10B
  8
PREDEFINITO
 10
-4117.755068644274
 20
3941.563954022448
 30
0.0
  0
VERTEX
  5
10C
  8
PREDEFINITO
 10
-4117.889575380336
 20
3941.565155225745
 30
0.0
  0
VERTEX
  5
10D
  8
PREDEFINITO
 10
-4118.026184662716
 20
3941.568862143035
 30
0.0
  0
VERTEX
  5
10E
  8
PREDEFINITO
 10
-4118.16452205431
 20
3941.575224275222
 30
0.0
  0
VERTEX
  5
10F
  8
PREDEFINITO
 10
-4118.304174810366
 20
3941.58438188252
 30
0.0
  0
VERTEX
  5
110
  8
PREDEFINITO
 10
-4118.444693789975
 20
3941.596463472058
 30
0.0
  0
VERTEX
  5
111
  8
PREDEFINITO
 10
-4118.585596240659
 20
3941.611583260767
 30
0.0
  0
VERTEX
  5
112
  8
PREDEFINITO
 10
-4118.726369478883
 20
3941.629838678542
 30
0.0
  0
VERTEX
  5
113
  8
PREDEFINITO
 10
-4118.86647545982
 20
3941.651307983253
 30
0.0
  0
VERTEX
  5
114
  8
PREDEFINITO
 10
-4119.005356196657
 20
3941.676048063254
 30
0.0
  0
VERTEX
  5
115
  8
PREDEFINITO
 10
-4119.142439954437
 20
3941.704092504121
 30
0.0
  0
VERTEX
  5
116
  8
PREDEFINITO
 10
-4119.277148107712
 20
3941.735449993857
 30
0.0
  0
VERTEX
  5
117
  8
PREDEFINITO
 10
-4119.408902517237
 20
3941.770103134566
 30
0.0
  0
VERTEX
  5
118
  8
PREDEFINITO
 10
-4119.537133250779
 20
3941.808007718451
 30
0.0
  0
VERTEX
  5
119
  8
PREDEFINITO
 10
-4119.661286448986
 20
3941.849092512397
 30
0.0
  0
VERTEX
  5
11A
  8
PREDEFINITO
 10
-4119.721667209734
 20
3941.87079790578
 30
0.0
  0
VERTEX
  5
11B
  8
PREDEFINITO
 10
-4119.780832121201
 20
3941.893259578635
 30
0.0
  0
VERTEX
  5
11C
  8
PREDEFINITO
 10
-4119.838719895788
 20
3941.916461258165
 30
0.0
  0
VERTEX
  5
11D
  8
PREDEFINITO
 10
-4119.895271649438
 20
3941.940385140073
 30
0.0
  0
VERTEX
  5
11E
  8
PREDEFINITO
 10
-4119.95043110495
 20
3941.96501194437
 30
0.0
  0
VERTEX
  5
11F
  8
PREDEFINITO
 10
-4120.004144782638
 20
3941.990320978708
 30
0.0
  0
VERTEX
  5
120
  8
PREDEFINITO
 10
-4120.056362176921
 20
3942.016290208791
 30
0.0
  0
VERTEX
  5
121
  8
PREDEFINITO
 10
-4120.107035917664
 20
3942.04289633538
 30
0.0
  0
VERTEX
  5
122
  8
PREDEFINITO
 10
-4120.156121915182
 20
3942.070114877326
 30
0.0
  0
VERTEX
  5
123
  8
PREDEFINITO
 10
-4120.203579487971
 20
3942.097920259997
 30
0.0
  0
VERTEX
  5
124
  8
PREDEFINITO
 10
-4120.249371472439
 20
3942.126285908466
 30
0.0
  0
VERTEX
  5
125
  8
PREDEFINITO
 10
-4120.293464314044
 20
3942.155184344736
 30
0.0
  0
VERTEX
  5
126
  8
PREDEFINITO
 10
-4120.335828139452
 20
3942.184587288288
 30
0.0
  0
VERTEX
  5
127
  8
PREDEFINITO
 10
-4120.3764368095
 20
3942.214465759213
 30
0.0
  0
VERTEX
  5
128
  8
PREDEFINITO
 10
-4120.415267952916
 20
3942.244790183155
 30
0.0
  0
VERTEX
  5
129
  8
PREDEFINITO
 10
-4120.452302980968
 20
3942.275530497317
 30
0.0
  0
VERTEX
  5
12A
  8
PREDEFINITO
 10
-4120.487527083316
 20
3942.306656256786
 30
0.0
  0
VERTEX
  5
12B
  8
PREDEFINITO
 10
-4120.520929205587
 20
3942.338136740449
 30
0.0
  0
VERTEX
  5
12C
  8
PREDEFINITO
 10
-4120.552502009252
 20
3942.369941055755
 30
0.0
  0
VERTEX
  5
12D
  8
PREDEFINITO
 10
-4120.567601125672
 20
3942.385954974871
 30
0.0
  0
VERTEX
  5
12E
  8
PREDEFINITO
 10
-4120.582241814622
 20
3942.402038241718
 30
0.0
  0
VERTEX
  5
12F
  8
PREDEFINITO
 10
-4120.596424175849
 20
3942.418186991975
 30
0.0
  0
VERTEX
  5
130
  8
PREDEFINITO
 10
-4120.610148527824
 20
3942.434397369451
 30
0.0
  0
VERTEX
  5
131
  8
PREDEFINITO
 10
-4120.623415404649
 20
3942.450665529052
 30
0.0
  0
VERTEX
  5
132
  8
PREDEFINITO
 10
-4120.636225552766
 20
3942.466987639688
 30
0.0
  0
VERTEX
  5
133
  8
PREDEFINITO
 10
-4120.648579927462
 20
3942.483359887115
 30
0.0
  0
VERTEX
  5
134
  8
PREDEFINITO
 10
-4120.660479689192
 20
3942.499778476718
 30
0.0
  0
VERTEX
  5
135
  8
PREDEFINITO
 10
-4120.671926199705
 20
3942.516239636213
 30
0.0
  0
VERTEX
  5
136
  8
PREDEFINITO
 10
-4120.682921018019
 20
3942.532739618278
 30
0.0
  0
VERTEX
  5
137
  8
PREDEFINITO
 10
-4120.693465896231
 20
3942.549274703117
 30
0.0
  0
VERTEX
  5
138
  8
PREDEFINITO
 10
-4120.703562775167
 20
3942.565841200931
 30
0.0
  0
VERTEX
  5
139
  8
PREDEFINITO
 10
-4120.71321377991
 20
3942.582435454317
 30
0.0
  0
VERTEX
  5
13A
  8
PREDEFINITO
 10
-4120.722421215182
 20
3942.599053840582
 30
0.0
  0
VERTEX
  5
13B
  8
PREDEFINITO
 10
-4120.731187560626
 20
3942.615692773969
 30
0.0
  0
VERTEX
  5
13C
  8
PREDEFINITO
 10
-4120.73951546596
 20
3942.632348707802
 30
0.0
  0
VERTEX
  5
13D
  8
PREDEFINITO
 10
-4120.74740774605
 20
3942.649018136533
 30
0.0
  0
VERTEX
  5
13E
  8
PREDEFINITO
 10
-4120.75486737589
 20
3942.665697597712
 30
0.0
  0
VERTEX
  5
13F
  8
PREDEFINITO
 10
-4120.761897485495
 20
3942.682383673854
 30
0.0
  0
VERTEX
  5
140
  8
PREDEFINITO
 10
-4120.768501354746
 20
3942.699072994225
 30
0.0
  0
VERTEX
  5
141
  8
PREDEFINITO
 10
-4120.774682408159
 20
3942.715762236533
 30
0.0
  0
VERTEX
  5
142
  8
PREDEFINITO
 10
-4120.780444209617
 20
3942.732448128517
 30
0.0
  0
VERTEX
  5
143
  8
PREDEFINITO
 10
-4120.78579045706
 20
3942.749127449464
 30
0.0
  0
VERTEX
  5
144
  8
PREDEFINITO
 10
-4120.79072497715
 20
3942.765797031616
 30
0.0
  0
VERTEX
  5
145
  8
PREDEFINITO
 10
-4120.795251719909
 20
3942.782453761496
 30
0.0
  0
VERTEX
  5
146
  8
PREDEFINITO
 10
-4120.799374753355
 20
3942.799094581129
 30
0.0
  0
VERTEX
  5
147
  8
PREDEFINITO
 10
-4120.803098258125
 20
3942.815716489197
 30
0.0
  0
VERTEX
  5
148
  8
PREDEFINITO
 10
-4120.80642652212
 20
3942.832316542077
 30
0.0
  0
VERTEX
  5
149
  8
PREDEFINITO
 10
-4120.809363935141
 20
3942.848891854797
 30
0.0
  0
VERTEX
  5
14A
  8
PREDEFINITO
 10
-4120.811914983576
 20
3942.865439601928
 30
0.0
  0
VERTEX
  5
14B
  8
PREDEFINITO
 10
-4120.814084245088
 20
3942.881957018349
 30
0.0
  0
VERTEX
  5
14C
  8
PREDEFINITO
 10
-4120.815876383358
 20
3942.898441399959
 30
0.0
  0
VERTEX
  5
14D
  8
PREDEFINITO
 10
-4120.817296142868
 20
3942.914890104292
 30
0.0
  0
VERTEX
  5
14E
  8
PREDEFINITO
 10
-4120.818348343726
 20
3942.931300551047
 30
0.0
  0
SEQEND
  5
14F
  8
PREDEFINITO
  0
LINE
  5
150
  8
PREDEFINITO
 10
-4120.823210890539
 20
3942.679883802866
 30
0.0
 11
-4120.761258948987
 21
3945.470894745875
 31
0.0
  0
LINE
  5
151
  8
PREDEFINITO
 10
-4120.761258948987
 20
3945.470894745875
 30
0.0
 11
-4120.71882763859
 21
3945.715121398797
 31
0.0
  0
POLYLINE
  5
152
  8
PREDEFINITO
 66
     1
 10
0.0
 20
0.0
 30
0.0
  0
VERTEX
  5
153
  8
PREDEFINITO
 10
-4120.71882763859
 20
3945.715121398797
 30
0.0
  0
VERTEX
  5
154
  8
PREDEFINITO
 10
-4120.710220621283
 20
3945.74270671547
 30
0.0
  0
VERTEX
  5
155
  8
PREDEFINITO
 10
-4120.701227923097
 20
3945.769792260475
 30
0.0
  0
VERTEX
  5
156
  8
PREDEFINITO
 10
-4120.691852699551
 20
3945.796391846023
 30
0.0
  0
VERTEX
  5
157
  8
PREDEFINITO
 10
-4120.682098106165
 20
3945.822519284322
 30
0.0
  0
VERTEX
  5
158
  8
PREDEFINITO
 10
-4120.671967298456
 20
3945.848188387583
 30
0.0
  0
VERTEX
  5
159
  8
PREDEFINITO
 10
-4120.661463431948
 20
3945.873412968017
 30
0.0
  0
VERTEX
  5
15A
  8
PREDEFINITO
 10
-4120.650589662157
 20
3945.898206837832
 30
0.0
  0
VERTEX
  5
15B
  8
PREDEFINITO
 10
-4120.639349144605
 20
3945.922583809238
 30
0.0
  0
VERTEX
  5
15C
  8
PREDEFINITO
 10
-4120.627745034811
 20
3945.946557694446
 30
0.0
  0
VERTEX
  5
15D
  8
PREDEFINITO
 10
-4120.615780488293
 20
3945.970142305665
 30
0.0
  0
VERTEX
  5
15E
  8
PREDEFINITO
 10
-4120.603458660571
 20
3945.993351455106
 30
0.0
  0
VERTEX
  5
15F
  8
PREDEFINITO
 10
-4120.590782707166
 20
3946.016198954977
 30
0.0
  0
VERTEX
  5
160
  8
PREDEFINITO
 10
-4120.577755783597
 20
3946.038698617489
 30
0.0
  0
VERTEX
  5
161
  8
PREDEFINITO
 10
-4120.564381045384
 20
3946.060864254852
 30
0.0
  0
VERTEX
  5
162
  8
PREDEFINITO
 10
-4120.550661648046
 20
3946.082709679275
 30
0.0
  0
VERTEX
  5
163
  8
PREDEFINITO
 10
-4120.536600747102
 20
3946.104248702969
 30
0.0
  0
VERTEX
  5
164
  8
PREDEFINITO
 10
-4120.50697902823
 20
3946.147136997077
 30
0.0
  0
VERTEX
  5
165
  8
PREDEFINITO
 10
-4120.476026636105
 20
3946.188827593282
 30
0.0
  0
VERTEX
  5
166
  8
PREDEFINITO
 10
-4120.443811600026
 20
3946.229332330037
 30
0.0
  0
VERTEX
  5
167
  8
PREDEFINITO
 10
-4120.410401949297
 20
3946.268663045796
 30
0.0
  0
VERTEX
  5
168
  8
PREDEFINITO
 10
-4120.375865713218
 20
3946.306831579009
 30
0.0
  0
VERTEX
  5
169
  8
PREDEFINITO
 10
-4120.34027092109
 20
3946.34384976813
 30
0.0
  0
VERTEX
  5
16A
  8
PREDEFINITO
 10
-4120.303685602215
 20
3946.37972945161
 30
0.0
  0
VERTEX
  5
16B
  8
PREDEFINITO
 10
-4120.266177785894
 20
3946.414482467902
 30
0.0
  0
VERTEX
  5
16C
  8
PREDEFINITO
 10
-4120.229040150147
 20
3946.447070082857
 30
0.0
  0
VERTEX
  5
16D
  8
PREDEFINITO
 10
-4120.191114505995
 20
3946.478637891391
 30
0.0
  0
VERTEX
  5
16E
  8
PREDEFINITO
 10
-4120.152413816379
 20
3946.509211118288
 30
0.0
  0
VERTEX
  5
16F
  8
PREDEFINITO
 10
-4120.112951044241
 20
3946.538814988332
 30
0.0
  0
VERTEX
  5
170
  8
PREDEFINITO
 10
-4120.072739152522
 20
3946.567474726305
 30
0.0
  0
VERTEX
  5
171
  8
PREDEFINITO
 10
-4120.031791104164
 20
3946.595215556992
 30
0.0
  0
VERTEX
  5
172
  8
PREDEFINITO
 10
-4119.990119862108
 20
3946.622062705177
 30
0.0
  0
VERTEX
  5
173
  8
PREDEFINITO
 10
-4119.947738389299
 20
3946.648041395643
 30
0.0
  0
VERTEX
  5
174
  8
PREDEFINITO
 10
-4119.904659648675
 20
3946.673176853174
 30
0.0
  0
VERTEX
  5
175
  8
PREDEFINITO
 10
-4119.860896603181
 20
3946.697494302556
 30
0.0
  0
VERTEX
  5
176
  8
PREDEFINITO
 10
-4119.816462215756
 20
3946.72101896857
 30
0.0
  0
VERTEX
  5
177
  8
PREDEFINITO
 10
-4119.771369449345
 20
3946.743776076
 30
0.0
  0
VERTEX
  5
178
  8
PREDEFINITO
 10
-4119.725631266887
 20
3946.765790849632
 30
0.0
  0
VERTEX
  5
179
  8
PREDEFINITO
 10
-4119.679260631326
 20
3946.787088514247
 30
0.0
  0
VERTEX
  5
17A
  8
PREDEFINITO
 10
-4119.584673852658
 20
3946.827633415567
 30
0.0
  0
VERTEX
  5
17B
  8
PREDEFINITO
 10
-4119.519267936944
 20
3946.853610323326
 30
0.0
  0
VERTEX
  5
17C
  8
PREDEFINITO
 10
-4119.45278176616
 20
3946.878425333195
 30
0.0
  0
VERTEX
  5
17D
  8
PREDEFINITO
 10
-4119.38522369124
 20
3946.902092948309
 30
0.0
  0
VERTEX
  5
17E
  8
PREDEFINITO
 10
-4119.316602063119
 20
3946.924627671803
 30
0.0
  0
VERTEX
  5
17F
  8
PREDEFINITO
 10
-4119.246925232729
 20
3946.946044006811
 30
0.0
  0
VERTEX
  5
180
  8
PREDEFINITO
 10
-4119.176201551003
 20
3946.966356456466
 30
0.0
  0
VERTEX
  5
181
  8
PREDEFINITO
 10
-4119.031647037276
 20
3947.003727712263
 30
0.0
  0
VERTEX
  5
182
  8
PREDEFINITO
 10
-4118.925927255043
 20
3947.02780603548
 30
0.0
  0
VERTEX
  5
183
  8
PREDEFINITO
 10
-4118.818304951272
 20
3947.049709484039
 30
0.0
  0
VERTEX
  5
184
  8
PREDEFINITO
 10
-4118.708962385032
 20
3947.06942667357
 30
0.0
  0
VERTEX
  5
185
  8
PREDEFINITO
 10
-4118.598081815395
 20
3947.086946219705
 30
0.0
  0
VERTEX
  5
186
  8
PREDEFINITO
 10
-4118.485845501427
 20
3947.102256738076
 30
0.0
  0
VERTEX
  5
187
  8
PREDEFINITO
 10
-4118.372435702198
 20
3947.115346844314
 30
0.0
  0
VERTEX
  5
188
  8
PREDEFINITO
 10
-4118.25803467678
 20
3947.12620515405
 30
0.0
  0
VERTEX
  5
189
  8
PREDEFINITO
 10
-4118.096579372267
 20
3947.137634534323
 30
0.0
  0
SEQEND
  5
18A
  8
PREDEFINITO
  0
ARC
  5
18B
  8
PREDEFINITO
 10
-4519.18625175099
 20
4052.313723149806
 30
0.0
 40
405.0270073034159
 50
352.8459073449081
 51
353.1702403779723
  0
ARC
  5
18C
  8
PREDEFINITO
 10
-4354.31381977913
 20
4033.557856775787
 30
0.0
 40
239.077809795055
 50
355.0842178797909
 51
357.3548013619211
  0
ARC
  5
18D
  8
PREDEFINITO
 10
-4383.628865141873
 20
4036.083297484675
 30
0.0
 40
268.5014350031679
 50
353.1885634834577
 51
355.0833418547401
  0
LINE
  5
18E
  8
PREDEFINITO
 10
-4115.271277694753
 20
4093.583759202686
 30
0.0
 11
-4115.271277694756
 21
4082.033759202684
 31
0.0
  0
LINE
  5
18F
  8
PREDEFINITO
 10
-4115.271277694756
 20
4082.033759202684
 30
0.0
 11
-4115.271277694756
 21
4032.033759202708
 31
0.0
  0
ARC
  5
190
  8
PREDEFINITO
 10
-4321.319043985106
 20
4032.031897480185
 30
0.0
 40
206.0477662987611
 50
357.3571592817924
 51
0.0005176898790213
  0
LINE
  5
191
  8
PREDEFINITO
 10
-4118.096579379671
 20
3995.976655146111
 30
0.0
 11
-4118.188962751168
 21
3995.322885094784
 31
0.0
  0
LINE
  5
192
  8
PREDEFINITO
 10
-4118.188962751168
 20
3995.322885094784
 30
0.0
 11
-4119.356754167744
 21
3987.484392648887
 31
0.0
  0
LINE
  5
193
  8
PREDEFINITO
 10
-4119.356754167744
 20
3987.484392648887
 30
0.0
 11
-4120.561396973731
 21
3979.700498650917
 31
0.0
  0
LINE
  5
194
  8
PREDEFINITO
 10
-4120.561396973731
 20
3979.700498650917
 30
0.0
 11
-4121.637400847332
 21
3972.416477886935
 31
0.0
  0
ARC
  5
195
  8
PREDEFINITO
 10
-3898.0578997235
 20
3940.756376630474
 30
0.0
 40
225.8099983046609
 50
171.9401859339661
 51
173.7110557918567
  0
ARC
  5
196
  8
PREDEFINITO
 10
-3980.110078754594
 20
3949.83978217252
 30
0.0
 40
143.2565868104125
 50
173.7272700990457
 51
176.355719044573
  0
ARC
  5
197
  8
PREDEFINITO
 10
-4027.25053595025
 20
3952.890722906302
 30
0.0
 40
96.01754105981314
 50
176.3846230575807
 51
179.8862398807114
  0
LINE
  5
198
  8
PREDEFINITO
 10
-4123.267887751624
 20
3953.081364517969
 30
0.0
 11
-4123.267887751623
 21
3951.340981350584
 31
0.0
  0
LINE
  5
199
  8
PREDEFINITO
 10
-4123.267887751623
 20
3951.340981350584
 30
0.0
 11
-4123.241382444623
 21
3950.575578955051
 31
0.0
  0
LINE
  5
19A
  8
PREDEFINITO
 10
-4123.241382444623
 20
3950.575578955051
 30
0.0
 11
-4123.203045575665
 21
3950.200922696593
 31
0.0
  0
LINE
  5
19B
  8
PREDEFINITO
 10
-4123.203045575665
 20
3950.200922696593
 30
0.0
 11
-4123.120933518372
 21
3949.969857618105
 31
0.0
  0
LINE
  5
19C
  8
PREDEFINITO
 10
-4123.120933518372
 20
3949.969857618105
 30
0.0
 11
-4122.985617838191
 21
3949.872169144757
 31
0.0
  0
POLYLINE
  5
19D
  8
PREDEFINITO
 66
     1
 10
0.0
 20
0.0
 30
0.0
  0
VERTEX
  5
19E
  8
PREDEFINITO
 10
-4122.985617838192
 20
3949.872169144757
 30
0.0
 42
-0.2978939900663817
  0
VERTEX
  5
19F
  8
PREDEFINITO
 10
-4122.663825294864
 20
3948.554763295861
 30
0.0
 42
-0.1245123743249409
  0
VERTEX
  5
1A0
  8
PREDEFINITO
 10
-4123.723075259845
 20
3946.426143973774
 30
0.0
  0
SEQEND
  5
1A1
  8
PREDEFINITO
  0
POLYLINE
  5
1A2
  8
PREDEFINITO
 66
     1
 10
0.0
 20
0.0
 30
0.0
  0
VERTEX
  5
1A3
  8
PREDEFINITO
 10
-4123.723075259845
 20
3946.426143973774
 30
0.0
  0
VERTEX
  5
1A4
  8
PREDEFINITO
 10
-4123.777568406797
 20
3946.362736485262
 30
0.0
  0
VERTEX
  5
1A5
  8
PREDEFINITO
 10
-4123.833221170678
 20
3946.300227142165
 30
0.0
  0
VERTEX
  5
1A6
  8
PREDEFINITO
 10
-4123.889962816755
 20
3946.238753508831
 30
0.0
  0
VERTEX
  5
1A7
  8
PREDEFINITO
 10
-4123.947716190535
 20
3946.178454060688
 30
0.0
  0
VERTEX
  5
1A8
  8
PREDEFINITO
 10
-4124.006397926129
 20
3946.119467369023
 30
0.0
  0
VERTEX
  5
1A9
  8
PREDEFINITO
 10
-4124.065918722465
 20
3946.061931245468
 30
0.0
  0
VERTEX
  5
1AA
  8
PREDEFINITO
 10
-4124.126183687425
 20
3946.005981855142
 30
0.0
  0
VERTEX
  5
1AB
  8
PREDEFINITO
 10
-4124.187092748834
 20
3945.951752808598
 30
0.0
  0
VERTEX
  5
1AC
  8
PREDEFINITO
 10
-4124.248541129923
 20
3945.899374243577
 30
0.0
  0
VERTEX
  5
1AD
  8
PREDEFINITO
 10
-4124.310419885681
 20
3945.848971908346
 30
0.0
  0
VERTEX
  5
1AE
  8
PREDEFINITO
 10
-4124.372616495254
 20
3945.80066625891
 30
0.0
  0
VERTEX
  5
1AF
  8
PREDEFINITO
 10
-4124.435015504323
 20
3945.754571582614
 30
0.0
  0
VERTEX
  5
1B0
  8
PREDEFINITO
 10
-4124.497499210314
 20
3945.710795160664
 30
0.0
  0
VERTEX
  5
1B1
  8
PREDEFINITO
 10
-4124.559948382308
 20
3945.669436481754
 30
0.0
  0
VERTEX
  5
1B2
  8
PREDEFINITO
 10
-4124.622243006653
 20
3945.63058651838
 30
0.0
  0
VERTEX
  5
1B3
  8
PREDEFINITO
 10
-4124.684263048698
 20
3945.594327076587
 30
0.0
  0
VERTEX
  5
1B4
  8
PREDEFINITO
 10
-4124.745889220558
 20
3945.560730228657
 30
0.0
  0
VERTEX
  5
1B5
  8
PREDEFINITO
 10
-4124.807003744673
 20
3945.529857836957
 30
0.0
  0
VERTEX
  5
1B6
  8
PREDEFINITO
 10
-4124.867491102911
 20
3945.501761175488
 30
0.0
  0
VERTEX
  5
1B7
  8
PREDEFINITO
 10
-4124.897464292213
 20
3945.48876680141
 30
0.0
  0
VERTEX
  5
1B8
  8
PREDEFINITO
 10
-4124.927238761231
 20
3945.47648065401
 30
0.0
  0
VERTEX
  5
1B9
  8
PREDEFINITO
 10
-4124.956801022819
 20
3945.464906059021
 30
0.0
  0
VERTEX
  5
1BA
  8
PREDEFINITO
 10
-4124.986137860407
 20
3945.454045647715
 30
0.0
  0
VERTEX
  5
1BB
  8
PREDEFINITO
 10
-4125.015236347114
 20
3945.443901357395
 30
0.0
  0
VERTEX
  5
1BC
  8
PREDEFINITO
 10
-4125.044083864022
 20
3945.434474433559
 30
0.0
  0
VERTEX
  5
1BD
  8
PREDEFINITO
 10
-4125.072668117534
 20
3945.425765433653
 30
0.0
  0
VERTEX
  5
1BE
  8
PREDEFINITO
 10
-4125.1009771558
 20
3945.417774232435
 30
0.0
  0
VERTEX
  5
1BF
  8
PREDEFINITO
 10
-4125.128999384139
 20
3945.410500028871
 30
0.0
  0
VERTEX
  5
1C0
  8
PREDEFINITO
 10
-4125.156723579434
 20
3945.403941354548
 30
0.0
  0
VERTEX
  5
1C1
  8
PREDEFINITO
 10
-4125.184138903473
 20
3945.398096083528
 30
0.0
  0
VERTEX
  5
1C2
  8
PREDEFINITO
 10
-4125.211234915196
 20
3945.392961443614
 30
0.0
  0
VERTEX
  5
1C3
  8
PREDEFINITO
 10
-4125.238001581835
 20
3945.388534028951
 30
0.0
  0
VERTEX
  5
1C4
  8
PREDEFINITO
 10
-4125.264429288928
 20
3945.384809813899
 30
0.0
  0
VERTEX
  5
1C5
  8
PREDEFINITO
 10
-4125.290508849198
 20
3945.381784168114
 30
0.0
  0
VERTEX
  5
1C6
  8
PREDEFINITO
 10
-4125.316231510286
 20
3945.379451872757
 30
0.0
  0
VERTEX
  5
1C7
  8
PREDEFINITO
 10
-4125.341588961349
 20
3945.377807137768
 30
0.0
  0
VERTEX
  5
1C8
  8
PREDEFINITO
 10
-4125.366573338501
 20
3945.376843620108
 30
0.0
  0
VERTEX
  5
1C9
  8
PREDEFINITO
 10
-4125.391177229141
 20
3945.376554442899
 30
0.0
  0
VERTEX
  5
1CA
  8
PREDEFINITO
 10
-4125.415393675151
 20
3945.376932215387
 30
0.0
  0
VERTEX
  5
1CB
  8
PREDEFINITO
 10
-4125.439216175004
 20
3945.377969053631
 30
0.0
  0
VERTEX
  5
1CC
  8
PREDEFINITO
 10
-4125.462638684779
 20
3945.379656601827
 30
0.0
  0
VERTEX
  5
1CD
  8
PREDEFINITO
 10
-4125.48565561814
 20
3945.381986054216
 30
0.0
  0
VERTEX
  5
1CE
  8
PREDEFINITO
 10
-4125.508261845283
 20
3945.384948177453
 30
0.0
  0
VERTEX
  5
1CF
  8
PREDEFINITO
 10
-4125.530452690881
 20
3945.388533333376
 30
0.0
  0
VERTEX
  5
1D0
  8
PREDEFINITO
 10
-4125.5522239311
 20
3945.392731502087
 30
0.0
  0
VERTEX
  5
1D1
  8
PREDEFINITO
 10
-4125.566476999699
 20
3945.395793733001
 30
0.0
  0
VERTEX
  5
1D2
  8
PREDEFINITO
 10
-4125.580682801917
 20
3945.399182841751
 30
0.0
  0
VERTEX
  5
1D3
  8
PREDEFINITO
 10
-4125.59483014817
 20
3945.402897853551
 30
0.0
  0
VERTEX
  5
1D4
  8
PREDEFINITO
 10
-4125.608907870018
 20
3945.406937284466
 30
0.0
  0
VERTEX
  5
1D5
  8
PREDEFINITO
 10
-4125.622904849074
 20
3945.411299141634
 30
0.0
  0
VERTEX
  5
1D6
  8
PREDEFINITO
 10
-4125.636810045946
 20
3945.415980925444
 30
0.0
  0
VERTEX
  5
1D7
  8
PREDEFINITO
 10
-4125.650612529058
 20
3945.420979633701
 30
0.0
  0
VERTEX
  5
1D8
  8
PREDEFINITO
 10
-4125.664301503179
 20
3945.426291767742
 30
0.0
  0
VERTEX
  5
1D9
  8
PREDEFINITO
 10
-4125.67786633751
 20
3945.431913340495
 30
0.0
  0
VERTEX
  5
1DA
  8
PREDEFINITO
 10
-4125.691296593199
 20
3945.437839886442
 30
0.0
  0
VERTEX
  5
1DB
  8
PREDEFINITO
 10
-4125.704582050086
 20
3945.444066473421
 30
0.0
  0
VERTEX
  5
1DC
  8
PREDEFINITO
 10
-4125.717712732589
 20
3945.450587716226
 30
0.0
  0
VERTEX
  5
1DD
  8
PREDEFINITO
 10
-4125.730678934548
 20
3945.457397791893
 30
0.0
  0
VERTEX
  5
1DE
  8
PREDEFINITO
 10
-4125.743471242929
 20
3945.464490456614
 30
0.0
  0
VERTEX
  5
1DF
  8
PREDEFINITO
 10
-4125.75608056025
 20
3945.471859064163
 30
0.0
  0
VERTEX
  5
1E0
  8
PREDEFINITO
 10
-4125.768498125624
 20
3945.479496585713
 30
0.0
  0
SEQEND
  5
1E1
  8
PREDEFINITO
  0
ARC
  5
1E2
  8
PREDEFINITO
 10
-4122.174467697201
 20
3951.044762672442
 30
0.0
 40
6.624895571745083
 50
223.8894289544868
 51
237.1457595489609
  0
ARC
  5
1E3
  8
PREDEFINITO
 10
-4122.917752684641
 20
3950.122733507073
 30
0.0
 40
5.452053164685746
 50
203.8702121950356
 51
222.3213835643772
  0
LINE
  5
1E4
  8
PREDEFINITO
 10
-4127.903461553388
 20
3947.916471784918
 30
0.0
 11
-4128.016083017983
 21
3948.179033111026
 31
0.0
  0
LINE
  5
1E5
  8
PREDEFINITO
 10
-4128.016083017983
 20
3948.179033111026
 30
0.0
 11
-4128.327341174259
 21
3949.368735193678
 31
0.0
  0
LINE
  5
1E6
  8
PREDEFINITO
 10
-4128.327341174259
 20
3949.368735193678
 30
0.0
 11
-4128.440756513455
 21
3950.359347595273
 31
0.0
  0
LINE
  5
1E7
  8
PREDEFINITO
 10
-4128.440756513455
 20
3950.359347595273
 30
0.0
 11
-4128.464882371054
 21
3951.108997369835
 31
0.0
  0
LINE
  5
1E8
  8
PREDEFINITO
 10
-4128.464882371054
 20
3951.108997369835
 30
0.0
 11
-4128.467887751623
 21
3953.12322540502
 31
0.0
  0
ARC
  5
1E9
  8
PREDEFINITO
 10
-4027.666281039432
 20
3952.902194570336
 30
0.0
 40
100.8018490425104
 50
176.3947617115764
 51
179.8743659542134
  0
ARC
  5
1EA
  8
PREDEFINITO
 10
-3981.275000585928
 20
3949.944639556759
 30
0.0
 40
147.2873007178432
 50
173.6834210731216
 51
176.3813268114399
  0
ARC
  5
1EB
  8
PREDEFINITO
 10
-3901.259308476471
 20
3941.156174362749
 30
0.0
 40
227.784164519239
 50
171.9272107347684
 51
173.7006180220984
  0
LINE
  5
1EC
  8
PREDEFINITO
 10
-4126.786237262804
 20
3973.144140817837
 30
0.0
 11
-4125.698836955547
 21
3980.504822062912
 31
0.0
  0
LINE
  5
1ED
  8
PREDEFINITO
 10
-4125.698836955547
 20
3980.504822062912
 30
0.0
 11
-4124.494942810852
 21
3988.283779769272
 31
0.0
  0
LINE
  5
1EE
  8
PREDEFINITO
 10
-4124.494942810852
 20
3988.283779769272
 30
0.0
 11
-4123.336409451505
 21
3996.060330389162
 31
0.0
  0
LINE
  5
1EF
  8
PREDEFINITO
 10
-4123.336409451505
 20
3996.060330389162
 30
0.0
 11
-4122.192355980553
 21
4004.800757181978
 31
0.0
  0
ARC
  5
1F0
  8
PREDEFINITO
 10
-4383.997917022741
 20
4036.121241100303
 30
0.0
 40
263.6723810062268
 50
353.177978280474
 51
355.0821276302852
  0
ARC
  5
1F1
  8
PREDEFINITO
 10
-4354.300901072434
 20
4033.55699406072
 30
0.0
 40
233.8648650119702
 50
355.0893626551802
 51
357.3525779117209
  0
ARC
  5
1F2
  8
PREDEFINITO
 10
-4321.282986288713
 20
4032.03106589682
 30
0.0
 40
200.8117086120189
 50
357.3569419723835
 51
0.0007684564878744
  0
LINE
  5
1F3
  8
PREDEFINITO
 10
-4120.471277694755
 20
4032.033759202708
 30
0.0
 11
-4120.471277694755
 21
4082.033759202685
 31
0.0
  0
LINE
  5
1F4
  8
PREDEFINITO
 10
-4120.471277694755
 20
4082.033759202685
 30
0.0
 11
-4120.471277694753
 21
4093.583759202685
 31
0.0
  0
ARC
  5
1F5
  8
PREDEFINITO
 10
-1074.946650134801
 20
3968.636670060739
 30
0.0
 40
26.96424613284568
 50
309.753443689062
 51
312.2065227053359
  0
LINE
  5
1F6
  8
PREDEFINITO
 10
-4115.73776590739
 20
3943.668095117272
 30
0.0
 11
-4115.73776590739
 21
3946.259964065287
 31
0.0
  0
POLYLINE
  5
1F7
  8
PREDEFINITO
 66
     1
 10
0.0
 20
0.0
 30
0.0
  0
VERTEX
  5
1F8
  8
PREDEFINITO
 10
-4119.772371381158
 20
3943.668095117272
 30
0.0
  0
VERTEX
  5
1F9
  8
PREDEFINITO
 10
-4119.77224769314
 20
3943.659187585558
 30
0.0
  0
VERTEX
  5
1FA
  8
PREDEFINITO
 10
-4119.771874397838
 20
3943.650240753645
 30
0.0
  0
VERTEX
  5
1FB
  8
PREDEFINITO
 10
-4119.771248184308
 20
3943.641256032822
 30
0.0
  0
VERTEX
  5
1FC
  8
PREDEFINITO
 10
-4119.770365792305
 20
3943.632234876402
 30
0.0
  0
VERTEX
  5
1FD
  8
PREDEFINITO
 10
-4119.769224015798
 20
3943.623178779618
 30
0.0
  0
VERTEX
  5
1FE
  8
PREDEFINITO
 10
-4119.767819706543
 20
3943.61408927944
 30
0.0
  0
VERTEX
  5
1FF
  8
PREDEFINITO
 10
-4119.766149777653
 20
3943.604967954364
 30
0.0
  0
VERTEX
  5
200
  8
PREDEFINITO
 10
-4119.764211207233
 20
3943.59581642415
 30
0.0
  0
VERTEX
  5
201
  8
PREDEFINITO
 10
-4119.762001041999
 20
3943.586636349484
 30
0.0
  0
VERTEX
  5
202
  8
PREDEFINITO
 10
-4119.75951640094
 20
3943.577429431616
 30
0.0
  0
VERTEX
  5
203
  8
PREDEFINITO
 10
-4119.756754478979
 20
3943.568197411922
 30
0.0
  0
VERTEX
  5
204
  8
PREDEFINITO
 10
-4119.753712550641
 20
3943.558942071415
 30
0.0
  0
VERTEX
  5
205
  8
PREDEFINITO
 10
-4119.750387973717
 20
3943.549665230203
 30
0.0
  0
VERTEX
  5
206
  8
PREDEFINITO
 10
-4119.746778192928
 20
3943.540368746887
 30
0.0
  0
VERTEX
  5
207
  8
PREDEFINITO
 10
-4119.742880743577
 20
3943.531054517902
 30
0.0
  0
VERTEX
  5
208
  8
PREDEFINITO
 10
-4119.738693255174
 20
3943.521724476793
 30
0.0
  0
VERTEX
  5
209
  8
PREDEFINITO
 10
-4119.734213455043
 20
3943.512380593444
 30
0.0
  0
VERTEX
  5
20A
  8
PREDEFINITO
 10
-4119.7294391719
 20
3943.503024873231
 30
0.0
  0
VERTEX
  5
20B
  8
PREDEFINITO
 10
-4119.724368339386
 20
3943.493659356133
 30
0.0
  0
VERTEX
  5
20C
  8
PREDEFINITO
 10
-4119.71899899956
 20
3943.48428611577
 30
0.0
  0
VERTEX
  5
20D
  8
PREDEFINITO
 10
-4119.713329306338
 20
3943.474907258388
 30
0.0
  0
VERTEX
  5
20E
  8
PREDEFINITO
 10
-4119.707357528872
 20
3943.465524921777
 30
0.0
  0
VERTEX
  5
20F
  8
PREDEFINITO
 10
-4119.701082054878
 20
3943.456141274145
 30
0.0
  0
VERTEX
  5
210
  8
PREDEFINITO
 10
-4119.694501393862
 20
3943.446758512912
 30
0.0
  0
VERTEX
  5
211
  8
PREDEFINITO
 10
-4119.6876141803
 20
3943.437378863462
 30
0.0
  0
VERTEX
  5
212
  8
PREDEFINITO
 10
-4119.68041917671
 20
3943.428004577836
 30
0.0
  0
VERTEX
  5
213
  8
PREDEFINITO
 10
-4119.672915276631
 20
3943.418637933357
 30
0.0
  0
VERTEX
  5
214
  8
PREDEFINITO
 10
-4119.665101507518
 20
3943.409281231211
 30
0.0
  0
VERTEX
  5
215
  8
PREDEFINITO
 10
-4119.656977033504
 20
3943.399936794972
 30
0.0
  0
VERTEX
  5
216
  8
PREDEFINITO
 10
-4119.648541158072
 20
3943.390606969069
 30
0.0
  0
VERTEX
  5
217
  8
PREDEFINITO
 10
-4119.639793326593
 20
3943.381294117203
 30
0.0
  0
VERTEX
  5
218
  8
PREDEFINITO
 10
-4119.63073312873
 20
3943.372000620718
 30
0.0
  0
VERTEX
  5
219
  8
PREDEFINITO
 10
-4119.621360300726
 20
3943.362728876921
 30
0.0
  0
VERTEX
  5
21A
  8
PREDEFINITO
 10
-4119.611674727533
 20
3943.353481297355
 30
0.0
  0
VERTEX
  5
21B
  8
PREDEFINITO
 10
-4119.591365640709
 20
3943.335068337606
 30
0.0
  0
VERTEX
  5
21C
  8
PREDEFINITO
 10
-4119.569807993763
 20
3943.316781250246
 30
0.0
  0
VERTEX
  5
21D
  8
PREDEFINITO
 10
-4119.547006402383
 20
3943.298639654403
 30
0.0
  0
VERTEX
  5
21E
  8
PREDEFINITO
 10
-4119.522968012488
 20
3943.28066321757
 30
0.0
  0
VERTEX
  5
21F
  8
PREDEFINITO
 10
-4119.497702528797
 20
3943.262871591774
 30
0.0
  0
VERTEX
  5
220
  8
PREDEFINITO
 10
-4119.471222231389
 20
3943.245284348318
 30
0.0
  0
VERTEX
  5
221
  8
PREDEFINITO
 10
-4119.443541979816
 20
3943.227920911479
 30
0.0
  0
VERTEX
  5
222
  8
PREDEFINITO
 10
-4119.414679204432
 20
3943.210800491629
 30
0.0
  0
VERTEX
  5
223
  8
PREDEFINITO
 10
-4119.384653884734
 20
3943.193942018221
 30
0.0
  0
VERTEX
  5
224
  8
PREDEFINITO
 10
-4119.353488514587
 20
3943.1773640731
 30
0.0
  0
VERTEX
  5
225
  8
PREDEFINITO
 10
-4119.321208054358
 20
3943.161084824629
 30
0.0
  0
VERTEX
  5
226
  8
PREDEFINITO
 10
-4119.287839870094
 20
3943.145121963094
 30
0.0
  0
VERTEX
  5
227
  8
PREDEFINITO
 10
-4119.253413660005
 20
3943.129492637853
 30
0.0
  0
VERTEX
  5
228
  8
PREDEFINITO
 10
-4119.217961368637
 20
3943.114213396719
 30
0.0
  0
VERTEX
  5
229
  8
PREDEFINITO
 10
-4119.181517089231
 20
3943.099300127976
 30
0.0
  0
VERTEX
  5
22A
  8
PREDEFINITO
 10
-4119.105799019321
 20
3943.070631437321
 30
0.0
  0
VERTEX
  5
22B
  8
PREDEFINITO
 10
-4119.026570779713
 20
3943.043598485694
 30
0.0
  0
VERTEX
  5
22C
  8
PREDEFINITO
 10
-4118.944170101811
 20
3943.018299519904
 30
0.0
  0
VERTEX
  5
22D
  8
PREDEFINITO
 10
-4118.858956377428
 20
3942.99481794682
 30
0.0
  0
VERTEX
  5
22E
  8
PREDEFINITO
 10
-4118.771305563873
 20
3942.973221478341
 30
0.0
  0
VERTEX
  5
22F
  8
PREDEFINITO
 10
-4118.681604883883
 20
3942.953561604655
 30
0.0
  0
VERTEX
  5
230
  8
PREDEFINITO
 10
-4118.590247471308
 20
3942.935873399674
 30
0.0
  0
VERTEX
  5
231
  8
PREDEFINITO
 10
-4118.497627109306
 20
3942.920175650479
 30
0.0
  0
VERTEX
  5
232
  8
PREDEFINITO
 10
-4118.404133196971
 20
3942.906471291436
 30
0.0
  0
VERTEX
  5
233
  8
PREDEFINITO
 10
-4118.310146064157
 20
3942.89474811413
 30
0.0
  0
VERTEX
  5
234
  8
PREDEFINITO
 10
-4118.216032733789
 20
3942.884979716667
 30
0.0
  0
VERTEX
  5
235
  8
PREDEFINITO
 10
-4118.122143207916
 20
3942.877126650578
 30
0.0
  0
VERTEX
  5
236
  8
PREDEFINITO
 10
-4118.028807329489
 20
3942.871137720495
 30
0.0
  0
VERTEX
  5
237
  8
PREDEFINITO
 10
-4117.936332247766
 20
3942.866951390954
 30
0.0
  0
VERTEX
  5
238
  8
PREDEFINITO
 10
-4117.845000492805
 20
3942.864497255886
 30
0.0
  0
VERTEX
  5
239
  8
PREDEFINITO
 10
-4117.755068644274
 20
3942.863697529199
 30
0.0
  0
VERTEX
  5
23A
  8
PREDEFINITO
 10
-4117.665136795742
 20
3942.864497255886
 30
0.0
  0
VERTEX
  5
23B
  8
PREDEFINITO
 10
-4117.573805040781
 20
3942.866951390954
 30
0.0
  0
VERTEX
  5
23C
  8
PREDEFINITO
 10
-4117.48132995906
 20
3942.871137720495
 30
0.0
  0
VERTEX
  5
23D
  8
PREDEFINITO
 10
-4117.38799408063
 20
3942.877126650578
 30
0.0
  0
VERTEX
  5
23E
  8
PREDEFINITO
 10
-4117.294104554759
 20
3942.884979716667
 30
0.0
  0
VERTEX
  5
23F
  8
PREDEFINITO
 10
-4117.19999122439
 20
3942.89474811413
 30
0.0
  0
VERTEX
  5
240
  8
PREDEFINITO
 10
-4117.106004091575
 20
3942.906471291436
 30
0.0
  0
VERTEX
  5
241
  8
PREDEFINITO
 10
-4117.012510179242
 20
3942.920175650479
 30
0.0
  0
VERTEX
  5
242
  8
PREDEFINITO
 10
-4116.91988981724
 20
3942.935873399674
 30
0.0
  0
VERTEX
  5
243
  8
PREDEFINITO
 10
-4116.828532404666
 20
3942.953561604655
 30
0.0
  0
VERTEX
  5
244
  8
PREDEFINITO
 10
-4116.738831724676
 20
3942.973221478341
 30
0.0
  0
VERTEX
  5
245
  8
PREDEFINITO
 10
-4116.65118091112
 20
3942.99481794682
 30
0.0
  0
VERTEX
  5
246
  8
PREDEFINITO
 10
-4116.565967186736
 20
3943.018299519904
 30
0.0
  0
VERTEX
  5
247
  8
PREDEFINITO
 10
-4116.483566508836
 20
3943.043598485694
 30
0.0
  0
VERTEX
  5
248
  8
PREDEFINITO
 10
-4116.404338269227
 20
3943.070631437321
 30
0.0
  0
VERTEX
  5
249
  8
PREDEFINITO
 10
-4116.328620199317
 20
3943.099300127976
 30
0.0
  0
VERTEX
  5
24A
  8
PREDEFINITO
 10
-4116.292175919912
 20
3943.114213396719
 30
0.0
  0
VERTEX
  5
24B
  8
PREDEFINITO
 10
-4116.256723628543
 20
3943.129492637853
 30
0.0
  0
VERTEX
  5
24C
  8
PREDEFINITO
 10
-4116.222297418455
 20
3943.145121963094
 30
0.0
  0
VERTEX
  5
24D
  8
PREDEFINITO
 10
-4116.18892923419
 20
3943.161084824629
 30
0.0
  0
VERTEX
  5
24E
  8
PREDEFINITO
 10
-4116.156648773962
 20
3943.1773640731
 30
0.0
  0
VERTEX
  5
24F
  8
PREDEFINITO
 10
-4116.125483403815
 20
3943.193942018221
 30
0.0
  0
VERTEX
  5
250
  8
PREDEFINITO
 10
-4116.095458084117
 20
3943.210800491629
 30
0.0
  0
VERTEX
  5
251
  8
PREDEFINITO
 10
-4116.066595308733
 20
3943.227920911479
 30
0.0
  0
VERTEX
  5
252
  8
PREDEFINITO
 10
-4116.038915057159
 20
3943.245284348318
 30
0.0
  0
VERTEX
  5
253
  8
PREDEFINITO
 10
-4116.012434759752
 20
3943.262871591774
 30
0.0
  0
VERTEX
  5
254
  8
PREDEFINITO
 10
-4115.987169276062
 20
3943.28066321757
 30
0.0
  0
VERTEX
  5
255
  8
PREDEFINITO
 10
-4115.963130886166
 20
3943.298639654403
 30
0.0
  0
VERTEX
  5
256
  8
PREDEFINITO
 10
-4115.940329294785
 20
3943.316781250246
 30
0.0
  0
VERTEX
  5
257
  8
PREDEFINITO
 10
-4115.91877164784
 20
3943.335068337606
 30
0.0
  0
VERTEX
  5
258
  8
PREDEFINITO
 10
-4115.898462561016
 20
3943.353481297355
 30
0.0
  0
VERTEX
  5
259
  8
PREDEFINITO
 10
-4115.888776987822
 20
3943.362728876921
 30
0.0
  0
VERTEX
  5
25A
  8
PREDEFINITO
 10
-4115.879404159818
 20
3943.372000620718
 30
0.0
  0
VERTEX
  5
25B
  8
PREDEFINITO
 10
-4115.870343961956
 20
3943.381294117203
 30
0.0
  0
VERTEX
  5
25C
  8
PREDEFINITO
 10
-4115.861596130476
 20
3943.390606969069
 30
0.0
  0
VERTEX
  5
25D
  8
PREDEFINITO
 10
-4115.853160255045
 20
3943.399936794972
 30
0.0
  0
VERTEX
  5
25E
  8
PREDEFINITO
 10
-4115.845035781031
 20
3943.409281231211
 30
0.0
  0
VERTEX
  5
25F
  8
PREDEFINITO
 10
-4115.837222011916
 20
3943.418637933357
 30
0.0
  0
VERTEX
  5
260
  8
PREDEFINITO
 10
-4115.829718111838
 20
3943.428004577836
 30
0.0
  0
VERTEX
  5
261
  8
PREDEFINITO
 10
-4115.822523108246
 20
3943.437378863462
 30
0.0
  0
VERTEX
  5
262
  8
PREDEFINITO
 10
-4115.815635894686
 20
3943.446758512912
 30
0.0
  0
VERTEX
  5
263
  8
PREDEFINITO
 10
-4115.809055233671
 20
3943.456141274145
 30
0.0
  0
VERTEX
  5
264
  8
PREDEFINITO
 10
-4115.802779759675
 20
3943.465524921777
 30
0.0
  0
VERTEX
  5
265
  8
PREDEFINITO
 10
-4115.79680798221
 20
3943.474907258388
 30
0.0
  0
VERTEX
  5
266
  8
PREDEFINITO
 10
-4115.791138288987
 20
3943.48428611577
 30
0.0
  0
VERTEX
  5
267
  8
PREDEFINITO
 10
-4115.785768949161
 20
3943.493659356133
 30
0.0
  0
VERTEX
  5
268
  8
PREDEFINITO
 10
-4115.780698116647
 20
3943.503024873231
 30
0.0
  0
VERTEX
  5
269
  8
PREDEFINITO
 10
-4115.775923833505
 20
3943.512380593444
 30
0.0
  0
VERTEX
  5
26A
  8
PREDEFINITO
 10
-4115.771444033374
 20
3943.521724476793
 30
0.0
  0
VERTEX
  5
26B
  8
PREDEFINITO
 10
-4115.767256544971
 20
3943.531054517902
 30
0.0
  0
VERTEX
  5
26C
  8
PREDEFINITO
 10
-4115.76335909562
 20
3943.540368746887
 30
0.0
  0
VERTEX
  5
26D
  8
PREDEFINITO
 10
-4115.759749314832
 20
3943.549665230203
 30
0.0
  0
VERTEX
  5
26E
  8
PREDEFINITO
 10
-4115.756424737908
 20
3943.558942071415
 30
0.0
  0
VERTEX
  5
26F
  8
PREDEFINITO
 10
-4115.753382809569
 20
3943.568197411922
 30
0.0
  0
VERTEX
  5
270
  8
PREDEFINITO
 10
-4115.750620887609
 20
3943.577429431616
 30
0.0
  0
VERTEX
  5
271
  8
PREDEFINITO
 10
-4115.748136246551
 20
3943.586636349484
 30
0.0
  0
VERTEX
  5
272
  8
PREDEFINITO
 10
-4115.745926081317
 20
3943.59581642415
 30
0.0
  0
VERTEX
  5
273
  8
PREDEFINITO
 10
-4115.743987510895
 20
3943.604967954364
 30
0.0
  0
VERTEX
  5
274
  8
PREDEFINITO
 10
-4115.742317582006
 20
3943.61408927944
 30
0.0
  0
VERTEX
  5
275
  8
PREDEFINITO
 10
-4115.740913272749
 20
3943.623178779618
 30
0.0
  0
VERTEX
  5
276
  8
PREDEFINITO
 10
-4115.739771496244
 20
3943.632234876402
 30
0.0
  0
VERTEX
  5
277
  8
PREDEFINITO
 10
-4115.73888910424
 20
3943.641256032822
 30
0.0
  0
VERTEX
  5
278
  8
PREDEFINITO
 10
-4115.738262890711
 20
3943.650240753645
 30
0.0
  0
VERTEX
  5
279
  8
PREDEFINITO
 10
-4115.737889595408
 20
3943.659187585558
 30
0.0
  0
VERTEX
  5
27A
  8
PREDEFINITO
 10
-4115.73776590739
 20
3943.668095117272
 30
0.0
  0
SEQEND
  5
27B
  8
PREDEFINITO
  0
LINE
  5
27C
  8
PREDEFINITO
 10
-4119.772371381158
 20
3946.259964065287
 30
0.0
 11
-4119.772371381158
 21
3943.668095117272
 31
0.0
  0
POLYLINE
  5
27D
  8
PREDEFINITO
 66
     1
 10
0.0
 20
0.0
 30
0.0
  0
VERTEX
  5
27E
  8
PREDEFINITO
 10
-4118.096579380323
 20
3947.052751098728
 30
0.0
  0
VERTEX
  5
27F
  8
PREDEFINITO
 10
-4118.262509983219
 20
3947.038496846405
 30
0.0
  0
VERTEX
  5
280
  8
PREDEFINITO
 10
-4118.345655801711
 20
3947.029117545682
 30
0.0
  0
VERTEX
  5
281
  8
PREDEFINITO
 10
-4118.428596600973
 20
3947.018203052864
 30
0.0
  0
VERTEX
  5
282
  8
PREDEFINITO
 10
-4118.511075937883
 20
3947.005738182293
 30
0.0
  0
VERTEX
  5
283
  8
PREDEFINITO
 10
-4118.592829893652
 20
3946.991716566044
 30
0.0
  0
VERTEX
  5
284
  8
PREDEFINITO
 10
-4118.673589410065
 20
3946.97614114168
 30
0.0
  0
VERTEX
  5
285
  8
PREDEFINITO
 10
-4118.753082833037
 20
3946.959024523292
 30
0.0
  0
VERTEX
  5
286
  8
PREDEFINITO
 10
-4118.831038620861
 20
3946.940389240687
 30
0.0
  0
VERTEX
  5
287
  8
PREDEFINITO
 10
-4118.907188166948
 20
3946.92026783444
 30
0.0
  0
VERTEX
  5
288
  8
PREDEFINITO
 10
-4118.98126868065
 20
3946.898702798005
 30
0.0
  0
VERTEX
  5
289
  8
PREDEFINITO
 10
-4119.05302606526
 20
3946.875746362123
 30
0.0
  0
VERTEX
  5
28A
  8
PREDEFINITO
 10
-4119.12221772989
 20
3946.851460121191
 30
0.0
  0
VERTEX
  5
28B
  8
PREDEFINITO
 10
-4119.188615271787
 20
3946.825914505898
 30
0.0
  0
VERTEX
  5
28C
  8
PREDEFINITO
 10
-4119.252006967938
 20
3946.799188110985
 30
0.0
  0
VERTEX
  5
28D
  8
PREDEFINITO
 10
-4119.28251457949
 20
3946.785408719003
 30
0.0
  0
VERTEX
  5
28E
  8
PREDEFINITO
 10
-4119.312200019373
 20
3946.771366891424
 30
0.0
  0
VERTEX
  5
28F
  8
PREDEFINITO
 10
-4119.341042464181
 20
3946.757074371947
 30
0.0
  0
VERTEX
  5
290
  8
PREDEFINITO
 10
-4119.369022498426
 20
3946.742543244193
 30
0.0
  0
VERTEX
  5
291
  8
PREDEFINITO
 10
-4119.396122156361
 20
3946.727785898231
 30
0.0
  0
VERTEX
  5
292
  8
PREDEFINITO
 10
-4119.422324957816
 20
3946.71281499617
 30
0.0
  0
VERTEX
  5
293
  8
PREDEFINITO
 10
-4119.44761593792
 20
3946.697643437045
 30
0.0
  0
VERTEX
  5
294
  8
PREDEFINITO
 10
-4119.471981670639
 20
3946.682284321166
 30
0.0
  0
VERTEX
  5
295
  8
PREDEFINITO
 10
-4119.495410286055
 20
3946.666750914136
 30
0.0
  0
VERTEX
  5
296
  8
PREDEFINITO
 10
-4119.517891481431
 20
3946.651056610768
 30
0.0
  0
VERTEX
  5
297
  8
PREDEFINITO
 10
-4119.539416526073
 20
3946.635214899048
 30
0.0
  0
VERTEX
  5
298
  8
PREDEFINITO
 10
-4119.559978260116
 20
3946.619239324371
 30
0.0
  0
VERTEX
  5
299
  8
PREDEFINITO
 10
-4119.579571087329
 20
3946.60314345422
 30
0.0
  0
VERTEX
  5
29A
  8
PREDEFINITO
 10
-4119.598190962154
 20
3946.586940843473
 30
0.0
  0
VERTEX
  5
29B
  8
PREDEFINITO
 10
-4119.615835371153
 20
3946.570645000505
 30
0.0
  0
VERTEX
  5
29C
  8
PREDEFINITO
 10
-4119.632503309122
 20
3946.554269354231
 30
0.0
  0
VERTEX
  5
29D
  8
PREDEFINITO
 10
-4119.648195250136
 20
3946.537827222257
 30
0.0
  0
VERTEX
  5
29E
  8
PREDEFINITO
 10
-4119.662913113838
 20
3946.521331780259
 30
0.0
  0
VERTEX
  5
29F
  8
PREDEFINITO
 10
-4119.669907752547
 20
3946.513068139357
 30
0.0
  0
VERTEX
  5
2A0
  8
PREDEFINITO
 10
-4119.676660227261
 20
3946.504796032712
 30
0.0
  0
VERTEX
  5
2A1
  8
PREDEFINITO
 10
-4119.68317116683
 20
3946.496517054569
 30
0.0
  0
VERTEX
  5
2A2
  8
PREDEFINITO
 10
-4119.68944128257
 20
3946.488232785083
 30
0.0
  0
VERTEX
  5
2A3
  8
PREDEFINITO
 10
-4119.695471366753
 20
3946.479944789538
 30
0.0
  0
VERTEX
  5
2A4
  8
PREDEFINITO
 10
-4119.701262291027
 20
3946.47165461758
 30
0.0
  0
VERTEX
  5
2A5
  8
PREDEFINITO
 10
-4119.706815004804
 20
3946.463363802502
 30
0.0
  0
VERTEX
  5
2A6
  8
PREDEFINITO
 10
-4119.712130533596
 20
3946.455073860527
 30
0.0
  0
VERTEX
  5
2A7
  8
PREDEFINITO
 10
-4119.717209977311
 20
3946.44678629014
 30
0.0
  0
VERTEX
  5
2A8
  8
PREDEFINITO
 10
-4119.722054508518
 20
3946.43850257144
 30
0.0
  0
VERTEX
  5
2A9
  8
PREDEFINITO
 10
-4119.726665370664
 20
3946.430224165514
 30
0.0
  0
VERTEX
  5
2AA
  8
PREDEFINITO
 10
-4119.731043876272
 20
3946.421952513853
 30
0.0
  0
VERTEX
  5
2AB
  8
PREDEFINITO
 10
-4119.735191405103
 20
3946.413689037784
 30
0.0
  0
VERTEX
  5
2AC
  8
PREDEFINITO
 10
-4119.739109402283
 20
3946.405435137933
 30
0.0
  0
VERTEX
  5
2AD
  8
PREDEFINITO
 10
-4119.742799376431
 20
3946.397192193723
 30
0.0
  0
VERTEX
  5
2AE
  8
PREDEFINITO
 10
-4119.746262897742
 20
3946.38896156289
 30
0.0
  0
VERTEX
  5
2AF
  8
PREDEFINITO
 10
-4119.749501596063
 20
3946.380744581044
 30
0.0
  0
VERTEX
  5
2B0
  8
PREDEFINITO
 10
-4119.752517158951
 20
3946.37254256123
 30
0.0
  0
VERTEX
  5
2B1
  8
PREDEFINITO
 10
-4119.755311329726
 20
3946.364356793551
 30
0.0
  0
VERTEX
  5
2B2
  8
PREDEFINITO
 10
-4119.757885905505
 20
3946.356188544792
 30
0.0
  0
VERTEX
  5
2B3
  8
PREDEFINITO
 10
-4119.760242735232
 20
3946.348039058091
 30
0.0
  0
VERTEX
  5
2B4
  8
PREDEFINITO
 10
-4119.762383717708
 20
3946.339909552621
 30
0.0
  0
VERTEX
  5
2B5
  8
PREDEFINITO
 10
-4119.76431079961
 20
3946.331801223311
 30
0.0
  0
VERTEX
  5
2B6
  8
PREDEFINITO
 10
-4119.766025973528
 20
3946.323715240596
 30
0.0
  0
VERTEX
  5
2B7
  8
PREDEFINITO
 10
-4119.767531275976
 20
3946.315652750173
 30
0.0
  0
VERTEX
  5
2B8
  8
PREDEFINITO
 10
-4119.76882878544
 20
3946.307614872815
 30
0.0
  0
VERTEX
  5
2B9
  8
PREDEFINITO
 10
-4119.769920620415
 20
3946.29960270418
 30
0.0
  0
VERTEX
  5
2BA
  8
PREDEFINITO
 10
-4119.770808937452
 20
3946.29161731467
 30
0.0
  0
VERTEX
  5
2BB
  8
PREDEFINITO
 10
-4119.771495929221
 20
3946.283659749294
 30
0.0
  0
VERTEX
  5
2BC
  8
PREDEFINITO
 10
-4119.771983822593
 20
3946.275731027577
 30
0.0
  0
VERTEX
  5
2BD
  8
PREDEFINITO
 10
-4119.772274876721
 20
3946.267832143466
 30
0.0
  0
VERTEX
  5
2BE
  8
PREDEFINITO
 10
-4119.772371381158
 20
3946.259964065287
 30
0.0
  0
SEQEND
  5
2BF
  8
PREDEFINITO
  0
POLYLINE
  5
2C0
  8
PREDEFINITO
 66
     1
 10
0.0
 20
0.0
 30
0.0
  0
VERTEX
  5
2C1
  8
PREDEFINITO
 10
-4115.73776590739
 20
3946.259964065287
 30
0.0
  0
VERTEX
  5
2C2
  8
PREDEFINITO
 10
-4115.737856661785
 20
3946.267594146615
 30
0.0
  0
VERTEX
  5
2C3
  8
PREDEFINITO
 10
-4115.738130330793
 20
3946.275253229101
 30
0.0
  0
VERTEX
  5
2C4
  8
PREDEFINITO
 10
-4115.738589004024
 20
3946.282940430562
 30
0.0
  0
VERTEX
  5
2C5
  8
PREDEFINITO
 10
-4115.739234744298
 20
3946.290654846142
 30
0.0
  0
VERTEX
  5
2C6
  8
PREDEFINITO
 10
-4115.74006958603
 20
3946.298395548361
 30
0.0
  0
VERTEX
  5
2C7
  8
PREDEFINITO
 10
-4115.741095533583
 20
3946.30616158718
 30
0.0
  0
VERTEX
  5
2C8
  8
PREDEFINITO
 10
-4115.742314559633
 20
3946.313951990088
 30
0.0
  0
VERTEX
  5
2C9
  8
PREDEFINITO
 10
-4115.743728603497
 20
3946.321765762202
 30
0.0
  0
VERTEX
  5
2CA
  8
PREDEFINITO
 10
-4115.745339569468
 20
3946.3296018864
 30
0.0
  0
VERTEX
  5
2CB
  8
PREDEFINITO
 10
-4115.747149325133
 20
3946.337459323467
 30
0.0
  0
VERTEX
  5
2CC
  8
PREDEFINITO
 10
-4115.749159699692
 20
3946.345337012257
 30
0.0
  0
VERTEX
  5
2CD
  8
PREDEFINITO
 10
-4115.751372482259
 20
3946.353233869889
 30
0.0
  0
VERTEX
  5
2CE
  8
PREDEFINITO
 10
-4115.753789420181
 20
3946.361148791962
 30
0.0
  0
VERTEX
  5
2CF
  8
PREDEFINITO
 10
-4115.75641221733
 20
3946.36908065278
 30
0.0
  0
VERTEX
  5
2D0
  8
PREDEFINITO
 10
-4115.759242532418
 20
3946.377028305617
 30
0.0
  0
VERTEX
  5
2D1
  8
PREDEFINITO
 10
-4115.762281977303
 20
3946.384990582993
 30
0.0
  0
VERTEX
  5
2D2
  8
PREDEFINITO
 10
-4115.765532115303
 20
3946.392966296979
 30
0.0
  0
VERTEX
  5
2D3
  8
PREDEFINITO
 10
-4115.76899445952
 20
3946.400954239522
 30
0.0
  0
VERTEX
  5
2D4
  8
PREDEFINITO
 10
-4115.772670471161
 20
3946.408953182794
 30
0.0
  0
VERTEX
  5
2D5
  8
PREDEFINITO
 10
-4115.77656155789
 20
3946.416961879568
 30
0.0
  0
VERTEX
  5
2D6
  8
PREDEFINITO
 10
-4115.780669072173
 20
3946.42497906361
 30
0.0
  0
VERTEX
  5
2D7
  8
PREDEFINITO
 10
-4115.784994309656
 20
3946.433003450104
 30
0.0
  0
VERTEX
  5
2D8
  8
PREDEFINITO
 10
-4115.789538507553
 20
3946.441033736094
 30
0.0
  0
VERTEX
  5
2D9
  8
PREDEFINITO
 10
-4115.794302843047
 20
3946.449068600953
 30
0.0
  0
VERTEX
  5
2DA
  8
PREDEFINITO
 10
-4115.799288431731
 20
3946.457106706869
 30
0.0
  0
VERTEX
  5
2DB
  8
PREDEFINITO
 10
-4115.804496326054
 20
3946.465146699366
 30
0.0
  0
VERTEX
  5
2DC
  8
PREDEFINITO
 10
-4115.80992751382
 20
3946.473187207843
 30
0.0
  0
VERTEX
  5
2DD
  8
PREDEFINITO
 10
-4115.815582916691
 20
3946.481226846131
 30
0.0
  0
VERTEX
  5
2DE
  8
PREDEFINITO
 10
-4115.821463388731
 20
3946.489264213076
 30
0.0
  0
VERTEX
  5
2DF
  8
PREDEFINITO
 10
-4115.827569714997
 20
3946.497297893155
 30
0.0
  0
VERTEX
  5
2E0
  8
PREDEFINITO
 10
-4115.833902610147
 20
3946.505326457094
 30
0.0
  0
VERTEX
  5
2E1
  8
PREDEFINITO
 10
-4115.840462717106
 20
3946.513348462529
 30
0.0
  0
VERTEX
  5
2E2
  8
PREDEFINITO
 10
-4115.854266771692
 20
3946.529366967017
 30
0.0
  0
VERTEX
  5
2E3
  8
PREDEFINITO
 10
-4115.868985539081
 20
3946.545341631931
 30
0.0
  0
VERTEX
  5
2E4
  8
PREDEFINITO
 10
-4115.884621453341
 20
3946.561260518337
 30
0.0
  0
VERTEX
  5
2E5
  8
PREDEFINITO
 10
-4115.901175687642
 20
3946.577111547513
 30
0.0
  0
VERTEX
  5
2E6
  8
PREDEFINITO
 10
-4115.918648123153
 20
3946.592882526578
 30
0.0
  0
VERTEX
  5
2E7
  8
PREDEFINITO
 10
-4115.937037321767
 20
3946.608561175225
 30
0.0
  0
VERTEX
  5
2E8
  8
PREDEFINITO
 10
-4115.956340502885
 20
3946.624135153401
 30
0.0
  0
VERTEX
  5
2E9
  8
PREDEFINITO
 10
-4115.976553524502
 20
3946.639592089899
 30
0.0
  0
VERTEX
  5
2EA
  8
PREDEFINITO
 10
-4115.997670868805
 20
3946.654919611662
 30
0.0
  0
VERTEX
  5
2EB
  8
PREDEFINITO
 10
-4116.019685632469
 20
3946.670105373727
 30
0.0
  0
VERTEX
  5
2EC
  8
PREDEFINITO
 10
-4116.042589521813
 20
3946.685137089638
 30
0.0
  0
VERTEX
  5
2ED
  8
PREDEFINITO
 10
-4116.066372852942
 20
3946.700002562201
 30
0.0
  0
VERTEX
  5
2EE
  8
PREDEFINITO
 10
-4116.091024556975
 20
3946.714689714417
 30
0.0
  0
VERTEX
  5
2EF
  8
PREDEFINITO
 10
-4116.116532190444
 20
3946.729186620445
 30
0.0
  0
VERTEX
  5
2F0
  8
PREDEFINITO
 10
-4116.142881950869
 20
3946.74348153644
 30
0.0
  0
VERTEX
  5
2F1
  8
PREDEFINITO
 10
-4116.170058697527
 20
3946.757562931092
 30
0.0
  0
VERTEX
  5
2F2
  8
PREDEFINITO
 10
-4116.198045977376
 20
3946.77141951572
 30
0.0
  0
VERTEX
  5
2F3
  8
PREDEFINITO
 10
-4116.226826056055
 20
3946.785040273752
 30
0.0
  0
VERTEX
  5
2F4
  8
PREDEFINITO
 10
-4116.286687486518
 20
3946.811531775581
 30
0.0
  0
VERTEX
  5
2F5
  8
PREDEFINITO
 10
-4116.349476973715
 20
3946.836955812666
 30
0.0
  0
VERTEX
  5
2F6
  8
PREDEFINITO
 10
-4116.415010788281
 20
3946.861236842907
 30
0.0
  0
VERTEX
  5
2F7
  8
PREDEFINITO
 10
-4116.483089275001
 20
3946.884306152626
 30
0.0
  0
VERTEX
  5
2F8
  8
PREDEFINITO
 10
-4116.553498871564
 20
3946.906102501522
 30
0.0
  0
VERTEX
  5
2F9
  8
PREDEFINITO
 10
-4116.626014315035
 20
3946.926572653268
 30
0.0
  0
VERTEX
  5
2FA
  8
PREDEFINITO
 10
-4116.700400988774
 20
3946.945671782409
 30
0.0
  0
VERTEX
  5
2FB
  8
PREDEFINITO
 10
-4116.776417359564
 20
3946.963363751648
 30
0.0
  0
VERTEX
  5
2FC
  8
PREDEFINITO
 10
-4116.853817453533
 20
3946.979621257271
 30
0.0
  0
VERTEX
  5
2FD
  8
PREDEFINITO
 10
-4116.932353320154
 20
3946.994425844055
 30
0.0
  0
VERTEX
  5
2FE
  8
PREDEFINITO
 10
-4117.011777435956
 20
3947.007767794378
 30
0.0
  0
VERTEX
  5
2FF
  8
PREDEFINITO
 10
-4117.091845003418
 20
3947.019645899328
 30
0.0
  0
VERTEX
  5
300
  8
PREDEFINITO
 10
-4117.172316105698
 20
3947.030067122262
 30
0.0
  0
VERTEX
  5
301
  8
PREDEFINITO
 10
-4117.33354531035
 20
3947.046604967197
 30
0.0
  0
SEQEND
  5
302
  8
PREDEFINITO
  0
LINE
  5
303
  8
PREDEFINITO
 10
-4126.214191939433
 20
3980.937057876726
 30
0.0
 11
-4126.214191939433
 21
3981.766451421195
 31
0.0
  0
LINE
  5
304
  8
PREDEFINITO
 10
-4126.214191939433
 20
3980.193374945439
 30
0.0
 11
-4126.214191939433
 21
3980.615996719879
 31
0.0
  0
LINE
  5
305
  8
PREDEFINITO
 10
-4126.214191939433
 20
3980.615996719914
 30
0.0
 11
-4126.214191939433
 21
3980.937057875323
 31
0.0
  0
LINE
  5
306
  8
PREDEFINITO
 10
-4120.301632835646
 20
4154.583759202685
 30
0.0
 11
-4120.301632835641
 21
4184.033759202686
 31
0.0
  0
LINE
  5
307
  8
PREDEFINITO
 10
-4115.10163283564
 20
4184.033759202686
 30
0.0
 11
-4115.101632835646
 21
4154.583759202686
 31
0.0
  0
LINE
  5
308
  8
PREDEFINITO
 10
-4120.301632835641
 20
4239.033759202642
 30
0.0
 11
-4120.301632835641
 21
4245.709012182269
 31
0.0
  0
LINE
  5
309
  8
PREDEFINITO
 10
-4115.101632835641
 20
4245.701281612036
 30
0.0
 11
-4115.101632835641
 21
4239.033759202642
 31
0.0
  0
LINE
  5
30A
  8
PREDEFINITO
 10
-4120.823226121024
 20
3940.088014854852
 30
0.0
 11
-4120.823226121023
 21
3942.678283312363
 31
0.0
  0
POLYLINE
  5
30B
  8
PREDEFINITO
 10
0.0
 20
0.0
 30
0.0
 66
     1
 70
     8
  0
VERTEX
  5
30C
  8
PREDEFINITO
 10
-4126.214191939433
 20
3985.839064192377
 30
0.0
 70
    32
  0
VERTEX
  5
30D
  8
PREDEFINITO
 10
-4126.214191939433
 20
3985.920864298113
 30
0.0
 70
    32
  0
VERTEX
  5
30E
  8
PREDEFINITO
 10
-4126.214191939433
 20
3985.920865001213
 30
0.0
 70
    32
  0
VERTEX
  5
30F
  8
PREDEFINITO
 10
-4126.214191939433
 20
3985.920859080065
 30
0.0
 70
    32
  0
VERTEX
  5
310
  8
PREDEFINITO
 10
-4126.214191939433
 20
3985.920858599897
 30
0.0
 70
    32
  0
VERTEX
  5
311
  8
PREDEFINITO
 10
-4126.214191939433
 20
3985.921481657834
 30
0.0
 70
    32
  0
SEQEND
  5
312
  8
PREDEFINITO
  0
LINE
  5
313
  8
PREDEFINITO
 10
-4126.214191939433
 20
3985.528657340042
 30
0.0
 11
-4126.214191939433
 21
3985.66597322782
 31
0.0
  0
LINE
  5
314
  8
PREDEFINITO
 10
-4126.214191939433
 20
3984.109670346572
 30
0.0
 11
-4126.214191939433
 21
3984.662596834823
 31
0.0
  0
LINE
  5
315
  8
PREDEFINITO
 10
-4126.214191939433
 20
3983.638170460106
 30
0.0
 11
-4126.214191939433
 21
3983.887563378129
 31
0.0
  0
LINE
  5
316
  8
PREDEFINITO
 10
-4126.214191939433
 20
3943.802907771444
 30
0.0
 11
-4126.214191939433
 21
3944.44577773184
 31
0.0
  0
LINE
  5
317
  8
PREDEFINITO
 10
-4126.214191939433
 20
3934.81941943082
 30
0.0
 11
-4126.214191939433
 21
3935.938464669583
 31
0.0
  0
LINE
  5
318
  8
PREDEFINITO
 10
-4126.214191939433
 20
3931.586295725087
 30
0.0
 11
-4126.214191939433
 21
3932.603839597083
 31
0.0
  0
LINE
  5
319
  8
PREDEFINITO
 10
-4126.214191939433
 20
3922.792173583855
 30
0.0
 11
-4126.214191939433
 21
3922.932610212201
 31
0.0
  0
LINE
  5
31A
  8
PREDEFINITO
 10
-4126.214191939433
 20
3917.610836893647
 30
0.0
 11
-4126.214191939433
 21
3919.346922887322
 31
0.0
  0
LINE
  5
31B
  8
PREDEFINITO
 10
-4126.214191939433
 20
3903.381884567221
 30
0.0
 11
-4126.214191939433
 21
3904.707459166645
 31
0.0
  0
LINE
  5
31C
  8
PREDEFINITO
 10
-4126.214191939433
 20
3897.809320266605
 30
0.0
 11
-4126.214191939433
 21
3898.175536919785
 31
0.0
  0
LINE
  5
31D
  8
PREDEFINITO
 10
-4126.214191939433
 20
3892.681456559207
 30
0.0
 11
-4126.214191939433
 21
3893.541441781449
 31
0.0
  0
LINE
  5
31E
  8
PREDEFINITO
 10
-4126.214191939433
 20
3887.104644074779
 30
0.0
 11
-4126.214191939433
 21
3888.715962409422
 31
0.0
  0
LINE
  5
31F
  8
PREDEFINITO
 10
-4126.214191939433
 20
3880.2253624385
 30
0.0
 11
-4126.214191939433
 21
3881.378619768945
 31
0.0
  0
LINE
  5
320
  8
PREDEFINITO
 10
-4126.214191939433
 20
3875.462206684191
 30
0.0
 11
-4126.214191939433
 21
3875.858240059995
 31
0.0
  0
LINE
  5
321
  8
PREDEFINITO
 10
-4126.214191939433
 20
3869.484672184818
 30
0.0
 11
-4126.214191939433
 21
3870.693836220632
 31
0.0
  0
LINE
  5
322
  8
PREDEFINITO
 10
-4126.214191939433
 20
3862.278972784487
 30
0.0
 11
-4126.214191939433
 21
3863.320062978681
 31
0.0
  0
LINE
  5
323
  8
PREDEFINITO
 10
-4126.214191939433
 20
3855.804877956016
 30
0.0
 11
-4126.214191939433
 21
3857.594914898018
 31
0.0
  0
LINE
  5
324
  8
PREDEFINITO
 10
-4126.214191939433
 20
3850.562224010998
 30
0.0
 11
-4126.214191939433
 21
3850.650318082441
 31
0.0
  0
LINE
  5
325
  8
PREDEFINITO
 10
-4126.214191939433
 20
3843.080094879968
 30
0.0
 11
-4126.214191939433
 21
3843.974958471466
 31
0.0
  0
LINE
  5
326
  8
PREDEFINITO
 10
-4126.214191939433
 20
3837.245796209381
 30
0.0
 11
-4126.214191939433
 21
3838.089906812523
 31
0.0
  0
LINE
  5
327
  8
PREDEFINITO
 10
-4126.214191939433
 20
3822.673964461853
 30
0.0
 11
-4126.214191939433
 21
3823.487566475664
 31
0.0
  0
LINE
  5
328
  8
PREDEFINITO
 10
-4126.214191939433
 20
3801.107511677885
 30
0.0
 11
-4126.214191939433
 21
3801.597194573998
 31
0.0
  0
LINE
  5
329
  8
PREDEFINITO
 10
-4126.214191939433
 20
3786.43063144201
 30
0.0
 11
-4126.214191939433
 21
3787.996150968614
 31
0.0
  0
LINE
  5
32A
  8
PREDEFINITO
 10
-4126.214191939433
 20
3762.220070420348
 30
0.0
 11
-4126.214191939433
 21
3766.688635936715
 31
0.0
  0
LINE
  5
32B
  8
PREDEFINITO
 10
-4126.214191939433
 20
3753.175464489109
 30
0.0
 11
-4126.214191939433
 21
3756.21466398081
 31
0.0
  0
LINE
  5
32C
  8
PREDEFINITO
 10
-4126.214191939433
 20
3746.392138752592
 30
0.0
 11
-4126.214191939433
 21
3748.599071782099
 31
0.0
  0
LINE
  5
32D
  8
PREDEFINITO
 10
-4126.214191939433
 20
3729.492002113099
 30
0.0
 11
-4126.214191939433
 21
3729.949598674276
 31
0.0
  0
LINE
  5
32E
  8
PREDEFINITO
 10
-4126.214191939433
 20
3720.990900513552
 30
0.0
 11
-4126.214191939433
 21
3722.645817473873
 31
0.0
  0
LINE
  5
32F
  8
PREDEFINITO
 10
-4126.214191939433
 20
3710.767249693013
 30
0.0
 11
-4126.214191939433
 21
3712.310714275828
 31
0.0
  0
LINE
  5
330
  8
PREDEFINITO
 10
-4126.214191939433
 20
3701.739733294824
 30
0.0
 11
-4126.214191939433
 21
3704.259611457663
 31
0.0
  0
LINE
  5
331
  8
PREDEFINITO
 10
-4126.214191939433
 20
3694.63379867963
 30
0.0
 11
-4126.214191939433
 21
3694.654904408377
 31
0.0
  0
LINE
  5
332
  8
PREDEFINITO
 10
-4126.214191939433
 20
3684.40672777093
 30
0.0
 11
-4126.214191939433
 21
3685.644811185743
 31
0.0
  0
LINE
  5
333
  8
PREDEFINITO
 10
-4126.214191939433
 20
3676.557867932262
 30
0.0
 11
-4126.214191939433
 21
3677.681137171168
 31
0.0
  0
LINE
  5
334
  8
PREDEFINITO
 10
-4126.214191939433
 20
3657.202507644687
 30
0.0
 11
-4126.214191939433
 21
3658.448068175051
 31
0.0
  0
LINE
  5
335
  8
PREDEFINITO
 10
-4126.214191939433
 20
3648.734523391714
 30
0.0
 11
-4126.214191939433
 21
3650.273937740762
 31
0.0
  0
LINE
  5
336
  8
PREDEFINITO
 10
-4126.214191939433
 20
3628.664055368867
 30
0.0
 11
-4126.214191939433
 21
3629.740956822253
 31
0.0
  0
LINE
  5
337
  8
PREDEFINITO
 10
-4126.214191939433
 20
3620.117981611803
 30
0.0
 11
-4126.214191939433
 21
3621.121359964188
 31
0.0
  0
LINE
  5
338
  8
PREDEFINITO
 10
-4126.214191939433
 20
3598.294115864201
 30
0.0
 11
-4126.214191939433
 21
3600.632586288236
 31
0.0
  0
LINE
  5
339
  8
PREDEFINITO
 10
-4126.214191939433
 20
3590.625506956606
 30
0.0
 11
-4126.214191939433
 21
3593.231675992051
 31
0.0
  0
LINE
  5
33A
  8
PREDEFINITO
 10
-4126.214191939433
 20
3570.842905686799
 30
0.0
 11
-4126.214191939433
 21
3571.156360191079
 31
0.0
  0
LINE
  5
33B
  8
PREDEFINITO
 10
-4126.214191939433
 20
3559.708071107127
 30
0.0
 11
-4126.214191939433
 21
3563.723411546583
 31
0.0
  0
LINE
  5
33C
  8
PREDEFINITO
 10
-4126.214191939433
 20
3540.440937991055
 30
0.0
 11
-4126.214191939433
 21
3541.215874247279
 31
0.0
  0
LINE
  5
33D
  8
PREDEFINITO
 10
-4126.214191939433
 20
3518.417765076627
 30
0.0
 11
-4126.214191939433
 21
3519.867630595807
 31
0.0
  0
LINE
  5
33E
  8
PREDEFINITO
 10
-4126.214191939433
 20
3509.497485823609
 30
0.0
 11
-4126.214191939433
 21
3510.758831535858
 31
0.0
  0
LINE
  5
33F
  8
PREDEFINITO
 10
-4126.214191939433
 20
3487.618930314805
 30
0.0
 11
-4126.214191939433
 21
3489.270691215781
 31
0.0
  0
LINE
  5
340
  8
PREDEFINITO
 10
-4126.214191939433
 20
3478.084716709808
 30
0.0
 11
-4126.214191939433
 21
3479.854864747162
 31
0.0
  0
LINE
  5
341
  8
PREDEFINITO
 10
-4126.214191939433
 20
3456.425846478197
 30
0.0
 11
-4126.214191939433
 21
3457.86286056432
 31
0.0
  0
LINE
  5
342
  8
PREDEFINITO
 10
-4126.214191939433
 20
3446.275799009207
 30
0.0
 11
-4126.214191939433
 21
3448.574271433759
 31
0.0
  0
LINE
  5
343
  8
PREDEFINITO
 10
-4126.214191939433
 20
3424.909476825891
 30
0.0
 11
-4126.214191939433
 21
3426.55793112875
 31
0.0
  0
LINE
  5
344
  8
PREDEFINITO
 10
-4126.214191939433
 20
3414.145010905572
 30
0.0
 11
-4126.214191939433
 21
3416.988323210135
 31
0.0
  0
LINE
  5
345
  8
PREDEFINITO
 10
-4126.214191939433
 20
3403.212186647081
 30
0.0
 11
-4126.214191939433
 21
3403.376160924461
 31
0.0
  0
LINE
  5
346
  8
PREDEFINITO
 10
-4126.214191939433
 20
3392.582605604147
 30
0.0
 11
-4126.214191939433
 21
3394.991620999055
 31
0.0
  0
LINE
  5
347
  8
PREDEFINITO
 10
-4126.214191939433
 20
3380.028240400916
 30
0.0
 11
-4126.214191939433
 21
3385.168792641035
 31
0.0
  0
LINE
  5
348
  8
PREDEFINITO
 10
-4126.214191939433
 20
3360.082310927192
 30
0.0
 11
-4126.214191939433
 21
3361.194345308073
 31
0.0
  0
LINE
  5
349
  8
PREDEFINITO
 10
-4126.214191939433
 20
3349.218039050128
 30
0.0
 11
-4126.214191939433
 21
3353.18800459831
 31
0.0
  0
LINE
  5
34A
  8
PREDEFINITO
 10
-4126.214191939433
 20
3337.159858097134
 30
0.0
 11
-4126.214191939433
 21
3338.343640185865
 31
0.0
  0
LINE
  5
34B
  8
PREDEFINITO
 10
-4126.214191939433
 20
3325.965102675486
 30
0.0
 11
-4126.214191939433
 21
3329.140329717084
 31
0.0
  0
LINE
  5
34C
  8
PREDEFINITO
 10
-4126.214191939433
 20
3316.090488732615
 30
0.0
 11
-4126.214191939433
 21
3319.292807871921
 31
0.0
  0
LINE
  5
34D
  8
PREDEFINITO
 10
-4126.214191939433
 20
3304.379132499499
 30
0.0
 11
-4126.214191939433
 21
3305.743758380908
 31
0.0
  0
LINE
  5
34E
  8
PREDEFINITO
 10
-4126.214191939433
 20
3290.526685652704
 30
0.0
 11
-4126.214191939433
 21
3296.889395123465
 31
0.0
  0
LINE
  5
34F
  8
PREDEFINITO
 10
-4126.214191939433
 20
3282.508639293122
 30
0.0
 11
-4126.214191939433
 21
3284.114904567952
 31
0.0
  0
LINE
  5
350
  8
PREDEFINITO
 10
-4126.214191939433
 20
3271.551824601934
 30
0.0
 11
-4126.214191939433
 21
3274.234774934631
 31
0.0
  0
LINE
  5
351
  8
PREDEFINITO
 10
-4126.214191939433
 20
3258.989792082007
 30
0.0
 11
-4126.214191939433
 21
3263.508668421805
 31
0.0
  0
LINE
  5
352
  8
PREDEFINITO
 10
-4126.214191939433
 20
3251.328693883648
 30
0.0
 11
-4126.214191939433
 21
3251.726542833693
 31
0.0
  0
LINE
  5
353
  8
PREDEFINITO
 10
-4126.214191939433
 20
3239.427212874879
 30
0.0
 11
-4126.214191939433
 21
3240.955964711263
 31
0.0
  0
LINE
  5
354
  8
PREDEFINITO
 10
-4126.214191939433
 20
3228.207755566665
 30
0.0
 11
-4126.214191939433
 21
3231.817527095008
 31
0.0
  0
LINE
  5
355
  8
PREDEFINITO
 10
-4126.214191939433
 20
3219.470040568878
 30
0.0
 11
-4126.214191939433
 21
3220.459753769881
 31
0.0
  0
LINE
  5
356
  8
PREDEFINITO
 10
-4126.214191939433
 20
3207.473340176879
 30
0.0
 11
-4126.214191939433
 21
3208.760635669119
 31
0.0
  0
LINE
  5
357
  8
PREDEFINITO
 10
-4126.214191939433
 20
3196.833275240896
 30
0.0
 11
-4126.214191939433
 21
3202.725980650472
 31
0.0
  0
LINE
  5
358
  8
PREDEFINITO
 10
-4126.214191939433
 20
3187.421381236138
 30
0.0
 11
-4126.214191939433
 21
3189.303472659663
 31
0.0
  0
LINE
  5
359
  8
PREDEFINITO
 10
-4126.214191939433
 20
3175.763083287104
 30
0.0
 11
-4126.214191939433
 21
3176.797624809158
 31
0.0
  0
LINE
  5
35A
  8
PREDEFINITO
 10
-4126.214191939433
 20
3163.332565337939
 30
0.0
 11
-4126.214191939433
 21
3167.882069089027
 31
0.0
  0
LINE
  5
35B
  8
PREDEFINITO
 10
-4126.214191939433
 20
3144.36871466107
 30
0.0
 11
-4126.214191939433
 21
3145.141385215292
 31
0.0
  0
LINE
  5
35C
  8
PREDEFINITO
 10
-4126.214191939433
 20
3132.184842454031
 30
0.0
 11
-4126.214191939433
 21
3136.577878675648
 31
0.0
  0
LINE
  5
35D
  8
PREDEFINITO
 10
-4126.214191939433
 20
3113.361738812132
 30
0.0
 11
-4126.214191939433
 21
3113.865721043319
 31
0.0
  0
LINE
  5
35E
  8
PREDEFINITO
 10
-4126.214191939433
 20
3103.005758938106
 30
0.0
 11
-4126.214191939433
 21
3105.678818164512
 31
0.0
  0
LINE
  5
35F
  8
PREDEFINITO
 10
-4126.214191939433
 20
3082.812730487758
 30
0.0
 11
-4126.214191939433
 21
3083.043614620431
 31
0.0
  0
LINE
  5
360
  8
PREDEFINITO
 10
-4126.214191939433
 20
3071.74381291789
 30
0.0
 11
-4126.214191939433
 21
3075.255204816985
 31
0.0
  0
LINE
  5
361
  8
PREDEFINITO
 10
-4126.214191939433
 20
3030.662250425053
 30
0.0
 11
-4126.214191939433
 21
3033.046433410044
 31
0.0
  0
LINE
  5
362
  8
PREDEFINITO
 10
-4126.214191939433
 20
3023.046872343934
 30
0.0
 11
-4126.214191939433
 21
3025.377824529758
 31
0.0
  0
LINE
  5
363
  8
PREDEFINITO
 10
-4126.214191939433
 20
3001.727100044791
 30
0.0
 11
-4126.214191939433
 21
3003.612662399963
 31
0.0
  0
LINE
  5
364
  8
PREDEFINITO
 10
-4126.214191939433
 20
2994.012562118962
 30
0.0
 11
-4126.214191939433
 21
2995.007885042143
 31
0.0
  0
LINE
  5
365
  8
PREDEFINITO
 10
-4126.214191939433
 20
2973.503597555059
 30
0.0
 11
-4126.214191939433
 21
2975.060002379833
 31
0.0
  0
LINE
  5
366
  8
PREDEFINITO
 10
-4126.214191939433
 20
2965.223872204796
 30
0.0
 11
-4126.214191939433
 21
2966.563870592577
 31
0.0
  0
LINE
  5
367
  8
PREDEFINITO
 10
-4126.214191939433
 20
2946.055768409144
 30
0.0
 11
-4126.214191939433
 21
2947.28582832576
 31
0.0
  0
LINE
  5
368
  8
PREDEFINITO
 10
-4126.214191939433
 20
2938.212154974154
 30
0.0
 11
-4126.214191939433
 21
2939.320316111377
 31
0.0
  0
LINE
  5
369
  8
PREDEFINITO
 10
-4126.214191939433
 20
2919.443034843118
 30
0.0
 11
-4126.214191939433
 21
2920.354990446848
 31
0.0
  0
LINE
  5
36A
  8
PREDEFINITO
 10
-4126.214191939433
 20
2911.579252174613
 30
0.0
 11
-4126.214191939433
 21
2912.930465392823
 31
0.0
  0
LINE
  5
36B
  8
PREDEFINITO
 10
-4126.214191939433
 20
2893.733234770046
 30
0.0
 11
-4126.214191939433
 21
2894.333412979749
 31
0.0
  0
LINE
  5
36C
  8
PREDEFINITO
 10
-4126.214191939433
 20
2885.868547355771
 30
0.0
 11
-4126.214191939433
 21
2887.398137382631
 31
0.0
  0
LINE
  5
36D
  8
PREDEFINITO
 10
-4126.214191939433
 20
2860.951101723195
 30
0.0
 11
-4126.214191939433
 21
2861.148794122787
 31
0.0
  0
LINE
  5
36E
  8
PREDEFINITO
 10
-4126.214191939433
 20
2839.40481832131
 30
0.0
 11
-4126.214191939433
 21
2840.605159251419
 31
0.0
  0
LINE
  5
36F
  8
PREDEFINITO
 10
-4126.214191939433
 20
2832.907279907582
 30
0.0
 11
-4126.214191939433
 21
2833.769830174795
 31
0.0
  0
LINE
  5
370
  8
PREDEFINITO
 10
-4126.214191939433
 20
2825.332901355385
 30
0.0
 11
-4126.214191939433
 21
2828.124894658664
 31
0.0
  0
LINE
  5
371
  8
PREDEFINITO
 10
-4126.214191939433
 20
2822.300667195561
 30
0.0
 11
-4126.214191939433
 21
2823.510390347976
 31
0.0
  0
LINE
  5
372
  8
PREDEFINITO
 10
-4126.214191939433
 20
2806.280936626451
 30
0.0
 11
-4126.214191939433
 21
2807.632578253511
 31
0.0
  0
LINE
  5
373
  8
PREDEFINITO
 10
-4126.214191939433
 20
2800.184373903988
 30
0.0
 11
-4126.214191939433
 21
2800.998451639236
 31
0.0
  0
LINE
  5
374
  8
PREDEFINITO
 10
-4126.214191939433
 20
2793.485284459066
 30
0.0
 11
-4126.214191939433
 21
2794.570302489501
 31
0.0
  0
LINE
  5
375
  8
PREDEFINITO
 10
-4126.214191939433
 20
2785.590801697031
 30
0.0
 11
-4126.214191939433
 21
2786.610622903048
 31
0.0
  0
LINE
  5
376
  8
PREDEFINITO
 10
-4126.214191939433
 20
2779.874688811207
 30
0.0
 11
-4126.214191939433
 21
2780.604148024569
 31
0.0
  0
LINE
  5
377
  8
PREDEFINITO
 10
-4126.214191939433
 20
2770.859560572298
 30
0.0
 11
-4126.214191939433
 21
2775.959396410495
 31
0.0
  0
LINE
  5
378
  8
PREDEFINITO
 10
-4126.214191939433
 20
2766.101631305137
 30
0.0
 11
-4126.214191939433
 21
2767.867062424797
 31
0.0
  0
LINE
  5
379
  8
PREDEFINITO
 10
-4126.214191939433
 20
2760.492038413774
 30
0.0
 11
-4126.214191939433
 21
2761.422166069153
 31
0.0
  0
LINE
  5
37A
  8
PREDEFINITO
 10
-4126.214191939433
 20
2747.856255779785
 30
0.0
 11
-4126.214191939433
 21
2748.285121124473
 31
0.0
  0
LINE
  5
37B
  8
PREDEFINITO
 10
-4126.214191939433
 20
2742.398071475767
 30
0.0
 11
-4126.214191939433
 21
2743.494255534455
 31
0.0
  0
LINE
  5
37C
  8
PREDEFINITO
 10
-4126.214191939433
 20
2730.130498599366
 30
0.0
 11
-4126.214191939433
 21
2731.06882792154
 31
0.0
  0
LINE
  5
37D
  8
PREDEFINITO
 10
-4126.214191939433
 20
2725.628603150853
 30
0.0
 11
-4126.214191939433
 21
2726.862202667282
 31
0.0
  0
LINE
  5
37E
  8
PREDEFINITO
 10
-4126.214191939433
 20
2719.043217185407
 30
0.0
 11
-4126.214191939433
 21
2720.341407803748
 31
0.0
  0
LINE
  5
37F
  8
PREDEFINITO
 10
-4126.214191939433
 20
2715.207156105606
 30
0.0
 11
-4126.214191939433
 21
2715.258331479003
 31
0.0
  0
LINE
  5
380
  8
PREDEFINITO
 10
-4126.214191939433
 20
2709.815006807028
 30
0.0
 11
-4126.214191939433
 21
2711.561707191911
 31
0.0
  0
LINE
  5
381
  8
PREDEFINITO
 10
-4126.214191939433
 20
2704.420097117348
 30
0.0
 11
-4126.214191939433
 21
2705.403313375202
 31
0.0
  0
LINE
  5
382
  8
PREDEFINITO
 10
-4126.214191939433
 20
2700.737179148603
 30
0.0
 11
-4126.214191939433
 21
2700.979524770458
 31
0.0
  0
LINE
  5
383
  8
PREDEFINITO
 10
-4126.214191939433
 20
2691.181037621236
 30
0.0
 11
-4126.214191939433
 21
2692.085644655732
 31
0.0
  0
LINE
  5
384
  8
PREDEFINITO
 10
-4126.214191939433
 20
2687.694069800696
 30
0.0
 11
-4126.214191939433
 21
2688.090800288061
 31
0.0
  0
LINE
  5
385
  8
PREDEFINITO
 10
-4126.214191939433
 20
2679.353873719736
 30
0.0
 11
-4126.214191939433
 21
2679.807666445354
 31
0.0
  0
LINE
  5
386
  8
PREDEFINITO
 10
-4126.214191939433
 20
2676.109025625575
 30
0.0
 11
-4126.214191939433
 21
2676.620839582758
 31
0.0
  0
LINE
  5
387
  8
PREDEFINITO
 10
-4126.214191939433
 20
2671.425971924017
 30
0.0
 11
-4126.214191939433
 21
2674.168987670442
 31
0.0
  0
LINE
  5
388
  8
PREDEFINITO
 10
-4126.214191939433
 20
2668.964856054097
 30
0.0
 11
-4126.214191939433
 21
2669.210377720756
 31
0.0
  0
LINE
  5
389
  8
PREDEFINITO
 10
-4126.214191939433
 20
2666.010037498384
 30
0.0
 11
-4126.214191939433
 21
2666.595075604746
 31
0.0
  0
LINE
  5
38A
  8
PREDEFINITO
 10
-4126.214191939433
 20
2660.036943966973
 30
0.0
 11
-4126.214191939433
 21
2660.145941444432
 31
0.0
  0
LINE
  5
38B
  8
PREDEFINITO
 10
-4126.214191939433
 20
2656.929763298781
 30
0.0
 11
-4126.214191939433
 21
2658.03563671443
 31
0.0
  0
LINE
  5
38C
  8
PREDEFINITO
 10
-4126.214191939433
 20
2650.048457765537
 30
0.0
 11
-4126.214191939433
 21
2650.364939223094
 31
0.0
  0
LINE
  5
38D
  8
PREDEFINITO
 10
-4126.214191939433
 20
2648.288001262588
 30
0.0
 11
-4126.214191939433
 21
2648.358111458982
 31
0.0
  0
LINE
  5
38E
  8
PREDEFINITO
 10
-4126.214191939433
 20
2646.520185309972
 30
0.0
 11
-4126.214191939433
 21
2646.639523011431
 31
0.0
  0
LINE
  5
38F
  8
PREDEFINITO
 10
-4126.214191939433
 20
2643.167064447307
 30
0.0
 11
-4126.214191939433
 21
2643.368373700225
 31
0.0
  0
LINE
  5
390
  8
PREDEFINITO
 10
-4126.214191939433
 20
2641.905488958506
 30
0.0
 11
-4126.214191939433
 21
2642.199061435535
 31
0.0
  0
LINE
  5
391
  8
PREDEFINITO
 10
-4126.214191939433
 20
2640.832268764017
 30
0.0
 11
-4126.214191939433
 21
2641.167717690849
 31
0.0
  0
LINE
  5
392
  8
PREDEFINITO
 10
-4126.214191939433
 20
2638.95524693427
 30
0.0
 11
-4126.214191939433
 21
2639.277737805685
 31
0.0
  0
LINE
  5
393
  8
PREDEFINITO
 10
-4126.214191939433
 20
2638.049785424853
 30
0.0
 11
-4126.214191939433
 21
2638.81871707451
 31
0.0
  0
LINE
  5
394
  8
PREDEFINITO
 10
-4126.214191939433
 20
3985.665973227307
 30
0.0
 11
-4126.214191939433
 21
3985.839064192376
 31
0.0
  0
LINE
  5
395
  8
PREDEFINITO
 10
-4126.214191939433
 20
3984.66259683618
 30
0.0
 11
-4126.214191939433
 21
3985.528657340099
 31
0.0
  0
LINE
  5
396
  8
PREDEFINITO
 10
-4126.214191939433
 20
3983.887563376859
 30
0.0
 11
-4126.214191939433
 21
3984.109670346345
 31
0.0
  0
LINE
  5
397
  8
PREDEFINITO
 10
-4126.214191939433
 20
3981.766451422078
 30
0.0
 11
-4126.214191939433
 21
3983.638170462506
 31
0.0
  0
LINE
  5
398
  8
PREDEFINITO
 10
-4126.214191939433
 20
3977.090669861339
 30
0.0
 11
-4126.214191939433
 21
3980.193374949144
 31
0.0
  0
LINE
  5
399
  8
PREDEFINITO
 10
-4126.214191939433
 20
3944.445777731835
 30
0.0
 11
-4126.214191939433
 21
3945.787754273796
 31
0.0
  0
LINE
  5
39A
  8
PREDEFINITO
 10
-4126.214191939433
 20
3935.938464669581
 30
0.0
 11
-4126.214191939433
 21
3943.80290777144
 31
0.0
  0
LINE
  5
39B
  8
PREDEFINITO
 10
-4126.214191939433
 20
3932.60383959708
 30
0.0
 11
-4126.214191939433
 21
3934.819419430842
 31
0.0
  0
LINE
  5
39C
  8
PREDEFINITO
 10
-4126.214191939433
 20
3922.932610212199
 30
0.0
 11
-4126.214191939433
 21
3931.586295725086
 31
0.0
  0
LINE
  5
39D
  8
PREDEFINITO
 10
-4126.214191939433
 20
3919.346922887321
 30
0.0
 11
-4126.214191939433
 21
3922.792173583854
 31
0.0
  0
LINE
  5
39E
  8
PREDEFINITO
 10
-4126.214191939433
 20
3904.707459166644
 30
0.0
 11
-4126.214191939433
 21
3917.610836893652
 31
0.0
  0
LINE
  5
39F
  8
PREDEFINITO
 10
-4126.214191939433
 20
3898.175536919769
 30
0.0
 11
-4126.214191939433
 21
3903.381884577475
 31
0.0
  0
LINE
  5
3A0
  8
PREDEFINITO
 10
-4126.214191939433
 20
3893.541441781449
 30
0.0
 11
-4126.214191939433
 21
3897.809320266605
 31
0.0
  0
LINE
  5
3A1
  8
PREDEFINITO
 10
-4126.214191939433
 20
3888.715962409422
 30
0.0
 11
-4126.214191939433
 21
3892.681456559839
 31
0.0
  0
LINE
  5
3A2
  8
PREDEFINITO
 10
-4126.214191939433
 20
3881.378619769362
 30
0.0
 11
-4126.214191939433
 21
3887.104644075418
 31
0.0
  0
LINE
  5
3A3
  8
PREDEFINITO
 10
-4126.214191939433
 20
3875.858240054954
 30
0.0
 11
-4126.214191939433
 21
3880.225362438501
 31
0.0
  0
LINE
  5
3A4
  8
PREDEFINITO
 10
-4126.214191939433
 20
3870.693836220632
 30
0.0
 11
-4126.214191939433
 21
3875.46220668419
 31
0.0
  0
LINE
  5
3A5
  8
PREDEFINITO
 10
-4126.214191939433
 20
3863.320062985201
 30
0.0
 11
-4126.214191939433
 21
3869.484672184819
 31
0.0
  0
LINE
  5
3A6
  8
PREDEFINITO
 10
-4126.214191939433
 20
3857.59491488325
 30
0.0
 11
-4126.214191939433
 21
3862.278972784488
 31
0.0
  0
LINE
  5
3A7
  8
PREDEFINITO
 10
-4126.214191939433
 20
3850.650318082377
 30
0.0
 11
-4126.214191939433
 21
3855.804877956019
 31
0.0
  0
LINE
  5
3A8
  8
PREDEFINITO
 10
-4126.214191939433
 20
3843.974958479622
 30
0.0
 11
-4126.214191939433
 21
3850.562224003704
 31
0.0
  0
LINE
  5
3A9
  8
PREDEFINITO
 10
-4126.214191939433
 20
3838.089906836645
 30
0.0
 11
-4126.214191939433
 21
3843.080094879968
 31
0.0
  0
LINE
  5
3AA
  8
PREDEFINITO
 10
-4126.214191939433
 20
3823.487566475595
 30
0.0
 11
-4126.214191939433
 21
3837.24579621121
 31
0.0
  0
LINE
  5
3AB
  8
PREDEFINITO
 10
-4126.214191939433
 20
3801.597194779722
 30
0.0
 11
-4126.214191939433
 21
3822.673964438396
 31
0.0
  0
LINE
  5
3AC
  8
PREDEFINITO
 10
-4126.214191939433
 20
3787.996150767857
 30
0.0
 11
-4126.214191939433
 21
3801.107511775826
 31
0.0
  0
LINE
  5
3AD
  8
PREDEFINITO
 10
-4126.214191939433
 20
3766.688635936715
 30
0.0
 11
-4126.214191939433
 21
3786.430631514151
 31
0.0
  0
LINE
  5
3AE
  8
PREDEFINITO
 10
-4126.214191939433
 20
3756.214663953624
 30
0.0
 11
-4126.214191939433
 21
3762.22007042012
 31
0.0
  0
LINE
  5
3AF
  8
PREDEFINITO
 10
-4126.214191939433
 20
3748.59907183351
 30
0.0
 11
-4126.214191939433
 21
3753.175464469309
 31
0.0
  0
LINE
  5
3B0
  8
PREDEFINITO
 10
-4126.214191939433
 20
3729.949598674081
 30
0.0
 11
-4126.214191939433
 21
3746.392138783915
 31
0.0
  0
LINE
  5
3B1
  8
PREDEFINITO
 10
-4126.214191939433
 20
3722.645817426517
 30
0.0
 11
-4126.214191939433
 21
3729.492002113216
 31
0.0
  0
LINE
  5
3B2
  8
PREDEFINITO
 10
-4126.214191939433
 20
3712.310714277727
 30
0.0
 11
-4126.214191939433
 21
3720.990900545522
 31
0.0
  0
LINE
  5
3B3
  8
PREDEFINITO
 10
-4126.214191939433
 20
3704.25961145613
 30
0.0
 11
-4126.214191939433
 21
3710.767249693013
 31
0.0
  0
LINE
  5
3B4
  8
PREDEFINITO
 10
-4126.214191939433
 20
3694.654904404627
 30
0.0
 11
-4126.214191939433
 21
3701.739733312377
 31
0.0
  0
LINE
  5
3B5
  8
PREDEFINITO
 10
-4126.214191939433
 20
3685.644811187681
 30
0.0
 11
-4126.214191939433
 21
3694.633798684059
 31
0.0
  0
LINE
  5
3B6
  8
PREDEFINITO
 10
-4126.214191939433
 20
3677.68113716963
 30
0.0
 11
-4126.214191939433
 21
3684.40672777093
 31
0.0
  0
LINE
  5
3B7
  8
PREDEFINITO
 10
-4126.214191939433
 20
3658.448068175027
 30
0.0
 11
-4126.214191939433
 21
3676.557867922962
 31
0.0
  0
LINE
  5
3B8
  8
PREDEFINITO
 10
-4126.214191939433
 20
3650.273937721902
 30
0.0
 11
-4126.214191939433
 21
3657.202507644687
 31
0.0
  0
LINE
  5
3B9
  8
PREDEFINITO
 10
-4126.214191939433
 20
3629.740956822795
 30
0.0
 11
-4126.214191939433
 21
3648.734523412125
 31
0.0
  0
LINE
  5
3BA
  8
PREDEFINITO
 10
-4126.214191939433
 20
3621.12135998124
 30
0.0
 11
-4126.214191939433
 21
3628.664055368865
 31
0.0
  0
LINE
  5
3BB
  8
PREDEFINITO
 10
-4126.214191939433
 20
3600.632586289425
 30
0.0
 11
-4126.214191939433
 21
3620.117981656149
 31
0.0
  0
LINE
  5
3BC
  8
PREDEFINITO
 10
-4126.214191939433
 20
3593.231675983036
 30
0.0
 11
-4126.214191939433
 21
3598.294115867508
 31
0.0
  0
LINE
  5
3BD
  8
PREDEFINITO
 10
-4126.214191939433
 20
3571.156360156579
 30
0.0
 11
-4126.214191939433
 21
3590.625506971379
 31
0.0
  0
LINE
  5
3BE
  8
PREDEFINITO
 10
-4126.214191939433
 20
3563.723411527118
 30
0.0
 11
-4126.214191939433
 21
3570.842905655142
 31
0.0
  0
LINE
  5
3BF
  8
PREDEFINITO
 10
-4126.214191939433
 20
3541.215874221551
 30
0.0
 11
-4126.214191939433
 21
3559.708071107126
 31
0.0
  0
LINE
  5
3C0
  8
PREDEFINITO
 10
-4126.214191939433
 20
3519.86763060054
 30
0.0
 11
-4126.214191939433
 21
3540.440938001369
 31
0.0
  0
LINE
  5
3C1
  8
PREDEFINITO
 10
-4126.214191939433
 20
3510.758831559819
 30
0.0
 11
-4126.214191939433
 21
3518.417765102649
 31
0.0
  0
LINE
  5
3C2
  8
PREDEFINITO
 10
-4126.214191939433
 20
3489.270691197391
 30
0.0
 11
-4126.214191939433
 21
3509.497485827149
 31
0.0
  0
LINE
  5
3C3
  8
PREDEFINITO
 10
-4126.214191939433
 20
3479.854864766615
 30
0.0
 11
-4126.214191939433
 21
3487.618930335262
 31
0.0
  0
LINE
  5
3C4
  8
PREDEFINITO
 10
-4126.214191939433
 20
3457.862860544939
 30
0.0
 11
-4126.214191939433
 21
3478.084716710086
 31
0.0
  0
LINE
  5
3C5
  8
PREDEFINITO
 10
-4126.214191939433
 20
3448.574271449911
 30
0.0
 11
-4126.214191939433
 21
3456.425846495075
 31
0.0
  0
LINE
  5
3C6
  8
PREDEFINITO
 10
-4126.214191939433
 20
3426.557931185252
 30
0.0
 11
-4126.214191939433
 21
3446.275799009182
 31
0.0
  0
LINE
  5
3C7
  8
PREDEFINITO
 10
-4126.214191939433
 20
3416.988323210145
 30
0.0
 11
-4126.214191939433
 21
3424.909476842716
 31
0.0
  0
LINE
  5
3C8
  8
PREDEFINITO
 10
-4126.214191939433
 20
3403.376160881697
 30
0.0
 11
-4126.214191939433
 21
3414.145010897741
 31
0.0
  0
LINE
  5
3C9
  8
PREDEFINITO
 10
-4126.214191939433
 20
3394.991620999713
 30
0.0
 11
-4126.214191939433
 21
3403.212186604731
 31
0.0
  0
LINE
  5
3CA
  8
PREDEFINITO
 10
-4126.214191939433
 20
3385.168792653799
 30
0.0
 11
-4126.214191939433
 21
3392.58260559991
 31
0.0
  0
LINE
  5
3CB
  8
PREDEFINITO
 10
-4126.214191939433
 20
3361.194345293387
 30
0.0
 11
-4126.214191939433
 21
3380.028240373193
 31
0.0
  0
LINE
  5
3CC
  8
PREDEFINITO
 10
-4126.214191939433
 20
3353.188004610195
 30
0.0
 11
-4126.214191939433
 21
3360.08231096723
 31
0.0
  0
LINE
  5
3CD
  8
PREDEFINITO
 10
-4126.214191939433
 20
3338.343640221538
 30
0.0
 11
-4126.214191939433
 21
3349.218039050013
 31
0.0
  0
LINE
  5
3CE
  8
PREDEFINITO
 10
-4126.214191939433
 20
3329.140329766514
 30
0.0
 11
-4126.214191939433
 21
3337.159858108843
 31
0.0
  0
LINE
  5
3CF
  8
PREDEFINITO
 10
-4126.214191939433
 20
3319.292807874345
 30
0.0
 11
-4126.214191939433
 21
3325.965102668407
 31
0.0
  0
LINE
  5
3D0
  8
PREDEFINITO
 10
-4126.214191939433
 20
3305.743758379744
 30
0.0
 11
-4126.214191939433
 21
3316.090488733946
 31
0.0
  0
LINE
  5
3D1
  8
PREDEFINITO
 10
-4126.214191939433
 20
3296.8893951082
 30
0.0
 11
-4126.214191939433
 21
3304.379132500866
 31
0.0
  0
LINE
  5
3D2
  8
PREDEFINITO
 10
-4126.214191939433
 20
3284.114904570548
 30
0.0
 11
-4126.214191939433
 21
3290.526685639225
 31
0.0
  0
LINE
  5
3D3
  8
PREDEFINITO
 10
-4126.214191939433
 20
3274.234774932727
 30
0.0
 11
-4126.214191939433
 21
3282.508639278608
 31
0.0
  0
LINE
  5
3D4
  8
PREDEFINITO
 10
-4126.214191939433
 20
3263.508668414661
 30
0.0
 11
-4126.214191939433
 21
3271.551824607365
 31
0.0
  0
LINE
  5
3D5
  8
PREDEFINITO
 10
-4126.214191939433
 20
3251.726542873767
 30
0.0
 11
-4126.214191939433
 21
3258.989792106182
 31
0.0
  0
LINE
  5
3D6
  8
PREDEFINITO
 10
-4126.214191939433
 20
3240.955964707084
 30
0.0
 11
-4126.214191939433
 21
3251.328693884593
 31
0.0
  0
LINE
  5
3D7
  8
PREDEFINITO
 10
-4126.214191939433
 20
3231.817527100001
 30
0.0
 11
-4126.214191939433
 21
3239.427212877594
 31
0.0
  0
LINE
  5
3D8
  8
PREDEFINITO
 10
-4126.214191939433
 20
3220.459753769586
 30
0.0
 11
-4126.214191939433
 21
3228.20775558353
 31
0.0
  0
LINE
  5
3D9
  8
PREDEFINITO
 10
-4126.214191939433
 20
3208.760635662448
 30
0.0
 11
-4126.214191939433
 21
3219.470040569091
 31
0.0
  0
LINE
  5
3DA
  8
PREDEFINITO
 10
-4126.214191939433
 20
3202.725980683718
 30
0.0
 11
-4126.214191939433
 21
3207.473340175229
 31
0.0
  0
LINE
  5
3DB
  8
PREDEFINITO
 10
-4126.214191939433
 20
3189.303472659044
 30
0.0
 11
-4126.214191939433
 21
3196.833275241162
 31
0.0
  0
LINE
  5
3DC
  8
PREDEFINITO
 10
-4126.214191939433
 20
3176.797624799738
 30
0.0
 11
-4126.214191939433
 21
3187.421381274561
 31
0.0
  0
LINE
  5
3DD
  8
PREDEFINITO
 10
-4126.214191939433
 20
3167.882069077762
 30
0.0
 11
-4126.214191939433
 21
3175.763083280706
 31
0.0
  0
LINE
  5
3DE
  8
PREDEFINITO
 10
-4126.214191939433
 20
3145.141385202784
 30
0.0
 11
-4126.214191939433
 21
3163.332565394729
 31
0.0
  0
LINE
  5
3DF
  8
PREDEFINITO
 10
-4126.214191939433
 20
3136.577878661815
 30
0.0
 11
-4126.214191939433
 21
3144.368714649813
 31
0.0
  0
LINE
  5
3E0
  8
PREDEFINITO
 10
-4126.214191939433
 20
3113.865721027193
 30
0.0
 11
-4126.214191939433
 21
3132.184842507021
 31
0.0
  0
LINE
  5
3E1
  8
PREDEFINITO
 10
-4126.214191939433
 20
3105.678818151904
 30
0.0
 11
-4126.214191939433
 21
3113.361738796055
 31
0.0
  0
LINE
  5
3E2
  8
PREDEFINITO
 10
-4126.214191939433
 20
3083.043614599718
 30
0.0
 11
-4126.214191939433
 21
3103.005758937472
 31
0.0
  0
LINE
  5
3E3
  8
PREDEFINITO
 10
-4126.214191939433
 20
3075.255204814664
 30
0.0
 11
-4126.214191939433
 21
3082.812730466808
 31
0.0
  0
LINE
  5
3E4
  8
PREDEFINITO
 10
-4126.214191939433
 20
3033.04643340665
 30
0.0
 11
-4126.214191939433
 21
3071.743812924238
 31
0.0
  0
LINE
  5
3E5
  8
PREDEFINITO
 10
-4126.214191939433
 20
3025.37782450827
 30
0.0
 11
-4126.214191939433
 21
3030.662250481601
 31
0.0
  0
LINE
  5
3E6
  8
PREDEFINITO
 10
-4126.214191939433
 20
3003.612662381976
 30
0.0
 11
-4126.214191939433
 21
3023.046872361387
 31
0.0
  0
LINE
  5
3E7
  8
PREDEFINITO
 10
-4126.214191939433
 20
2995.007885003331
 30
0.0
 11
-4126.214191939433
 21
3001.727100073903
 31
0.0
  0
LINE
  5
3E8
  8
PREDEFINITO
 10
-4126.214191939433
 20
2975.060002357763
 30
0.0
 11
-4126.214191939433
 21
2994.012562098411
 31
0.0
  0
LINE
  5
3E9
  8
PREDEFINITO
 10
-4126.214191939433
 20
2966.563870571005
 30
0.0
 11
-4126.214191939433
 21
2973.503597575773
 31
0.0
  0
LINE
  5
3EA
  8
PREDEFINITO
 10
-4126.214191939433
 20
2947.285828341889
 30
0.0
 11
-4126.214191939433
 21
2965.223872213959
 31
0.0
  0
LINE
  5
3EB
  8
PREDEFINITO
 10
-4126.214191939433
 20
2939.320316126223
 30
0.0
 11
-4126.214191939433
 21
2946.055768421997
 31
0.0
  0
LINE
  5
3EC
  8
PREDEFINITO
 10
-4126.214191939433
 20
2920.354990461984
 30
0.0
 11
-4126.214191939433
 21
2938.21215496269
 31
0.0
  0
LINE
  5
3ED
  8
PREDEFINITO
 10
-4126.214191939433
 20
2912.930465392824
 30
0.0
 11
-4126.214191939433
 21
2919.443034849976
 31
0.0
  0
LINE
  5
3EE
  8
PREDEFINITO
 10
-4126.214191939433
 20
2894.333412979749
 30
0.0
 11
-4126.214191939433
 21
2911.579252174316
 31
0.0
  0
LINE
  5
3EF
  8
PREDEFINITO
 10
-4126.214191939433
 20
2887.398137382631
 30
0.0
 11
-4126.214191939433
 21
2893.733234771274
 31
0.0
  0
LINE
  5
3F0
  8
PREDEFINITO
 10
-4126.214191939433
 20
2861.148794122778
 30
0.0
 11
-4126.214191939433
 21
2885.868547355773
 31
0.0
  0
LINE
  5
3F1
  8
PREDEFINITO
 10
-4126.214191939433
 20
2840.605159109968
 30
0.0
 11
-4126.214191939433
 21
2860.95110172331
 31
0.0
  0
LINE
  5
3F2
  8
PREDEFINITO
 10
-4126.214191939433
 20
2833.769830230128
 30
0.0
 11
-4126.214191939433
 21
2839.404818194809
 31
0.0
  0
LINE
  5
3F3
  8
PREDEFINITO
 10
-4126.214191939433
 20
2828.124894573698
 30
0.0
 11
-4126.214191939433
 21
2832.907279905744
 31
0.0
  0
LINE
  5
3F4
  8
PREDEFINITO
 10
-4126.214191939433
 20
2823.510390346692
 30
0.0
 11
-4126.214191939433
 21
2825.332901459516
 31
0.0
  0
LINE
  5
3F5
  8
PREDEFINITO
 10
-4126.214191939433
 20
2807.63257828345
 30
0.0
 11
-4126.214191939433
 21
2822.300667147138
 31
0.0
  0
LINE
  5
3F6
  8
PREDEFINITO
 10
-4126.214191939433
 20
2800.998451639236
 30
0.0
 11
-4126.214191939433
 21
2806.280936578451
 31
0.0
  0
LINE
  5
3F7
  8
PREDEFINITO
 10
-4126.214191939433
 20
2794.570302489501
 30
0.0
 11
-4126.214191939433
 21
2800.18437390522
 31
0.0
  0
LINE
  5
3F8
  8
PREDEFINITO
 10
-4126.214191939433
 20
2786.610622901007
 30
0.0
 11
-4126.214191939433
 21
2793.485284459076
 31
0.0
  0
LINE
  5
3F9
  8
PREDEFINITO
 10
-4126.214191939433
 20
2780.604148024569
 30
0.0
 11
-4126.214191939433
 21
2785.590801697032
 31
0.0
  0
LINE
  5
3FA
  8
PREDEFINITO
 10
-4126.214191939433
 20
2775.959396410495
 30
0.0
 11
-4126.214191939433
 21
2779.874688811207
 31
0.0
  0
LINE
  5
3FB
  8
PREDEFINITO
 10
-4126.214191939433
 20
2767.867062413437
 30
0.0
 11
-4126.214191939433
 21
2770.859560572298
 31
0.0
  0
LINE
  5
3FC
  8
PREDEFINITO
 10
-4126.214191939433
 20
2761.422166069152
 30
0.0
 11
-4126.214191939433
 21
2766.101631320347
 31
0.0
  0
LINE
  5
3FD
  8
PREDEFINITO
 10
-4126.214191939433
 20
2748.285121124474
 30
0.0
 11
-4126.214191939433
 21
2760.492038411628
 31
0.0
  0
LINE
  5
3FE
  8
PREDEFINITO
 10
-4126.214191939433
 20
2743.494255534451
 30
0.0
 11
-4126.214191939433
 21
2747.856255785462
 31
0.0
  0
LINE
  5
3FF
  8
PREDEFINITO
 10
-4126.214191939433
 20
2731.068827911278
 30
0.0
 11
-4126.214191939433
 21
2742.39807149281
 31
0.0
  0
LINE
  5
400
  8
PREDEFINITO
 10
-4126.214191939433
 20
2726.862202667275
 30
0.0
 11
-4126.214191939433
 21
2730.130498599366
 31
0.0
  0
LINE
  5
401
  8
PREDEFINITO
 10
-4126.214191939433
 20
2720.341407817036
 30
0.0
 11
-4126.214191939433
 21
2725.628603150956
 31
0.0
  0
LINE
  5
402
  8
PREDEFINITO
 10
-4126.214191939433
 20
2715.258331479004
 30
0.0
 11
-4126.214191939433
 21
2719.043217185407
 31
0.0
  0
LINE
  5
403
  8
PREDEFINITO
 10
-4126.214191939433
 20
2711.561707191896
 30
0.0
 11
-4126.214191939433
 21
2715.207156105608
 31
0.0
  0
LINE
  5
404
  8
PREDEFINITO
 10
-4126.214191939433
 20
2705.403313375217
 30
0.0
 11
-4126.214191939433
 21
2709.815006821514
 31
0.0
  0
LINE
  5
405
  8
PREDEFINITO
 10
-4126.214191939433
 20
2700.979524770455
 30
0.0
 11
-4126.214191939433
 21
2704.420097117349
 31
0.0
  0
LINE
  5
406
  8
PREDEFINITO
 10
-4126.214191939433
 20
2692.085644655727
 30
0.0
 11
-4126.214191939433
 21
2700.73717914694
 31
0.0
  0
LINE
  5
407
  8
PREDEFINITO
 10
-4126.214191939433
 20
2688.090800288041
 30
0.0
 11
-4126.214191939433
 21
2691.181037621237
 31
0.0
  0
LINE
  5
408
  8
PREDEFINITO
 10
-4126.214191939433
 20
2679.807666445357
 30
0.0
 11
-4126.214191939433
 21
2687.694069793978
 31
0.0
  0
LINE
  5
409
  8
PREDEFINITO
 10
-4126.214191939433
 20
2676.620839582692
 30
0.0
 11
-4126.214191939433
 21
2679.353873719737
 31
0.0
  0
LINE
  5
40A
  8
PREDEFINITO
 10
-4126.214191939433
 20
2674.16898767043
 30
0.0
 11
-4126.214191939433
 21
2676.109025625585
 31
0.0
  0
LINE
  5
40B
  8
PREDEFINITO
 10
-4126.214191939433
 20
2669.21037772076
 30
0.0
 11
-4126.214191939433
 21
2671.425971924019
 31
0.0
  0
LINE
  5
40C
  8
PREDEFINITO
 10
-4126.214191939433
 20
2666.595075604564
 30
0.0
 11
-4126.214191939433
 21
2668.964856054102
 31
0.0
  0
LINE
  5
40D
  8
PREDEFINITO
 10
-4126.214191939433
 20
2660.14594144462
 30
0.0
 11
-4126.214191939433
 21
2666.010037498411
 31
0.0
  0
LINE
  5
40E
  8
PREDEFINITO
 10
-4126.214191939433
 20
2658.035636714011
 30
0.0
 11
-4126.214191939433
 21
2660.036943970746
 31
0.0
  0
LINE
  5
40F
  8
PREDEFINITO
 10
-4126.214191939433
 20
2650.364939223314
 30
0.0
 11
-4126.214191939433
 21
2656.929763298776
 31
0.0
  0
LINE
  5
410
  8
PREDEFINITO
 10
-4126.214191939433
 20
2648.358111458986
 30
0.0
 11
-4126.214191939433
 21
2650.048457765531
 31
0.0
  0
LINE
  5
411
  8
PREDEFINITO
 10
-4126.214191939433
 20
2646.639523010531
 30
0.0
 11
-4126.214191939433
 21
2648.288001262591
 31
0.0
  0
LINE
  5
412
  8
PREDEFINITO
 10
-4126.214191939433
 20
2643.368373700239
 30
0.0
 11
-4126.214191939433
 21
2646.520185310184
 31
0.0
  0
LINE
  5
413
  8
PREDEFINITO
 10
-4126.214191939433
 20
2642.199061435902
 30
0.0
 11
-4126.214191939433
 21
2643.167064447507
 31
0.0
  0
LINE
  5
414
  8
PREDEFINITO
 10
-4126.214191939433
 20
2641.167717693696
 30
0.0
 11
-4126.214191939433
 21
2641.905488960953
 31
0.0
  0
LINE
  5
415
  8
PREDEFINITO
 10
-4126.214191939433
 20
2639.277737805731
 30
0.0
 11
-4126.214191939433
 21
2640.832268761837
 31
0.0
  0
LINE
  5
416
  8
PREDEFINITO
 10
-4126.214191939433
 20
2638.818717074518
 30
0.0
 11
-4126.214191939433
 21
2638.955246934271
 31
0.0
  0
LINE
  5
417
  8
PREDEFINITO
 10
-4126.214191939433
 20
2637.750458722885
 30
0.0
 11
-4126.214191939433
 21
2638.049785425699
 31
0.0
  0
POLYLINE
  5
418
  8
PREDEFINITO
 66
     1
 10
0.0
 20
0.0
 30
0.0
  0
VERTEX
  5
419
  8
PREDEFINITO
 10
-4117.312459042164
 20
4001.87235748876
 30
0.0
  0
VERTEX
  5
41A
  8
PREDEFINITO
 10
-4117.244929388498
 20
4001.862537774226
 30
0.0
  0
VERTEX
  5
41B
  8
PREDEFINITO
 10
-4117.177619556583
 20
4001.851182774862
 30
0.0
  0
VERTEX
  5
41C
  8
PREDEFINITO
 10
-4117.110565921455
 20
4001.838302420431
 30
0.0
  0
VERTEX
  5
41D
  8
PREDEFINITO
 10
-4117.04380485815
 20
4001.8239066407
 30
0.0
  0
VERTEX
  5
41E
  8
PREDEFINITO
 10
-4116.977372741706
 20
4001.80800536543
 30
0.0
  0
VERTEX
  5
41F
  8
PREDEFINITO
 10
-4116.911305947158
 20
4001.790608524389
 30
0.0
  0
VERTEX
  5
420
  8
PREDEFINITO
 10
-4116.845640849546
 20
4001.77172604734
 30
0.0
  0
VERTEX
  5
421
  8
PREDEFINITO
 10
-4116.780413823904
 20
4001.751367864047
 30
0.0
  0
VERTEX
  5
422
  8
PREDEFINITO
 10
-4116.715661245269
 20
4001.729543904275
 30
0.0
  0
VERTEX
  5
423
  8
PREDEFINITO
 10
-4116.651419488679
 20
4001.706264097789
 30
0.0
  0
VERTEX
  5
424
  8
PREDEFINITO
 10
-4116.58772492917
 20
4001.681538374354
 30
0.0
  0
VERTEX
  5
425
  8
PREDEFINITO
 10
-4116.524613941776
 20
4001.655376663732
 30
0.0
  0
VERTEX
  5
426
  8
PREDEFINITO
 10
-4116.462122901538
 20
4001.62778889569
 30
0.0
  0
VERTEX
  5
427
  8
PREDEFINITO
 10
-4116.40028818349
 20
4001.598784999991
 30
0.0
  0
VERTEX
  5
428
  8
PREDEFINITO
 10
-4116.33914616267
 20
4001.568374906401
 30
0.0
  0
VERTEX
  5
429
  8
PREDEFINITO
 10
-4116.278733214113
 20
4001.536568544683
 30
0.0
  0
VERTEX
  5
42A
  8
PREDEFINITO
 10
-4116.221138810206
 20
4001.504552346454
 30
0.0
  0
VERTEX
  5
42B
  8
PREDEFINITO
 10
-4116.164277154223
 20
4001.471267122423
 30
0.0
  0
VERTEX
  5
42C
  8
PREDEFINITO
 10
-4116.108167716158
 20
4001.436735698703
 30
0.0
  0
VERTEX
  5
42D
  8
PREDEFINITO
 10
-4116.052829966007
 20
4001.400980901405
 30
0.0
  0
VERTEX
  5
42E
  8
PREDEFINITO
 10
-4115.998283373763
 20
4001.364025556642
 30
0.0
  0
VERTEX
  5
42F
  8
PREDEFINITO
 10
-4115.944547409417
 20
4001.325892490524
 30
0.0
  0
VERTEX
  5
430
  8
PREDEFINITO
 10
-4115.891641542966
 20
4001.286604529163
 30
0.0
  0
VERTEX
  5
431
  8
PREDEFINITO
 10
-4115.839585244402
 20
4001.246184498672
 30
0.0
  0
VERTEX
  5
432
  8
PREDEFINITO
 10
-4115.78839798372
 20
4001.204655225161
 30
0.0
  0
VERTEX
  5
433
  8
PREDEFINITO
 10
-4115.738099230911
 20
4001.162039534743
 30
0.0
  0
VERTEX
  5
434
  8
PREDEFINITO
 10
-4115.68870845597
 20
4001.118360253528
 30
0.0
  0
VERTEX
  5
435
  8
PREDEFINITO
 10
-4115.640245128893
 20
4001.07364020763
 30
0.0
  0
VERTEX
  5
436
  8
PREDEFINITO
 10
-4115.592728719672
 20
4001.027902223159
 30
0.0
  0
VERTEX
  5
437
  8
PREDEFINITO
 10
-4115.546178698299
 20
4000.981169126228
 30
0.0
  0
VERTEX
  5
438
  8
PREDEFINITO
 10
-4115.500614534769
 20
4000.933463742947
 30
0.0
  0
VERTEX
  5
439
  8
PREDEFINITO
 10
-4115.456055699076
 20
4000.884808899428
 30
0.0
  0
VERTEX
  5
43A
  8
PREDEFINITO
 10
-4115.419652568985
 20
4000.843484514934
 30
0.0
  0
VERTEX
  5
43B
  8
PREDEFINITO
 10
-4115.38400576653
 20
4000.801510238089
 30
0.0
  0
VERTEX
  5
43C
  8
PREDEFINITO
 10
-4115.349157660676
 20
4000.758881746284
 30
0.0
  0
VERTEX
  5
43D
  8
PREDEFINITO
 10
-4115.315150620382
 20
4000.715594716912
 30
0.0
  0
VERTEX
  5
43E
  8
PREDEFINITO
 10
-4115.282027014613
 20
4000.671644827365
 30
0.0
  0
VERTEX
  5
43F
  8
PREDEFINITO
 10
-4115.249829212332
 20
4000.627027755035
 30
0.0
  0
VERTEX
  5
440
  8
PREDEFINITO
 10
-4115.2185995825
 20
4000.581739177315
 30
0.0
  0
VERTEX
  5
441
  8
PREDEFINITO
 10
-4115.18838049408
 20
4000.535774771596
 30
0.0
  0
VERTEX
  5
442
  8
PREDEFINITO
 10
-4114.656048242291
 20
3999.663709409439
 30
0.0
  0
VERTEX
  5
443
  8
PREDEFINITO
 10
-4113.988683286378
 20
3998.535740235292
 30
0.0
  0
VERTEX
  5
444
  8
PREDEFINITO
 10
-4113.349221321862
 20
3997.391815465682
 30
0.0
  0
VERTEX
  5
445
  8
PREDEFINITO
 10
-4112.716694275327
 20
3996.175198782593
 30
0.0
  0
VERTEX
  5
446
  8
PREDEFINITO
 10
-4112.12292047243
 20
3994.939171928056
 30
0.0
  0
VERTEX
  5
447
  8
PREDEFINITO
 10
-4111.567869500883
 20
3993.685176679137
 30
0.0
  0
VERTEX
  5
448
  8
PREDEFINITO
 10
-4111.0515109484
 20
3992.414654812903
 30
0.0
  0
VERTEX
  5
449
  8
PREDEFINITO
 10
-4110.573814402695
 20
3991.12904810642
 30
0.0
  0
VERTEX
  5
44A
  8
PREDEFINITO
 10
-4110.134749451478
 20
3989.829798336754
 30
0.0
  0
VERTEX
  5
44B
  8
PREDEFINITO
 10
-4109.734285682465
 20
3988.51834728097
 30
0.0
  0
VERTEX
  5
44C
  8
PREDEFINITO
 10
-4109.372392683366
 20
3987.196136716136
 30
0.0
  0
SEQEND
  5
44D
  8
PREDEFINITO
  0
ARC
  5
44E
  8
PREDEFINITO
 10
-4082.299605627106
 20
3976.005573897382
 30
0.0
 40
45.15838019339017
 50
156.1155673512181
 51
165.7592834079779
  0
ARC
  5
44F
  8
PREDEFINITO
 10
-4120.969985806637
 20
3985.89363614451
 30
0.0
 40
5.244280058870708
 50
167.3934734951279
 51
179.6957756114781
  0
ARC
  5
450
  8
PREDEFINITO
 10
-4121.016812195231
 20
2637.773680509791
 30
0.0
 40
5.197431621178207
 50
180.255994673176
 51
192.6699999369847
  0
POLYLINE
  5
451
  8
PREDEFINITO
 66
     1
 10
0.0
 20
0.0
 30
0.0
  0
VERTEX
  5
452
  8
PREDEFINITO
 10
-4109.372392683365
 20
2636.475803664679
 30
0.0
  0
VERTEX
  5
453
  8
PREDEFINITO
 10
-4109.771722581365
 20
2635.02985662316
 30
0.0
  0
VERTEX
  5
454
  8
PREDEFINITO
 10
-4110.213979680006
 20
2633.594658866078
 30
0.0
  0
VERTEX
  5
455
  8
PREDEFINITO
 10
-4110.70198801142
 20
2632.173949788793
 30
0.0
  0
VERTEX
  5
456
  8
PREDEFINITO
 10
-4110.96403139946
 20
2631.470197066124
 30
0.0
  0
VERTEX
  5
457
  8
PREDEFINITO
 10
-4111.238571607742
 20
2630.771468786665
 30
0.0
  0
VERTEX
  5
458
  8
PREDEFINITO
 10
-4111.519314787761
 20
2630.093429829866
 30
0.0
  0
VERTEX
  5
459
  8
PREDEFINITO
 10
-4111.811827111243
 20
2629.420535772684
 30
0.0
  0
VERTEX
  5
45A
  8
PREDEFINITO
 10
-4112.430087605318
 20
2628.089756596517
 30
0.0
  0
VERTEX
  5
45B
  8
PREDEFINITO
 10
-4113.089209923399
 20
2626.778279736855
 30
0.0
  0
VERTEX
  5
45C
  8
PREDEFINITO
 10
-4113.78505089892
 20
2625.485253672389
 30
0.0
  0
VERTEX
  5
45D
  8
PREDEFINITO
 10
-4114.460165009621
 20
2624.311984728236
 30
0.0
  0
VERTEX
  5
45E
  8
PREDEFINITO
 10
-4114.815960689783
 20
2623.736458634075
 30
0.0
  0
VERTEX
  5
45F
  8
PREDEFINITO
 10
-4115.188106641364
 20
2623.171271665059
 30
0.0
  0
VERTEX
  5
460
  8
PREDEFINITO
 10
-4115.292174937938
 20
2623.021054591361
 30
0.0
  0
VERTEX
  5
461
  8
PREDEFINITO
 10
-4115.3998414781
 20
2622.873966612956
 30
0.0
  0
VERTEX
  5
462
  8
PREDEFINITO
 10
-4115.455704234428
 20
2622.802288077212
 30
0.0
  0
VERTEX
  5
463
  8
PREDEFINITO
 10
-4115.513282725534
 20
2622.73222226656
 30
0.0
  0
VERTEX
  5
464
  8
PREDEFINITO
 10
-4115.572849009381
 20
2622.664045998089
 30
0.0
  0
VERTEX
  5
465
  8
PREDEFINITO
 10
-4115.603462591695
 20
2622.630752947512
 30
0.0
  0
VERTEX
  5
466
  8
PREDEFINITO
 10
-4115.634675143928
 20
2622.598036088888
 30
0.0
  0
VERTEX
  5
467
  8
PREDEFINITO
 10
-4115.684905217472
 20
2622.547926573243
 30
0.0
  0
VERTEX
  5
468
  8
PREDEFINITO
 10
-4115.736639793606
 20
2622.499326944315
 30
0.0
  0
VERTEX
  5
469
  8
PREDEFINITO
 10
-4115.789825152578
 20
2622.452243475344
 30
0.0
  0
VERTEX
  5
46A
  8
PREDEFINITO
 10
-4115.844407574642
 20
2622.406682439573
 30
0.0
  0
VERTEX
  5
46B
  8
PREDEFINITO
 10
-4115.900333340047
 20
2622.362650110243
 30
0.0
  0
VERTEX
  5
46C
  8
PREDEFINITO
 10
-4115.957548729045
 20
2622.320152760595
 30
0.0
  0
VERTEX
  5
46D
  8
PREDEFINITO
 10
-4116.016000021885
 20
2622.279196663871
 30
0.0
  0
VERTEX
  5
46E
  8
PREDEFINITO
 10
-4116.075633498819
 20
2622.239788093312
 30
0.0
  0
VERTEX
  5
46F
  8
PREDEFINITO
 10
-4116.136395440099
 20
2622.201933322161
 30
0.0
  0
VERTEX
  5
470
  8
PREDEFINITO
 10
-4116.198232125972
 20
2622.165638623656
 30
0.0
  0
VERTEX
  5
471
  8
PREDEFINITO
 10
-4116.261089836693
 20
2622.130910271041
 30
0.0
  0
VERTEX
  5
472
  8
PREDEFINITO
 10
-4116.324914852508
 20
2622.097754537557
 30
0.0
  0
VERTEX
  5
473
  8
PREDEFINITO
 10
-4116.389653453673
 20
2622.066177696446
 30
0.0
  0
VERTEX
  5
474
  8
PREDEFINITO
 10
-4116.455251920434
 20
2622.036186020948
 30
0.0
  0
VERTEX
  5
475
  8
PREDEFINITO
 10
-4116.521656533045
 20
2622.007785784306
 30
0.0
  0
VERTEX
  5
476
  8
PREDEFINITO
 10
-4116.588813571756
 20
2621.980983259761
 30
0.0
  0
VERTEX
  5
477
  8
PREDEFINITO
 10
-4116.656669316817
 20
2621.955784720553
 30
0.0
  0
VERTEX
  5
478
  8
PREDEFINITO
 10
-4116.725170048479
 20
2621.932196439926
 30
0.0
  0
VERTEX
  5
479
  8
PREDEFINITO
 10
-4116.794262046992
 20
2621.910224691118
 30
0.0
  0
VERTEX
  5
47A
  8
PREDEFINITO
 10
-4116.863891592608
 20
2621.889875747374
 30
0.0
  0
VERTEX
  5
47B
  8
PREDEFINITO
 10
-4116.934004965577
 20
2621.871155881934
 30
0.0
  0
VERTEX
  5
47C
  8
PREDEFINITO
 10
-4117.00454844615
 20
2621.854071368039
 30
0.0
  0
VERTEX
  5
47D
  8
PREDEFINITO
 10
-4117.075468314579
 20
2621.838628478931
 30
0.0
  0
VERTEX
  5
47E
  8
PREDEFINITO
 10
-4117.146710851111
 20
2621.824833487851
 30
0.0
  0
VERTEX
  5
47F
  8
PREDEFINITO
 10
-4117.218222336001
 20
2621.812692668041
 30
0.0
  0
VERTEX
  5
480
  8
PREDEFINITO
 10
-4117.289949049497
 20
2621.802212292741
 30
0.0
  0
VERTEX
  5
481
  8
PREDEFINITO
 10
-4117.361837271851
 20
2621.793398635195
 30
0.0
  0
VERTEX
  5
482
  8
PREDEFINITO
 10
-4117.433833283314
 20
2621.786257968643
 30
0.0
  0
VERTEX
  5
483
  8
PREDEFINITO
 10
-4117.505883364134
 20
2621.780796566326
 30
0.0
  0
VERTEX
  5
484
  8
PREDEFINITO
 10
-4117.577933794566
 20
2621.777020701486
 30
0.0
  0
VERTEX
  5
485
  8
PREDEFINITO
 10
-4117.649930854857
 20
2621.774936647364
 30
0.0
  0
VERTEX
  5
486
  8
PREDEFINITO
 10
-4117.721820825259
 20
2621.774550677202
 30
0.0
  0
VERTEX
  5
487
  8
PREDEFINITO
 10
-4117.792017439425
 20
2621.775820353881
 30
0.0
  0
VERTEX
  5
488
  8
PREDEFINITO
 10
-4117.862035700643
 20
2621.778712976146
 30
0.0
  0
VERTEX
  5
489
  8
PREDEFINITO
 10
-4117.931851239351
 20
2621.783219481111
 30
0.0
  0
VERTEX
  5
48A
  8
PREDEFINITO
 10
-4118.001439685988
 20
2621.789330805893
 30
0.0
  0
VERTEX
  5
48B
  8
PREDEFINITO
 10
-4118.07077667099
 20
2621.797037887606
 30
0.0
  0
VERTEX
  5
48C
  8
PREDEFINITO
 10
-4118.139837824796
 20
2621.806331663365
 30
0.0
  0
VERTEX
  5
48D
  8
PREDEFINITO
 10
-4118.208598777843
 20
2621.817203070287
 30
0.0
  0
VERTEX
  5
48E
  8
PREDEFINITO
 10
-4118.27703516057
 20
2621.829643045484
 30
0.0
  0
VERTEX
  5
48F
  8
PREDEFINITO
 10
-4118.345122603414
 20
2621.843642526074
 30
0.0
  0
VERTEX
  5
490
  8
PREDEFINITO
 10
-4118.412836736812
 20
2621.859192449172
 30
0.0
  0
VERTEX
  5
491
  8
PREDEFINITO
 10
-4118.480153191203
 20
2621.876283751893
 30
0.0
  0
VERTEX
  5
492
  8
PREDEFINITO
 10
-4118.547047597024
 20
2621.894907371351
 30
0.0
  0
VERTEX
  5
493
  8
PREDEFINITO
 10
-4118.613495584714
 20
2621.915054244661
 30
0.0
  0
VERTEX
  5
494
  8
PREDEFINITO
 10
-4118.679472784708
 20
2621.936715308942
 30
0.0
  0
VERTEX
  5
495
  8
PREDEFINITO
 10
-4118.744954827447
 20
2621.959881501305
 30
0.0
  0
VERTEX
  5
496
  8
PREDEFINITO
 10
-4118.809917343367
 20
2621.984543758867
 30
0.0
  0
VERTEX
  5
497
  8
PREDEFINITO
 10
-4118.874335962906
 20
2622.010693018744
 30
0.0
  0
VERTEX
  5
498
  8
PREDEFINITO
 10
-4118.938186316502
 20
2622.038320218049
 30
0.0
  0
VERTEX
  5
499
  8
PREDEFINITO
 10
-4119.001444034593
 20
2622.067416293898
 30
0.0
  0
VERTEX
  5
49A
  8
PREDEFINITO
 10
-4119.064084747617
 20
2622.097972183408
 30
0.0
  0
VERTEX
  5
49B
  8
PREDEFINITO
 10
-4119.12608408601
 20
2622.129978823692
 30
0.0
  0
VERTEX
  5
49C
  8
PREDEFINITO
 10
-4119.187417680212
 20
2622.163427151867
 30
0.0
  0
VERTEX
  5
49D
  8
PREDEFINITO
 10
-4119.24806116066
 20
2622.198308105047
 30
0.0
  0
VERTEX
  5
49E
  8
PREDEFINITO
 10
-4119.307990157791
 20
2622.234612620347
 30
0.0
  0
VERTEX
  5
49F
  8
PREDEFINITO
 10
-4119.367180302044
 20
2622.272331634884
 30
0.0
  0
VERTEX
  5
4A0
  8
PREDEFINITO
 10
-4119.425607223855
 20
2622.311456085772
 30
0.0
  0
VERTEX
  5
4A1
  8
PREDEFINITO
 10
-4119.483246553664
 20
2622.351976910126
 30
0.0
  0
VERTEX
  5
4A2
  8
PREDEFINITO
 10
-4119.540073921908
 20
2622.393885045061
 30
0.0
  0
VERTEX
  5
4A3
  8
PREDEFINITO
 10
-4119.596064959022
 20
2622.437171427694
 30
0.0
  0
VERTEX
  5
4A4
  8
PREDEFINITO
 10
-4119.651195295448
 20
2622.481826995138
 30
0.0
  0
VERTEX
  5
4A5
  8
PREDEFINITO
 10
-4119.705440561622
 20
2622.52784268451
 30
0.0
  0
VERTEX
  5
4A6
  8
PREDEFINITO
 10
-4119.75877638798
 20
2622.575209432924
 30
0.0
  0
VERTEX
  5
4A7
  8
PREDEFINITO
 10
-4119.832325228746
 20
2622.644313240417
 30
0.0
  0
VERTEX
  5
4A8
  8
PREDEFINITO
 10
-4119.868187868607
 20
2622.679857352341
 30
0.0
  0
VERTEX
  5
4A9
  8
PREDEFINITO
 10
-4119.903328089553
 20
2622.716057911111
 30
0.0
  0
VERTEX
  5
4AA
  8
PREDEFINITO
 10
-4119.937659967658
 20
2622.752911147772
 30
0.0
  0
VERTEX
  5
4AB
  8
PREDEFINITO
 10
-4119.971097578995
 20
2622.790413293372
 30
0.0
  0
VERTEX
  5
4AC
  8
PREDEFINITO
 10
-4120.003554999637
 20
2622.828560578957
 30
0.0
  0
VERTEX
  5
4AD
  8
PREDEFINITO
 10
-4120.034946305661
 20
2622.867349235572
 30
0.0
  0
VERTEX
  5
4AE
  8
PREDEFINITO
 10
-4120.065216297542
 20
2622.906753587632
 30
0.0
  0
VERTEX
  5
4AF
  8
PREDEFINITO
 10
-4120.094476716655
 20
2622.946718252872
 30
0.0
  0
VERTEX
  5
4B0
  8
PREDEFINITO
 10
-4120.150536449482
 20
2623.028020612678
 30
0.0
  0
VERTEX
  5
4B1
  8
PREDEFINITO
 10
-4120.256784783939
 20
2623.193962078139
 30
0.0
  0
VERTEX
  5
4B2
  8
PREDEFINITO
 10
-4120.982242751329
 20
2624.374218675079
 30
0.0
  0
VERTEX
  5
4B3
  8
PREDEFINITO
 10
-4121.681829177153
 20
2625.57366173545
 30
0.0
  0
VERTEX
  5
4B4
  8
PREDEFINITO
 10
-4122.385717284405
 20
2626.872777720909
 30
0.0
  0
VERTEX
  5
4B5
  8
PREDEFINITO
 10
-4123.045295119173
 20
2628.194614369037
 30
0.0
  0
VERTEX
  5
4B6
  8
PREDEFINITO
 10
-4123.66033712578
 20
2629.53760036429
 30
0.0
  0
VERTEX
  5
4B7
  8
PREDEFINITO
 10
-4124.23061774855
 20
2630.900164391127
 30
0.0
  0
VERTEX
  5
4B8
  8
PREDEFINITO
 10
-4124.755911431807
 20
2632.280735134006
 30
0.0
  0
VERTEX
  5
4B9
  8
PREDEFINITO
 10
-4125.235992619877
 20
2633.677741277385
 30
0.0
  0
VERTEX
  5
4BA
  8
PREDEFINITO
 10
-4125.670635757082
 20
2635.089611505722
 30
0.0
  0
VERTEX
  5
4BB
  8
PREDEFINITO
 10
-4126.059615287748
 20
2636.514774503476
 30
0.0
  0
SEQEND
  5
4BC
  8
PREDEFINITO
  0
LINE
  5
4BD
  8
PREDEFINITO
 10
-4109.20163283564
 20
4154.583759202686
 30
0.0
 11
-4109.20163283564
 21
4093.583759202686
 31
0.0
  0
LINE
  5
4BE
  8
PREDEFINITO
 10
-4126.20163283564
 20
4093.583759202686
 30
0.0
 11
-4126.20163283564
 21
4154.583759202686
 31
0.0
  0
LINE
  5
4BF
  8
PREDEFINITO
 10
-4118.096579378965
 20
3946.564934782594
 30
0.0
 11
-4118.096579378965
 21
4085.331594829227
 31
0.0
  0
LINE
  5
4C0
  8
PREDEFINITO
 10
-4117.296579378964
 20
4085.331594829227
 30
0.0
 11
-4117.296579378964
 21
3946.575519094144
 31
0.0
  0
LINE
  5
4C1
  8
PREDEFINITO
 10
-4118.096579378965
 20
4154.583759202686
 30
0.0
 11
-4118.096579378965
 21
4346.58152232734
 31
0.0
  0
LINE
  5
4C2
  8
PREDEFINITO
 10
-4118.096579378965
 20
4085.331594829227
 30
0.0
 11
-4118.096579378965
 21
4093.583759202685
 31
0.0
  0
LINE
  5
4C3
  8
PREDEFINITO
 10
-4117.296579378964
 20
4093.583759202685
 30
0.0
 11
-4117.296579378964
 21
4085.331594829227
 31
0.0
  0
LINE
  5
4C4
  8
PREDEFINITO
 10
-4117.296579378964
 20
4346.58152232734
 30
0.0
 11
-4117.296579378964
 21
4154.583759202686
 31
0.0
  0
LINE
  5
4C5
  8
PREDEFINITO
 10
-4115.10163283564
 20
4239.033759202686
 30
0.0
 11
-4115.10163283564
 21
4184.033759202686
 31
0.0
  0
LINE
  5
4C6
  8
PREDEFINITO
 10
-4120.301632835641
 20
4184.033759202686
 30
0.0
 11
-4120.301632835641
 21
4239.033759202686
 31
0.0
  0
LINE
  5
4C7
  8
PREDEFINITO
 10
-4115.101632835641
 20
4249.011554051211
 30
0.0
 11
-4115.101632835641
 21
4245.701281612036
 31
0.0
  0
LINE
  5
4C8
  8
PREDEFINITO
 10
-4120.301632835641
 20
4245.709012182269
 30
0.0
 11
-4120.301632835641
 21
4249.017154195211
 31
0.0
  0
LINE
  5
4C9
  8
PREDEFINITO
 10
-4115.101632835641
 20
4252.31822901039
 30
0.0
 11
-4115.101632835641
 21
4249.017154195211
 31
0.0
  0
LINE
  5
4CA
  8
PREDEFINITO
 10
-4120.301632835641
 20
4249.028351247272
 30
0.0
 11
-4120.301632835641
 21
4252.325358637782
 31
0.0
  0
LINE
  5
4CB
  8
PREDEFINITO
 10
-4115.101632835641
 20
4257.78779134347
 30
0.0
 11
-4115.101632835641
 21
4252.325358637781
 31
0.0
  0
LINE
  5
4CC
  8
PREDEFINITO
 10
-4120.301632835641
 20
4252.339613771169
 30
0.0
 11
-4120.301632835641
 21
4257.797224401381
 31
0.0
  0
LINE
  5
4CD
  8
PREDEFINITO
 10
-4115.101632835641
 20
4263.231606538117
 30
0.0
 11
-4115.101632835641
 21
4257.79722440138
 31
0.0
  0
LINE
  5
4CE
  8
PREDEFINITO
 10
-4120.301632835641
 20
4257.816085065778
 30
0.0
 11
-4120.301632835641
 21
4263.24276467165
 31
0.0
  0
LINE
  5
4CF
  8
PREDEFINITO
 10
-4115.101632835641
 20
4268.666737994765
 30
0.0
 11
-4115.101632835641
 21
4263.24276467165
 31
0.0
  0
LINE
  5
4D0
  8
PREDEFINITO
 10
-4120.301632835641
 20
4263.265074494357
 30
0.0
 11
-4120.301632835641
 21
4268.679334843375
 31
0.0
  0
LINE
  5
4D1
  8
PREDEFINITO
 10
-4115.101632835641
 20
4274.081829722315
 30
0.0
 11
-4115.101632835641
 21
4268.679334843374
 31
0.0
  0
LINE
  5
4D2
  8
PREDEFINITO
 10
-4120.301632835641
 20
4268.704521258215
 30
0.0
 11
-4120.301632835641
 21
4274.095301856224
 31
0.0
  0
LINE
  5
4D3
  8
PREDEFINITO
 10
-4115.101632835642
 20
4279.495432950149
 30
0.0
 11
-4115.101632835642
 21
4274.095301856223
 31
0.0
  0
LINE
  5
4D4
  8
PREDEFINITO
 10
-4120.301632835642
 20
4274.122238348099
 30
0.0
 11
-4120.301632835642
 21
4279.509504659072
 31
0.0
  0
LINE
  5
4D5
  8
PREDEFINITO
 10
-4115.101632834932
 20
4284.917157828306
 30
0.0
 11
-4115.101632834932
 21
4279.509504659074
 31
0.0
  0
LINE
  5
4D6
  8
PREDEFINITO
 10
-4120.301632834932
 20
4279.537639948484
 30
0.0
 11
-4120.301632834932
 21
4284.917157828306
 31
0.0
  0
LINE
  5
4D7
  8
PREDEFINITO
 10
-4120.301632835808
 20
4284.945397467719
 30
0.0
 11
-4120.301632835808
 21
4290.324933244779
 31
0.0
  0
LINE
  5
4D8
  8
PREDEFINITO
 10
-4115.101632835807
 20
4290.324933244779
 30
0.0
 11
-4115.101632835807
 21
4285.024058887826
 31
0.0
  0
LINE
  5
4D9
  8
PREDEFINITO
 10
-4120.301632835688
 20
4290.432454288007
 30
0.0
 11
-4120.301632835688
 21
4295.742520224652
 31
0.0
  0
LINE
  5
4DA
  8
PREDEFINITO
 10
-4115.101632835688
 20
4295.742520224652
 30
0.0
 11
-4115.101632835688
 21
4290.346179728404
 31
0.0
  0
LINE
  5
4DB
  8
PREDEFINITO
 10
-4120.301632835675
 20
4295.844091290676
 30
0.0
 11
-4120.301632835675
 21
4301.162717504983
 31
0.0
  0
LINE
  5
4DC
  8
PREDEFINITO
 10
-4115.101632835675
 20
4301.162717504983
 30
0.0
 11
-4115.101632835675
 21
4295.762590976683
 31
0.0
  0
LINE
  5
4DD
  8
PREDEFINITO
 10
-4120.301632835639
 20
4301.256192773894
 30
0.0
 11
-4120.301632835639
 21
4306.605576682085
 31
0.0
  0
LINE
  5
4DE
  8
PREDEFINITO
 10
-4115.101632835639
 20
4306.605576682085
 30
0.0
 11
-4115.101632835639
 21
4301.181188503167
 31
0.0
  0
LINE
  5
4DF
  8
PREDEFINITO
 10
-4120.301632835639
 20
4306.686566640165
 30
0.0
 11
-4120.301632835639
 21
4312.060100528111
 31
0.0
  0
LINE
  5
4E0
  8
PREDEFINITO
 10
-4115.101632835639
 20
4312.060100528111
 30
0.0
 11
-4115.101632835639
 21
4306.621580540014
 31
0.0
  0
LINE
  5
4E1
  8
PREDEFINITO
 10
-4120.301632835639
 20
4312.126371457083
 30
0.0
 11
-4120.301632835639
 21
4317.540514837381
 31
0.0
  0
LINE
  5
4E2
  8
PREDEFINITO
 10
-4115.101632835639
 20
4317.525755336667
 30
0.0
 11
-4115.101632835639
 21
4312.118866233363
 31
0.0
  0
LINE
  5
4E3
  8
PREDEFINITO
 10
-4120.301632835639
 20
4317.587598727328
 30
0.0
 11
-4120.301632835639
 21
4323.054443188241
 31
0.0
  0
LINE
  5
4E4
  8
PREDEFINITO
 10
-4115.101632835639
 20
4323.037461769537
 30
0.0
 11
-4115.101632835639
 21
4317.620918972944
 31
0.0
  0
LINE
  5
4E5
  8
PREDEFINITO
 10
-4120.301632835639
 20
4323.054443188241
 30
0.0
 11
-4120.301632835639
 21
4328.58152232734
 31
0.0
  0
LINE
  5
4E6
  8
PREDEFINITO
 10
-4115.101632835639
 20
4328.58152232734
 30
0.0
 11
-4115.101632835639
 21
4323.098323651216
 31
0.0
  0
LINE
  5
4E7
  8
PREDEFINITO
 10
-4115.10163283564
 20
4346.58152232734
 30
0.0
 11
-4115.10163283564
 21
4328.58152232734
 31
0.0
  0
LINE
  5
4E8
  8
PREDEFINITO
 10
-4120.30163283564
 20
4328.58152232734
 30
0.0
 11
-4120.30163283564
 21
4346.58152232734
 31
0.0
  0
ARC
  5
4E9
  8
PREDEFINITO
 10
-4114.771013119328
 20
3940.086414356801
 30
0.0
 40
0.0841019517976706
 50
359.9658511021805
 51
1.090430357889339
  0
ARC
  5
4EA
  8
PREDEFINITO
 10
-4114.8666302683
 20
3940.103709212159
 30
0.0
 40
0.1803878982829253
 50
205.4399949963885
 51
355.0087628987681
  0
ARC
  5
4EB
  8
PREDEFINITO
 10
-4117.755068644234
 20
3934.987569965469
 30
0.0
 40
5.728575687210693
 50
61.58985287698094
 51
118.4101471239389
  0
ARC
  5
4EC
  8
PREDEFINITO
 10
-4120.64380284562
 20
3940.102069088244
 30
0.0
 40
0.1799576840748098
 50
184.4792145419473
 51
335.0720275596818
  0
LINE
  5
4ED
  8
PREDEFINITO
 10
-4120.823210890539
 20
3942.679883802866
 30
0.0
 11
-4120.823210890539
 21
3940.088014854852
 31
0.0
  0
LINE
  5
4EE
  8
PREDEFINITO
 10
-4109.372392654419
 20
2636.517212402748
 30
0.0
 11
-4109.372392683366
 21
3987.154727978068
 31
0.0
  0
LINE
  5
4EF
  8
PREDEFINITO
 10
-4117.699317358899
 20
4093.583759202686
 30
0.0
 11
-4116.98485844817
 21
4093.583759202686
 31
0.0
  0
LINE
  5
4F0
  8
PREDEFINITO
 10
-4126.193302782847
 20
4093.583759202687
 30
0.0
 11
-4117.70163283564
 21
4093.583759202685
 31
0.0
  0
LINE
  5
4F1
  8
PREDEFINITO
 10
-4116.960809022285
 20
4093.583759202686
 30
0.0
 11
-4109.240539718978
 21
4093.583759202686
 31
0.0
  0
LINE
  5
4F2
  8
PREDEFINITO
 10
-4116.960809022285
 20
4154.583759202686
 30
0.0
 11
-4109.240539718978
 21
4154.583759202686
 31
0.0
  0
LINE
  5
4F3
  8
PREDEFINITO
 10
-4117.701255882887
 20
4154.583759202685
 30
0.0
 11
-4116.98485844817
 21
4154.583759202686
 31
0.0
  0
LINE
  5
4F4
  8
PREDEFINITO
 10
-4117.70163283564
 20
4154.583759202686
 30
0.0
 11
-4126.193542719086
 21
4154.583759202686
 31
0.0
  0
ARC
  5
4F5
  8
PREDEFINITO
 10
-4117.785093744431
 20
3946.739595070937
 30
0.0
 40
0.3571127501213681
 50
209.2807898411698
 51
282.5829429205086
  0
ARC
  5
4F6
  8
PREDEFINITO
 10
-4117.605951812387
 20
3946.718847109913
 30
0.0
 40
0.3401415501351361
 50
254.5474205632131
 51
335.11919875236
  0
ARC
  5
4F7
  8
PREDEFINITO
 10
-1596.767566845903
 20
3941.946241948506
 30
0.0
 40
1.000709872356375
 50
113.5399408180305
 51
202.4069061072532
  0
ARC
  5
4F8
  8
PREDEFINITO
 10
-1587.107860022008
 20
3946.146659867778
 30
0.0
 40
1.000473270087111
 50
24.5796890745251
 51
113.4733462395698
  0
LINE
  5
4F9
  8
PREDEFINITO
 10
-1597.341888926613
 20
3940.717799448378
 30
0.0
 11
-1597.692368284958
 21
3941.563931468627
 31
0.0
  0
LINE
  5
4FA
  8
PREDEFINITO
 10
-1586.197661402178
 20
3946.561972267809
 30
0.0
 11
-1585.817865964738
 21
3945.728587241535
 31
0.0
  0
ARC
  5
4FB
  8
PREDEFINITO
 10
-1028.925508661854
 20
3941.94636622867
 30
0.0
 40
1.000473258746168
 50
337.5796884374551
 51
66.47334687670161
  0
ARC
  5
4FC
  8
PREDEFINITO
 10
-1038.585404082768
 20
3946.146350432401
 30
0.0
 40
1.000709872358176
 50
66.5399408181126
 51
155.406906107044
  0
LINE
  5
4FD
  8
PREDEFINITO
 10
-1028.001014449437
 20
3941.563931468625
 30
0.0
 11
-1028.351493807782
 21
3940.717799448377
 31
0.0
  0
LINE
  5
4FE
  8
PREDEFINITO
 10
-1039.875516769657
 20
3945.728587241534
 30
0.0
 11
-1039.495721332216
 21
3946.561972267808
 31
0.0
  0
ARC
  5
4FF
  8
PREDEFINITO
 10
-1312.84669598158
 20
3311.83595873567
 30
0.0
 40
690.0628831324987
 50
180.0000009215548
 51
65.67105660750354
  0
ARC
  5
500
  8
PREDEFINITO
 10
-1312.845390298962
 20
3311.838777412846
 30
0.0
 40
690.0597853959133
 50
66.69372640385541
 51
67.96555615227193
  0
ARC
  5
501
  8
PREDEFINITO
 10
-1312.846680657809
 20
3311.835623814449
 30
0.0
 40
690.0631850200064
 50
68.43524587526692
 51
113.3062700278279
  0
ARC
  5
502
  8
PREDEFINITO
 10
-1312.846948966707
 20
3311.836104048425
 30
0.0
 40
690.0626301473864
 50
114.3257152907203
 51
180.0000129868478
  0
LINE
  5
503
  8
PREDEFINITO
 10
-1051.878909928846
 20
4093.583736648863
 30
0.0
 11
-1051.878909928846
 21
4154.583736648863
 31
0.0
  0
LINE
  5
504
  8
PREDEFINITO
 10
-1045.975093183631
 20
4032.033736648861
 30
0.0
 11
-1045.975093183631
 21
4082.033736648862
 31
0.0
  0
LINE
  5
505
  8
PREDEFINITO
 10
-1040.77509318363
 20
4082.033736648862
 30
0.0
 11
-1040.77509318363
 21
4032.033736648861
 31
0.0
  0
ARC
  5
506
  8
PREDEFINITO
 10
-832.5982146250798
 20
4032.031700568079
 30
0.0
 40
208.1768785685071
 50
179.9994396167383
 51
182.54507448108
  0
ARC
  5
507
  8
PREDEFINITO
 10
-832.6327129413058
 20
4032.030939117878
 30
0.0
 40
213.3423802606671
 50
179.9992486878561
 51
182.5510431454349
  0
ARC
  5
508
  8
PREDEFINITO
 10
-505.5244709679499
 20
4046.606198678102
 30
0.0
 40
535.5751827674504
 50
182.5511899549612
 51
183.5469609556343
  0
ARC
  5
509
  8
PREDEFINITO
 10
-505.5208479603033
 20
4046.606364633836
 30
0.0
 40
540.7788094787605
 50
182.5524624299309
 51
183.5441790539738
  0
ARC
  5
50A
  8
PREDEFINITO
 10
19720.18715293138
 20
5301.245179401089
 30
0.0
 40
20800.16325290901
 50
183.5495944040265
 51
183.5737870344419
  0
ARC
  5
50B
  8
PREDEFINITO
 10
19727.94918932113
 20
5301.72832711793
 30
0.0
 40
20813.14031133767
 50
183.549656711299
 51
183.5738565935475
  0
ARC
  5
50C
  8
PREDEFINITO
 10
-1256.398600861263
 20
3991.094533629196
 30
0.0
 40
217.2972168455894
 50
1.239467009196398
 51
3.573386235397076
  0
ARC
  5
50D
  8
PREDEFINITO
 10
-1256.394198444791
 20
3991.094759828087
 30
0.0
 40
212.0928090312861
 50
1.22822721168564
 51
3.575168882124198
  0
ARC
  5
50E
  8
PREDEFINITO
 10
-1173.831396760967
 20
3992.864941774904
 30
0.0
 40
134.7110322125893
 50
357.8716184604755
 51
1.217541053283099
  0
ARC
  5
50F
  8
PREDEFINITO
 10
-1173.743341876046
 20
3992.864266038029
 30
0.0
 40
129.4230123796822
 50
357.8510021279429
 51
1.226927925655759
  0
ARC
  5
510
  8
PREDEFINITO
 10
-1112.238414131781
 20
3990.544365138784
 30
0.0
 40
67.87434765865439
 50
351.5594568213656
 51
357.8356690021507
  0
ARC
  5
511
  8
PREDEFINITO
 10
-1112.251707310069
 20
3990.54559956807
 30
0.0
 40
73.08767797506091
 50
351.5291155158255
 51
357.8351646262385
  0
ARC
  5
512
  8
PREDEFINITO
 10
-1097.962381688975
 20
3988.412202761887
 30
0.0
 40
53.43997263930753
 50
343.9164831913524
 51
351.4929428739857
  0
ARC
  5
513
  8
PREDEFINITO
 10
-1097.981870722411
 20
3988.416425785974
 30
0.0
 40
58.65987196263237
 50
343.8671647523649
 51
351.491995911841
  0
ARC
  5
514
  8
PREDEFINITO
 10
-1086.542415914649
 20
3985.113875618897
 30
0.0
 40
41.55324098066736
 50
334.1545366842675
 51
343.8441784634023
  0
ARC
  5
515
  8
PREDEFINITO
 10
-1086.535818494395
 20
3985.111357366372
 30
0.0
 40
46.74620274616269
 50
334.1757944604936
 51
343.8501041366769
  0
ARC
  5
516
  8
PREDEFINITO
 10
-1086.028930295788
 20
3984.866513425487
 30
0.0
 40
40.98328133672235
 50
323.8326999612553
 51
334.1528138398765
  0
ARC
  5
517
  8
PREDEFINITO
 10
-1086.023972421082
 20
3984.863535325235
 30
0.0
 40
46.17752099796531
 50
323.8356325052347
 51
334.1547658875508
  0
ARC
  5
518
  8
PREDEFINITO
 10
-1092.193112587033
 20
3989.37404473838
 30
0.0
 40
48.61970724587422
 50
315.0018346381931
 51
323.8211241448836
  0
ARC
  5
519
  8
PREDEFINITO
 10
-1092.1940484857
 20
3989.374846226333
 30
0.0
 40
53.82093576415936
 50
315.001758518644
 51
323.8217658790973
  0
LINE
  5
51A
  8
PREDEFINITO
 10
-1059.651164700502
 20
3953.157343274434
 30
0.0
 11
-1057.812687069418
 21
3954.995820905519
 31
0.0
  0
ARC
  5
51B
  8
PREDEFINITO
 10
-1073.154143348085
 20
3966.660342997525
 30
0.0
 40
19.096110438486
 50
312.2647205195057
 51
314.9999552862823
  0
ARC
  5
51C
  8
PREDEFINITO
 10
-1073.156072095199
 20
3966.662374104969
 30
0.0
 40
24.29891047864739
 50
312.2230008024608
 51
314.9997941920727
  0
ARC
  5
51D
  8
PREDEFINITO
 10
-1074.88810470471
 20
3968.569246144218
 30
0.0
 40
21.67497152832386
 50
309.749716803477
 51
312.1838230895744
  0
ARC
  5
51E
  8
PREDEFINITO
 10
-1076.514170780721
 20
3970.515994041483
 30
0.0
 40
24.21147886492159
 50
306.9127511520388
 51
309.7183074973339
  0
ARC
  5
51F
  8
PREDEFINITO
 10
-1076.551502210747
 20
3970.563486280955
 30
0.0
 40
29.47186536461707
 50
306.8598905162162
 51
309.7185207794288
  0
ARC
  5
520
  8
PREDEFINITO
 10
-1003.87649050435
 20
3873.474855953818
 30
0.0
 40
97.00410485757993
 50
126.8091920265577
 51
127.592020744163
  0
ARC
  5
521
  8
PREDEFINITO
 10
-1004.182606935683
 20
3873.874940250665
 30
0.0
 40
91.30034691505755
 50
126.857138459888
 51
127.5917252042709
  0
ARC
  5
522
  8
PREDEFINITO
 10
-1056.349748882914
 20
3941.509842477257
 30
0.0
 40
11.08396177676921
 50
127.8156083147844
 51
133.4748615150124
  0
ARC
  5
523
  8
PREDEFINITO
 10
-1056.012932938734
 20
3941.109844585943
 30
0.0
 40
6.40644498596438
 50
127.8610888327718
 51
132.8564041150227
  0
ARC
  5
524
  8
PREDEFINITO
 10
-1061.250230561605
 20
3946.529615160417
 30
0.0
 40
4.06530712512197
 50
135.8403576601832
 51
155.594959691616
  0
LINE
  5
525
  8
PREDEFINITO
 10
-1040.778909928858
 20
4239.033736648864
 30
0.0
 11
-1040.778909928858
 21
4184.033736648864
 31
0.0
  0
ARC
  5
526
  8
PREDEFINITO
 10
-1146.305725937587
 20
4239.033097533638
 30
0.0
 40
100.3268160107659
 50
0.0003649931683107
 51
1.857349845742817
  0
ARC
  5
527
  8
PREDEFINITO
 10
-1156.606748986222
 20
4238.697755741353
 30
0.0
 40
110.6332959355644
 50
1.85802163338891
 51
3.546012351637174
  0
ARC
  5
528
  8
PREDEFINITO
 10
-1163.113763629746
 20
4238.291039477971
 30
0.0
 40
117.1530080661455
 50
3.547713403609388
 51
5.13875096593032
  0
ARC
  5
529
  8
PREDEFINITO
 10
-1178.836967664754
 20
4236.869612457385
 30
0.0
 40
132.9403305559013
 50
5.141948492154713
 51
6.547670932789038
  0
ARC
  5
52A
  8
PREDEFINITO
 10
-1191.699179968908
 20
4235.388681951019
 30
0.0
 40
145.887517172416
 50
6.549475513574775
 51
8.67977091292436
  0
ARC
  5
52B
  8
PREDEFINITO
 10
-1240.035205438145
 20
4228.008727678944
 30
0.0
 40
194.783683510235
 50
8.680052211465812
 51
10.28270050039764
  0
ARC
  5
52C
  8
PREDEFINITO
 10
-1278.317732991296
 20
4221.06130513913
 30
0.0
 40
233.6915052396299
 50
10.28324281386574
 51
11.62599012297962
  0
ARC
  5
52D
  8
PREDEFINITO
 10
-1426.51002480503
 20
4190.563946014996
 30
0.0
 40
384.9893711572294
 50
11.62712557802834
 51
12.4457386188202
  0
ARC
  5
52E
  8
PREDEFINITO
 10
-1599.992310026825
 20
4152.263357826327
 30
0.0
 40
562.649265995822
 50
12.44701390800266
 51
13.00964253718395
  0
ARC
  5
52F
  8
PREDEFINITO
 10
-7360.420998670586
 20
2821.29545541013
 30
0.0
 40
6474.841265079593
 50
13.01004771239145
 51
13.05914580981346
  0
ARC
  5
530
  8
PREDEFINITO
 10
445.9828514025074
 20
4632.037355143777
 30
0.0
 40
1533.617530869788
 50
192.852241660585
 51
193.0592023672606
  0
ARC
  5
531
  8
PREDEFINITO
 10
-623.4313120022962
 20
4388.05237979373
 30
0.0
 40
436.7240442525889
 50
192.1292625343889
 51
192.8529560569552
  0
ARC
  5
532
  8
PREDEFINITO
 10
-737.3491611351564
 20
4363.580557184679
 30
0.0
 40
320.2073231448432
 50
191.148895944078
 51
192.1311710745838
  0
ARC
  5
533
  8
PREDEFINITO
 10
-847.3871193510691
 20
4341.899968060056
 30
0.0
 40
208.0538562002105
 50
189.6452217741997
 51
191.1503919328821
  0
ARC
  5
534
  8
PREDEFINITO
 10
-878.5364147591772
 20
4336.608021271796
 30
0.0
 40
176.458234647657
 50
187.8797614167993
 51
189.6458152692995
  0
ARC
  5
535
  8
PREDEFINITO
 10
-919.0627808424313
 20
4330.998348788615
 30
0.0
 40
135.5454643609142
 50
185.590519921333
 51
187.8794412998144
  0
ARC
  5
536
  8
PREDEFINITO
 10
-933.1329013440602
 20
4329.620755566806
 30
0.0
 40
121.4080652410318
 50
183.0352704394176
 51
185.590352615591
  0
ARC
  5
537
  8
PREDEFINITO
 10
-952.7833104582306
 20
4328.580588829224
 30
0.0
 40
101.7301456012358
 50
179.9994869439822
 51
183.0362814997612
  0
LINE
  5
538
  8
PREDEFINITO
 10
-1054.513456055388
 20
4346.581499773518
 30
0.0
 11
-1054.513456055388
 21
4328.581499773518
 31
0.0
  0
LINE
  5
539
  8
PREDEFINITO
 10
-1045.97509318365
 20
4154.583736648862
 30
0.0
 11
-1045.975093183658
 21
4184.033736648862
 31
0.0
  0
LINE
  5
53A
  8
PREDEFINITO
 10
-1045.975093183631
 20
4082.033736648861
 30
0.0
 11
-1045.975093183633
 21
4093.583736648862
 31
0.0
  0
LINE
  5
53B
  8
PREDEFINITO
 10
-1040.775093183633
 20
4093.583736648862
 30
0.0
 11
-1040.77509318363
 21
4082.033736648862
 31
0.0
  0
LINE
  5
53C
  8
PREDEFINITO
 10
-1040.775093183658
 20
4184.033736648864
 30
0.0
 11
-1040.775093183649
 21
4154.583736648862
 31
0.0
  0
ARC
  5
53D
  8
PREDEFINITO
 10
-1594.590681676836
 20
3942.140212195089
 30
0.0
 40
2.213744330648171
 50
252.7363883153173
 51
292.0226580963851
  0
ARC
  5
53E
  8
PREDEFINITO
 10
-1578.906965902607
 20
3993.023852880171
 30
0.0
 40
55.45962146126188
 50
250.5853307844609
 51
252.8638828479445
  0
ARC
  5
53F
  8
PREDEFINITO
 10
-1636.856921924586
 20
3968.016511992638
 30
0.0
 40
55.69323857615408
 50
334.1408967131542
 51
336.4098896543159
  0
ARC
  5
540
  8
PREDEFINITO
 10
-1588.730727135104
 20
3944.682770368381
 30
0.0
 40
2.208724356826426
 50
294.9308548936829
 51
334.3100986945553
  0
LINE
  5
541
  8
PREDEFINITO
 10
-1589.356359539924
 20
3946.259941511464
 30
0.0
 11
-1587.537256606699
 21
3947.050909978158
 31
0.0
  0
LINE
  5
542
  8
PREDEFINITO
 10
-1595.317250023427
 20
3943.66807256345
 30
0.0
 11
-1589.356359539924
 21
3946.259941511464
 31
0.0
  0
ARC
  5
543
  8
PREDEFINITO
 10
-7096.214954255947
 20
16594.7814184305
 30
0.0
 40
13795.30892164668
 50
293.4919026228393
 51
293.5001411002935
  0
LINE
  5
544
  8
PREDEFINITO
 10
-1593.760586821988
 20
3940.087992301064
 30
0.0
 11
-1587.799696338486
 21
3942.679861249078
 31
0.0
  0
ARC
  5
545
  8
PREDEFINITO
 10
-1046.859689714831
 20
3993.245729204524
 30
0.0
 40
55.69323765339458
 50
287.1408966952426
 51
289.409889674036
  0
ARC
  5
546
  8
PREDEFINITO
 10
-1031.102922390458
 20
3942.134885855165
 30
0.0
 40
2.208724356820421
 50
247.9308548932489
 51
287.3100986941531
  0
ARC
  5
547
  8
PREDEFINITO
 10
-1036.958911109599
 20
3944.686564796056
 30
0.0
 40
2.213744330657612
 50
205.7363883158388
 51
245.0226580965966
  0
ARC
  5
548
  8
PREDEFINITO
 10
-989.0487037191222
 20
3967.918780703129
 30
0.0
 40
55.45962144527238
 50
203.5853307831534
 51
205.8638828472641
  0
LINE
  5
549
  8
PREDEFINITO
 10
-1036.33702319447
 20
3946.259941511464
 30
0.0
 11
-1030.376132710966
 21
3943.668072563449
 31
0.0
  0
POLYLINE
  5
54A
  8
PREDEFINITO
 66
     1
 10
0.0
 20
0.0
 30
0.0
  0
VERTEX
  5
54B
  8
PREDEFINITO
 10
-1038.156126141548
 20
3947.050909996033
 30
0.0
  0
VERTEX
  5
54C
  8
PREDEFINITO
 10
-1038.187010993069
 20
3947.064339111674
 30
0.0
  0
VERTEX
  5
54D
  8
PREDEFINITO
 10
-1036.33702319447
 20
3946.259941511464
 30
0.0
  0
SEQEND
  5
54E
  8
PREDEFINITO
  0
LINE
  5
54F
  8
PREDEFINITO
 10
-1030.376132710966
 20
3943.668072563449
 30
0.0
 11
-1028.557029777744
 21
3942.877104096756
 31
0.0
  0
LINE
  5
550
  8
PREDEFINITO
 10
-1037.893686395924
 20
3942.679861249043
 30
0.0
 11
-1031.93279591242
 21
3940.08799230103
 31
0.0
  0
CIRCLE
  5
551
  8
PREDEFINITO
 10
-1312.846691382249
 20
3311.835947636584
 30
0.0
 40
675.3601665257243
  0
CIRCLE
  5
552
  8
PREDEFINITO
 10
-1312.846691382248
 20
3311.835947636583
 30
0.0
 40
673.392185428992
  0
CIRCLE
  5
553
  8
PREDEFINITO
 10
-1312.846691382248
 20
3311.835947636585
 30
0.0
 40
671.9488522481759
  0
CIRCLE
  5
554
  8
PREDEFINITO
 10
-1312.846691382248
 20
3311.835947636584
 30
0.0
 40
672.54371914985
  0
CIRCLE
  5
555
  8
PREDEFINITO
 10
-1312.846691382248
 20
3311.835947636584
 30
0.0
 40
657.6596040653264
  0
LINE
  5
556
  8
PREDEFINITO
 10
-1034.878909928846
 20
4093.583736648862
 30
0.0
 11
-1034.878909928846
 21
4154.583736648862
 31
0.0
  0
LINE
  5
557
  8
PREDEFINITO
 10
-1051.840003046536
 20
4093.583736648863
 30
0.0
 11
-1034.9112549939
 21
4093.583736648862
 31
0.0
  0
LINE
  5
558
  8
PREDEFINITO
 10
-1034.878909928846
 20
4154.583736648862
 30
0.0
 11
-1051.846564862625
 21
4154.583736648863
 31
0.0
  0
LINE
  5
559
  8
PREDEFINITO
 10
-1588.406123495294
 20
4349.581499773847
 30
0.0
 11
-1588.406123495294
 21
3946.673115902803
 31
0.0
  0
LINE
  5
55A
  8
PREDEFINITO
 10
-1589.206123495293
 20
3946.325266003716
 30
0.0
 11
-1589.206123495293
 21
4349.581499773847
 31
0.0
  0
LINE
  5
55B
  8
PREDEFINITO
 10
-1582.806123495294
 20
4388.581499773847
 30
0.0
 11
-1582.806123495294
 21
4361.781499773848
 31
0.0
  0
LINE
  5
55C
  8
PREDEFINITO
 10
-1591.756039600544
 20
4349.581499773847
 30
0.0
 11
-1585.806123495294
 21
4349.581499773847
 31
0.0
  0
LINE
  5
55D
  8
PREDEFINITO
 10
-1594.806123495294
 20
4359.581499773847
 30
0.0
 11
-1582.806123495294
 21
4359.581499773847
 31
0.0
  0
LINE
  5
55E
  8
PREDEFINITO
 10
-1596.773762764212
 20
4388.581499773847
 30
0.0
 11
-1580.806123495294
 21
4388.581499773847
 31
0.0
  0
LINE
  5
55F
  8
PREDEFINITO
 10
-1594.806123495294
 20
4388.581499773847
 30
0.0
 11
-1594.806123495294
 21
4361.781499773848
 31
0.0
  0
LINE
  5
560
  8
PREDEFINITO
 10
-1591.806123495294
 20
4349.581499773847
 30
0.0
 11
-1591.806123495294
 21
4359.581499773847
 31
0.0
  0
LINE
  5
561
  8
PREDEFINITO
 10
-1585.806123495294
 20
4359.581499773847
 30
0.0
 11
-1585.806123495294
 21
4349.581499773847
 31
0.0
  0
LINE
  5
562
  8
PREDEFINITO
 10
-1594.806123495294
 20
4359.581499773847
 30
0.0
 11
-1594.806123495294
 21
4361.581499773847
 31
0.0
  0
LINE
  5
563
  8
PREDEFINITO
 10
-1582.806123495294
 20
4361.581499773847
 30
0.0
 11
-1582.806123495294
 21
4359.581499773847
 31
0.0
  0
LINE
  5
564
  8
PREDEFINITO
 10
-1594.806123495294
 20
4361.581499773847
 30
0.0
 11
-1582.806123495294
 21
4361.581499773847
 31
0.0
  0
LINE
  5
565
  8
PREDEFINITO
 10
-1594.506123495294
 20
4361.581499773847
 30
0.0
 11
-1594.506123495294
 21
4361.781499773848
 31
0.0
  0
LINE
  5
566
  8
PREDEFINITO
 10
-1583.106123495294
 20
4361.781499773848
 30
0.0
 11
-1583.106123495294
 21
4361.581499773847
 31
0.0
  0
LINE
  5
567
  8
PREDEFINITO
 10
-1582.806123495294
 20
4361.781499773848
 30
0.0
 11
-1594.806123495294
 21
4361.781499773848
 31
0.0
  0
LINE
  5
568
  8
PREDEFINITO
 10
-1596.806123495294
 20
4388.581499773847
 30
0.0
 11
-1596.806123495294
 21
4390.581499773847
 31
0.0
  0
LINE
  5
569
  8
PREDEFINITO
 10
-1580.806123495294
 20
4390.581499773847
 30
0.0
 11
-1580.806123495294
 21
4388.581499773847
 31
0.0
  0
LINE
  5
56A
  8
PREDEFINITO
 10
-1596.773762764212
 20
4390.581499773847
 30
0.0
 11
-1580.806123495294
 21
4390.581499773847
 31
0.0
  0
LINE
  5
56B
  8
PREDEFINITO
 10
-1036.638388050515
 20
4085.331572275404
 30
0.0
 11
-1036.638388050515
 21
3946.390978680251
 31
0.0
  0
LINE
  5
56C
  8
PREDEFINITO
 10
-1037.438388050516
 20
3946.73882858022
 30
0.0
 11
-1037.438388050516
 21
4085.331572275404
 31
0.0
  0
LINE
  5
56D
  8
PREDEFINITO
 10
-1037.438388050516
 20
4154.583736648862
 30
0.0
 11
-1037.438388050516
 21
4346.581499773518
 31
0.0
  0
LINE
  5
56E
  8
PREDEFINITO
 10
-1037.438388050516
 20
4085.331572275404
 30
0.0
 11
-1037.438388050516
 21
4093.583736648862
 31
0.0
  0
LINE
  5
56F
  8
PREDEFINITO
 10
-1036.638388050515
 20
4093.583736648862
 30
0.0
 11
-1036.638388050515
 21
4085.331572275404
 31
0.0
  0
LINE
  5
570
  8
PREDEFINITO
 10
-1036.638388050515
 20
4346.581499773518
 30
0.0
 11
-1036.638388050515
 21
4154.583736648862
 31
0.0
  0
ARC
  5
571
  8
PREDEFINITO
 10
-1039.283568488771
 20
3995.789194521526
 30
0.0
 40
0.1432490011805388
 50
297.7404338682654
 51
334.3883931816511
  0
ARC
  5
572
  8
PREDEFINITO
 10
-1041.690978642872
 20
3972.132692914321
 30
0.0
 40
0.0607131977135825
 50
337.0804628893868
 51
32.32201412171761
  0
LINE
  5
573
  8
PREDEFINITO
 10
-1055.974209438332
 20
3949.480388012265
 30
0.0
 11
-1054.135731807248
 21
3951.318865643349
 31
0.0
  0
ARC
  5
574
  8
PREDEFINITO
 10
-1062.363428793668
 20
3947.235888570086
 30
0.0
 40
2.472568566941288
 50
265.1616759531752
 51
315.183205547384
  0
ARC
  5
575
  8
PREDEFINITO
 10
-1062.885642304587
 20
3947.323918277173
 30
0.0
 40
2.248338335454552
 50
156.8199833209481
 51
204.2948005951043
  0
ARC
  5
576
  8
PREDEFINITO
 10
-1062.392146332628
 20
3947.562791735079
 30
0.0
 40
2.79644923632289
 50
204.5955587438245
 51
266.3129686829795
  0
LINE
  5
577
  8
PREDEFINITO
 10
-1045.978909928857
 20
4239.033736648864
 30
0.0
 11
-1045.978909928857
 21
4184.033736648864
 31
0.0
  0
ARC
  5
578
  8
PREDEFINITO
 10
-1146.266306115298
 20
4239.033736648846
 30
0.0
 40
105.48739618644
 50
359.9999999999852
 51
1.85771483889517
  0
ARC
  5
579
  8
PREDEFINITO
 10
-1156.566591346603
 20
4238.699650944356
 30
0.0
 40
115.7930979628439
 50
1.857714838871519
 51
3.546319146185748
  0
ARC
  5
57A
  8
PREDEFINITO
 10
-1162.909377923295
 20
4238.30656241517
 30
0.0
 40
122.1480535212449
 50
3.546319146149532
 51
5.140145223372081
  0
ARC
  5
57B
  8
PREDEFINITO
 10
-1178.498527283578
 20
4236.904257416324
 30
0.0
 40
137.8001472178401
 50
5.140145223311318
 51
6.549474201672544
  0
ARC
  5
57C
  8
PREDEFINITO
 10
-1191.699001859787
 20
4235.388705762118
 30
0.0
 40
151.0873375097613
 50
6.549474201676479
 51
8.679772224823143
  0
ARC
  5
57D
  8
PREDEFINITO
 10
-1239.968098041525
 20
4228.019935183294
 30
0.0
 40
199.9156533320913
 50
8.679772224835705
 51
10.28298048703878
  0
ARC
  5
57E
  8
PREDEFINITO
 10
-1278.228119168154
 20
4221.078650648688
 30
0.0
 40
238.800234435666
 50
10.28298048699975
 51
11.62625244986344
  0
ARC
  5
57F
  8
PREDEFINITO
 10
-1425.708527713265
 20
4190.734842218862
 30
0.0
 40
389.3698781712438
 50
11.62625244983386
 51
12.44661174698738
  0
ARC
  5
580
  8
PREDEFINITO
 10
-1599.208841802838
 20
4152.44032709779
 30
0.0
 40
567.0460692536129
 50
12.44661174699773
 51
13.01004469812072
  0
ARC
  5
581
  8
PREDEFINITO
 10
-7359.646574501909
 20
2821.474737931917
 30
0.0
 40
6479.246359487942
 50
13.01004469814546
 51
13.05914882400063
  0
ARC
  5
582
  8
PREDEFINITO
 10
446.7565784176513
 20
4632.21535440889
 30
0.0
 40
1539.611467376892
 50
192.852295203539
 51
193.0591488243108
  0
ARC
  5
583
  8
PREDEFINITO
 10
-622.6511572707718
 20
4388.225208930005
 30
0.0
 40
442.7230973769873
 50
192.1299233877645
 51
192.8522952035654
  0
ARC
  5
584
  8
PREDEFINITO
 10
-736.5503960412011
 20
4363.745101821638
 30
0.0
 40
326.2228302677639
 50
191.1501436309176
 51
192.1299233877745
  0
ARC
  5
585
  8
PREDEFINITO
 10
-847.319578708087
 20
4341.9123614153
 30
0.0
 40
213.3225185660662
 50
189.6454700762127
 51
191.1501436308488
  0
ARC
  5
586
  8
PREDEFINITO
 10
-878.46820948417
 20
4336.618534652162
 30
0.0
 40
181.7272372566228
 50
187.880106609891
 51
189.6454700761996
  0
ARC
  5
587
  8
PREDEFINITO
 10
-919.1409935625708
 20
4330.989112492227
 30
0.0
 40
140.6667238825431
 50
185.5898546112332
 51
187.8801066099101
  0
ARC
  5
588
  8
PREDEFINITO
 10
-933.0856863906841
 20
4329.624316294278
 30
0.0
 40
126.6554025054434
 50
183.0357684437685
 51
185.5898546112467
  0
ARC
  5
589
  8
PREDEFINITO
 10
-952.7489329655225
 20
4328.581499773554
 30
0.0
 40
106.9645230898666
 50
180.0000000000195
 51
183.0357684437402
  0
LINE
  5
58A
  8
PREDEFINITO
 10
-1059.713456055389
 20
4346.581499773518
 30
0.0
 11
-1059.713456055389
 21
4328.581499773518
 31
0.0
  0
LINE
  5
58B
  8
PREDEFINITO
 10
-918.8046488231898
 20
109.7858080604919
 30
0.0
 11
-919.1173184060503
 21
109.7858080604919
 31
0.0
  0
LINE
  5
58C
  8
PREDEFINITO
 10
-899.9097629666858
 20
109.7858080604919
 30
0.0
 11
-902.0368441220767
 21
109.7858080604919
 31
0.0
  0
LINE
  5
58D
  8
PREDEFINITO
 10
-892.8419112635106
 20
109.7858080604919
 30
0.0
 11
-893.5825818807239
 21
109.7858080604919
 31
0.0
  0
LINE
  5
58E
  8
PREDEFINITO
 10
-874.9686252142928
 20
109.7858080604919
 30
0.0
 11
-876.0787551553317
 21
109.7858080604919
 31
0.0
  0
LINE
  5
58F
  8
PREDEFINITO
 10
-867.8659418226548
 20
109.7858080604919
 30
0.0
 11
-868.4679976190314
 21
109.7858080604919
 31
0.0
  0
LINE
  5
590
  8
PREDEFINITO
 10
-848.9563125004174
 20
109.7858080604919
 30
0.0
 11
-855.5289240625084
 21
109.7858080604919
 31
0.0
  0
LINE
  5
591
  8
PREDEFINITO
 10
-836.6865106341124
 20
109.7858080604919
 30
0.0
 11
-838.1241558334336
 21
109.7858080604919
 31
0.0
  0
LINE
  5
592
  8
PREDEFINITO
 10
-831.6277997965271
 20
109.7858080604919
 30
0.0
 11
-832.3796857710286
 21
109.7858080604919
 31
0.0
  0
LINE
  5
593
  8
PREDEFINITO
 10
-821.1024957691093
 20
109.7858080604919
 30
0.0
 11
-821.8775772994218
 21
109.7858080604919
 31
0.0
  0
LINE
  5
594
  8
PREDEFINITO
 10
-812.6868461187496
 20
109.7858080604919
 30
0.0
 11
-813.7449033286225
 21
109.7858080604919
 31
0.0
  0
LINE
  5
595
  8
PREDEFINITO
 10
-806.3231066077792
 20
109.7858080604919
 30
0.0
 11
-806.8974726595288
 21
109.7858080604919
 31
0.0
  0
LINE
  5
596
  8
PREDEFINITO
 10
-799.4199184633767
 20
109.7858080604919
 30
0.0
 11
-801.0515449480349
 21
109.7858080604919
 31
0.0
  0
LINE
  5
597
  8
PREDEFINITO
 10
-790.7285297857698
 20
109.7858080604919
 30
0.0
 11
-792.4565964548051
 21
109.7858080604919
 31
0.0
  0
LINE
  5
598
  8
PREDEFINITO
 10
-784.622804773714
 20
109.7858080604919
 30
0.0
 11
-785.6773533127298
 21
109.7858080604919
 31
0.0
  0
LINE
  5
599
  8
PREDEFINITO
 10
-778.9373689347008
 20
109.7858080604919
 30
0.0
 11
-779.2810395727379
 21
109.7858080604919
 31
0.0
  0
LINE
  5
59A
  8
PREDEFINITO
 10
-770.9748681651067
 20
109.7858080604919
 30
0.0
 11
-772.3874768052028
 21
109.7858080604919
 31
0.0
  0
LINE
  5
59B
  8
PREDEFINITO
 10
-765.9738221835232
 20
109.7858080604919
 30
0.0
 11
-766.2279599580479
 21
109.7858080604919
 31
0.0
  0
LINE
  5
59C
  8
PREDEFINITO
 10
-752.4540759409092
 20
109.7858080604919
 30
0.0
 11
-753.9888253520244
 21
109.7858080604919
 31
0.0
  0
LINE
  5
59D
  8
PREDEFINITO
 10
-747.5965024985508
 20
109.7858080604919
 30
0.0
 11
-748.0219574566081
 21
109.7858080604919
 31
0.0
  0
LINE
  5
59E
  8
PREDEFINITO
 10
-735.2084524792917
 20
109.7858080604919
 30
0.0
 11
-736.0758806754338
 21
109.7858080604919
 31
0.0
  0
LINE
  5
59F
  8
PREDEFINITO
 10
-730.5388764857271
 20
109.7858080604919
 30
0.0
 11
-731.1412197912077
 21
109.7858080604919
 31
0.0
  0
LINE
  5
5A0
  8
PREDEFINITO
 10
-719.2782854735574
 20
109.7858080604919
 30
0.0
 11
-719.9196509342555
 21
109.7858080604919
 31
0.0
  0
LINE
  5
5A1
  8
PREDEFINITO
 10
-714.6831827391093
 20
109.7858080604919
 30
0.0
 11
-715.5071922552233
 21
109.7858080604919
 31
0.0
  0
LINE
  5
5A2
  8
PREDEFINITO
 10
-704.7013032455211
 20
109.7858080604919
 30
0.0
 11
-705.1464921336278
 21
109.7858080604919
 31
0.0
  0
LINE
  5
5A3
  8
PREDEFINITO
 10
-700.5356591480613
 20
109.7858080604919
 30
0.0
 11
-701.2718940706677
 21
109.7858080604919
 31
0.0
  0
LINE
  5
5A4
  8
PREDEFINITO
 10
-696.0823537274914
 20
109.7858080604919
 30
0.0
 11
-696.4338745604255
 21
109.7858080604919
 31
0.0
  0
LINE
  5
5A5
  8
PREDEFINITO
 10
-691.5080480564575
 20
109.7858080604919
 30
0.0
 11
-691.7895476011954
 21
109.7858080604919
 31
0.0
  0
LINE
  5
5A6
  8
PREDEFINITO
 10
-687.6576226080742
 20
109.7858080604919
 30
0.0
 11
-688.4299650205749
 21
109.7858080604919
 31
0.0
  0
LINE
  5
5A7
  8
PREDEFINITO
 10
-682.5411917496485
 20
109.7858080604919
 30
0.0
 11
-683.7101470412467
 21
109.7858080604919
 31
0.0
  0
LINE
  5
5A8
  8
PREDEFINITO
 10
-679.731361415877
 20
109.7858080604919
 30
0.0
 11
-680.7900492117351
 21
109.7858080604919
 31
0.0
  0
LINE
  5
5A9
  8
PREDEFINITO
 10
-675.8785188554289
 20
109.7858080604919
 30
0.0
 11
-677.0117874943612
 21
109.7858080604919
 31
0.0
  0
LINE
  5
5AA
  8
PREDEFINITO
 10
-666.0930788007113
 20
109.7858080604919
 30
0.0
 11
-672.7573486022047
 21
109.7858080604919
 31
0.0
  0
LINE
  5
5AB
  8
PREDEFINITO
 10
-663.2514672792972
 20
109.7858080604919
 30
0.0
 11
-663.316183146062
 21
109.7858080604919
 31
0.0
  0
LINE
  5
5AC
  8
PREDEFINITO
 10
-657.7772914228185
 20
109.7858080604919
 30
0.0
 11
-657.8592725421599
 21
109.7858080604919
 31
0.0
  0
LINE
  5
5AD
  8
PREDEFINITO
 10
-654.890043873399
 20
109.7858080604919
 30
0.0
 11
-655.4783146827444
 21
109.7858080604919
 31
0.0
  0
LINE
  5
5AE
  8
PREDEFINITO
 10
-653.0798545097132
 20
109.7858080604919
 30
0.0
 11
-653.190996809341
 21
109.7858080604919
 31
0.0
  0
LINE
  5
5AF
  8
PREDEFINITO
 10
-648.6565123063278
 20
109.7858080604919
 30
0.0
 11
-648.9810178896614
 21
109.7858080604919
 31
0.0
  0
LINE
  5
5B0
  8
PREDEFINITO
 10
-646.8138962108819
 20
109.7858080604919
 30
0.0
 11
-647.3332477901126
 21
109.7858080604919
 31
0.0
  0
LINE
  5
5B1
  8
PREDEFINITO
 10
-643.9315458349042
 20
109.7858080604919
 30
0.0
 11
-644.1207054340766
 21
109.7858080604919
 31
0.0
  0
LINE
  5
5B2
  8
PREDEFINITO
 10
-642.6233479153184
 20
109.7858080604919
 30
0.0
 11
-642.987108129525
 21
109.7858080604919
 31
0.0
  0
LINE
  5
5B3
  8
PREDEFINITO
 10
-640.6845024499389
 20
109.7858080604919
 30
0.0
 11
-640.8104588154179
 21
109.7858080604919
 31
0.0
  0
LINE
  5
5B4
  8
PREDEFINITO
 10
-639.953149565697
 20
109.7858080604919
 30
0.0
 11
-640.1600254030291
 21
109.7858080604919
 31
0.0
  0
LINE
  5
5B5
  8
PREDEFINITO
 10
-639.3150244719168
 20
109.7858080604919
 30
0.0
 11
-639.4957940278186
 21
109.7858080604919
 31
0.0
  0
LINE
  5
5B6
  8
PREDEFINITO
 10
-638.951186281557
 20
109.7858080604919
 30
0.0
 11
-639.0384929041088
 21
109.7858080604919
 31
0.0
  0
LINE
  5
5B7
  8
PREDEFINITO
 10
-638.7611799147353
 20
109.7858047485352
 30
0.0
 11
-638.8561184389414
 21
109.7858047485351
 31
0.0
  0
LINE
  5
5B8
  8
PREDEFINITO
 10
-902.0368441140185
 20
109.7858080604919
 30
0.0
 11
-918.8046488266677
 21
109.7858080604919
 31
0.0
  0
LINE
  5
5B9
  8
PREDEFINITO
 10
-893.5825818807239
 20
109.7858080604919
 30
0.0
 11
-899.9097629781254
 21
109.7858080604919
 31
0.0
  0
LINE
  5
5BA
  8
PREDEFINITO
 10
-876.0787551655781
 20
109.7858080604919
 30
0.0
 11
-892.84191126309
 21
109.7858080604919
 31
0.0
  0
LINE
  5
5BB
  8
PREDEFINITO
 10
-868.467997551506
 20
109.7858080604919
 30
0.0
 11
-874.9686252292527
 21
109.7858080604919
 31
0.0
  0
LINE
  5
5BC
  8
PREDEFINITO
 10
-855.5289241257597
 20
109.7858080604919
 30
0.0
 11
-867.8659417716467
 21
109.7858080604919
 31
0.0
  0
LINE
  5
5BD
  8
PREDEFINITO
 10
-838.1241558429319
 20
109.7858080604919
 30
0.0
 11
-848.956312504235
 21
109.7858080604919
 31
0.0
  0
LINE
  5
5BE
  8
PREDEFINITO
 10
-832.379685731597
 20
109.7858080604919
 30
0.0
 11
-836.686510595739
 21
109.7858080604919
 31
0.0
  0
LINE
  5
5BF
  8
PREDEFINITO
 10
-821.8775772067561
 20
109.7858080604919
 30
0.0
 11
-831.6277997242387
 21
109.7858080604919
 31
0.0
  0
LINE
  5
5C0
  8
PREDEFINITO
 10
-813.7449033577323
 20
109.7858080604919
 30
0.0
 11
-821.1024958893177
 21
109.7858080604919
 31
0.0
  0
LINE
  5
5C1
  8
PREDEFINITO
 10
-806.8974726595293
 20
109.7858080604919
 30
0.0
 11
-812.6868461485046
 21
109.7858080604919
 31
0.0
  0
LINE
  5
5C2
  8
PREDEFINITO
 10
-801.0515449480345
 20
109.7858080604919
 30
0.0
 11
-806.323106607952
 21
109.7858080604919
 31
0.0
  0
LINE
  5
5C3
  8
PREDEFINITO
 10
-792.4565964286339
 20
109.7858080604919
 30
0.0
 11
-799.4199185051093
 21
109.7858080604919
 31
0.0
  0
LINE
  5
5C4
  8
PREDEFINITO
 10
-785.6773533127293
 20
109.7858080604919
 30
0.0
 11
-790.7285297857698
 21
109.7858080604919
 31
0.0
  0
LINE
  5
5C5
  8
PREDEFINITO
 10
-779.2810395727383
 20
109.7858080604919
 30
0.0
 11
-784.6228047628274
 21
109.7858080604919
 31
0.0
  0
LINE
  5
5C6
  8
PREDEFINITO
 10
-772.3874768034248
 20
109.7858080604919
 30
0.0
 11
-778.9373689348604
 21
109.7858080604919
 31
0.0
  0
LINE
  5
5C7
  8
PREDEFINITO
 10
-766.2279599580479
 20
109.7858080604919
 30
0.0
 11
-770.9748681651067
 21
109.7858080604919
 31
0.0
  0
LINE
  5
5C8
  8
PREDEFINITO
 10
-753.9888253520235
 20
109.7858080604919
 30
0.0
 11
-765.9738221756897
 21
109.7858080604919
 31
0.0
  0
LINE
  5
5C9
  8
PREDEFINITO
 10
-748.0219574566077
 20
109.7858080604919
 30
0.0
 11
-752.4540759409097
 21
109.7858080604919
 31
0.0
  0
LINE
  5
5CA
  8
PREDEFINITO
 10
-736.0758806754347
 20
109.7858080604919
 30
0.0
 11
-747.5965024969482
 21
109.7858080604919
 31
0.0
  0
LINE
  5
5CB
  8
PREDEFINITO
 10
-731.1412197912068
 20
109.7858080604919
 30
0.0
 11
-735.2084524792922
 21
109.7858080604919
 31
0.0
  0
LINE
  5
5CC
  8
PREDEFINITO
 10
-719.9196509316116
 20
109.7858080604919
 30
0.0
 11
-730.5388764857021
 21
109.7858080604919
 31
0.0
  0
LINE
  5
5CD
  8
PREDEFINITO
 10
-715.5071922552206
 20
109.7858080604919
 30
0.0
 11
-719.2782854735578
 21
109.7858080604919
 31
0.0
  0
LINE
  5
5CE
  8
PREDEFINITO
 10
-705.1464921226739
 20
109.7858080604919
 30
0.0
 11
-714.6831827415408
 21
109.7858080604919
 31
0.0
  0
LINE
  5
5CF
  8
PREDEFINITO
 10
-701.2718940706618
 20
109.7858080604919
 30
0.0
 11
-704.701303245522
 21
109.7858080604919
 31
0.0
  0
LINE
  5
5D0
  8
PREDEFINITO
 10
-696.4338745603741
 20
109.7858080604918
 30
0.0
 11
-700.5356591480627
 21
109.7858080604919
 31
0.0
  0
LINE
  5
5D1
  8
PREDEFINITO
 10
-691.7895476012454
 20
109.7858080604918
 30
0.0
 11
-696.0823537278634
 21
109.7858080604918
 31
0.0
  0
LINE
  5
5D2
  8
PREDEFINITO
 10
-688.4299650205608
 20
109.7858080604919
 30
0.0
 11
-691.5080480528709
 21
109.7858080604918
 31
0.0
  0
LINE
  5
5D3
  8
PREDEFINITO
 10
-683.7101470484608
 20
109.7858080604919
 30
0.0
 11
-687.6576226080765
 21
109.7858080604919
 31
0.0
  0
LINE
  5
5D4
  8
PREDEFINITO
 10
-680.7900492117005
 20
109.7858080604918
 30
0.0
 11
-682.5411917496467
 21
109.7858080604919
 31
0.0
  0
LINE
  5
5D5
  8
PREDEFINITO
 10
-677.0117874943248
 20
109.7858080604919
 30
0.0
 11
-679.7313614236514
 21
109.7858080604919
 31
0.0
  0
LINE
  5
5D6
  8
PREDEFINITO
 10
-672.7573486022056
 20
109.7858080604918
 30
0.0
 11
-675.8785188554289
 21
109.7858080604919
 31
0.0
  0
LINE
  5
5D7
  8
PREDEFINITO
 10
-663.3161831460648
 20
109.7858080604919
 30
0.0
 11
-666.0930788007113
 21
109.7858080604918
 31
0.0
  0
LINE
  5
5D8
  8
PREDEFINITO
 10
-657.8592725421631
 20
109.7858080604918
 30
0.0
 11
-663.2514672838283
 21
109.7858080604919
 31
0.0
  0
LINE
  5
5D9
  8
PREDEFINITO
 10
-655.4783146827363
 20
109.7858080604918
 30
0.0
 11
-657.7772914135576
 21
109.7858080604918
 31
0.0
  0
LINE
  5
5DA
  8
PREDEFINITO
 10
-653.1909968093773
 20
109.7858080604918
 30
0.0
 11
-654.890043873454
 21
109.7858080604918
 31
0.0
  0
LINE
  5
5DB
  8
PREDEFINITO
 10
-648.9810178958396
 20
109.7858080604918
 30
0.0
 11
-653.07985450982
 21
109.7858080604918
 31
0.0
  0
LINE
  5
5DC
  8
PREDEFINITO
 10
-647.3332477898571
 20
109.7858080604918
 30
0.0
 11
-648.6565123065543
 21
109.7858080604918
 31
0.0
  0
LINE
  5
5DD
  8
PREDEFINITO
 10
-644.1207054346119
 20
109.7858080604918
 30
0.0
 11
-646.8138962107391
 21
109.7858080604918
 31
0.0
  0
LINE
  5
5DE
  8
PREDEFINITO
 10
-642.9871081356964
 20
109.7858080604918
 30
0.0
 11
-643.9315458359365
 21
109.7858080604918
 31
0.0
  0
LINE
  5
5DF
  8
PREDEFINITO
 10
-640.8104588139277
 20
109.7858080604918
 30
0.0
 11
-642.6233479149855
 21
109.7858080604918
 31
0.0
  0
LINE
  5
5E0
  8
PREDEFINITO
 10
-640.160025403035
 20
109.7858080604918
 30
0.0
 11
-640.6845024495015
 21
109.7858080604918
 31
0.0
  0
LINE
  5
5E1
  8
PREDEFINITO
 10
-639.4957940274116
 20
109.7858080604918
 30
0.0
 11
-639.9531495641568
 21
109.7858080604918
 31
0.0
  0
LINE
  5
5E2
  8
PREDEFINITO
 10
-639.0384929034021
 20
109.7858080604918
 30
0.0
 11
-639.3150244718718
 21
109.7858080604918
 31
0.0
  0
LINE
  5
5E3
  8
PREDEFINITO
 10
-638.8561184389828
 20
109.7858080604918
 30
0.0
 11
-638.9511862815566
 21
109.7858080604918
 31
0.0
  0
ARC
  5
5E4
  8
PREDEFINITO
 10
-638.7844017014784
 20
114.9831878033012
 30
0.0
 40
5.197431619786552
 50
270.2559946742797
 51
282.6699999386943
  0
POLYLINE
  5
5E5
  8
PREDEFINITO
 66
     1
 10
0.0
 20
0.0
 30
0.0
  0
VERTEX
  5
5E6
  8
PREDEFINITO
 10
-637.4865248565197
 20
126.6276073165583
 30
0.0
  0
VERTEX
  5
5E7
  8
PREDEFINITO
 10
-636.0405778150016
 20
126.2282774185601
 30
0.0
  0
VERTEX
  5
5E8
  8
PREDEFINITO
 10
-634.6053800579218
 20
125.7860203199195
 30
0.0
  0
VERTEX
  5
5E9
  8
PREDEFINITO
 10
-633.1846709806387
 20
125.2980119885042
 30
0.0
  0
VERTEX
  5
5EA
  8
PREDEFINITO
 10
-632.4809182579706
 20
125.0359686004649
 30
0.0
  0
VERTEX
  5
5EB
  8
PREDEFINITO
 10
-631.7821899785113
 20
124.7614283921823
 30
0.0
  0
VERTEX
  5
5EC
  8
PREDEFINITO
 10
-631.1041510217125
 20
124.4806852121642
 30
0.0
  0
VERTEX
  5
5ED
  8
PREDEFINITO
 10
-630.4312569645303
 20
124.1881728886817
 30
0.0
  0
VERTEX
  5
5EE
  8
PREDEFINITO
 10
-629.1004777883617
 20
123.5699123946073
 30
0.0
  0
VERTEX
  5
5EF
  8
PREDEFINITO
 10
-627.7890009286973
 20
122.9107900765263
 30
0.0
  0
VERTEX
  5
5F0
  8
PREDEFINITO
 10
-626.4959748642295
 20
122.2149491010059
 30
0.0
  0
VERTEX
  5
5F1
  8
PREDEFINITO
 10
-625.3227059200735
 20
121.5398349903031
 30
0.0
  0
VERTEX
  5
5F2
  8
PREDEFINITO
 10
-624.7471798259118
 20
121.1840393101413
 30
0.0
  0
VERTEX
  5
5F3
  8
PREDEFINITO
 10
-624.1819928568981
 20
120.8118933585599
 30
0.0
  0
VERTEX
  5
5F4
  8
PREDEFINITO
 10
-624.0317757831999
 20
120.7078250619861
 30
0.0
  0
VERTEX
  5
5F5
  8
PREDEFINITO
 10
-623.8846878047959
 20
120.6001585218245
 30
0.0
  0
VERTEX
  5
5F6
  8
PREDEFINITO
 10
-623.8130092690526
 20
120.5442957654965
 30
0.0
  0
VERTEX
  5
5F7
  8
PREDEFINITO
 10
-623.7429434584008
 20
120.4867172743895
 30
0.0
  0
VERTEX
  5
5F8
  8
PREDEFINITO
 10
-623.6747671899299
 20
120.4271509905428
 30
0.0
  0
VERTEX
  5
5F9
  8
PREDEFINITO
 10
-623.6414741393527
 20
120.3965374082293
 30
0.0
  0
VERTEX
  5
5FA
  8
PREDEFINITO
 10
-623.6087572807292
 20
120.3653248559956
 30
0.0
  0
VERTEX
  5
5FB
  8
PREDEFINITO
 10
-623.5586477650845
 20
120.3150947824521
 30
0.0
  0
VERTEX
  5
5FC
  8
PREDEFINITO
 10
-623.5100481361563
 20
120.2633602063192
 30
0.0
  0
VERTEX
  5
5FD
  8
PREDEFINITO
 10
-623.462964667186
 20
120.2101748473462
 30
0.0
  0
VERTEX
  5
5FE
  8
PREDEFINITO
 10
-623.4174036314153
 20
120.1555924252824
 30
0.0
  0
VERTEX
  5
5FF
  8
PREDEFINITO
 10
-623.3733713020854
 20
120.099666659877
 30
0.0
  0
VERTEX
  5
600
  8
PREDEFINITO
 10
-623.3308739524376
 20
120.0424512708794
 30
0.0
  0
VERTEX
  5
601
  8
PREDEFINITO
 10
-623.2899178557136
 20
119.9839999780388
 30
0.0
  0
VERTEX
  5
602
  8
PREDEFINITO
 10
-623.250509285155
 20
119.9243665011044
 30
0.0
  0
VERTEX
  5
603
  8
PREDEFINITO
 10
-623.2126545140029
 20
119.8636045598256
 30
0.0
  0
VERTEX
  5
604
  8
PREDEFINITO
 10
-623.1763598154988
 20
119.8017678739516
 30
0.0
  0
VERTEX
  5
605
  8
PREDEFINITO
 10
-623.1416314628842
 20
119.7389101632317
 30
0.0
  0
VERTEX
  5
606
  8
PREDEFINITO
 10
-623.1084757294005
 20
119.6750851474151
 30
0.0
  0
VERTEX
  5
607
  8
PREDEFINITO
 10
-623.0768988882894
 20
119.6103465462512
 30
0.0
  0
VERTEX
  5
608
  8
PREDEFINITO
 10
-623.0469072127919
 20
119.5447480794892
 30
0.0
  0
VERTEX
  5
609
  8
PREDEFINITO
 10
-623.0185069761496
 20
119.4783434668783
 30
0.0
  0
VERTEX
  5
60A
  8
PREDEFINITO
 10
-622.9917044516043
 20
119.4111864281678
 30
0.0
  0
VERTEX
  5
60B
  8
PREDEFINITO
 10
-622.966505912397
 20
119.3433306831071
 30
0.0
  0
VERTEX
  5
60C
  8
PREDEFINITO
 10
-622.9429176317694
 20
119.2748299514454
 30
0.0
  0
VERTEX
  5
60D
  8
PREDEFINITO
 10
-622.9209458829628
 20
119.2057379529319
 30
0.0
  0
VERTEX
  5
60E
  8
PREDEFINITO
 10
-622.9005969392185
 20
119.1361084073159
 30
0.0
  0
VERTEX
  5
60F
  8
PREDEFINITO
 10
-622.8818770737782
 20
119.0659950343467
 30
0.0
  0
VERTEX
  5
610
  8
PREDEFINITO
 10
-622.8647925598834
 20
118.9954515537736
 30
0.0
  0
VERTEX
  5
611
  8
PREDEFINITO
 10
-622.8493496707754
 20
118.9245316853458
 30
0.0
  0
VERTEX
  5
612
  8
PREDEFINITO
 10
-622.8355546796957
 20
118.8532891488126
 30
0.0
  0
VERTEX
  5
613
  8
PREDEFINITO
 10
-622.8234138598857
 20
118.7817776639233
 30
0.0
  0
VERTEX
  5
614
  8
PREDEFINITO
 10
-622.8129334845868
 20
118.7100509504271
 30
0.0
  0
VERTEX
  5
615
  8
PREDEFINITO
 10
-622.8041198270405
 20
118.6381627280734
 30
0.0
  0
VERTEX
  5
616
  8
PREDEFINITO
 10
-622.7969791604881
 20
118.5661667166113
 30
0.0
  0
VERTEX
  5
617
  8
PREDEFINITO
 10
-622.7915177581713
 20
118.4941166357902
 30
0.0
  0
VERTEX
  5
618
  8
PREDEFINITO
 10
-622.7877418933315
 20
118.4220662053593
 30
0.0
  0
VERTEX
  5
619
  8
PREDEFINITO
 10
-622.78565783921
 20
118.350069145068
 30
0.0
  0
VERTEX
  5
61A
  8
PREDEFINITO
 10
-622.7852718690481
 20
118.2781791746654
 30
0.0
  0
VERTEX
  5
61B
  8
PREDEFINITO
 10
-622.7865415457276
 20
118.2079825604999
 30
0.0
  0
VERTEX
  5
61C
  8
PREDEFINITO
 10
-622.7894341679928
 20
118.1379642992819
 30
0.0
  0
VERTEX
  5
61D
  8
PREDEFINITO
 10
-622.7939406729586
 20
118.0681487605735
 30
0.0
  0
VERTEX
  5
61E
  8
PREDEFINITO
 10
-622.8000519977405
 20
117.998560313937
 30
0.0
  0
VERTEX
  5
61F
  8
PREDEFINITO
 10
-622.8077590794537
 20
117.9292233289345
 30
0.0
  0
VERTEX
  5
620
  8
PREDEFINITO
 10
-622.8170528552134
 20
117.8601621751284
 30
0.0
  0
VERTEX
  5
621
  8
PREDEFINITO
 10
-622.8279242621348
 20
117.7914012220809
 30
0.0
  0
VERTEX
  5
622
  8
PREDEFINITO
 10
-622.8403642373332
 20
117.7229648393541
 30
0.0
  0
VERTEX
  5
623
  8
PREDEFINITO
 10
-622.8543637179238
 20
117.6548773965103
 30
0.0
  0
VERTEX
  5
624
  8
PREDEFINITO
 10
-622.8699136410216
 20
117.5871632631118
 30
0.0
  0
VERTEX
  5
625
  8
PREDEFINITO
 10
-622.8870049437422
 20
117.5198468087208
 30
0.0
  0
VERTEX
  5
626
  8
PREDEFINITO
 10
-622.9056285632007
 20
117.4529524028995
 30
0.0
  0
VERTEX
  5
627
  8
PREDEFINITO
 10
-622.9257754365123
 20
117.3865044152101
 30
0.0
  0
VERTEX
  5
628
  8
PREDEFINITO
 10
-622.947436500792
 20
117.3205272152148
 30
0.0
  0
VERTEX
  5
629
  8
PREDEFINITO
 10
-622.9706026931553
 20
117.255045172476
 30
0.0
  0
VERTEX
  5
62A
  8
PREDEFINITO
 10
-622.9952649507175
 20
117.1900826565558
 30
0.0
  0
VERTEX
  5
62B
  8
PREDEFINITO
 10
-623.0214142105935
 20
117.1256640370164
 30
0.0
  0
VERTEX
  5
62C
  8
PREDEFINITO
 10
-623.0490414098989
 20
117.0618136834201
 30
0.0
  0
VERTEX
  5
62D
  8
PREDEFINITO
 10
-623.0781374857487
 20
116.9985559653291
 30
0.0
  0
VERTEX
  5
62E
  8
PREDEFINITO
 10
-623.108693375258
 20
116.9359152523057
 30
0.0
  0
VERTEX
  5
62F
  8
PREDEFINITO
 10
-623.1407000155423
 20
116.8739159139121
 30
0.0
  0
VERTEX
  5
630
  8
PREDEFINITO
 10
-623.1741483437168
 20
116.8125823197104
 30
0.0
  0
VERTEX
  5
631
  8
PREDEFINITO
 10
-623.2090292968966
 20
116.751938839263
 30
0.0
  0
VERTEX
  5
632
  8
PREDEFINITO
 10
-623.2453338121969
 20
116.692009842132
 30
0.0
  0
VERTEX
  5
633
  8
PREDEFINITO
 10
-623.2830528267331
 20
116.6328196978797
 30
0.0
  0
VERTEX
  5
634
  8
PREDEFINITO
 10
-623.3221772776203
 20
116.5743927760684
 30
0.0
  0
VERTEX
  5
635
  8
PREDEFINITO
 10
-623.3626981019738
 20
116.5167534462601
 30
0.0
  0
VERTEX
  5
636
  8
PREDEFINITO
 10
-623.4046062369089
 20
116.4599260780173
 30
0.0
  0
VERTEX
  5
637
  8
PREDEFINITO
 10
-623.4478926195407
 20
116.4039350409021
 30
0.0
  0
VERTEX
  5
638
  8
PREDEFINITO
 10
-623.4925481869842
 20
116.3488047044767
 30
0.0
  0
VERTEX
  5
639
  8
PREDEFINITO
 10
-623.5385638763549
 20
116.2945594383034
 30
0.0
  0
VERTEX
  5
63A
  8
PREDEFINITO
 10
-623.5859306247681
 20
116.2412236119443
 30
0.0
  0
VERTEX
  5
63B
  8
PREDEFINITO
 10
-623.6550344322596
 20
116.1676747711783
 30
0.0
  0
VERTEX
  5
63C
  8
PREDEFINITO
 10
-623.6905785441825
 20
116.131812131317
 30
0.0
  0
VERTEX
  5
63D
  8
PREDEFINITO
 10
-623.7267791029515
 20
116.0966719103713
 30
0.0
  0
VERTEX
  5
63E
  8
PREDEFINITO
 10
-623.7636323396127
 20
116.0623400322673
 30
0.0
  0
VERTEX
  5
63F
  8
PREDEFINITO
 10
-623.8011344852121
 20
116.0289024209309
 30
0.0
  0
VERTEX
  5
640
  8
PREDEFINITO
 10
-623.8392817707959
 20
115.996445000288
 30
0.0
  0
VERTEX
  5
641
  8
PREDEFINITO
 10
-623.87807042741
 20
115.9650536942645
 30
0.0
  0
VERTEX
  5
642
  8
PREDEFINITO
 10
-623.9174747794696
 20
115.9347837023828
 30
0.0
  0
VERTEX
  5
643
  8
PREDEFINITO
 10
-623.9574394447084
 20
115.9055232832708
 30
0.0
  0
VERTEX
  5
644
  8
PREDEFINITO
 10
-624.0387418045141
 20
115.8494635504435
 30
0.0
  0
VERTEX
  5
645
  8
PREDEFINITO
 10
-624.2046832699731
 20
115.7432152159864
 30
0.0
  0
VERTEX
  5
646
  8
PREDEFINITO
 10
-625.3849398669106
 20
115.0177572485964
 30
0.0
  0
VERTEX
  5
647
  8
PREDEFINITO
 10
-626.584382927283
 20
114.3181708227727
 30
0.0
  0
VERTEX
  5
648
  8
PREDEFINITO
 10
-627.8834989127448
 20
113.6142827155198
 30
0.0
  0
VERTEX
  5
649
  8
PREDEFINITO
 10
-629.2053355608738
 20
112.9547048807522
 30
0.0
  0
VERTEX
  5
64A
  8
PREDEFINITO
 10
-630.548321556128
 20
112.3396628741456
 30
0.0
  0
VERTEX
  5
64B
  8
PREDEFINITO
 10
-631.9108855829656
 20
111.7693822513756
 30
0.0
  0
VERTEX
  5
64C
  8
PREDEFINITO
 10
-633.2914563258452
 20
111.2440885681181
 30
0.0
  0
VERTEX
  5
64D
  8
PREDEFINITO
 10
-634.6884624692248
 20
110.7640073800486
 30
0.0
  0
VERTEX
  5
64E
  8
PREDEFINITO
 10
-636.1003326975626
 20
110.3293642428428
 30
0.0
  0
VERTEX
  5
64F
  8
PREDEFINITO
 10
-637.5254956953172
 20
109.9403847121765
 30
0.0
  0
SEQEND
  5
650
  8
PREDEFINITO
  0
LINE
  5
651
  8
PREDEFINITO
 10
-637.5279335945893
 20
126.6276073455811
 30
0.0
 11
-919.1106163313939
 21
126.6276073165583
 31
0.0
  0
POLYLINE
  5
652
  8
PREDEFINITO
 66
     1
 10
0.0
 20
0.0
 30
0.0
  0
VERTEX
  5
653
  8
PREDEFINITO
 10
-1988.20685790797
 20
109.9502092234244
 30
0.0
 42
-0.0800774839928409
  0
VERTEX
  5
654
  8
PREDEFINITO
 10
-2001.487129992543
 20
115.7367229018873
 30
0.0
 42
-0.5562030846954601
  0
VERTEX
  5
655
  8
PREDEFINITO
 10
-2001.490304420598
 20
120.8458710871667
 30
0.0
 42
-0.0796820294013672
  0
VERTEX
  5
656
  8
PREDEFINITO
 10
-1988.206857907977
 20
126.6276073165584
 30
0.0
  0
SEQEND
  5
657
  8
PREDEFINITO
  0
ENDSEC
  0
EOF
