  0
SECTION
  2
HEADER
  9
$ACADVER
  1
AC1009
  9
$DWGCODEPAGE
  3
mac-roman
  9
$INSBASE
 10
0.0
 20
0.0
 30
0.0
  9
$EXTMIN
 10
88.08118864101243
 20
86.88941064127232
 30
0.0
  9
$EXTMAX
 10
1843.196296081258
 20
2784.146096941975
 30
5.000000000000114
  9
$LIMMIN
 10
0.0
 20
0.0
  9
$LIMMAX
 10
12.0
 20
9.0
  9
$ORTHOMODE
 70
     0
  9
$REGENMODE
 70
     1
  9
$FILLMODE
 70
     1
  9
$QTEXTMODE
 70
     0
  9
$MIRRTEXT
 70
     1
  9
$DRAGMODE
 70
     2
  9
$LTSCALE
 40
1.0
  9
$OSMODE
 70
    37
  9
$ATTMODE
 70
     1
  9
$TEXTSIZE
 40
0.2
  9
$TRACEWID
 40
0.05
  9
$TEXTSTYLE
  7
STANDARD
  9
$CLAYER
  8
PREDEFINITO
  9
$CELTYPE
  6
BYLAYER
  9
$CECOLOR
 62
   256
  9
$DIMSCALE
 40
1.0
  9
$DIMASZ
 40
0.18
  9
$DIMEXO
 40
0.0625
  9
$DIMDLI
 40
0.38
  9
$DIMRND
 40
0.0
  9
$DIMDLE
 40
0.0
  9
$DIMEXE
 40
0.18
  9
$DIMTP
 40
0.0
  9
$DIMTM
 40
0.0
  9
$DIMTXT
 40
0.18
  9
$DIMCEN
 40
0.09
  9
$DIMTSZ
 40
0.0
  9
$DIMTOL
 70
     0
  9
$DIMLIM
 70
     0
  9
$DIMTIH
 70
     1
  9
$DIMTOH
 70
     1
  9
$DIMSE1
 70
     0
  9
$DIMSE2
 70
     0
  9
$DIMTAD
 70
     0
  9
$DIMZIN
 70
     0
  9
$DIMBLK
  1

  9
$DIMASO
 70
     1
  9
$DIMSHO
 70
     1
  9
$DIMPOST
  1

  9
$DIMAPOST
  1

  9
$DIMALT
 70
     0
  9
$DIMALTD
 70
     2
  9
$DIMALTF
 40
25.4
  9
$DIMLFAC
 40
1.0
  9
$DIMTOFL
 70
     0
  9
$DIMTVP
 40
0.0
  9
$DIMTIX
 70
     0
  9
$DIMSOXD
 70
     0
  9
$DIMSAH
 70
     0
  9
$DIMBLK1
  1

  9
$DIMBLK2
  1

  9
$DIMSTYLE
  2
STANDARD
  9
$DIMCLRD
 70
     0
  9
$DIMCLRE
 70
     0
  9
$DIMCLRT
 70
     0
  9
$DIMTFAC
 40
1.0
  9
$DIMGAP
 40
0.09
  9
$LUNITS
 70
     2
  9
$LUPREC
 70
     3
  9
$SKETCHINC
 40
0.1
  9
$FILLETRAD
 40
0.5
  9
$AUNITS
 70
     0
  9
$AUPREC
 70
     0
  9
$MENU
  1
.
  9
$ELEVATION
 40
0.0
  9
$PELEVATION
 40
0.0
  9
$THICKNESS
 40
0.0
  9
$LIMCHECK
 70
     0
  9
$CHAMFERA
 40
0.0
  9
$CHAMFERB
 40
0.0
  9
$SKPOLY
 70
     0
  9
$TDCREATE
 40
2458968.710277766
  9
$TDUPDATE
 40
2458968.710300914
  9
$TDINDWG
 40
0.0000000116
  9
$TDUSRTIMER
 40
0.0000000116
  9
$USRTIMER
 70
     1
  9
$ANGBASE
 50
0.0
  9
$ANGDIR
 70
     0
  9
$PDMODE
 70
     0
  9
$PDSIZE
 40
0.0
  9
$PLINEWID
 40
0.0
  9
$COORDS
 70
     1
  9
$SPLFRAME
 70
     0
  9
$SPLINETYPE
 70
     6
  9
$SPLINESEGS
 70
     8
  9
$ATTDIA
 70
     0
  9
$ATTREQ
 70
     1
  9
$HANDLING
 70
     1
  9
$HANDSEED
  5
44C
  9
$SURFTAB1
 70
     6
  9
$SURFTAB2
 70
     6
  9
$SURFTYPE
 70
     6
  9
$SURFU
 70
     6
  9
$SURFV
 70
     6
  9
$UCSNAME
  2

  9
$UCSORG
 10
0.0
 20
0.0
 30
0.0
  9
$UCSXDIR
 10
1.0
 20
0.0
 30
0.0
  9
$UCSYDIR
 10
0.0
 20
1.0
 30
0.0
  9
$PUCSNAME
  2

  9
$PUCSORG
 10
0.0
 20
0.0
 30
0.0
  9
$PUCSXDIR
 10
1.0
 20
0.0
 30
0.0
  9
$PUCSYDIR
 10
0.0
 20
1.0
 30
0.0
  9
$USERI1
 70
     0
  9
$USERI2
 70
     0
  9
$USERI3
 70
     0
  9
$USERI4
 70
     0
  9
$USERI5
 70
     0
  9
$USERR1
 40
0.0
  9
$USERR2
 40
0.0
  9
$USERR3
 40
0.0
  9
$USERR4
 40
0.0
  9
$USERR5
 40
0.0
  9
$WORLDVIEW
 70
     1
  9
$SHADEDGE
 70
     3
  9
$SHADEDIF
 70
    70
  9
$TILEMODE
 70
     1
  9
$MAXACTVP
 70
    64
  9
$PLIMCHECK
 70
     0
  9
$PEXTMIN
 10
1.000000000000000E+20
 20
1.000000000000000E+20
 30
1.000000000000000E+20
  9
$PEXTMAX
 10
-1.000000000000000E+20
 20
-1.000000000000000E+20
 30
-1.000000000000000E+20
  9
$PLIMMIN
 10
0.0
 20
0.0
  9
$PLIMMAX
 10
12.0
 20
9.0
  9
$UNITMODE
 70
     0
  9
$VISRETAIN
 70
     1
  9
$PLINEGEN
 70
     0
  9
$PSLTSCALE
 70
     1
  0
ENDSEC
  0
SECTION
  2
TABLES
  0
TABLE
  2
VPORT
 70
     1
  0
VPORT
  2
*ACTIVE
 70
     0
 10
0.0
 20
0.0
 11
1.0
 21
1.0
 12
965.6387423611354
 22
1435.517753791624
 13
0.0
 23
0.0
 14
0.5
 24
0.5
 15
0.5
 25
0.5
 16
0.0
 26
0.0
 36
1.0
 17
0.0
 27
0.0
 37
0.0
 40
2751.201820026717
 41
0.6507037748221853
 42
50.0
 43
0.0
 44
0.0
 50
0.0
 51
0.0
 71
     0
 72
   100
 73
     1
 74
     3
 75
     0
 76
     0
 77
     0
 78
     0
  0
ENDTAB
  0
TABLE
  2
LTYPE
 70
     1
  0
LTYPE
  2
CONTINUOUS
 70
     0
  3
Solid line
 72
    65
 73
     0
 40
0.0
  0
ENDTAB
  0
TABLE
  2
LAYER
 70
     3
  0
LAYER
  2
0
 70
     0
 62
     7
  6
CONTINUOUS
  0
LAYER
  2
PREDEFINITO
 70
     0
 62
   178
  6
CONTINUOUS
  0
LAYER
  2
CREA2D$VISIBILI$LINEE
 70
     0
 62
   178
  6
CONTINUOUS
  0
ENDTAB
  0
TABLE
  2
STYLE
 70
     1
  0
STYLE
  2
STANDARD
 70
     0
 40
0.0
 41
1.0
 50
0.0
 71
     0
 42
0.2
  3
txt
  4

  0
ENDTAB
  0
TABLE
  2
VIEW
 70
     0
  0
ENDTAB
  0
TABLE
  2
UCS
 70
     0
  0
ENDTAB
  0
TABLE
  2
APPID
 70
     1
  0
APPID
  2
ACAD
 70
     0
  0
ENDTAB
  0
TABLE
  2
DIMSTYLE
 70
     1
  0
DIMSTYLE
  2
STANDARD
 70
     0
  3

  4

  5

  6

  7

 40
1.0
 41
0.18
 42
0.0625
 43
0.38
 44
0.18
 45
0.0
 46
0.0
 47
0.0
 48
0.0
140
0.18
141
0.09
142
0.0
143
25.4
144
1.0
145
0.0
146
1.0
147
0.09
 71
     0
 72
     0
 73
     1
 74
     1
 75
     0
 76
     0
 77
     0
 78
     0
170
     0
171
     2
172
     0
173
     0
174
     0
175
     0
176
     0
177
     0
178
     0
  0
ENDTAB
  0
ENDSEC
  0
SECTION
  2
BLOCKS
  0
BLOCK
  8
0
  2
$MODEL_SPACE
 70
     0
 10
0.0
 20
0.0
 30
0.0
  3
$MODEL_SPACE
  1

  0
ENDBLK
  5
21
  8
0
  0
BLOCK
 67
     1
  8
0
  2
$PAPER_SPACE
 70
     0
 10
0.0
 20
0.0
 30
0.0
  3
$PAPER_SPACE
  1

  0
ENDBLK
  5
1D
 67
     1
  8
0
  0
ENDSEC
  0
SECTION
  2
ENTITIES
  0
LINE
  5
6B
  8
PREDEFINITO
 10
1289.276283201925
 20
109.7845105375943
 30
0.0
 11
1155.183178228431
 21
109.7845526387524
 31
0.0
  0
LINE
  5
6C
  8
PREDEFINITO
 10
1827.218779903292
 20
109.7844400705443
 30
0.0
 11
1689.276283201925
 21
109.784440063221
 31
0.0
  0
LINE
  5
6D
  8
PREDEFINITO
 10
1689.276283201924
 20
126.7906792736077
 30
0.0
 11
1827.220075013096
 21
126.7906792663161
 31
0.0
  0
LINE
  5
6E
  8
PREDEFINITO
 10
1155.134179266347
 20
126.7906792662972
 30
0.0
 11
1289.276283201924
 21
126.7906792690319
 31
0.0
  0
POLYLINE
  5
70
  8
CREA2D$VISIBILI$LINEE
 66
     1
 10
0.0
 20
0.0
 30
0.0
  0
VERTEX
  5
71
  8
CREA2D$VISIBILI$LINEE
 10
1291.276283201925
 20
86.88941064127255
 30
0.0
  0
VERTEX
  5
72
  8
CREA2D$VISIBILI$LINEE
 10
1687.276283201925
 20
86.88941064127278
 30
0.0
 42
0.4142135623733296
  0
VERTEX
  5
73
  8
CREA2D$VISIBILI$LINEE
 10
1689.276283201925
 20
88.88941064127255
 30
0.0
  0
VERTEX
  5
74
  8
CREA2D$VISIBILI$LINEE
 10
1689.276283201924
 20
144.8894106412714
 30
0.0
 42
0.4142135623731993
  0
VERTEX
  5
75
  8
CREA2D$VISIBILI$LINEE
 10
1687.276283201925
 20
146.8894106412725
 30
0.0
  0
VERTEX
  5
76
  8
CREA2D$VISIBILI$LINEE
 10
1291.276283201924
 20
146.8894106412728
 30
0.0
 42
0.4142135623731062
  0
VERTEX
  5
77
  8
CREA2D$VISIBILI$LINEE
 10
1289.276283201925
 20
144.8894106412725
 30
0.0
  0
VERTEX
  5
78
  8
CREA2D$VISIBILI$LINEE
 10
1289.276283201925
 20
88.88941064127323
 30
0.0
 42
0.4142135623730835
  0
VERTEX
  5
79
  8
CREA2D$VISIBILI$LINEE
 10
1291.276283201925
 20
86.88941064127232
 30
0.0
  0
SEQEND
  5
7A
  8
CREA2D$VISIBILI$LINEE
  0
ARC
  5
7B
  8
CREA2D$VISIBILI$LINEE
 10
146.081188641012
 20
2779.633113251072
 30
0.0
 40
2.000000000000909
 50
0.0000000000260551
 51
89.99999999998697
  0
ARC
  5
7C
  8
CREA2D$VISIBILI$LINEE
 10
146.0811886410111
 20
2743.633113251074
 30
0.0
 40
2.000000000000909
 50
270.0000000000367
 51
359.999999999974
  0
ARC
  5
7D
  8
CREA2D$VISIBILI$LINEE
 10
90.08118864101152
 20
2779.633113251074
 30
0.0
 40
1.999999999999091
 50
89.99999999997557
 51
180.0000000000261
  0
ARC
  5
7E
  8
CREA2D$VISIBILI$LINEE
 10
90.08118864101175
 20
2743.633113251072
 30
0.0
 40
1.999999999999318
 50
179.9999999999739
 51
270.0000000000212
  0
LINE
  5
7F
  8
CREA2D$VISIBILI$LINEE
 10
90.08118864101237
 20
2781.633113251073
 30
0.0
 11
146.0811886410124
 21
2781.633113251073
 31
0.0
  0
LINE
  5
80
  8
CREA2D$VISIBILI$LINEE
 10
90.08118864101249
 20
2741.633113251073
 30
0.0
 11
146.0811886410124
 21
2741.633113251073
 31
0.0
  0
LINE
  5
81
  8
CREA2D$VISIBILI$LINEE
 10
148.0811886410124
 20
2779.633113251073
 30
0.0
 11
148.0811886410124
 21
2743.633113251073
 31
0.0
  0
LINE
  5
82
  8
CREA2D$VISIBILI$LINEE
 10
88.08118864101243
 20
2779.633113251073
 30
0.0
 11
88.08118864101243
 21
2743.633113251073
 31
0.0
  0
LINE
  5
83
  8
CREA2D$VISIBILI$LINEE
 10
1689.276283201925
 20
2782.146096941974
 30
0.0
 11
1689.276283201925
 21
2746.146096941974
 31
0.0
  0
LINE
  5
84
  8
CREA2D$VISIBILI$LINEE
 10
1289.276283201925
 20
2746.146096941974
 30
0.0
 11
1289.276283201925
 21
2782.146096941974
 31
0.0
  0
LINE
  5
85
  8
CREA2D$VISIBILI$LINEE
 10
1291.276283201925
 20
2744.146096941974
 30
0.0
 11
1687.276283201925
 21
2744.146096941974
 31
0.0
  0
LINE
  5
86
  8
CREA2D$VISIBILI$LINEE
 10
1291.276283201925
 20
2784.146096941974
 30
0.0
 11
1687.276283201925
 21
2784.146096941974
 31
0.0
  0
ARC
  5
87
  8
CREA2D$VISIBILI$LINEE
 10
1687.276283201925
 20
2746.146096941974
 30
0.0
 40
2.0
 50
269.9999999999804
 51
0.0
  0
ARC
  5
88
  8
CREA2D$VISIBILI$LINEE
 10
1687.276283201923
 20
2782.146096941973
 30
0.0
 40
2.000000000000909
 50
0.0000000000260551
 51
89.99999999996092
  0
ARC
  5
89
  8
CREA2D$VISIBILI$LINEE
 10
1291.276283201924
 20
2746.146096941973
 30
0.0
 40
1.999999999999773
 50
179.9999999999739
 51
270.0000000000065
  0
ARC
  5
8A
  8
CREA2D$VISIBILI$LINEE
 10
1291.276283201925
 20
2782.146096941974
 30
0.0
 40
2.000000000000682
 50
90.00000000002606
 51
180.0
  0
ARC
  5
8B
  8
PREDEFINITO
 10
1491.177133183513
 20
1962.149982072609
 30
5.0
 40
352.0192080714542
 50
69.17507001714259
 51
113.1203070682016
  0
ARC
  5
8C
  8
PREDEFINITO
 10
1491.181748816084
 20
1962.162254835745
 30
4.999999999991927
 40
352.0061096747154
 50
67.00097194719032
 51
68.7007273395274
  0
ARC
  5
8D
  8
PREDEFINITO
 10
1491.177127498696
 20
1962.150026339536
 30
5.0
 40
333.7500000155253
 50
180.0000027489076
 51
0.000000010473215
  0
ARC
  5
8E
  8
PREDEFINITO
 10
1491.177127498696
 20
1962.150026339536
 30
5.0
 40
333.7500000155252
 50
0.0000000104731759
 51
180.0000027489077
  0
ARC
  5
8F
  8
PREDEFINITO
 10
1491.177127498696
 20
1962.150024863797
 30
5.0
 40
333.1551330987012
 50
180.0000028225764
 51
0.0000015924189955
  0
ARC
  5
90
  8
PREDEFINITO
 10
1491.177127498696
 20
1962.150032580776
 30
5.0
 40
333.1551330987008
 50
0.0000002652584958
 51
180.0000041497369
  0
ARC
  5
91
  8
PREDEFINITO
 10
1491.177127498696
 20
1962.150026278529
 30
5.0
 40
334.5000000004777
 50
180.0
 51
359.9999999999999
  0
ARC
  5
92
  8
PREDEFINITO
 10
1491.177127498695
 20
1962.15002627853
 30
5.0
 40
334.500000000477
 50
359.9999999999998
 51
180.0000000000002
  0
ARC
  5
93
  8
PREDEFINITO
 10
1491.177127498695
 20
1962.150026770974
 30
5.0
 40
318.865884915899
 50
179.9999999115144
 51
359.9999999115145
  0
ARC
  5
94
  8
PREDEFINITO
 10
1491.177127498695
 20
1962.150026770973
 30
5.0
 40
318.865884915899
 50
359.9999999115145
 51
179.9999999115144
  0
ARC
  5
95
  8
PREDEFINITO
 10
1491.177003671978
 20
1962.149950044326
 30
5.0
 40
352.0192924092888
 50
0.0000124081213352
 51
64.97202253801451
  0
ARC
  5
96
  8
PREDEFINITO
 10
1491.177127498695
 20
1962.150050833645
 30
5.0
 40
352.0191685825636
 50
180.0000039966702
 51
359.9999960033298
  0
ARC
  5
97
  8
PREDEFINITO
 10
1491.177027308294
 20
1962.150070809533
 30
5.0
 40
352.0190683921643
 50
115.1009675481307
 51
180.0000072480124
  0
LINE
  5
98
  8
PREDEFINITO
 10
1631.391206810765
 20
2287.127773274235
 30
5.0
 11
1631.391206810765
 21
2435.149771081573
 31
5.0
  0
LINE
  5
99
  8
PREDEFINITO
 10
1632.191206810765
 20
2435.149771081573
 30
5.0
 11
1632.191206810765
 21
2286.779923358689
 31
5.0
  0
LINE
  5
9A
  8
PREDEFINITO
 10
1628.666126038311
 20
2435.149771081573
 30
5.0
 11
1628.666126038246
 21
2421.734625502117
 31
5.0
  0
LINE
  5
9B
  8
PREDEFINITO
 10
1628.666126038246
 20
2421.734625502117
 30
5.0
 11
1628.66612603818
 21
2373.24944285135
 31
5.0
  0
ARC
  5
9C
  8
PREDEFINITO
 10
1514.143464559665
 20
2373.251558980952
 30
5.0
 40
114.5226614980663
 50
356.9991556075487
 51
359.9989412986608
  0
ARC
  5
9D
  8
PREDEFINITO
 10
1477.512021104742
 20
2375.198586292287
 30
4.999999999995381
 40
151.2058051193894
 50
354.7422791668362
 51
356.9890471022251
  0
ARC
  5
9E
  8
PREDEFINITO
 10
1451.474970856998
 20
2377.666934001852
 30
5.0
 40
177.3595104401857
 50
352.7580620763985
 51
354.7190079389482
  0
LINE
  5
9F
  8
PREDEFINITO
 10
1627.419630793564
 20
2355.309103530437
 30
5.0
 11
1626.595312931085
 21
2349.380408060254
 31
5.0
  0
ARC
  5
A0
  8
PREDEFINITO
 10
1258.21444331906
 20
2404.95664417804
 30
5.0
 40
372.5495713554528
 50
349.8858919156478
 51
351.4207009039725
  0
LINE
  5
A1
  8
PREDEFINITO
 10
1624.974582838025
 20
2339.533535285533
 30
5.0
 11
1623.233840912897
 21
2329.781439096225
 31
5.0
  0
LINE
  5
A2
  8
PREDEFINITO
 10
1623.233840912897
 20
2329.781439096225
 30
5.0
 11
1621.632119087713
 21
2320.46975655099
 31
5.0
  0
ARC
  5
A3
  8
PREDEFINITO
 10
1866.311029543959
 20
2279.979752669447
 30
5.0
 40
248.0064709566727
 50
170.6037213186785
 51
172.8019254420053
  0
ARC
  5
A4
  8
PREDEFINITO
 10
1803.01107401327
 20
2288.051757153465
 30
5.0
 40
184.1939826644829
 50
172.8258494346766
 51
175.5783991382106
  0
ARC
  5
A5
  8
PREDEFINITO
 10
1734.811314872051
 20
2293.372105057187
 30
5.0
 40
115.787040139987
 50
175.601487489729
 51
179.9967310561062
  0
LINE
  5
A6
  8
PREDEFINITO
 10
1619.024274920515
 20
2293.378711151752
 30
5.0
 11
1619.024274920515
 21
2291.378711151753
 31
5.0
  0
LINE
  5
A7
  8
PREDEFINITO
 10
1619.024274920515
 20
2291.378711151753
 30
5.0
 11
1619.051522875273
 21
2289.917306260301
 31
5.0
  0
LINE
  5
A8
  8
PREDEFINITO
 10
1619.051522875273
 20
2289.917306260301
 30
5.0
 11
1619.118749021874
 21
2288.545116890257
 31
5.0
  0
LINE
  5
A9
  8
PREDEFINITO
 10
1619.118749021874
 20
2288.545116890257
 30
5.0
 11
1619.287459623814
 21
2285.974980131705
 31
5.0
  0
LINE
  5
AA
  8
PREDEFINITO
 10
1619.287459623814
 20
2285.974980131705
 30
5.0
 11
1619.294577200883
 21
2284.266586906524
 31
5.0
  0
ARC
  5
AB
  8
PREDEFINITO
 10
1614.543045999656
 20
2284.599940823811
 30
4.999999999999925
 40
4.76321042894478
 50
338.2634635119021
 51
355.9868666694641
  0
LINE
  5
AC
  8
PREDEFINITO
 10
1618.967575980678
 20
2282.835937411841
 30
5.0
 11
1618.712321132137
 21
2282.447384616575
 31
5.0
  0
ARC
  5
AD
  8
PREDEFINITO
 10
1617.806740057278
 20
2283.378235360924
 30
5.0
 40
1.298676322799615
 50
265.8650575118979
 51
314.211648356959
  0
ARC
  5
AE
  8
PREDEFINITO
 10
1617.731572724109
 20
2283.420456847969
 30
5.0
 40
1.337644933576222
 50
161.606261676695
 51
269.2086431619991
  0
ARC
  5
AF
  8
PREDEFINITO
 10
1614.387996786592
 20
2284.62722198761
 30
5.000000000000063
 40
2.217727977420215
 50
339.2788299394392
 51
358.4285805266414
  0
LINE
  5
B0
  8
PREDEFINITO
 10
1616.604890717918
 20
2284.566405221171
 30
5.0
 11
1616.580137545033
 21
2286.043676770214
 31
5.0
  0
LINE
  5
B1
  8
PREDEFINITO
 10
1616.580137545033
 20
2286.043676770214
 30
5.0
 11
1616.505668881962
 21
2287.161536738002
 31
5.0
  0
LINE
  5
B2
  8
PREDEFINITO
 10
1616.505668881962
 20
2287.161536738002
 30
5.0
 11
1616.421862869257
 21
2288.411798023876
 31
5.0
  0
LINE
  5
B3
  8
PREDEFINITO
 10
1616.421862869257
 20
2288.411798023876
 30
5.0
 11
1616.354502866907
 21
2289.78816436543
 31
5.0
  0
LINE
  5
B4
  8
PREDEFINITO
 10
1616.354502866907
 20
2289.78816436543
 30
5.0
 11
1616.324274920515
 21
2291.378711151753
 31
5.0
  0
LINE
  5
B5
  8
PREDEFINITO
 10
1616.324274920515
 20
2291.378711151753
 30
5.0
 11
1616.324274920515
 21
2293.378711151752
 31
5.0
  0
ARC
  5
B6
  8
PREDEFINITO
 10
1734.586314664781
 20
2293.380757205572
 30
5.0
 40
118.2620397619655
 50
175.5914019215127
 51
180.0009912753811
  0
ARC
  5
B7
  8
PREDEFINITO
 10
1802.077936791398
 20
2288.146482598932
 30
5.0
 40
185.956323750538
 50
172.8137624014211
 51
175.5819127075842
  0
ARC
  5
B8
  8
PREDEFINITO
 10
1865.484574243758
 20
2280.100214514801
 30
5.0
 40
249.8714405157366
 50
170.6036008283916
 51
172.8020189055838
  0
LINE
  5
B9
  8
PREDEFINITO
 10
1618.965802748156
 20
2320.895215258869
 30
5.0
 11
1620.572519705891
 21
2330.237195168223
 31
5.0
  0
LINE
  5
BA
  8
PREDEFINITO
 10
1620.572519705891
 20
2330.237195168223
 30
5.0
 11
1622.313834539341
 21
2339.992519627638
 31
5.0
  0
ARC
  5
BB
  8
PREDEFINITO
 10
1258.66763553296
 20
2404.88215363044
 30
5.0
 40
369.3903391438469
 50
349.8825335360347
 51
351.4196058755007
  0
LINE
  5
BC
  8
PREDEFINITO
 10
1623.923570432393
 20
2349.770225034652
 30
5.0
 11
1624.743298447383
 21
2355.666142945379
 31
5.0
  0
ARC
  5
BD
  8
PREDEFINITO
 10
1452.855299237075
 20
2377.515327022108
 30
4.999999999994023
 40
173.2710914069098
 50
352.7558163618018
 51
354.7311027182749
  0
ARC
  5
BE
  8
PREDEFINITO
 10
1478.01907272515
 20
2375.161773668369
 30
5.000000000004579
 40
147.9975192695786
 50
354.743807998569
 51
357.0003497482116
  0
ARC
  5
BF
  8
PREDEFINITO
 10
1514.14001340725
 20
2373.251616955772
 30
5.0
 40
111.8261126520641
 50
357.0092319725165
 51
359.9988860651181
  0
LINE
  5
C0
  8
PREDEFINITO
 10
1625.96612603818
 20
2373.24944285135
 30
5.0
 11
1625.966126038246
 21
2421.734625502117
 31
5.0
  0
LINE
  5
C1
  8
PREDEFINITO
 10
1625.966126038246
 20
2421.734625502117
 30
5.0
 11
1625.966126038257
 21
2435.149771081573
 31
5.0
  0
ARC
  5
C2
  8
PREDEFINITO
 10
1639.666344648996
 20
2282.428997760374
 30
5.0
 40
1.009384976753004
 50
338.0482014902773
 51
66.93489565810847
  0
LINE
  5
C3
  8
PREDEFINITO
 10
1640.602547875963
 20
2282.051662963265
 30
5.0
 11
1640.251891405642
 21
2281.205102854446
 31
5.0
  0
LINE
  5
C4
  8
PREDEFINITO
 10
1640.251891405642
 20
2281.205102854446
 30
5.0
 11
1638.157699104015
 21
2280.513514618891
 31
5.0
  0
ARC
  5
C5
  8
PREDEFINITO
 10
1637.500467651468
 20
2282.62226423696
 30
5.000000000000014
 40
2.208795629731869
 50
247.9314702278403
 51
287.3106268981301
  0
LINE
  5
C6
  8
PREDEFINITO
 10
1636.670589334079
 20
2280.57529571931
 30
5.0
 11
1630.709698850575
 21
2283.167164667324
 31
5.0
  0
ARC
  5
C7
  8
PREDEFINITO
 10
1631.64452573887
 20
2285.173922818988
 30
5.000000000000014
 40
2.213815617965403
 50
205.7358586355262
 51
245.0220442369541
  0
LINE
  5
C8
  8
PREDEFINITO
 10
1629.650308589737
 20
2284.212633293167
 30
5.0
 11
1628.727868490469
 21
2286.215890627296
 31
5.0
  0
LINE
  5
C9
  8
PREDEFINITO
 10
1628.727868490469
 20
2286.215890627296
 30
5.0
 11
1629.10785666113
 21
2287.049698080145
 31
5.0
  0
ARC
  5
CA
  8
PREDEFINITO
 10
1630.02242643626
 20
2286.622033113624
 30
5.0
 40
1.009621313746029
 50
66.07825660035712
 51
154.9385853397273
  0
LINE
  5
CB
  8
PREDEFINITO
 10
1630.431816279859
 20
2287.544928098511
 30
5.0
 11
1632.266370605187
 21
2286.747271877338
 31
5.0
  0
LINE
  5
CC
  8
PREDEFINITO
 10
1632.266370605187
 20
2286.747271877338
 30
5.0
 11
1638.227252535532
 21
2284.155375981729
 31
5.0
  0
LINE
  5
CD
  8
PREDEFINITO
 10
1638.227252535532
 20
2284.155375981729
 30
5.0
 11
1640.061798297446
 21
2283.357692782016
 31
5.0
  0
LINE
  5
CE
  8
PREDEFINITO
 10
1633.803758805312
 20
2435.14977108154
 30
5.0
 11
1633.803758805312
 21
2485.649771081707
 31
5.0
  0
POLYLINE
  5
CF
  8
PREDEFINITO
 66
     1
 10
0.0
 20
0.0
 30
-937.3072402181426
210
-6.646894053044898E-14
220
-0.3789489328306525
230
0.9254175848267145
  0
VERTEX
  5
D0
  8
PREDEFINITO
 10
1633.803758804876
 20
2302.158752543925
 30
-937.3072402181426
  0
VERTEX
  5
D1
  8
PREDEFINITO
 10
1633.81612451917
 20
2302.158752543925
 30
-937.3072402181426
  0
VERTEX
  5
D2
  8
PREDEFINITO
 10
1633.816046937869
 20
2302.158752543925
 30
-937.3072402181426
  0
VERTEX
  5
D3
  8
PREDEFINITO
 10
1620.840860498482
 20
2302.158752543926
 30
-937.3072402181426
  0
SEQEND
  5
D4
  8
PREDEFINITO
  0
LINE
  5
D5
  8
PREDEFINITO
 10
1620.840860498918
 20
2485.649771081707
 30
5.0
 11
1620.840860498918
 21
2435.149771081573
 31
5.0
  0
POLYLINE
  5
D6
  8
PREDEFINITO
 66
     1
 10
0.0
 20
0.0
 30
4.215970461121713
210
-7.898801782965420E-16
220
-0.0003219634738842272
230
0.9999999481697595
  0
VERTEX
  5
D7
  8
PREDEFINITO
 10
1620.840860498918
 20
2435.151254684544
 30
4.215970461121713
  0
VERTEX
  5
D8
  8
PREDEFINITO
 10
1633.816046938305
 20
2435.151254684512
 30
4.215970461121713
  0
VERTEX
  5
D9
  8
PREDEFINITO
 10
1633.816124519606
 20
2435.151254684512
 30
4.215970461121713
  0
VERTEX
  5
DA
  8
PREDEFINITO
 10
1633.803758805312
 20
2435.15125468451
 30
4.215970461121713
  0
SEQEND
  5
DB
  8
PREDEFINITO
  0
LINE
  5
DC
  8
PREDEFINITO
 10
1632.191206810765
 20
2741.594470527986
 30
5.0
 11
1632.191206810765
 21
2485.649771081707
 31
5.0
  0
LINE
  5
DD
  8
PREDEFINITO
 10
1631.391206810765
 20
2485.649771081707
 30
5.0
 11
1631.391206810765
 21
2741.594470527986
 31
5.0
  0
LINE
  5
DE
  8
PREDEFINITO
 10
1613.062681611518
 20
2741.594470527986
 30
5.0
 11
1613.062681611518
 21
2723.094470527987
 31
5.0
  0
ARC
  5
DF
  8
PREDEFINITO
 10
1631.091303382765
 20
2723.094470527993
 30
4.999999999999487
 40
18.02862177124712
 50
180.0000000000188
 51
186.7365123153117
  0
ARC
  5
E0
  8
PREDEFINITO
 10
1632.722915003605
 20
2723.287195030882
 30
5.000000000000604
 40
19.67157618792254
 50
186.7365123153008
 51
192.9476024158001
  0
ARC
  5
E1
  8
PREDEFINITO
 10
1634.496109224031
 20
2723.694861496906
 30
5.0
 40
21.49102931753962
 50
192.9476024157499
 51
198.5695275409321
  0
ARC
  5
E2
  8
PREDEFINITO
 10
1639.981452232226
 20
2725.537636190578
 30
5.000000000001158
 40
27.27763510065528
 50
198.5695275409018
 51
203.0563808261192
  0
ARC
  5
E3
  8
PREDEFINITO
 10
1644.206671443558
 20
2727.336044275821
 30
5.0
 40
31.86966613548922
 50
203.0563808261197
 51
206.975950491927
  0
ARC
  5
E4
  8
PREDEFINITO
 10
1657.247579806214
 20
2733.973825518491
 30
5.0
 40
46.50269148053426
 50
206.9759504918841
 51
209.6974924257875
  0
ARC
  5
E5
  8
PREDEFINITO
 10
1668.36692589347
 20
2740.315543597696
 30
5.0
 40
59.30336511922524
 50
209.6974924257749
 51
211.9532037498252
  0
ARC
  5
E6
  8
PREDEFINITO
 10
1721.508228993818
 20
2773.461595665836
 30
5.000000000018936
 40
121.9344984548678
 50
211.9532037496564
 51
213.0630746578656
  0
ARC
  5
E7
  8
PREDEFINITO
 10
1821.557861464575
 20
2838.591289118554
 30
5.000000000067873
 40
241.3154262732529
 50
213.0630746578015
 51
213.6493071556701
  0
ARC
  5
E8
  8
PREDEFINITO
 10
1407.677873373155
 20
2563.096390993291
 30
5.0
 40
255.8707394992905
 50
33.09038031849953
 51
33.64930715562657
  0
ARC
  5
E9
  8
PREDEFINITO
 10
1515.031380945569
 20
2633.053581239878
 30
5.0
 40
127.734936324309
 50
32.0085173177218
 51
33.09038031849866
  0
ARC
  5
EA
  8
PREDEFINITO
 10
1570.059410795842
 20
2667.450285907596
 30
4.999999999995282
 40
62.84104322795726
 50
29.78513513368065
 51
32.00851731773429
  0
ARC
  5
EB
  8
PREDEFINITO
 10
1581.407599086567
 20
2673.945545351111
 30
5.0
 40
49.76550221734087
 50
27.09949411852276
 51
29.78513513369032
  0
ARC
  5
EC
  8
PREDEFINITO
 10
1594.66074773842
 20
2680.727376499049
 30
5.0
 40
34.87795094430545
 50
23.22210731328729
 51
27.09949411842084
  0
ARC
  5
ED
  8
PREDEFINITO
 10
1598.945290055863
 20
2682.565690861642
 30
5.000000000001181
 40
30.2156872703297
 50
18.7805972304273
 51
23.22210731311835
  0
ARC
  5
EE
  8
PREDEFINITO
 10
1604.519430938227
 20
2684.461177046694
 30
5.0
 40
24.32808041744262
 50
13.20266584093333
 51
18.78059723031684
  0
ARC
  5
EF
  8
PREDEFINITO
 10
1606.35210272688
 20
2684.891116295939
 30
5.0
 40
22.44565282442178
 50
6.880605555239141
 51
13.20266584096688
  0
ARC
  5
F0
  8
PREDEFINITO
 10
1608.055853696759
 20
2685.09670768163
 30
5.0
 40
20.72954234277067
 50
0.0000000000465056
 51
6.880605555247485
  0
LINE
  5
F1
  8
PREDEFINITO
 10
1628.785396039529
 20
2685.096707681647
 30
5.0
 11
1628.784994156243
 21
2670.096707679723
 31
5.0
  0
LINE
  5
F2
  8
PREDEFINITO
 10
1628.784994156243
 20
2670.096707679723
 30
5.0
 11
1628.76478002336
 21
2650.993479067611
 31
5.0
  0
ARC
  5
F3
  8
PREDEFINITO
 10
32885.64150673337
 20
2583.529191120201
 30
5.0
 40
31256.94953348605
 50
179.8763339984811
 51
179.911344489316
  0
ARC
  5
F4
  8
PREDEFINITO
 10
36382.95479080921
 20
2578.117692640827
 30
5.0
 40
34754.2670042469
 50
179.9113444984936
 51
179.9469646232577
  0
ARC
  5
F5
  8
PREDEFINITO
 10
68951.079374586
 20
2547.971266347665
 30
4.999999862037452
 40
67322.40554042094
 50
179.9469646270663
 51
179.9653533735416
  0
ARC
  5
F6
  8
PREDEFINITO
 10
99733.26021409502
 20
2529.357342604646
 30
4.999999958330489
 40
98104.59200783086
 50
179.9653533692651
 51
179.9890130309321
  0
ARC
  5
F7
  8
PREDEFINITO
 10
212884.2311276928
 20
2507.659655142464
 30
5.000000193218923
 40
211255.5650017892
 50
179.9890130324274
 51
180.0000003810571
  0
LINE
  5
F8
  8
PREDEFINITO
 10
1628.6661259036
 20
2507.658250144882
 30
5.0
 11
1628.666126038311
 21
2499.04924417565
 31
5.0
  0
LINE
  5
F9
  8
PREDEFINITO
 10
1628.666126038311
 20
2499.04924417565
 30
5.0
 11
1628.666126038311
 21
2485.649771081706
 31
5.0
  0
LINE
  5
FA
  8
PREDEFINITO
 10
1625.9661260383
 20
2485.649771081707
 30
5.0
 11
1625.966126038311
 21
2499.04924417565
 31
5.0
  0
LINE
  5
FB
  8
PREDEFINITO
 10
1625.966126038311
 20
2499.04924417565
 30
5.0
 11
1625.966929670621
 21
2507.658250144882
 31
5.0
  0
ARC
  5
FC
  8
PREDEFINITO
 10
212899.2679734745
 20
2503.466507787307
 30
5.0
 40
211273.3010853867
 50
179.9878766631688
 51
179.9988632300216
  0
ARC
  5
FD
  8
PREDEFINITO
 10
99731.57279096713
 20
2529.35801587072
 30
5.000000041668073
 40
98105.6029770709
 50
179.9653531648382
 51
179.989013234628
  0
ARC
  5
FE
  8
PREDEFINITO
 10
68951.07051714721
 20
2547.971275555386
 30
5.0
 40
67325.09507544477
 50
179.9469646241231
 51
179.9653533743358
  0
ARC
  5
FF
  8
PREDEFINITO
 10
36382.96157543146
 20
2578.117688250768
 30
5.0
 40
34756.97218133765
 50
179.9113444962533
 51
179.9469646190095
  0
ARC
  5
100
  8
PREDEFINITO
 10
32885.62419179695
 20
2583.529229163541
 30
5.000000019029985
 40
31259.63061098131
 50
179.8763339806191
 51
179.9113444962532
  0
ARC
  5
101
  8
PREDEFINITO
 10
-7221.9447931471
 20
2669.724312593508
 30
5.000000001525227
 40
8848.031000790455
 50
359.8787454279288
 51
0.0024114593170653
  0
LINE
  5
102
  8
PREDEFINITO
 10
1626.086199806691
 20
2670.096707680364
 30
5.0
 11
1626.085396039529
 21
2685.096707681647
 31
5.0
  0
ARC
  5
103
  8
PREDEFINITO
 10
1608.055853696463
 20
2685.096707681615
 30
5.0
 40
18.02954234306662
 50
0.0000000000997142
 51
6.880605555178662
  0
ARC
  5
104
  8
PREDEFINITO
 10
1606.352102726654
 20
2684.891116295897
 30
5.0
 40
19.74565282465151
 50
6.880605555278104
 51
13.20266584094222
  0
ARC
  5
105
  8
PREDEFINITO
 10
1604.519430938473
 20
2684.461177046754
 30
4.999999999999251
 40
21.6280804171892
 50
13.20266584092847
 51
18.78059723036982
  0
ARC
  5
106
  8
PREDEFINITO
 10
1598.945290056811
 20
2682.565690862003
 30
5.0
 40
27.51568726931556
 50
18.78059723035832
 51
23.22210731320022
  0
ARC
  5
107
  8
PREDEFINITO
 10
1594.660747738802
 20
2680.727376499245
 30
5.000000000001551
 40
32.1779509438759
 50
23.22210731324382
 51
27.09949411841479
  0
ARC
  5
108
  8
PREDEFINITO
 10
1581.40759908842
 20
2673.94554535212
 30
5.000000000003234
 40
47.06550221523233
 50
27.09949411845973
 51
29.78513513374593
  0
ARC
  5
109
  8
PREDEFINITO
 10
1570.059410793826
 20
2667.450285906368
 30
5.000000000004718
 40
60.14104323031759
 50
29.78513513374181
 51
32.00851731770821
  0
ARC
  5
10A
  8
PREDEFINITO
 10
1515.031380954506
 20
2633.053581245604
 30
5.0
 40
125.0349363136959
 50
32.00851731766733
 51
33.09038031853618
  0
ARC
  5
10B
  8
PREDEFINITO
 10
1407.677873424395
 20
2563.09639102695
 30
4.999999999925334
 40
253.1707394379845
 50
33.09038031844844
 51
33.64930715571085
  0
ARC
  5
10C
  8
PREDEFINITO
 10
1821.557861430655
 20
2838.591289096024
 30
4.999999999932128
 40
244.0154262325329
 50
213.0630746577132
 51
213.6493071556791
  0
ARC
  5
10D
  8
PREDEFINITO
 10
1721.508229001261
 20
2773.461595670629
 30
5.0
 40
124.6344984637193
 50
211.9532037497167
 51
213.0630746578442
  0
ARC
  5
10E
  8
PREDEFINITO
 10
1668.366925893323
 20
2740.315543597612
 30
5.0
 40
62.00336511905697
 50
209.6974924257782
 51
211.9532037498275
  0
ARC
  5
10F
  8
PREDEFINITO
 10
1657.247579805007
 20
2733.973825517839
 30
4.999999999996851
 40
49.20269147916284
 50
206.9759504918439
 51
209.6974924258287
  0
ARC
  5
110
  8
PREDEFINITO
 10
1644.206671443036
 20
2727.336044275569
 30
5.0
 40
34.56966613490966
 50
203.0563808260792
 51
206.9759504919417
  0
ARC
  5
111
  8
PREDEFINITO
 10
1639.981452231556
 20
2725.53763619033
 30
5.000000000001158
 40
29.97763509994145
 50
198.5695275408558
 51
203.0563808261875
  0
ARC
  5
112
  8
PREDEFINITO
 10
1634.496109224686
 20
2723.694861497087
 30
4.999999999999263
 40
24.19102931821763
 50
192.9476024158276
 51
198.5695275408392
  0
ARC
  5
113
  8
PREDEFINITO
 10
1632.722915002947
 20
2723.287195030766
 30
5.000000000000604
 40
22.37157618725495
 50
186.7365123152032
 51
192.9476024158876
  0
ARC
  5
114
  8
PREDEFINITO
 10
1631.09130338213
 20
2723.094470527962
 30
5.000000000000513
 40
20.72862177061188
 50
179.9999999999309
 51
186.7365123154322
  0
LINE
  5
115
  8
PREDEFINITO
 10
1610.362681611518
 20
2723.094470527987
 30
5.0
 11
1610.362681611518
 21
2741.594470527986
 31
5.0
  0
ARC
  5
116
  8
PREDEFINITO
 10
1342.036810729048
 20
2282.286001936098
 30
5.0
 40
1.00070987236059
 50
113.5399408182068
 51
202.4069061069847
  0
ARC
  5
117
  8
PREDEFINITO
 10
1351.696517557883
 20
2286.486419868271
 30
5.0
 40
1.000473260225826
 50
24.57968852067365
 51
113.4733467935675
  0
LINE
  5
118
  8
PREDEFINITO
 10
1341.462488648333
 20
2281.057559435973
 30
5.0
 11
1341.112009289987
 21
2281.903691456222
 31
5.0
  0
LINE
  5
119
  8
PREDEFINITO
 10
1352.606716172767
 20
2286.901732255404
 30
5.0
 11
1352.986511610208
 21
2286.06834722913
 31
5.0
  0
ARC
  5
11A
  8
PREDEFINITO
 10
1344.21369589811
 20
2282.479972182674
 30
5.000000000000015
 40
2.213744330638916
 50
252.7363883152551
 51
292.0226580964614
  0
ARC
  5
11B
  8
PREDEFINITO
 10
1359.897411670348
 20
2333.363612861767
 30
5.000000000004492
 40
55.459621454943
 50
250.5853307843397
 51
252.863882848084
  0
ARC
  5
11C
  8
PREDEFINITO
 10
1301.947455644213
 20
2308.356271983102
 30
5.0
 40
55.69323858293554
 50
334.1408967132563
 51
336.4098896541413
  0
ARC
  5
11D
  8
PREDEFINITO
 10
1350.073650439835
 20
2285.022530355984
 30
5.0
 40
2.208724356837203
 50
294.9308548937806
 51
334.3100986944297
  0
LINE
  5
11E
  8
PREDEFINITO
 10
1349.448018035022
 20
2286.599701499059
 30
5.0
 11
1351.267120968246
 21
2287.390669965753
 31
5.0
  0
LINE
  5
11F
  8
PREDEFINITO
 10
1343.487127551518
 20
2284.007832551045
 30
5.0
 11
1349.448018035022
 21
2286.599701499059
 31
5.0
  0
POLYLINE
  5
120
  8
PREDEFINITO
 66
     1
 10
0.0
 20
0.0
 30
5.0
  0
VERTEX
  5
121
  8
PREDEFINITO
 10
1341.668024629354
 20
2283.216864071357
 30
5.0
  0
VERTEX
  5
122
  8
PREDEFINITO
 10
1341.637139775324
 20
2283.203434954627
 30
5.0
  0
VERTEX
  5
123
  8
PREDEFINITO
 10
1343.487127551518
 20
2284.007832551045
 30
5.0
  0
SEQEND
  5
124
  8
PREDEFINITO
  0
LINE
  5
125
  8
PREDEFINITO
 10
1345.043790752957
 20
2280.427752288659
 30
5.0
 11
1351.00468123646
 21
2283.019621236673
 31
5.0
  0
ARC
  5
126
  8
PREDEFINITO
 10
1352.343553875352
 20
2286.838950928726
 30
5.000000000001815
 40
2.745299822593324
 50
180.0000000001234
 51
183.5835252582543
  0
LINE
  5
127
  8
PREDEFINITO
 10
1350.398254052758
 20
2744.094470527986
 30
5.0
 11
1350.398254052758
 21
2287.012875878704
 31
5.0
  0
LINE
  5
128
  8
PREDEFINITO
 10
1349.598254052758
 20
2286.83895092872
 30
5.0
 11
1349.598254052758
 21
2744.094470527986
 31
5.0
  0
LINE
  5
129
  8
PREDEFINITO
 10
126.7905484205396
 20
1626.083432946945
 30
5.0
 11
126.7904541079994
 21
2298.1455184284
 31
5.0
  0
POLYLINE
  5
12A
  8
PREDEFINITO
 66
     1
 10
0.0
 20
0.0
 30
5.0
  0
VERTEX
  5
12B
  8
PREDEFINITO
 10
109.7844400632963
 20
2298.096309545009
 30
5.0
 42
-0.065822312049523
  0
VERTEX
  5
12C
  8
PREDEFINITO
 10
109.9488584561415
 20
2299.420250108581
 30
5.0
 42
-0.0800908912413688
  0
VERTEX
  5
12D
  8
PREDEFINITO
 10
115.7359159975409
 20
2312.69962911431
 30
5.0
 42
-0.5573082794236094
  0
VERTEX
  5
12E
  8
PREDEFINITO
 10
120.8387219875963
 20
2312.699629114356
 30
5.0
 42
-0.0800313549673179
  0
VERTEX
  5
12F
  8
PREDEFINITO
 10
126.6269952778034
 20
2299.419377861419
 30
5.0
 42
-0.0629742712955566
  0
VERTEX
  5
130
  8
PREDEFINITO
 10
126.7904541079993
 20
2298.1455184284
 30
5.0
  0
SEQEND
  5
131
  8
PREDEFINITO
  0
ARC
  5
132
  8
PREDEFINITO
 10
230.4441141542996
 20
2287.979045807699
 30
5.0
 40
125.3535488302521
 50
169.4562278319189
 51
173.4857904912586
  0
ARC
  5
133
  8
PREDEFINITO
 10
230.4444615784055
 20
2287.978970842314
 30
5.0
 40
128.0539039601064
 50
169.4554544707522
 51
173.4948230736465
  0
POLYLINE
  5
134
  8
PREDEFINITO
 66
     1
 10
0.0
 20
0.0
 30
0.0
  0
VERTEX
  5
135
  8
PREDEFINITO
 10
1827.220075013096
 20
126.7906792663161
 30
0.0
  0
VERTEX
  5
136
  8
PREDEFINITO
 10
1827.380771985781
 20
126.7878621872239
 30
0.0
  0
VERTEX
  5
137
  8
PREDEFINITO
 10
1827.541533655904
 20
126.7799888469033
 30
0.0
  0
VERTEX
  5
138
  8
PREDEFINITO
 10
1827.702121244738
 20
126.7670521573507
 30
0.0
  0
VERTEX
  5
139
  8
PREDEFINITO
 10
1827.862295544388
 20
126.7490600624818
 30
0.0
  0
VERTEX
  5
13A
  8
PREDEFINITO
 10
1828.021818101707
 20
126.7260355546352
 30
0.0
  0
VERTEX
  5
13B
  8
PREDEFINITO
 10
1828.18045240012
 20
126.6980165793388
 30
0.0
  0
VERTEX
  5
13C
  8
PREDEFINITO
 10
1828.337965027078
 20
126.6650558291346
 30
0.0
  0
VERTEX
  5
13D
  8
PREDEFINITO
 10
1828.494126815069
 20
126.627220428791
 30
0.0
  0
VERTEX
  5
13E
  8
PREDEFINITO
 10
1829.372054791936
 20
126.3931025085668
 30
0.0
  0
VERTEX
  5
13F
  8
PREDEFINITO
 10
1830.245619860116
 20
126.141190151464
 30
0.0
  0
VERTEX
  5
140
  8
PREDEFINITO
 10
1831.114282414235
 20
125.8716099056198
 30
0.0
  0
VERTEX
  5
141
  8
PREDEFINITO
 10
1831.977507953479
 20
125.5845100851761
 30
0.0
  0
VERTEX
  5
142
  8
PREDEFINITO
 10
1832.834768176353
 20
125.2800605018618
 30
0.0
  0
VERTEX
  5
143
  8
PREDEFINITO
 10
1833.685542057869
 20
124.9584521306914
 30
0.0
  0
VERTEX
  5
144
  8
PREDEFINITO
 10
1834.529316904561
 20
124.6198967111583
 30
0.0
  0
VERTEX
  5
145
  8
PREDEFINITO
 10
1835.365589382829
 20
124.2646262856699
 30
0.0
  0
VERTEX
  5
146
  8
PREDEFINITO
 10
1836.194417482219
 20
123.8921741183446
 30
0.0
  0
VERTEX
  5
147
  8
PREDEFINITO
 10
1837.016268140368
 20
123.5033439470885
 30
0.0
  0
VERTEX
  5
148
  8
PREDEFINITO
 10
1837.830657992195
 20
123.0983361253979
 30
0.0
  0
VERTEX
  5
149
  8
PREDEFINITO
 10
1838.63711152466
 20
122.6773699503033
 30
0.0
  0
VERTEX
  5
14A
  8
PREDEFINITO
 10
1839.435162000924
 20
122.2406832686527
 30
0.0
  0
VERTEX
  5
14B
  8
PREDEFINITO
 10
1840.224352360318
 20
121.7885320295421
 30
0.0
  0
VERTEX
  5
14C
  8
PREDEFINITO
 10
1841.004236090452
 20
121.321189784659
 30
0.0
  0
VERTEX
  5
14D
  8
PREDEFINITO
 10
1841.774378068006
 20
120.8389471385842
 30
0.0
 42
-0.5573082794236238
  0
VERTEX
  5
14E
  8
PREDEFINITO
 10
1841.77437806796
 20
115.7361411485287
 30
0.0
  0
VERTEX
  5
14F
  8
PREDEFINITO
 10
1841.004208828732
 20
115.2538840303265
 30
0.0
  0
VERTEX
  5
150
  8
PREDEFINITO
 10
1840.224297461469
 20
114.7865279612583
 30
0.0
  0
VERTEX
  5
151
  8
PREDEFINITO
 10
1839.435079111939
 20
114.3343635595223
 30
0.0
  0
VERTEX
  5
152
  8
PREDEFINITO
 10
1838.637000315605
 20
113.8976643894053
 30
0.0
  0
VERTEX
  5
153
  8
PREDEFINITO
 10
1837.830518156782
 20
113.4766864115492
 30
0.0
  0
VERTEX
  5
154
  8
PREDEFINITO
 10
1837.016099396461
 20
113.071667483265
 30
0.0
  0
VERTEX
  5
155
  8
PREDEFINITO
 10
1836.194219572283
 20
112.6828269109346
 30
0.0
  0
VERTEX
  5
156
  8
PREDEFINITO
 10
1835.365362074318
 20
112.3103650562733
 30
0.0
  0
VERTEX
  5
157
  8
PREDEFINITO
 10
1834.529270380254
 20
111.9551343675178
 30
0.0
  0
VERTEX
  5
158
  8
PREDEFINITO
 10
1833.685659494582
 20
111.6166524410617
 30
0.0
  0
VERTEX
  5
159
  8
PREDEFINITO
 10
1832.835034900534
 20
111.295152375201
 30
0.0
  0
VERTEX
  5
15A
  8
PREDEFINITO
 10
1831.977911505032
 20
110.9908468325588
 30
0.0
  0
VERTEX
  5
15B
  8
PREDEFINITO
 10
1831.114812601277
 20
110.7039275743436
 30
0.0
  0
VERTEX
  5
15C
  8
PREDEFINITO
 10
1830.246268804353
 20
110.4345650580647
 30
0.0
  0
VERTEX
  5
15D
  8
PREDEFINITO
 10
1829.372816964435
 20
110.1829081004737
 30
0.0
  0
VERTEX
  5
15E
  8
PREDEFINITO
 10
1828.494999062231
 20
109.949083607129
 30
0.0
  0
VERTEX
  5
15F
  8
PREDEFINITO
 10
1828.338606872776
 20
109.9109705647169
 30
0.0
  0
VERTEX
  5
160
  8
PREDEFINITO
 10
1828.180846089349
 20
109.8777673240641
 30
0.0
  0
VERTEX
  5
161
  8
PREDEFINITO
 10
1828.021948864945
 20
109.8495422915651
 30
0.0
  0
VERTEX
  5
162
  8
PREDEFINITO
 10
1827.862151703663
 20
109.8263491681424
 30
0.0
  0
VERTEX
  5
163
  8
PREDEFINITO
 10
1827.701694291239
 20
109.8082266246961
 30
0.0
  0
VERTEX
  5
164
  8
PREDEFINITO
 10
1827.540818298185
 20
109.7951980895313
 30
0.0
  0
VERTEX
  5
165
  8
PREDEFINITO
 10
1827.379766168009
 20
109.7872716501939
 30
0.0
  0
VERTEX
  5
166
  8
PREDEFINITO
 10
1827.218779903292
 20
109.7844400705443
 30
0.0
  0
SEQEND
  5
167
  8
PREDEFINITO
  0
POLYLINE
  5
168
  8
PREDEFINITO
 66
     1
 10
0.0
 20
0.0
 30
0.0
  0
VERTEX
  5
169
  8
PREDEFINITO
 10
1155.183178228431
 20
109.7845526387524
 30
0.0
  0
VERTEX
  5
16A
  8
PREDEFINITO
 10
1155.016264961502
 20
109.7859985209172
 30
0.0
  0
VERTEX
  5
16B
  8
PREDEFINITO
 10
1154.849217809017
 20
109.7929298259284
 30
0.0
  0
VERTEX
  5
16C
  8
PREDEFINITO
 10
1154.682307550312
 20
109.8053575692104
 30
0.0
  0
VERTEX
  5
16D
  8
PREDEFINITO
 10
1154.515805693012
 20
109.823274954118
 30
0.0
  0
VERTEX
  5
16E
  8
PREDEFINITO
 10
1154.34998300602
 20
109.8466573364085
 30
0.0
  0
VERTEX
  5
16F
  8
PREDEFINITO
 10
1154.185108053739
 20
109.875462333426
 30
0.0
  0
VERTEX
  5
170
  8
PREDEFINITO
 10
1154.021445748157
 20
109.9096300770291
 30
0.0
  0
VERTEX
  5
171
  8
PREDEFINITO
 10
1153.859255935159
 20
109.9490836071291
 30
0.0
  0
VERTEX
  5
172
  8
PREDEFINITO
 10
1152.981438032955
 20
110.1829081004739
 30
0.0
  0
VERTEX
  5
173
  8
PREDEFINITO
 10
1152.107986193038
 20
110.4345650580648
 30
0.0
  0
VERTEX
  5
174
  8
PREDEFINITO
 10
1151.239442396115
 20
110.7039275743437
 30
0.0
  0
VERTEX
  5
175
  8
PREDEFINITO
 10
1150.376343492359
 20
110.9908468325589
 30
0.0
  0
VERTEX
  5
176
  8
PREDEFINITO
 10
1149.519220096858
 20
111.2951523752011
 30
0.0
  0
VERTEX
  5
177
  8
PREDEFINITO
 10
1148.668595502809
 20
111.6166524410618
 30
0.0
  0
VERTEX
  5
178
  8
PREDEFINITO
 10
1147.824984617138
 20
111.9551343675179
 30
0.0
  0
VERTEX
  5
179
  8
PREDEFINITO
 10
1146.988892923073
 20
112.3103650562733
 30
0.0
  0
VERTEX
  5
17A
  8
PREDEFINITO
 10
1146.160035425109
 20
112.6828269109345
 30
0.0
  0
VERTEX
  5
17B
  8
PREDEFINITO
 10
1145.33815560093
 20
113.0716674832649
 30
0.0
  0
VERTEX
  5
17C
  8
PREDEFINITO
 10
1144.523736840609
 20
113.4766864115492
 30
0.0
  0
VERTEX
  5
17D
  8
PREDEFINITO
 10
1143.717254681786
 20
113.8976643894051
 30
0.0
  0
VERTEX
  5
17E
  8
PREDEFINITO
 10
1142.919175885452
 20
114.3343635595222
 30
0.0
  0
VERTEX
  5
17F
  8
PREDEFINITO
 10
1142.129957535922
 20
114.7865279612581
 30
0.0
  0
VERTEX
  5
180
  8
PREDEFINITO
 10
1141.350046168659
 20
115.2538840303262
 30
0.0
  0
VERTEX
  5
181
  8
PREDEFINITO
 10
1140.579876929431
 20
115.7361411485284
 30
0.0
 42
-0.5573082794239573
  0
VERTEX
  5
182
  8
PREDEFINITO
 10
1140.579876929385
 20
120.8389471385842
 30
0.0
  0
VERTEX
  5
183
  8
PREDEFINITO
 10
1141.350018906938
 20
121.3211897846591
 30
0.0
  0
VERTEX
  5
184
  8
PREDEFINITO
 10
1142.129902637073
 20
121.7885320295422
 30
0.0
  0
VERTEX
  5
185
  8
PREDEFINITO
 10
1142.919092996466
 20
122.2406832686528
 30
0.0
  0
VERTEX
  5
186
  8
PREDEFINITO
 10
1143.717143472732
 20
122.6773699503034
 30
0.0
  0
VERTEX
  5
187
  8
PREDEFINITO
 10
1144.523597005196
 20
123.098336125398
 30
0.0
  0
VERTEX
  5
188
  8
PREDEFINITO
 10
1145.337986857023
 20
123.5033439470885
 30
0.0
  0
VERTEX
  5
189
  8
PREDEFINITO
 10
1146.159837515173
 20
123.8921741183447
 30
0.0
  0
VERTEX
  5
18A
  8
PREDEFINITO
 10
1146.988665614563
 20
124.2646262856699
 30
0.0
  0
VERTEX
  5
18B
  8
PREDEFINITO
 10
1147.824938092831
 20
124.6198967111584
 30
0.0
  0
VERTEX
  5
18C
  8
PREDEFINITO
 10
1148.668712939522
 20
124.9584521306914
 30
0.0
  0
VERTEX
  5
18D
  8
PREDEFINITO
 10
1149.519486821039
 20
125.2800605018618
 30
0.0
  0
VERTEX
  5
18E
  8
PREDEFINITO
 10
1150.376747043913
 20
125.5845100851761
 30
0.0
  0
VERTEX
  5
18F
  8
PREDEFINITO
 10
1151.239972583157
 20
125.8716099056199
 30
0.0
  0
VERTEX
  5
190
  8
PREDEFINITO
 10
1152.108635137276
 20
126.141190151464
 30
0.0
  0
VERTEX
  5
191
  8
PREDEFINITO
 10
1152.982200205455
 20
126.3931025085668
 30
0.0
  0
VERTEX
  5
192
  8
PREDEFINITO
 10
1153.860128182322
 20
126.627220428791
 30
0.0
  0
VERTEX
  5
193
  8
PREDEFINITO
 10
1154.016289906675
 20
126.665055815288
 30
0.0
  0
VERTEX
  5
194
  8
PREDEFINITO
 10
1154.173802461946
 20
126.6980165554923
 30
0.0
  0
VERTEX
  5
195
  8
PREDEFINITO
 10
1154.332436680885
 20
126.7260355247192
 30
0.0
  0
VERTEX
  5
196
  8
PREDEFINITO
 10
1154.491959151234
 20
126.7490600304875
 30
0.0
  0
VERTEX
  5
197
  8
PREDEFINITO
 10
1154.652133356735
 20
126.7670521273063
 30
0.0
  0
VERTEX
  5
198
  8
PREDEFINITO
 10
1154.81272084458
 20
126.7799888228497
 30
0.0
  0
VERTEX
  5
199
  8
PREDEFINITO
 10
1154.973482407234
 20
126.7878621731906
 30
0.0
  0
VERTEX
  5
19A
  8
PREDEFINITO
 10
1155.134179266347
 20
126.7906792662972
 30
0.0
  0
SEQEND
  5
19B
  8
PREDEFINITO
  0
LINE
  5
19C
  8
PREDEFINITO
 10
109.7844400632959
 20
1626.108572389609
 30
5.0
 11
109.7844400632961
 21
1962.15003389136
 31
5.0
  0
LINE
  5
19D
  8
PREDEFINITO
 10
109.7844400632961
 20
1962.15003389136
 30
5.0
 11
109.7844400632963
 21
2282.655796277799
 31
5.0
  0
LINE
  5
19E
  8
PREDEFINITO
 10
109.7844400632963
 20
2285.683557884739
 30
5.0
 11
109.7844400632963
 21
2298.191495393116
 31
5.0
  0
ARC
  5
19F
  8
PREDEFINITO
 10
110.2722563097686
 20
2291.470341140293
 30
5.000000000000493
 40
4.885258155323144
 50
194.7882018013784
 51
201.6670847380429
  0
LINE
  5
1A0
  8
PREDEFINITO
 10
115.230178498778
 20
2281.116802262504
 30
5.0
 11
115.230178498778
 21
2281.118274025454
 31
5.0
  0
ARC
  5
1A1
  8
PREDEFINITO
 10
276.98458056941
 20
2279.301693662268
 30
5.000000000004628
 40
175.3974530094127
 50
166.2594153988977
 51
169.4335024972156
  0
LINE
  5
1A2
  8
PREDEFINITO
 10
106.606807000159
 20
2320.963196224875
 30
5.0
 11
108.9791318004963
 21
2330.299343292149
 31
5.0
  0
LINE
  5
1A3
  8
PREDEFINITO
 10
108.9791318004963
 20
2330.299343292149
 30
5.0
 11
111.55194846245
 21
2340.052329077535
 31
5.0
  0
ARC
  5
1A4
  8
PREDEFINITO
 10
-140.9300444807986
 20
2406.70433491049
 30
4.99999999999522
 40
261.1314738635519
 50
345.2120098008147
 51
347.4207042911695
  0
LINE
  5
1A5
  8
PREDEFINITO
 10
113.9331057172089
 20
2349.832361907096
 30
5.0
 11
115.1413707073999
 21
2355.706940158771
 31
5.0
  0
ARC
  5
1A6
  8
PREDEFINITO
 10
-1.912095869668211
 20
2377.748315949055
 30
5.0
 40
119.1106052559441
 50
349.3359728977952
 51
352.2245599823882
  0
ARC
  5
1A7
  8
PREDEFINITO
 10
16.51361190584113
 20
2375.212056672835
 30
5.000000000004216
 40
100.5111741122969
 50
352.2360239175526
 51
355.5618655270843
  0
ARC
  5
1A8
  8
PREDEFINITO
 10
41.65062653842979
 20
2373.251869230113
 30
5.000000000001188
 40
75.29784970046677
 50
355.56882162312
 51
359.998159508138
  0
LINE
  5
1A9
  8
PREDEFINITO
 10
116.948476200048
 20
2373.24945046418
 30
5.0
 11
116.9484761984161
 21
2421.734633114947
 31
5.0
  0
LINE
  5
1AA
  8
PREDEFINITO
 10
116.9484761984161
 20
2421.734633114947
 30
5.0
 11
116.9484761967841
 21
2435.149778694404
 31
5.0
  0
LINE
  5
1AB
  8
PREDEFINITO
 10
115.281185543487
 20
2283.254328425321
 30
5.0
 11
115.2819032017264
 21
2285.845416368422
 31
5.0
  0
POLYLINE
  5
1AC
  8
PREDEFINITO
 66
     1
 10
0.0
 20
0.0
 30
4.999999999999999
  0
VERTEX
  5
1AD
  8
PREDEFINITO
 10
115.2819032017264
 20
2285.845416368421
 30
4.999999999999999
  0
VERTEX
  5
1AE
  8
PREDEFINITO
 10
115.2822512764369
 20
2285.871056560362
 30
4.999999999999999
  0
VERTEX
  5
1AF
  8
PREDEFINITO
 10
115.2831234714635
 20
2285.896598082904
 30
4.999999999999999
  0
VERTEX
  5
1B0
  8
PREDEFINITO
 10
115.2845124881377
 20
2285.922035809979
 30
4.999999999999999
  0
VERTEX
  5
1B1
  8
PREDEFINITO
 10
115.2864110277906
 20
2285.947364615517
 30
4.999999999999999
  0
VERTEX
  5
1B2
  8
PREDEFINITO
 10
115.2888117917537
 20
2285.972579373445
 30
4.999999999999999
  0
VERTEX
  5
1B3
  8
PREDEFINITO
 10
115.2917074813583
 20
2285.997674957694
 30
4.999999999999999
  0
VERTEX
  5
1B4
  8
PREDEFINITO
 10
115.2950907979357
 20
2286.022646242194
 30
4.999999999999999
  0
VERTEX
  5
1B5
  8
PREDEFINITO
 10
115.2989544428173
 20
2286.047488100874
 30
4.999999999999999
  0
VERTEX
  5
1B6
  8
PREDEFINITO
 10
115.3032911173344
 20
2286.072195407665
 30
4.999999999999999
  0
VERTEX
  5
1B7
  8
PREDEFINITO
 10
115.3080935228183
 20
2286.096763036494
 30
4.999999999999999
  0
VERTEX
  5
1B8
  8
PREDEFINITO
 10
115.3133543606004
 20
2286.121185861293
 30
4.999999999999999
  0
VERTEX
  5
1B9
  8
PREDEFINITO
 10
115.3190663320121
 20
2286.145458755991
 30
4.999999999999999
  0
VERTEX
  5
1BA
  8
PREDEFINITO
 10
115.3252221383845
 20
2286.169576594516
 30
4.999999999999999
  0
VERTEX
  5
1BB
  8
PREDEFINITO
 10
115.3318144810492
 20
2286.1935342508
 30
4.999999999999999
  0
VERTEX
  5
1BC
  8
PREDEFINITO
 10
115.3388360613373
 20
2286.217326598771
 30
4.999999999999999
  0
VERTEX
  5
1BD
  8
PREDEFINITO
 10
115.3462795805804
 20
2286.24094851236
 30
4.999999999999999
  0
VERTEX
  5
1BE
  8
PREDEFINITO
 10
115.3541377401096
 20
2286.264394865495
 30
4.999999999999999
  0
VERTEX
  5
1BF
  8
PREDEFINITO
 10
115.3624032412564
 20
2286.287660532106
 30
4.999999999999999
  0
VERTEX
  5
1C0
  8
PREDEFINITO
 10
115.371068785352
 20
2286.310740386124
 30
4.999999999999999
  0
VERTEX
  5
1C1
  8
PREDEFINITO
 10
115.3801270737278
 20
2286.333629301476
 30
4.999999999999999
  0
VERTEX
  5
1C2
  8
PREDEFINITO
 10
115.3993926886454
 20
2286.378813811907
 30
4.999999999999999
  0
VERTEX
  5
1C3
  8
PREDEFINITO
 10
115.4201416966599
 20
2286.423173054835
 30
4.999999999999999
  0
VERTEX
  5
1C4
  8
PREDEFINITO
 10
115.4423157084219
 20
2286.466666021697
 30
4.999999999999999
  0
VERTEX
  5
1C5
  8
PREDEFINITO
 10
115.4658563345822
 20
2286.50925170393
 30
4.999999999999999
  0
VERTEX
  5
1C6
  8
PREDEFINITO
 10
115.4907051857913
 20
2286.55088909297
 30
4.999999999999999
  0
VERTEX
  5
1C7
  8
PREDEFINITO
 10
115.5168038727001
 20
2286.591537180256
 30
4.999999999999999
  0
VERTEX
  5
1C8
  8
PREDEFINITO
 10
115.5464255915721
 20
2286.634425474364
 30
4.999999999999999
  0
VERTEX
  5
1C9
  8
PREDEFINITO
 10
115.5773779836979
 20
2286.67611607057
 30
4.999999999999999
  0
VERTEX
  5
1CA
  8
PREDEFINITO
 10
115.6095930197761
 20
2286.716620807326
 30
4.999999999999999
  0
VERTEX
  5
1CB
  8
PREDEFINITO
 10
115.6430026705055
 20
2286.755951523084
 30
4.999999999999999
  0
VERTEX
  5
1CC
  8
PREDEFINITO
 10
115.6775389065849
 20
2286.794120056297
 30
4.999999999999999
  0
VERTEX
  5
1CD
  8
PREDEFINITO
 10
115.7131336987128
 20
2286.831138245418
 30
4.999999999999999
  0
VERTEX
  5
1CE
  8
PREDEFINITO
 10
115.7497190175879
 20
2286.867017928898
 30
4.999999999999999
  0
VERTEX
  5
1CF
  8
PREDEFINITO
 10
115.7872268339091
 20
2286.90177094519
 30
4.999999999999999
  0
VERTEX
  5
1D0
  8
PREDEFINITO
 10
115.8243644696555
 20
2286.934358560146
 30
4.999999999999999
  0
VERTEX
  5
1D1
  8
PREDEFINITO
 10
115.8622901138079
 20
2286.965926368681
 30
4.999999999999999
  0
VERTEX
  5
1D2
  8
PREDEFINITO
 10
115.9009908034244
 20
2286.996499595577
 30
4.999999999999999
  0
VERTEX
  5
1D3
  8
PREDEFINITO
 10
115.9404535755634
 20
2287.026103465621
 30
4.999999999999999
  0
VERTEX
  5
1D4
  8
PREDEFINITO
 10
115.9806654672828
 20
2287.054763203594
 30
4.999999999999999
  0
VERTEX
  5
1D5
  8
PREDEFINITO
 10
116.0216135156408
 20
2287.082504034281
 30
4.999999999999999
  0
VERTEX
  5
1D6
  8
PREDEFINITO
 10
116.0632847576958
 20
2287.109351182466
 30
4.999999999999999
  0
VERTEX
  5
1D7
  8
PREDEFINITO
 10
116.1056662305057
 20
2287.135329872932
 30
4.999999999999999
  0
VERTEX
  5
1D8
  8
PREDEFINITO
 10
116.1487449711289
 20
2287.160465330464
 30
4.999999999999999
  0
VERTEX
  5
1D9
  8
PREDEFINITO
 10
116.1925080166234
 20
2287.184782779845
 30
4.999999999999999
  0
VERTEX
  5
1DA
  8
PREDEFINITO
 10
116.2369424040475
 20
2287.208307445859
 30
4.999999999999999
  0
VERTEX
  5
1DB
  8
PREDEFINITO
 10
116.2820351704592
 20
2287.23106455329
 30
4.999999999999999
  0
VERTEX
  5
1DC
  8
PREDEFINITO
 10
116.3277733529168
 20
2287.253079326921
 30
4.999999999999999
  0
VERTEX
  5
1DD
  8
PREDEFINITO
 10
116.3741439884785
 20
2287.274376991537
 30
4.999999999999999
  0
VERTEX
  5
1DE
  8
PREDEFINITO
 10
116.4687307671467
 20
2287.314921892857
 30
4.999999999999999
  0
VERTEX
  5
1DF
  8
PREDEFINITO
 10
116.5341366828614
 20
2287.340898800616
 30
4.999999999999999
  0
VERTEX
  5
1E0
  8
PREDEFINITO
 10
116.6006228536448
 20
2287.365713810485
 30
4.999999999999999
  0
VERTEX
  5
1E1
  8
PREDEFINITO
 10
116.6681809285635
 20
2287.3893814256
 30
4.999999999999999
  0
VERTEX
  5
1E2
  8
PREDEFINITO
 10
116.7368025566844
 20
2287.411916149094
 30
4.999999999999999
  0
VERTEX
  5
1E3
  8
PREDEFINITO
 10
116.8064793870743
 20
2287.433332484102
 30
4.999999999999999
  0
VERTEX
  5
1E4
  8
PREDEFINITO
 10
116.8772030687999
 20
2287.453644933758
 30
4.999999999999999
  0
VERTEX
  5
1E5
  8
PREDEFINITO
 10
117.0217575825255
 20
2287.491016189555
 30
4.999999999999999
  0
VERTEX
  5
1E6
  8
PREDEFINITO
 10
117.1263319903591
 20
2287.514763190048
 30
4.999999999999999
  0
VERTEX
  5
1E7
  8
PREDEFINITO
 10
117.2328029504598
 20
2287.535883045802
 30
4.999999999999999
  0
VERTEX
  5
1E8
  8
PREDEFINITO
 10
117.3410269683904
 20
2287.553865679558
 30
4.999999999999999
  0
VERTEX
  5
1E9
  8
PREDEFINITO
 10
117.3957515320303
 20
2287.561521139046
 30
4.999999999999999
  0
VERTEX
  5
1EA
  8
PREDEFINITO
 10
117.4508605497137
 20
2287.568201014064
 30
4.999999999999999
  0
VERTEX
  5
1EB
  8
PREDEFINITO
 10
117.5063360846358
 20
2287.573841544955
 30
4.999999999999999
  0
VERTEX
  5
1EC
  8
PREDEFINITO
 10
117.5621601999922
 20
2287.578378972063
 30
4.999999999999999
  0
VERTEX
  5
1ED
  8
PREDEFINITO
 10
117.6183149589781
 20
2287.581749535731
 30
4.999999999999999
  0
VERTEX
  5
1EE
  8
PREDEFINITO
 10
117.6747824247889
 20
2287.583889476301
 30
4.999999999999999
  0
VERTEX
  5
1EF
  8
PREDEFINITO
 10
117.7315446606199
 20
2287.584735034117
 30
4.999999999999999
  0
VERTEX
  5
1F0
  8
PREDEFINITO
 10
117.7885837296665
 20
2287.584222449523
 30
4.999999999999999
  0
VERTEX
  5
1F1
  8
PREDEFINITO
 10
117.8458816951239
 20
2287.58228796286
 30
4.999999999999999
  0
VERTEX
  5
1F2
  8
PREDEFINITO
 10
117.9034206201876
 20
2287.578867814473
 30
4.999999999999999
  0
SEQEND
  5
1F3
  8
PREDEFINITO
  0
POLYLINE
  5
1F4
  8
PREDEFINITO
 66
     1
 10
0.0
 20
0.0
 30
5.0
  0
VERTEX
  5
1F5
  8
PREDEFINITO
 10
117.9034206201876
 20
2287.578867814473
 30
5.0
  0
VERTEX
  5
1F6
  8
PREDEFINITO
 10
117.740583357813
 20
2287.558781417162
 30
5.0
  0
VERTEX
  5
1F7
  8
PREDEFINITO
 10
117.6592035298367
 20
2287.546552733333
 30
5.0
  0
VERTEX
  5
1F8
  8
PREDEFINITO
 10
117.5781634984383
 20
2287.532849558826
 30
5.0
  0
VERTEX
  5
1F9
  8
PREDEFINITO
 10
117.4977088117141
 20
2287.517668786212
 30
5.0
  0
VERTEX
  5
1FA
  8
PREDEFINITO
 10
117.4180907194103
 20
2287.501015852954
 30
5.0
  0
VERTEX
  5
1FB
  8
PREDEFINITO
 10
117.339563954492
 20
2287.482905066922
 30
5.0
  0
VERTEX
  5
1FC
  8
PREDEFINITO
 10
117.2623843508273
 20
2287.46335981669
 30
5.0
  0
VERTEX
  5
1FD
  8
PREDEFINITO
 10
117.1868063375858
 20
2287.442412655833
 30
5.0
  0
VERTEX
  5
1FE
  8
PREDEFINITO
 10
117.113080356839
 20
2287.42010525326
 30
5.0
  0
VERTEX
  5
1FF
  8
PREDEFINITO
 10
117.0414502554281
 20
2287.396488204973
 30
5.0
  0
VERTEX
  5
200
  8
PREDEFINITO
 10
116.9721507051532
 20
2287.371620706339
 30
5.0
  0
VERTEX
  5
201
  8
PREDEFINITO
 10
116.9054047064999
 20
2287.345570087856
 30
5.0
  0
VERTEX
  5
202
  8
PREDEFINITO
 10
116.8414212303336
 20
2287.318411221282
 30
5.0
  0
VERTEX
  5
203
  8
PREDEFINITO
 10
116.7803930492157
 20
2287.290225806843
 30
5.0
  0
VERTEX
  5
204
  8
PREDEFINITO
 10
116.7224948053045
 20
2287.261101555618
 30
5.0
  0
VERTEX
  5
205
  8
PREDEFINITO
 10
116.6947686144301
 20
2287.246216198224
 30
5.0
  0
VERTEX
  5
206
  8
PREDEFINITO
 10
116.667881355386
 20
2287.231131284273
 30
5.0
  0
VERTEX
  5
207
  8
PREDEFINITO
 10
116.6418490730553
 20
2287.215859053825
 30
5.0
  0
VERTEX
  5
208
  8
PREDEFINITO
 10
116.6166864257056
 20
2287.200411941622
 30
5.0
  0
VERTEX
  5
209
  8
PREDEFINITO
 10
116.592406661464
 20
2287.184802544433
 30
5.0
  0
VERTEX
  5
20A
  8
PREDEFINITO
 10
116.5690216003036
 20
2287.169043588195
 30
5.0
  0
VERTEX
  5
20B
  8
PREDEFINITO
 10
116.5465416215537
 20
2287.153147895107
 30
5.0
  0
VERTEX
  5
20C
  8
PREDEFINITO
 10
116.5249756569092
 20
2287.137128350855
 30
5.0
  0
VERTEX
  5
20D
  8
PREDEFINITO
 10
116.5043311888755
 20
2287.120997872129
 30
5.0
  0
VERTEX
  5
20E
  8
PREDEFINITO
 10
116.4846142545515
 20
2287.104769374601
 30
5.0
  0
VERTEX
  5
20F
  8
PREDEFINITO
 10
116.465829454617
 20
2287.088455741505
 30
5.0
  0
VERTEX
  5
210
  8
PREDEFINITO
 10
116.4479799673598
 20
2287.072069792984
 30
5.0
  0
VERTEX
  5
211
  8
PREDEFINITO
 10
116.4310675675494
 20
2287.055624256319
 30
5.0
  0
VERTEX
  5
212
  8
PREDEFINITO
 10
116.4150926499349
 20
2287.039131737185
 30
5.0
  0
VERTEX
  5
213
  8
PREDEFINITO
 10
116.4000542571214
 20
2287.022604692035
 30
5.0
  0
VERTEX
  5
214
  8
PREDEFINITO
 10
116.38595011156
 20
2287.006055401743
 30
5.0
  0
VERTEX
  5
215
  8
PREDEFINITO
 10
116.3727766513641
 20
2286.989495946552
 30
5.0
  0
VERTEX
  5
216
  8
PREDEFINITO
 10
116.3665374736175
 20
2286.981216121497
 30
5.0
  0
VERTEX
  5
217
  8
PREDEFINITO
 10
116.3605290696533
 20
2286.97293818247
 30
5.0
  0
VERTEX
  5
218
  8
PREDEFINITO
 10
116.3547506510645
 20
2286.9646635728
 30
5.0
  0
VERTEX
  5
219
  8
PREDEFINITO
 10
116.3492013571129
 20
2286.956393719121
 30
5.0
  0
VERTEX
  5
21A
  8
PREDEFINITO
 10
116.343880256212
 20
2286.94813003076
 30
5.0
  0
VERTEX
  5
21B
  8
PREDEFINITO
 10
116.3387863474482
 20
2286.939873899157
 30
5.0
  0
VERTEX
  5
21C
  8
PREDEFINITO
 10
116.333918562136
 20
2286.931626697311
 30
5.0
  0
VERTEX
  5
21D
  8
PREDEFINITO
 10
116.329275765407
 20
2286.923389779246
 30
5.0
  0
VERTEX
  5
21E
  8
PREDEFINITO
 10
116.3248567578268
 20
2286.915164479504
 30
5.0
  0
VERTEX
  5
21F
  8
PREDEFINITO
 10
116.3206602770413
 20
2286.906952112672
 30
5.0
  0
VERTEX
  5
220
  8
PREDEFINITO
 10
116.3166849994462
 20
2286.898753972921
 30
5.0
  0
VERTEX
  5
221
  8
PREDEFINITO
 10
116.3129295418792
 20
2286.89057133358
 30
5.0
  0
VERTEX
  5
222
  8
PREDEFINITO
 10
116.3093924633322
 20
2286.88240544674
 30
5.0
  0
VERTEX
  5
223
  8
PREDEFINITO
 10
116.3060722666802
 20
2286.874257542864
 30
5.0
  0
VERTEX
  5
224
  8
PREDEFINITO
 10
116.3029674004256
 20
2286.866128830449
 30
5.0
  0
VERTEX
  5
225
  8
PREDEFINITO
 10
116.300076260454
 20
2286.858020495694
 30
5.0
  0
VERTEX
  5
226
  8
PREDEFINITO
 10
116.2973971918015
 20
2286.849933702195
 30
5.0
  0
VERTEX
  5
227
  8
PREDEFINITO
 10
116.2949284904279
 20
2286.84186959068
 30
5.0
  0
VERTEX
  5
228
  8
PREDEFINITO
 10
116.2926684049974
 20
2286.833829278747
 30
5.0
  0
VERTEX
  5
229
  8
PREDEFINITO
 10
116.2906151386605
 20
2286.825813860644
 30
5.0
  0
VERTEX
  5
22A
  8
PREDEFINITO
 10
116.2887668508389
 20
2286.817824407064
 30
5.0
  0
VERTEX
  5
22B
  8
PREDEFINITO
 10
116.2871216590082
 20
2286.809861964969
 30
5.0
  0
VERTEX
  5
22C
  8
PREDEFINITO
 10
116.285677640478
 20
2286.801927557428
 30
5.0
  0
VERTEX
  5
22D
  8
PREDEFINITO
 10
116.284432834167
 20
2286.794022183492
 30
5.0
  0
VERTEX
  5
22E
  8
PREDEFINITO
 10
116.2833852423714
 20
2286.78614681808
 30
5.0
  0
VERTEX
  5
22F
  8
PREDEFINITO
 10
116.282532832524
 20
2286.778302411891
 30
5.0
  0
VERTEX
  5
230
  8
PREDEFINITO
 10
116.2818735389433
 20
2286.77048989134
 30
5.0
  0
VERTEX
  5
231
  8
PREDEFINITO
 10
116.2814052645702
 20
2286.76271015851
 30
5.0
  0
VERTEX
  5
232
  8
PREDEFINITO
 10
116.2811258826908
 20
2286.754964091132
 30
5.0
  0
VERTEX
  5
233
  8
PREDEFINITO
 10
116.2810332386434
 20
2286.747252542575
 30
5.0
  0
SEQEND
  5
234
  8
PREDEFINITO
  0
LINE
  5
235
  8
PREDEFINITO
 10
116.2810332386434
 20
2286.747252542575
 30
5.0
 11
116.2810332386434
 21
2284.15538359456
 31
5.0
  0
POLYLINE
  5
236
  8
PREDEFINITO
 66
     1
 10
0.0
 20
0.0
 30
5.0
  0
VERTEX
  5
237
  8
PREDEFINITO
 10
116.2810332386434
 20
2284.15538359456
 30
5.0
  0
VERTEX
  5
238
  8
PREDEFINITO
 10
116.2811569266617
 20
2284.146476062846
 30
5.0
  0
VERTEX
  5
239
  8
PREDEFINITO
 10
116.2815302219638
 20
2284.137529230934
 30
5.0
  0
VERTEX
  5
23A
  8
PREDEFINITO
 10
116.2821564354932
 20
2284.128544510109
 30
5.0
  0
VERTEX
  5
23B
  8
PREDEFINITO
 10
116.283038827497
 20
2284.119523353691
 30
5.0
  0
VERTEX
  5
23C
  8
PREDEFINITO
 10
116.2841806040027
 20
2284.110467256906
 30
5.0
  0
VERTEX
  5
23D
  8
PREDEFINITO
 10
116.2855849132592
 20
2284.101377756728
 30
5.0
  0
VERTEX
  5
23E
  8
PREDEFINITO
 10
116.2872548421483
 20
2284.092256431653
 30
5.0
  0
VERTEX
  5
23F
  8
PREDEFINITO
 10
116.2891934125696
 20
2284.083104901437
 30
5.0
  0
VERTEX
  5
240
  8
PREDEFINITO
 10
116.291403577804
 20
2284.073924826772
 30
5.0
  0
VERTEX
  5
241
  8
PREDEFINITO
 10
116.2938882188624
 20
2284.064717908905
 30
5.0
  0
VERTEX
  5
242
  8
PREDEFINITO
 10
116.2966501408225
 20
2284.05548588921
 30
5.0
  0
VERTEX
  5
243
  8
PREDEFINITO
 10
116.2996920691607
 20
2284.046230548703
 30
5.0
  0
VERTEX
  5
244
  8
PREDEFINITO
 10
116.3030166460849
 20
2284.03695370749
 30
5.0
  0
VERTEX
  5
245
  8
PREDEFINITO
 10
116.3066264268732
 20
2284.027657224175
 30
5.0
  0
VERTEX
  5
246
  8
PREDEFINITO
 10
116.3105238762243
 20
2284.01834299519
 30
5.0
  0
VERTEX
  5
247
  8
PREDEFINITO
 10
116.3147113646279
 20
2284.009012954081
 30
5.0
  0
VERTEX
  5
248
  8
PREDEFINITO
 10
116.3191911647584
 20
2283.999669070732
 30
5.0
  0
VERTEX
  5
249
  8
PREDEFINITO
 10
116.3239654479008
 20
2283.990313350519
 30
5.0
  0
VERTEX
  5
24A
  8
PREDEFINITO
 10
116.3290362804142
 20
2283.980947833421
 30
5.0
  0
VERTEX
  5
24B
  8
PREDEFINITO
 10
116.3344056202404
 20
2283.971574593058
 30
5.0
  0
VERTEX
  5
24C
  8
PREDEFINITO
 10
116.3400753134636
 20
2283.962195735676
 30
5.0
  0
VERTEX
  5
24D
  8
PREDEFINITO
 10
116.3460470909283
 20
2283.952813399066
 30
5.0
  0
VERTEX
  5
24E
  8
PREDEFINITO
 10
116.3523225649238
 20
2283.943429751434
 30
5.0
  0
VERTEX
  5
24F
  8
PREDEFINITO
 10
116.3589032259393
 20
2283.9340469902
 30
5.0
  0
VERTEX
  5
250
  8
PREDEFINITO
 10
116.3657904395005
 20
2283.924667340751
 30
5.0
  0
VERTEX
  5
251
  8
PREDEFINITO
 10
116.3729854430911
 20
2283.915293055124
 30
5.0
  0
VERTEX
  5
252
  8
PREDEFINITO
 10
116.3804893431693
 20
2283.905926410645
 30
5.0
  0
VERTEX
  5
253
  8
PREDEFINITO
 10
116.3883031122836
 20
2283.8965697085
 30
5.0
  0
VERTEX
  5
254
  8
PREDEFINITO
 10
116.3964275862978
 20
2283.88722527226
 30
5.0
  0
VERTEX
  5
255
  8
PREDEFINITO
 10
116.4048634617291
 20
2283.877895446357
 30
5.0
  0
VERTEX
  5
256
  8
PREDEFINITO
 10
116.4136112932091
 20
2283.868582594491
 30
5.0
  0
VERTEX
  5
257
  8
PREDEFINITO
 10
116.4226714910714
 20
2283.859289098006
 30
5.0
  0
VERTEX
  5
258
  8
PREDEFINITO
 10
116.4320443190753
 20
2283.850017354209
 30
5.0
  0
VERTEX
  5
259
  8
PREDEFINITO
 10
116.4417298922694
 20
2283.840769774644
 30
5.0
  0
VERTEX
  5
25A
  8
PREDEFINITO
 10
116.4620389790931
 20
2283.822356814895
 30
5.0
  0
VERTEX
  5
25B
  8
PREDEFINITO
 10
116.483596626039
 20
2283.804069727534
 30
5.0
  0
VERTEX
  5
25C
  8
PREDEFINITO
 10
116.5063982174195
 20
2283.785928131691
 30
5.0
  0
VERTEX
  5
25D
  8
PREDEFINITO
 10
116.5304366073148
 20
2283.767951694858
 30
5.0
  0
VERTEX
  5
25E
  8
PREDEFINITO
 10
116.5557020910053
 20
2283.750160069063
 30
5.0
  0
VERTEX
  5
25F
  8
PREDEFINITO
 10
116.5821823884124
 20
2283.732572825607
 30
5.0
  0
VERTEX
  5
260
  8
PREDEFINITO
 10
116.6098626399864
 20
2283.715209388767
 30
5.0
  0
VERTEX
  5
261
  8
PREDEFINITO
 10
116.6387254153708
 20
2283.698088968918
 30
5.0
  0
VERTEX
  5
262
  8
PREDEFINITO
 10
116.6687507350687
 20
2283.681230495509
 30
5.0
  0
VERTEX
  5
263
  8
PREDEFINITO
 10
116.6999161052153
 20
2283.664652550388
 30
5.0
  0
VERTEX
  5
264
  8
PREDEFINITO
 10
116.7321965654441
 20
2283.648373301918
 30
5.0
  0
VERTEX
  5
265
  8
PREDEFINITO
 10
116.7655647497081
 20
2283.632410440381
 30
5.0
  0
VERTEX
  5
266
  8
PREDEFINITO
 10
116.7999909597968
 20
2283.616781115141
 30
5.0
  0
VERTEX
  5
267
  8
PREDEFINITO
 10
116.835443251165
 20
2283.601501874007
 30
5.0
  0
VERTEX
  5
268
  8
PREDEFINITO
 10
116.8718875305706
 20
2283.586588605264
 30
5.0
  0
VERTEX
  5
269
  8
PREDEFINITO
 10
116.9476056004804
 20
2283.557919914609
 30
5.0
  0
VERTEX
  5
26A
  8
PREDEFINITO
 10
117.0268338400895
 20
2283.530886962982
 30
5.0
  0
VERTEX
  5
26B
  8
PREDEFINITO
 10
117.1092345179897
 20
2283.505587997193
 30
5.0
  0
VERTEX
  5
26C
  8
PREDEFINITO
 10
117.1944482423741
 20
2283.482106424108
 30
5.0
  0
VERTEX
  5
26D
  8
PREDEFINITO
 10
117.2820990559292
 20
2283.460509955629
 30
5.0
  0
VERTEX
  5
26E
  8
PREDEFINITO
 10
117.3717997359197
 20
2283.440850081943
 30
5.0
  0
VERTEX
  5
26F
  8
PREDEFINITO
 10
117.4631571484937
 20
2283.423161876962
 30
5.0
  0
VERTEX
  5
270
  8
PREDEFINITO
 10
117.5557775104959
 20
2283.407464127767
 30
5.0
  0
VERTEX
  5
271
  8
PREDEFINITO
 10
117.6492714228301
 20
2283.393759768725
 30
5.0
  0
VERTEX
  5
272
  8
PREDEFINITO
 10
117.7432585556439
 20
2283.382036591418
 30
5.0
  0
VERTEX
  5
273
  8
PREDEFINITO
 10
117.837371886013
 20
2283.372268193956
 30
5.0
  0
VERTEX
  5
274
  8
PREDEFINITO
 10
117.9312614118849
 20
2283.364415127866
 30
5.0
  0
VERTEX
  5
275
  8
PREDEFINITO
 10
118.0245972903134
 20
2283.358426197784
 30
5.0
  0
VERTEX
  5
276
  8
PREDEFINITO
 10
118.1170723720355
 20
2283.354239868243
 30
5.0
  0
VERTEX
  5
277
  8
PREDEFINITO
 10
118.2084041269956
 20
2283.351785733175
 30
5.0
  0
VERTEX
  5
278
  8
PREDEFINITO
 10
118.2983359755277
 20
2283.350986006487
 30
5.0
  0
VERTEX
  5
279
  8
PREDEFINITO
 10
118.3882678240597
 20
2283.351785733175
 30
5.0
  0
VERTEX
  5
27A
  8
PREDEFINITO
 10
118.4795995790199
 20
2283.354239868243
 30
5.0
  0
VERTEX
  5
27B
  8
PREDEFINITO
 10
118.572074660742
 20
2283.358426197784
 30
5.0
  0
VERTEX
  5
27C
  8
PREDEFINITO
 10
118.6654105391705
 20
2283.364415127866
 30
5.0
  0
VERTEX
  5
27D
  8
PREDEFINITO
 10
118.7593000650424
 20
2283.372268193956
 30
5.0
  0
VERTEX
  5
27E
  8
PREDEFINITO
 10
118.8534133954115
 20
2283.382036591418
 30
5.0
  0
VERTEX
  5
27F
  8
PREDEFINITO
 10
118.9474005282253
 20
2283.393759768725
 30
5.0
  0
VERTEX
  5
280
  8
PREDEFINITO
 10
119.0408944405595
 20
2283.407464127767
 30
5.0
  0
VERTEX
  5
281
  8
PREDEFINITO
 10
119.1335148025618
 20
2283.423161876962
 30
5.0
  0
VERTEX
  5
282
  8
PREDEFINITO
 10
119.2248722151358
 20
2283.440850081943
 30
5.0
  0
VERTEX
  5
283
  8
PREDEFINITO
 10
119.3145728951262
 20
2283.460509955629
 30
5.0
  0
VERTEX
  5
284
  8
PREDEFINITO
 10
119.4022237086813
 20
2283.482106424108
 30
5.0
  0
VERTEX
  5
285
  8
PREDEFINITO
 10
119.4874374330657
 20
2283.505587997193
 30
5.0
  0
VERTEX
  5
286
  8
PREDEFINITO
 10
119.5698381109659
 20
2283.530886962982
 30
5.0
  0
VERTEX
  5
287
  8
PREDEFINITO
 10
119.649066350575
 20
2283.557919914609
 30
5.0
  0
VERTEX
  5
288
  8
PREDEFINITO
 10
119.7247844204848
 20
2283.586588605264
 30
5.0
  0
VERTEX
  5
289
  8
PREDEFINITO
 10
119.7612286998904
 20
2283.601501874007
 30
5.0
  0
VERTEX
  5
28A
  8
PREDEFINITO
 10
119.7966809912586
 20
2283.616781115141
 30
5.0
  0
VERTEX
  5
28B
  8
PREDEFINITO
 10
119.8311072013473
 20
2283.632410440381
 30
5.0
  0
VERTEX
  5
28C
  8
PREDEFINITO
 10
119.8644753856113
 20
2283.648373301918
 30
5.0
  0
VERTEX
  5
28D
  8
PREDEFINITO
 10
119.8967558458401
 20
2283.664652550388
 30
5.0
  0
VERTEX
  5
28E
  8
PREDEFINITO
 10
119.9279212159867
 20
2283.681230495509
 30
5.0
  0
VERTEX
  5
28F
  8
PREDEFINITO
 10
119.9579465356846
 20
2283.698088968918
 30
5.0
  0
VERTEX
  5
290
  8
PREDEFINITO
 10
119.986809311069
 20
2283.715209388767
 30
5.0
  0
VERTEX
  5
291
  8
PREDEFINITO
 10
120.014489562643
 20
2283.732572825607
 30
5.0
  0
VERTEX
  5
292
  8
PREDEFINITO
 10
120.0409698600502
 20
2283.750160069063
 30
5.0
  0
VERTEX
  5
293
  8
PREDEFINITO
 10
120.0662353437406
 20
2283.767951694858
 30
5.0
  0
VERTEX
  5
294
  8
PREDEFINITO
 10
120.0902737336359
 20
2283.785928131691
 30
5.0
  0
VERTEX
  5
295
  8
PREDEFINITO
 10
120.1130753250164
 20
2283.804069727534
 30
5.0
  0
VERTEX
  5
296
  8
PREDEFINITO
 10
120.1346329719624
 20
2283.822356814895
 30
5.0
  0
VERTEX
  5
297
  8
PREDEFINITO
 10
120.154942058786
 20
2283.840769774644
 30
5.0
  0
VERTEX
  5
298
  8
PREDEFINITO
 10
120.1646276319801
 20
2283.850017354209
 30
5.0
  0
VERTEX
  5
299
  8
PREDEFINITO
 10
120.174000459984
 20
2283.859289098006
 30
5.0
  0
VERTEX
  5
29A
  8
PREDEFINITO
 10
120.1830606578463
 20
2283.868582594491
 30
5.0
  0
VERTEX
  5
29B
  8
PREDEFINITO
 10
120.1918084893263
 20
2283.877895446357
 30
5.0
  0
VERTEX
  5
29C
  8
PREDEFINITO
 10
120.2002443647576
 20
2283.88722527226
 30
5.0
  0
VERTEX
  5
29D
  8
PREDEFINITO
 10
120.2083688387718
 20
2283.8965697085
 30
5.0
  0
VERTEX
  5
29E
  8
PREDEFINITO
 10
120.2161826078861
 20
2283.905926410645
 30
5.0
  0
VERTEX
  5
29F
  8
PREDEFINITO
 10
120.2236865079642
 20
2283.915293055124
 30
5.0
  0
VERTEX
  5
2A0
  8
PREDEFINITO
 10
120.2308815115549
 20
2283.924667340751
 30
5.0
  0
VERTEX
  5
2A1
  8
PREDEFINITO
 10
120.2377687251161
 20
2283.9340469902
 30
5.0
  0
VERTEX
  5
2A2
  8
PREDEFINITO
 10
120.2443493861317
 20
2283.943429751434
 30
5.0
  0
VERTEX
  5
2A3
  8
PREDEFINITO
 10
120.2506248601271
 20
2283.952813399066
 30
5.0
  0
VERTEX
  5
2A4
  8
PREDEFINITO
 10
120.2565966375918
 20
2283.962195735676
 30
5.0
  0
VERTEX
  5
2A5
  8
PREDEFINITO
 10
120.262266330815
 20
2283.971574593058
 30
5.0
  0
VERTEX
  5
2A6
  8
PREDEFINITO
 10
120.2676356706412
 20
2283.980947833421
 30
5.0
  0
VERTEX
  5
2A7
  8
PREDEFINITO
 10
120.2727065031546
 20
2283.990313350519
 30
5.0
  0
VERTEX
  5
2A8
  8
PREDEFINITO
 10
120.277480786297
 20
2283.999669070732
 30
5.0
  0
VERTEX
  5
2A9
  8
PREDEFINITO
 10
120.2819605864275
 20
2284.009012954081
 30
5.0
  0
VERTEX
  5
2AA
  8
PREDEFINITO
 10
120.2861480748311
 20
2284.01834299519
 30
5.0
  0
VERTEX
  5
2AB
  8
PREDEFINITO
 10
120.2900455241823
 20
2284.027657224175
 30
5.0
  0
VERTEX
  5
2AC
  8
PREDEFINITO
 10
120.2936553049705
 20
2284.03695370749
 30
5.0
  0
VERTEX
  5
2AD
  8
PREDEFINITO
 10
120.2969798818947
 20
2284.046230548703
 30
5.0
  0
VERTEX
  5
2AE
  8
PREDEFINITO
 10
120.3000218102329
 20
2284.05548588921
 30
5.0
  0
VERTEX
  5
2AF
  8
PREDEFINITO
 10
120.3027837321929
 20
2284.064717908905
 30
5.0
  0
VERTEX
  5
2B0
  8
PREDEFINITO
 10
120.3052683732514
 20
2284.073924826772
 30
5.0
  0
VERTEX
  5
2B1
  8
PREDEFINITO
 10
120.3074785384858
 20
2284.083104901437
 30
5.0
  0
VERTEX
  5
2B2
  8
PREDEFINITO
 10
120.309417108907
 20
2284.092256431653
 30
5.0
  0
VERTEX
  5
2B3
  8
PREDEFINITO
 10
120.3110870377962
 20
2284.101377756728
 30
5.0
  0
VERTEX
  5
2B4
  8
PREDEFINITO
 10
120.3124913470527
 20
2284.110467256906
 30
5.0
  0
VERTEX
  5
2B5
  8
PREDEFINITO
 10
120.3136331235583
 20
2284.119523353691
 30
5.0
  0
VERTEX
  5
2B6
  8
PREDEFINITO
 10
120.3145155155622
 20
2284.128544510109
 30
5.0
  0
VERTEX
  5
2B7
  8
PREDEFINITO
 10
120.3151417290916
 20
2284.137529230934
 30
5.0
  0
VERTEX
  5
2B8
  8
PREDEFINITO
 10
120.3155150243937
 20
2284.146476062846
 30
5.0
  0
VERTEX
  5
2B9
  8
PREDEFINITO
 10
120.315638712412
 20
2284.15538359456
 30
5.0
  0
SEQEND
  5
2BA
  8
PREDEFINITO
  0
LINE
  5
2BB
  8
PREDEFINITO
 10
120.315638712412
 20
2284.15538359456
 30
5.0
 11
120.315638712412
 21
2286.747252542575
 31
5.0
  0
POLYLINE
  5
2BC
  8
PREDEFINITO
 66
     1
 10
0.0
 20
0.0
 30
5.0
  0
VERTEX
  5
2BD
  8
PREDEFINITO
 10
120.315638712412
 20
2286.747252542575
 30
5.0
  0
VERTEX
  5
2BE
  8
PREDEFINITO
 10
120.315545388347
 20
2286.755000078616
 30
5.0
  0
VERTEX
  5
2BF
  8
PREDEFINITO
 10
120.3152639490552
 20
2286.762782380096
 30
5.0
  0
VERTEX
  5
2C0
  8
PREDEFINITO
 10
120.3147922141774
 20
2286.770598580654
 30
5.0
  0
VERTEX
  5
2C1
  8
PREDEFINITO
 10
120.3141280317854
 20
2286.778447789118
 30
5.0
  0
VERTEX
  5
2C2
  8
PREDEFINITO
 10
120.3132692801267
 20
2286.786329089518
 30
5.0
  0
VERTEX
  5
2C3
  8
PREDEFINITO
 10
120.3122138693842
 20
2286.79424154111
 30
5.0
  0
VERTEX
  5
2C4
  8
PREDEFINITO
 10
120.3109597434505
 20
2286.802184178423
 30
5.0
  0
VERTEX
  5
2C5
  8
PREDEFINITO
 10
120.309504881715
 20
2286.810156011328
 30
5.0
  0
VERTEX
  5
2C6
  8
PREDEFINITO
 10
120.3078473008607
 20
2286.81815602513
 30
5.0
  0
VERTEX
  5
2C7
  8
PREDEFINITO
 10
120.3059850566715
 20
2286.826183180678
 30
5.0
  0
VERTEX
  5
2C8
  8
PREDEFINITO
 10
120.303916245845
 20
2286.83423641451
 30
5.0
  0
VERTEX
  5
2C9
  8
PREDEFINITO
 10
120.3016390078111
 20
2286.842314639007
 30
5.0
  0
VERTEX
  5
2CA
  8
PREDEFINITO
 10
120.2991515265536
 20
2286.850416742581
 30
5.0
  0
VERTEX
  5
2CB
  8
PREDEFINITO
 10
120.2964520324328
 20
2286.858541589885
 30
5.0
  0
VERTEX
  5
2CC
  8
PREDEFINITO
 10
120.2935388040057
 20
2286.866688022043
 30
5.0
  0
VERTEX
  5
2CD
  8
PREDEFINITO
 10
120.2904101698448
 20
2286.874854856913
 30
5.0
  0
VERTEX
  5
2CE
  8
PREDEFINITO
 10
120.287064510349
 20
2286.883040889373
 30
5.0
  0
VERTEX
  5
2CF
  8
PREDEFINITO
 10
120.2835002595475
 20
2286.891244891626
 30
5.0
  0
VERTEX
  5
2D0
  8
PREDEFINITO
 10
120.2797159068934
 20
2286.899465613543
 30
5.0
  0
VERTEX
  5
2D1
  8
PREDEFINITO
 10
120.2757099990435
 20
2286.907701783019
 30
5.0
  0
VERTEX
  5
2D2
  8
PREDEFINITO
 10
120.2714811416234
 20
2286.915952106365
 30
5.0
  0
VERTEX
  5
2D3
  8
PREDEFINITO
 10
120.2670280009743
 20
2286.924215268723
 30
5.0
  0
VERTEX
  5
2D4
  8
PREDEFINITO
 10
120.26234930588
 20
2286.932489934508
 30
5.0
  0
VERTEX
  5
2D5
  8
PREDEFINITO
 10
120.2574438492694
 20
2286.940774747871
 30
5.0
  0
VERTEX
  5
2D6
  8
PREDEFINITO
 10
120.2523104898953
 20
2286.9490683332
 30
5.0
  0
VERTEX
  5
2D7
  8
PREDEFINITO
 10
120.2469481539834
 20
2286.957369295637
 30
5.0
  0
VERTEX
  5
2D8
  8
PREDEFINITO
 10
120.241355836851
 20
2286.965676221626
 30
5.0
  0
VERTEX
  5
2D9
  8
PREDEFINITO
 10
120.2355326044921
 20
2286.973987679486
 30
5.0
  0
VERTEX
  5
2DA
  8
PREDEFINITO
 10
120.229477595126
 20
2286.982302220009
 30
5.0
  0
VERTEX
  5
2DB
  8
PREDEFINITO
 10
120.2231900207078
 20
2286.990618377087
 30
5.0
  0
VERTEX
  5
2DC
  8
PREDEFINITO
 10
120.2099144019783
 20
2287.007249595896
 30
5.0
  0
VERTEX
  5
2DD
  8
PREDEFINITO
 10
120.195700973326
 20
2287.023869294364
 30
5.0
  0
VERTEX
  5
2DE
  8
PREDEFINITO
 10
120.1805462286949
 20
2287.04046520472
 30
5.0
  0
VERTEX
  5
2DF
  8
PREDEFINITO
 10
120.1644479708724
 20
2287.057024857275
 30
5.0
  0
VERTEX
  5
2E0
  8
PREDEFINITO
 10
120.1474053477672
 20
2287.073535606177
 30
5.0
  0
VERTEX
  5
2E1
  8
PREDEFINITO
 10
120.1294188847336
 20
2287.089984656524
 30
5.0
  0
VERTEX
  5
2E2
  8
PREDEFINITO
 10
120.110490512651
 20
2287.106359092747
 30
5.0
  0
VERTEX
  5
2E3
  8
PREDEFINITO
 10
120.0906235914852
 20
2287.122645908144
 30
5.0
  0
VERTEX
  5
2E4
  8
PREDEFINITO
 10
120.0698229290798
 20
2287.138832035454
 30
5.0
  0
VERTEX
  5
2E5
  8
PREDEFINITO
 10
120.0480947949538
 20
2287.154904378326
 30
5.0
  0
VERTEX
  5
2E6
  8
PREDEFINITO
 10
120.025446928907
 20
2287.170849843556
 30
5.0
  0
VERTEX
  5
2E7
  8
PREDEFINITO
 10
120.0018885442671
 20
2287.186655373928
 30
5.0
  0
VERTEX
  5
2E8
  8
PREDEFINITO
 10
119.977430325646
 20
2287.202307981499
 30
5.0
  0
VERTEX
  5
2E9
  8
PREDEFINITO
 10
119.9520844211077
 20
2287.21779478117
 30
5.0
  0
VERTEX
  5
2EA
  8
PREDEFINITO
 10
119.9258644286882
 20
2287.233103024364
 30
5.0
  0
VERTEX
  5
2EB
  8
PREDEFINITO
 10
119.8987853772455
 20
2287.248220132635
 30
5.0
  0
VERTEX
  5
2EC
  8
PREDEFINITO
 10
119.8708637016583
 20
2287.263133731028
 30
5.0
  0
VERTEX
  5
2ED
  8
PREDEFINITO
 10
119.8125650598169
 20
2287.292302112809
 30
5.0
  0
VERTEX
  5
2EE
  8
PREDEFINITO
 10
119.7511268114917
 20
2287.320514474737
 30
5.0
  0
VERTEX
  5
2EF
  8
PREDEFINITO
 10
119.6867272587566
 20
2287.347682406687
 30
5.0
  0
VERTEX
  5
2F0
  8
PREDEFINITO
 10
119.6195629825374
 20
2287.373723702657
 30
5.0
  0
VERTEX
  5
2F1
  8
PREDEFINITO
 10
119.5498468465353
 20
2287.398563188214
 30
5.0
  0
VERTEX
  5
2F2
  8
PREDEFINITO
 10
119.4778057624005
 20
2287.422133438657
 30
5.0
  0
VERTEX
  5
2F3
  8
PREDEFINITO
 10
119.4036782650878
 20
2287.444375373639
 30
5.0
  0
VERTEX
  5
2F4
  8
PREDEFINITO
 10
119.3277119520052
 20
2287.465238717592
 30
5.0
  0
VERTEX
  5
2F5
  8
PREDEFINITO
 10
119.2501608422429
 20
2287.484682319239
 30
5.0
  0
VERTEX
  5
2F6
  8
PREDEFINITO
 10
119.1712827127723
 20
2287.502674327601
 30
5.0
  0
VERTEX
  5
2F7
  8
PREDEFINITO
 10
119.0913364670926
 20
2287.519192225874
 30
5.0
  0
VERTEX
  5
2F8
  8
PREDEFINITO
 10
119.0105795885068
 20
2287.534222728378
 30
5.0
  0
VERTEX
  5
2F9
  8
PREDEFINITO
 10
118.9292657252969
 20
2287.547761549183
 30
5.0
  0
VERTEX
  5
2FA
  8
PREDEFINITO
 10
118.8476424488286
 20
2287.559813053946
 30
5.0
  0
VERTEX
  5
2FB
  8
PREDEFINITO
 10
118.6844155790746
 20
2287.579512041718
 30
5.0
  0
SEQEND
  5
2FC
  8
PREDEFINITO
  0
POLYLINE
  5
2FD
  8
PREDEFINITO
 66
     1
 10
0.0
 20
0.0
 30
5.0
  0
VERTEX
  5
2FE
  8
PREDEFINITO
 10
118.6844155790746
 20
2287.579512041718
 30
5.0
  0
VERTEX
  5
2FF
  8
PREDEFINITO
 10
118.7211232488201
 20
2287.584416045129
 30
5.0
  0
VERTEX
  5
300
  8
PREDEFINITO
 10
118.7573490093502
 20
2287.58822720471
 30
5.0
  0
VERTEX
  5
301
  8
PREDEFINITO
 10
118.7931160999465
 20
2287.591006359509
 30
5.0
  0
VERTEX
  5
302
  8
PREDEFINITO
 10
118.8284477598906
 20
2287.592814348576
 30
5.0
  0
VERTEX
  5
303
  8
PREDEFINITO
 10
118.8633672284639
 20
2287.593712010961
 30
5.0
  0
VERTEX
  5
304
  8
PREDEFINITO
 10
118.8978977449482
 20
2287.593760185711
 30
5.0
  0
VERTEX
  5
305
  8
PREDEFINITO
 10
118.9320625486249
 20
2287.593019711878
 30
5.0
  0
VERTEX
  5
306
  8
PREDEFINITO
 10
118.9658848787757
 20
2287.591551428509
 30
5.0
  0
VERTEX
  5
307
  8
PREDEFINITO
 10
118.999387974682
 20
2287.589416174655
 30
5.0
  0
VERTEX
  5
308
  8
PREDEFINITO
 10
119.0325950756255
 20
2287.586674789364
 30
5.0
  0
VERTEX
  5
309
  8
PREDEFINITO
 10
119.0982142497502
 20
2287.579616980669
 30
5.0
  0
VERTEX
  5
30A
  8
PREDEFINITO
 10
119.1629283154023
 20
2287.570864714819
 30
5.0
  0
VERTEX
  5
30B
  8
PREDEFINITO
 10
119.2269231868345
 20
2287.560904704207
 30
5.0
  0
VERTEX
  5
30C
  8
PREDEFINITO
 10
119.3431678864219
 20
2287.54054729134
 30
5.0
  0
VERTEX
  5
30D
  8
PREDEFINITO
 10
119.4575109664688
 20
2287.517719424977
 30
5.0
  0
VERTEX
  5
30E
  8
PREDEFINITO
 10
119.5698550515858
 20
2287.492390117779
 30
5.0
  0
VERTEX
  5
30F
  8
PREDEFINITO
 10
119.680102766384
 20
2287.464528382407
 30
5.0
  0
VERTEX
  5
310
  8
PREDEFINITO
 10
119.7881567354739
 20
2287.43410323152
 30
5.0
  0
VERTEX
  5
311
  8
PREDEFINITO
 10
119.8939195834664
 20
2287.401083677781
 30
5.0
  0
VERTEX
  5
312
  8
PREDEFINITO
 10
119.9972939349723
 20
2287.365438733848
 30
5.0
  0
VERTEX
  5
313
  8
PREDEFINITO
 10
120.0981824146025
 20
2287.327137412385
 30
5.0
  0
VERTEX
  5
314
  8
PREDEFINITO
 10
120.1934123218291
 20
2287.287462308556
 30
5.0
  0
VERTEX
  5
315
  8
PREDEFINITO
 10
120.2400935266052
 20
2287.266619217411
 30
5.0
  0
VERTEX
  5
316
  8
PREDEFINITO
 10
120.2861386374248
 20
2287.245073407734
 30
5.0
  0
VERTEX
  5
317
  8
PREDEFINITO
 10
120.331537458239
 20
2287.222800610239
 30
5.0
  0
VERTEX
  5
318
  8
PREDEFINITO
 10
120.3762797929988
 20
2287.199776555644
 30
5.0
  0
VERTEX
  5
319
  8
PREDEFINITO
 10
120.4203554456556
 20
2287.175976974666
 30
5.0
  0
VERTEX
  5
31A
  8
PREDEFINITO
 10
120.4637542201604
 20
2287.151377598018
 30
5.0
  0
VERTEX
  5
31B
  8
PREDEFINITO
 10
120.5064659204644
 20
2287.125954156419
 30
5.0
  0
VERTEX
  5
31C
  8
PREDEFINITO
 10
120.5484803505188
 20
2287.099682380583
 30
5.0
  0
VERTEX
  5
31D
  8
PREDEFINITO
 10
120.5897873142746
 20
2287.072538001227
 30
5.0
  0
VERTEX
  5
31E
  8
PREDEFINITO
 10
120.6303766156831
 20
2287.044496749068
 30
5.0
  0
VERTEX
  5
31F
  8
PREDEFINITO
 10
120.6702380586954
 20
2287.015534354819
 30
5.0
  0
VERTEX
  5
320
  8
PREDEFINITO
 10
120.7093614472627
 20
2286.9856265492
 30
5.0
  0
VERTEX
  5
321
  8
PREDEFINITO
 10
120.7477365853361
 20
2286.954749062924
 30
5.0
  0
VERTEX
  5
322
  8
PREDEFINITO
 10
120.7853532768667
 20
2286.922877626709
 30
5.0
  0
VERTEX
  5
323
  8
PREDEFINITO
 10
120.8162885104342
 20
2286.895378484123
 30
5.0
  0
VERTEX
  5
324
  8
PREDEFINITO
 10
120.846651639775
 20
2286.867148503726
 30
5.0
  0
VERTEX
  5
325
  8
PREDEFINITO
 10
120.8764106279292
 20
2286.838172273675
 30
5.0
  0
VERTEX
  5
326
  8
PREDEFINITO
 10
120.9055334379367
 20
2286.80843438213
 30
5.0
  0
VERTEX
  5
327
  8
PREDEFINITO
 10
120.9339880328374
 20
2286.77791941725
 30
5.0
  0
VERTEX
  5
328
  8
PREDEFINITO
 10
120.9617423756712
 20
2286.746611967194
 30
5.0
  0
VERTEX
  5
329
  8
PREDEFINITO
 10
120.9887644294782
 20
2286.714496620123
 30
5.0
  0
VERTEX
  5
32A
  8
PREDEFINITO
 10
121.0150221572982
 20
2286.681557964193
 30
5.0
  0
VERTEX
  5
32B
  8
PREDEFINITO
 10
121.0462344771172
 20
2286.639882034289
 30
5.0
  0
VERTEX
  5
32C
  8
PREDEFINITO
 10
121.0761532826499
 20
2286.596978742376
 30
5.0
  0
VERTEX
  5
32D
  8
PREDEFINITO
 10
121.1046910975149
 20
2286.552890912299
 30
5.0
  0
VERTEX
  5
32E
  8
PREDEFINITO
 10
121.1184147970776
 20
2286.530416177902
 30
5.0
  0
VERTEX
  5
32F
  8
PREDEFINITO
 10
121.1317604453303
 20
2286.507661367907
 30
5.0
  0
VERTEX
  5
330
  8
PREDEFINITO
 10
121.1447171077252
 20
2286.484631835296
 30
5.0
  0
VERTEX
  5
331
  8
PREDEFINITO
 10
121.1572738497147
 20
2286.461332933049
 30
5.0
  0
VERTEX
  5
332
  8
PREDEFINITO
 10
121.1694197367509
 20
2286.437770014147
 30
5.0
  0
VERTEX
  5
333
  8
PREDEFINITO
 10
121.1811438342863
 20
2286.413948431571
 30
5.0
  0
VERTEX
  5
334
  8
PREDEFINITO
 10
121.1924352077731
 20
2286.389873538304
 30
5.0
  0
VERTEX
  5
335
  8
PREDEFINITO
 10
121.2032829226635
 20
2286.365550687323
 30
5.0
  0
VERTEX
  5
336
  8
PREDEFINITO
 10
121.21367604441
 20
2286.340985231612
 30
5.0
  0
VERTEX
  5
337
  8
PREDEFINITO
 10
121.2236036384647
 20
2286.316182524151
 30
5.0
  0
VERTEX
  5
338
  8
PREDEFINITO
 10
121.2341168278884
 20
2286.28824232069
 30
5.0
  0
VERTEX
  5
339
  8
PREDEFINITO
 10
121.2440295189454
 20
2286.260030723732
 30
5.0
  0
VERTEX
  5
33A
  8
PREDEFINITO
 10
121.2533341379319
 20
2286.231564921934
 30
5.0
  0
VERTEX
  5
33B
  8
PREDEFINITO
 10
121.2620231111443
 20
2286.202862103952
 30
5.0
  0
VERTEX
  5
33C
  8
PREDEFINITO
 10
121.2700888648789
 20
2286.173939458444
 30
5.0
  0
VERTEX
  5
33D
  8
PREDEFINITO
 10
121.277523825432
 20
2286.144814174067
 30
5.0
  0
VERTEX
  5
33E
  8
PREDEFINITO
 10
121.2843204191
 20
2286.115503439477
 30
5.0
  0
VERTEX
  5
33F
  8
PREDEFINITO
 10
121.2904710721791
 20
2286.086024443332
 30
5.0
  0
VERTEX
  5
340
  8
PREDEFINITO
 10
121.2959682109656
 20
2286.056394374288
 30
5.0
  0
VERTEX
  5
341
  8
PREDEFINITO
 10
121.300804261756
 20
2286.026630421003
 30
5.0
  0
VERTEX
  5
342
  8
PREDEFINITO
 10
121.3049716508465
 20
2285.996749772134
 30
5.0
  0
VERTEX
  5
343
  8
PREDEFINITO
 10
121.3084628045334
 20
2285.966769616336
 30
5.0
  0
VERTEX
  5
344
  8
PREDEFINITO
 10
121.3112701491131
 20
2285.936707142268
 30
5.0
  0
VERTEX
  5
345
  8
PREDEFINITO
 10
121.3133861108819
 20
2285.906579538587
 30
5.0
  0
VERTEX
  5
346
  8
PREDEFINITO
 10
121.314803116136
 20
2285.876403993949
 30
5.0
  0
VERTEX
  5
347
  8
PREDEFINITO
 10
121.3155135911719
 20
2285.846197697011
 30
5.0
  0
SEQEND
  5
348
  8
PREDEFINITO
  0
LINE
  5
349
  8
PREDEFINITO
 10
121.3155135911719
 20
2285.846197697011
 30
5.0
 11
121.3154864075684
 21
2283.254328425321
 31
5.0
  0
POLYLINE
  5
34A
  8
PREDEFINITO
 66
     1
 10
0.0
 20
0.0
 30
5.0
  0
VERTEX
  5
34B
  8
PREDEFINITO
 10
121.3154864075684
 20
2283.254328425321
 30
5.0
  0
VERTEX
  5
34C
  8
PREDEFINITO
 10
121.3153014153255
 20
2283.241006000943
 30
5.0
  0
VERTEX
  5
34D
  8
PREDEFINITO
 10
121.3147431014634
 20
2283.227624797776
 30
5.0
  0
VERTEX
  5
34E
  8
PREDEFINITO
 10
121.3138065140161
 20
2283.214186926593
 30
5.0
  0
VERTEX
  5
34F
  8
PREDEFINITO
 10
121.3124867768409
 20
2283.200694561026
 30
5.0
  0
VERTEX
  5
350
  8
PREDEFINITO
 10
121.310779094888
 20
2283.187149937392
 30
5.0
  0
VERTEX
  5
351
  8
PREDEFINITO
 10
121.3086787595231
 20
2283.173555354443
 30
5.0
  0
VERTEX
  5
352
  8
PREDEFINITO
 10
121.3061811538949
 20
2283.159913173035
 30
5.0
  0
VERTEX
  5
353
  8
PREDEFINITO
 10
121.3032817583421
 20
2283.146225815735
 30
5.0
  0
VERTEX
  5
354
  8
PREDEFINITO
 10
121.2999761558313
 20
2283.13249576633
 30
5.0
  0
VERTEX
  5
355
  8
PREDEFINITO
 10
121.2962600374195
 20
2283.118725569266
 30
5.0
  0
VERTEX
  5
356
  8
PREDEFINITO
 10
121.2921292077316
 20
2283.10491782901
 30
5.0
  0
VERTEX
  5
357
  8
PREDEFINITO
 10
121.2875795904471
 20
2283.091075209308
 30
5.0
  0
VERTEX
  5
358
  8
PREDEFINITO
 10
121.2826072337849
 20
2283.077200432379
 30
5.0
  0
VERTEX
  5
359
  8
PREDEFINITO
 10
121.2772083159797
 20
2283.063296278016
 30
5.0
  0
VERTEX
  5
35A
  8
PREDEFINITO
 10
121.271379150739
 20
2283.049365582591
 30
5.0
  0
VERTEX
  5
35B
  8
PREDEFINITO
 10
121.2651161926737
 20
2283.035411237987
 30
5.0
  0
VERTEX
  5
35C
  8
PREDEFINITO
 10
121.2584160426903
 20
2283.02143619043
 30
5.0
  0
VERTEX
  5
35D
  8
PREDEFINITO
 10
121.2512754533368
 20
2283.007443439235
 30
5.0
  0
VERTEX
  5
35E
  8
PREDEFINITO
 10
121.2436913340924
 20
2282.993436035466
 30
5.0
  0
VERTEX
  5
35F
  8
PREDEFINITO
 10
121.2356607565889
 20
2282.979417080506
 30
5.0
  0
VERTEX
  5
360
  8
PREDEFINITO
 10
121.2271809597568
 20
2282.965389724529
 30
5.0
  0
VERTEX
  5
361
  8
PREDEFINITO
 10
121.2182493548824
 20
2282.951357164894
 30
5.0
  0
VERTEX
  5
362
  8
PREDEFINITO
 10
121.2088635305684
 20
2282.937322644448
 30
5.0
  0
VERTEX
  5
363
  8
PREDEFINITO
 10
121.1990212575852
 20
2282.923289449731
 30
5.0
  0
VERTEX
  5
364
  8
PREDEFINITO
 10
121.1887204936037
 20
2282.909260909111
 30
5.0
  0
VERTEX
  5
365
  8
PREDEFINITO
 10
121.1779593877989
 20
2282.895240390817
 30
5.0
  0
VERTEX
  5
366
  8
PREDEFINITO
 10
121.1667362853122
 20
2282.881231300896
 30
5.0
  0
VERTEX
  5
367
  8
PREDEFINITO
 10
121.1550497315649
 20
2282.867237081087
 30
5.0
  0
VERTEX
  5
368
  8
PREDEFINITO
 10
121.1428984764093
 20
2282.85326120661
 30
5.0
  0
VERTEX
  5
369
  8
PREDEFINITO
 10
121.1302814781091
 20
2282.839307183874
 30
5.0
  0
VERTEX
  5
36A
  8
PREDEFINITO
 10
121.1171979071375
 20
2282.825378548117
 30
5.0
  0
VERTEX
  5
36B
  8
PREDEFINITO
 10
121.1036471497846
 20
2282.811478860965
 30
5.0
  0
VERTEX
  5
36C
  8
PREDEFINITO
 10
121.0896288115628
 20
2282.797611707914
 30
5.0
  0
VERTEX
  5
36D
  8
PREDEFINITO
 10
121.0751427204012
 20
2282.783780695755
 30
5.0
  0
VERTEX
  5
36E
  8
PREDEFINITO
 10
121.0447677206732
 20
2282.756241611786
 30
5.0
  0
VERTEX
  5
36F
  8
PREDEFINITO
 10
121.0125253295796
 20
2282.728890787082
 30
5.0
  0
VERTEX
  5
370
  8
PREDEFINITO
 10
120.978422450509
 20
2282.701757564718
 30
5.0
  0
VERTEX
  5
371
  8
PREDEFINITO
 10
120.9424697711554
 20
2282.674871360102
 30
5.0
  0
VERTEX
  5
372
  8
PREDEFINITO
 10
120.9046818062463
 20
2282.648261565511
 30
5.0
  0
VERTEX
  5
373
  8
PREDEFINITO
 10
120.865076922308
 20
2282.621957452488
 30
5.0
  0
VERTEX
  5
374
  8
PREDEFINITO
 10
120.8236773438172
 20
2282.59598807268
 30
5.0
  0
VERTEX
  5
375
  8
PREDEFINITO
 10
120.7805091402409
 20
2282.570382157811
 30
5.0
  0
VERTEX
  5
376
  8
PREDEFINITO
 10
120.7356021936323
 20
2282.545168019449
 30
5.0
  0
VERTEX
  5
377
  8
PREDEFINITO
 10
120.6889901466235
 20
2282.520373449269
 30
5.0
  0
VERTEX
  5
378
  8
PREDEFINITO
 10
120.6407103308353
 20
2282.496025620528
 30
5.0
  0
VERTEX
  5
379
  8
PREDEFINITO
 10
120.5908036759105
 20
2282.47215099145
 30
5.0
  0
VERTEX
  5
37A
  8
PREDEFINITO
 10
120.5393145995594
 20
2282.448775211236
 30
5.0
  0
VERTEX
  5
37B
  8
PREDEFINITO
 10
120.4862908791913
 20
2282.425923029386
 30
5.0
  0
VERTEX
  5
37C
  8
PREDEFINITO
 10
120.4317835058836
 20
2282.40361820899
 30
5.0
  0
VERTEX
  5
37D
  8
PREDEFINITO
 10
120.3185368408369
 20
2282.360740285506
 30
5.0
  0
VERTEX
  5
37E
  8
PREDEFINITO
 10
120.2000402399076
 20
2282.320308832067
 30
5.0
  0
VERTEX
  5
37F
  8
PREDEFINITO
 10
120.0767988263203
 20
2282.282470790128
 30
5.0
  0
VERTEX
  5
380
  8
PREDEFINITO
 10
119.9493501193706
 20
2282.247350905996
 30
5.0
  0
VERTEX
  5
381
  8
PREDEFINITO
 10
119.8182564143202
 20
2282.215050452024
 30
5.0
  0
VERTEX
  5
382
  8
PREDEFINITO
 10
119.6840968554006
 20
2282.185646438782
 30
5.0
  0
VERTEX
  5
383
  8
PREDEFINITO
 10
119.5474594277216
 20
2282.159191324077
 30
5.0
  0
VERTEX
  5
384
  8
PREDEFINITO
 10
119.4089330875142
 20
2282.135713206539
 30
5.0
  0
VERTEX
  5
385
  8
PREDEFINITO
 10
119.2691002340537
 20
2282.115216474914
 30
5.0
  0
VERTEX
  5
386
  8
PREDEFINITO
 10
119.128529702328
 20
2282.097682869854
 30
5.0
  0
VERTEX
  5
387
  8
PREDEFINITO
 10
118.9877704250059
 20
2282.083072903741
 30
5.0
  0
VERTEX
  5
388
  8
PREDEFINITO
 10
118.8473458777284
 20
2282.071327576027
 30
5.0
  0
VERTEX
  5
389
  8
PREDEFINITO
 10
118.7077493854536
 20
2282.06237031708
 30
5.0
  0
VERTEX
  5
38A
  8
PREDEFINITO
 10
118.5694403316515
 20
2282.056109092252
 30
5.0
  0
VERTEX
  5
38B
  8
PREDEFINITO
 10
118.4328412784213
 20
2282.052438599695
 30
5.0
  0
VERTEX
  5
38C
  8
PREDEFINITO
 10
118.2983359755277
 20
2282.051242499736
 30
5.0
  0
VERTEX
  5
38D
  8
PREDEFINITO
 10
118.1638306726341
 20
2282.052438599695
 30
5.0
  0
VERTEX
  5
38E
  8
PREDEFINITO
 10
118.0272316194039
 20
2282.056109092252
 30
5.0
  0
VERTEX
  5
38F
  8
PREDEFINITO
 10
117.8889225656019
 20
2282.06237031708
 30
5.0
  0
VERTEX
  5
390
  8
PREDEFINITO
 10
117.749326073327
 20
2282.071327576027
 30
5.0
  0
VERTEX
  5
391
  8
PREDEFINITO
 10
117.6089015260496
 20
2282.083072903741
 30
5.0
  0
VERTEX
  5
392
  8
PREDEFINITO
 10
117.4681422487275
 20
2282.097682869854
 30
5.0
  0
VERTEX
  5
393
  8
PREDEFINITO
 10
117.3275717170017
 20
2282.115216474914
 30
5.0
  0
VERTEX
  5
394
  8
PREDEFINITO
 10
117.1877388635412
 20
2282.135713206539
 30
5.0
  0
VERTEX
  5
395
  8
PREDEFINITO
 10
117.0492125233338
 20
2282.159191324077
 30
5.0
  0
VERTEX
  5
396
  8
PREDEFINITO
 10
116.9125750956548
 20
2282.185646438782
 30
5.0
  0
VERTEX
  5
397
  8
PREDEFINITO
 10
116.7784155367353
 20
2282.215050452024
 30
5.0
  0
VERTEX
  5
398
  8
PREDEFINITO
 10
116.6473218316848
 20
2282.247350905996
 30
5.0
  0
VERTEX
  5
399
  8
PREDEFINITO
 10
116.5198731247351
 20
2282.282470790128
 30
5.0
  0
VERTEX
  5
39A
  8
PREDEFINITO
 10
116.3966317111478
 20
2282.320308832067
 30
5.0
  0
VERTEX
  5
39B
  8
PREDEFINITO
 10
116.2781351102185
 20
2282.360740285506
 30
5.0
  0
VERTEX
  5
39C
  8
PREDEFINITO
 10
116.1648884451718
 20
2282.40361820899
 30
5.0
  0
VERTEX
  5
39D
  8
PREDEFINITO
 10
116.1103810718641
 20
2282.425923029386
 30
5.0
  0
VERTEX
  5
39E
  8
PREDEFINITO
 10
116.0573573514959
 20
2282.448775211236
 30
5.0
  0
VERTEX
  5
39F
  8
PREDEFINITO
 10
116.0058682751449
 20
2282.47215099145
 30
5.0
  0
VERTEX
  5
3A0
  8
PREDEFINITO
 10
115.9559616202201
 20
2282.496025620528
 30
5.0
  0
VERTEX
  5
3A1
  8
PREDEFINITO
 10
115.9076818044319
 20
2282.520373449269
 30
5.0
  0
VERTEX
  5
3A2
  8
PREDEFINITO
 10
115.8610697574231
 20
2282.545168019449
 30
5.0
  0
VERTEX
  5
3A3
  8
PREDEFINITO
 10
115.8161628108145
 20
2282.570382157811
 30
5.0
  0
VERTEX
  5
3A4
  8
PREDEFINITO
 10
115.7729946072382
 20
2282.59598807268
 30
5.0
  0
VERTEX
  5
3A5
  8
PREDEFINITO
 10
115.7315950287473
 20
2282.621957452488
 30
5.0
  0
VERTEX
  5
3A6
  8
PREDEFINITO
 10
115.6919901448091
 20
2282.648261565511
 30
5.0
  0
VERTEX
  5
3A7
  8
PREDEFINITO
 10
115.6542021799001
 20
2282.674871360102
 30
5.0
  0
VERTEX
  5
3A8
  8
PREDEFINITO
 10
115.6182495005465
 20
2282.701757564718
 30
5.0
  0
VERTEX
  5
3A9
  8
PREDEFINITO
 10
115.5841466214759
 20
2282.728890787082
 30
5.0
  0
VERTEX
  5
3AA
  8
PREDEFINITO
 10
115.5519042303823
 20
2282.756241611786
 30
5.0
  0
VERTEX
  5
3AB
  8
PREDEFINITO
 10
115.5215292306542
 20
2282.783780695755
 30
5.0
  0
VERTEX
  5
3AC
  8
PREDEFINITO
 10
115.5070431394926
 20
2282.797611707914
 30
5.0
  0
VERTEX
  5
3AD
  8
PREDEFINITO
 10
115.4930248012708
 20
2282.811478860965
 30
5.0
  0
VERTEX
  5
3AE
  8
PREDEFINITO
 10
115.4794740439179
 20
2282.825378548117
 30
5.0
  0
VERTEX
  5
3AF
  8
PREDEFINITO
 10
115.4663904729463
 20
2282.839307183874
 30
5.0
  0
VERTEX
  5
3B0
  8
PREDEFINITO
 10
115.4537734746461
 20
2282.85326120661
 30
5.0
  0
VERTEX
  5
3B1
  8
PREDEFINITO
 10
115.4416222194905
 20
2282.867237081087
 30
5.0
  0
VERTEX
  5
3B2
  8
PREDEFINITO
 10
115.4299356657433
 20
2282.881231300896
 30
5.0
  0
VERTEX
  5
3B3
  8
PREDEFINITO
 10
115.4187125632565
 20
2282.895240390817
 30
5.0
  0
VERTEX
  5
3B4
  8
PREDEFINITO
 10
115.4079514574516
 20
2282.909260909111
 30
5.0
  0
VERTEX
  5
3B5
  8
PREDEFINITO
 10
115.3976506934702
 20
2282.923289449731
 30
5.0
  0
VERTEX
  5
3B6
  8
PREDEFINITO
 10
115.387808420487
 20
2282.937322644448
 30
5.0
  0
VERTEX
  5
3B7
  8
PREDEFINITO
 10
115.378422596173
 20
2282.951357164894
 30
5.0
  0
VERTEX
  5
3B8
  8
PREDEFINITO
 10
115.3694909912987
 20
2282.965389724529
 30
5.0
  0
VERTEX
  5
3B9
  8
PREDEFINITO
 10
115.3610111944665
 20
2282.979417080506
 30
5.0
  0
VERTEX
  5
3BA
  8
PREDEFINITO
 10
115.352980616963
 20
2282.993436035466
 30
5.0
  0
VERTEX
  5
3BB
  8
PREDEFINITO
 10
115.3453964977186
 20
2283.007443439235
 30
5.0
  0
VERTEX
  5
3BC
  8
PREDEFINITO
 10
115.3382559083651
 20
2283.02143619043
 30
5.0
  0
VERTEX
  5
3BD
  8
PREDEFINITO
 10
115.3315557583817
 20
2283.035411237987
 30
5.0
  0
VERTEX
  5
3BE
  8
PREDEFINITO
 10
115.3252928003164
 20
2283.049365582591
 30
5.0
  0
VERTEX
  5
3BF
  8
PREDEFINITO
 10
115.3194636350757
 20
2283.063296278016
 30
5.0
  0
VERTEX
  5
3C0
  8
PREDEFINITO
 10
115.3140647172705
 20
2283.077200432379
 30
5.0
  0
VERTEX
  5
3C1
  8
PREDEFINITO
 10
115.3090923606083
 20
2283.091075209308
 30
5.0
  0
VERTEX
  5
3C2
  8
PREDEFINITO
 10
115.3045427433238
 20
2283.10491782901
 30
5.0
  0
VERTEX
  5
3C3
  8
PREDEFINITO
 10
115.3004119136359
 20
2283.118725569266
 30
5.0
  0
VERTEX
  5
3C4
  8
PREDEFINITO
 10
115.2966957952241
 20
2283.13249576633
 30
5.0
  0
VERTEX
  5
3C5
  8
PREDEFINITO
 10
115.2933901927133
 20
2283.146225815735
 30
5.0
  0
VERTEX
  5
3C6
  8
PREDEFINITO
 10
115.2904907971605
 20
2283.159913173035
 30
5.0
  0
VERTEX
  5
3C7
  8
PREDEFINITO
 10
115.2879931915323
 20
2283.173555354443
 30
5.0
  0
VERTEX
  5
3C8
  8
PREDEFINITO
 10
115.2858928561674
 20
2283.187149937392
 30
5.0
  0
VERTEX
  5
3C9
  8
PREDEFINITO
 10
115.2841851742145
 20
2283.200694561026
 30
5.0
  0
VERTEX
  5
3CA
  8
PREDEFINITO
 10
115.2828654370393
 20
2283.214186926593
 30
5.0
  0
VERTEX
  5
3CB
  8
PREDEFINITO
 10
115.281928849592
 20
2283.227624797776
 30
5.0
  0
VERTEX
  5
3CC
  8
PREDEFINITO
 10
115.2813705357299
 20
2283.241006000943
 30
5.0
  0
VERTEX
  5
3CD
  8
PREDEFINITO
 10
115.281185543487
 20
2283.254328425321
 30
5.0
  0
SEQEND
  5
3CE
  8
PREDEFINITO
  0
LINE
  5
3CF
  8
PREDEFINITO
 10
115.281185543487
 20
2283.254328425321
 30
5.0
 11
115.2301937292625
 21
2280.57530333214
 31
5.0
  0
ARC
  5
3D0
  8
PREDEFINITO
 10
115.4096017741808
 20
2280.589357565532
 30
5.0
 40
0.1799576840750861
 50
184.4792145420856
 51
335.0720275596398
  0
ARC
  5
3D1
  8
PREDEFINITO
 10
118.2983359755682
 20
2275.474858442781
 30
5.000000000000006
 40
5.728575687189656
 50
61.58985287687103
 51
118.4101471240566
  0
ARC
  5
3D2
  8
PREDEFINITO
 10
121.1867743515028
 20
2280.59099768945
 30
5.0
 40
0.1803878982847391
 50
205.4399949970742
 51
355.0087628976507
  0
LINE
  5
3D3
  8
PREDEFINITO
 10
121.3664782217922
 20
2280.575303332173
 30
5.0
 11
121.3171631792321
 21
2283.166233631463
 31
5.0
  0
LINE
  5
3D4
  8
PREDEFINITO
 10
117.9034206210351
 20
2355.791852309369
 30
5.0
 11
117.7962106115843
 21
2355.21512087978
 31
5.0
  0
ARC
  5
3D5
  8
PREDEFINITO
 10
-63.43402688423288
 20
2389.374164837012
 30
5.0
 40
184.4213633689504
 50
347.4291229687953
 51
349.3258767643705
  0
ARC
  5
3D6
  8
PREDEFINITO
 10
-140.0808276819003
 20
2406.497584879779
 30
5.000000000004781
 40
262.9576155954349
 50
345.2137543985718
 51
347.4223748351103
  0
ARC
  5
3D7
  8
PREDEFINITO
 10
21612.78273706247
 20
-3337.144318591024
 30
5.0
 40
22235.40889445367
 50
165.209086418007
 51
165.2350744496267
  0
LINE
  5
3D8
  8
PREDEFINITO
 10
111.5963321220009
 20
2329.635356281845
 30
5.0
 11
109.2271328875939
 21
2320.312059260458
 31
5.0
  0
ARC
  5
3D9
  8
PREDEFINITO
 10
276.7768364848881
 20
2279.346485266744
 30
5.0
 40
172.4850179817819
 50
166.260834119574
 51
169.42991873292
  0
LINE
  5
3DA
  8
PREDEFINITO
 10
119.6484761967841
 20
2435.149778694404
 30
5.0
 11
119.6484761984161
 21
2421.734633114947
 31
5.0
  0
LINE
  5
3DB
  8
PREDEFINITO
 10
119.6484761984161
 20
2421.734633114947
 30
5.0
 11
119.648476200048
 21
2373.249450464181
 31
5.0
  0
ARC
  5
3DC
  8
PREDEFINITO
 10
41.65019642245007
 20
2373.251873093362
 30
5.0
 40
77.9982798152214
 50
355.5787577441386
 51
359.998220391171
  0
ARC
  5
3DD
  8
PREDEFINITO
 10
16.50969158209855
 20
2375.212405646237
 30
4.999999999997885
 40
103.215108759797
 50
352.2494303272383
 51
355.5695150393932
  0
LINE
  5
3DE
  8
PREDEFINITO
 10
118.7818845536911
 20
2361.292735352797
 30
5.0
 11
118.7034206210352
 21
2360.726828000002
 31
5.0
  0
ARC
  5
3DF
  8
PREDEFINITO
 10
183.2764146995381
 20
2293.381869928008
 30
5.0
 40
77.87743337310523
 50
173.4981315640365
 51
180.0023183656301
  0
LINE
  5
3E0
  8
PREDEFINITO
 10
105.3989813901858
 20
2293.378718764582
 30
5.0
 11
105.3922234716239
 21
2291.378718764584
 31
5.0
  0
ARC
  5
3E1
  8
PREDEFINITO
 10
109.7160429028593
 20
2291.345724040092
 30
4.999999999999853
 40
4.323945319470815
 50
179.5627889192773
 51
194.9772405160198
  0
ARC
  5
3E2
  8
PREDEFINITO
 10
110.2790054528578
 20
2291.502851002681
 30
5.000000000000121
 40
4.908394422566008
 50
195.0507772844653
 51
208.9318639138356
  0
ARC
  5
3E3
  8
PREDEFINITO
 10
111.1767703721469
 20
2291.979505740393
 30
4.999999999999838
 40
5.924730029776954
 50
208.7660623615689
 51
220.7310490543144
  0
LINE
  5
3E4
  8
PREDEFINITO
 10
106.6871234295293
 20
2288.113565200707
 30
5.0
 11
107.6175236541061
 21
2287.180473616342
 31
5.0
  0
ARC
  5
3E5
  8
PREDEFINITO
 10
115.5826959604781
 20
2296.394920496927
 30
5.0
 40
12.1799015260928
 50
229.1591371103062
 51
241.1072244780604
  0
ARC
  5
3E6
  8
PREDEFINITO
 10
120.4522848033906
 20
2305.23755816592
 30
5.000000000000496
 40
22.27470670016486
 50
241.1305439772469
 51
247.9871251257848
  0
POLYLINE
  5
3E7
  8
PREDEFINITO
 66
     1
 10
0.0
 20
0.0
 30
5.0
  0
VERTEX
  5
3E8
  8
PREDEFINITO
 10
112.1033921604846
 20
2284.586685297792
 30
5.0
 42
-0.2279980320723531
  0
VERTEX
  5
3E9
  8
PREDEFINITO
 10
112.1036428577236
 20
2284.221184054711
 30
5.0
 42
-0.0637317406123226
  0
VERTEX
  5
3EA
  8
PREDEFINITO
 10
111.4069631767803
 20
2282.447392229406
 30
5.0
  0
SEQEND
  5
3EB
  8
PREDEFINITO
  0
ARC
  5
3EC
  8
PREDEFINITO
 10
110.8356096130503
 20
2282.622284678599
 30
5.0
 40
0.5975217682828522
 50
295.4948298487359
 51
342.9805474229729
  0
ARC
  5
3ED
  8
PREDEFINITO
 10
119.4061207396632
 20
2302.65404138677
 30
4.999999999999607
 40
22.18741106390488
 50
240.3000061035256
 51
247.9950713896532
  0
ARC
  5
3EE
  8
PREDEFINITO
 10
116.7501543280785
 20
2298.021375714904
 30
5.0
 40
16.84741419107782
 50
229.6970773304504
 51
240.3400082025436
  0
ARC
  5
3EF
  8
PREDEFINITO
 10
112.6934259851155
 20
2293.370850687425
 30
4.99999999999917
 40
10.67709525930272
 50
220.9892711074107
 51
230.1570296321817
  0
ARC
  5
3F0
  8
PREDEFINITO
 10
110.9636104407128
 20
2291.851035139925
 30
5.000000000000158
 40
8.374509963498053
 50
208.7015714394512
 51
220.9031382058063
  0
ARC
  5
3F1
  8
PREDEFINITO
 10
110.3335033744978
 20
2291.494577312233
 30
5.0
 40
7.650640872505876
 50
194.7569733918031
 51
208.6262802604296
  0
ARC
  5
3F2
  8
PREDEFINITO
 10
109.989130098813
 20
2291.386643837471
 30
5.0
 40
7.290153016273466
 50
180.0622858418977
 51
194.6260787881139
  0
LINE
  5
3F3
  8
PREDEFINITO
 10
102.6989813901857
 20
2291.378718764584
 30
5.0
 11
102.6989813901857
 21
2293.378718764582
 31
5.0
  0
ARC
  5
3F4
  8
PREDEFINITO
 10
183.2767071577998
 20
2293.38187510827
 30
4.999999999999447
 40
80.57772582943338
 50
173.51213214147
 51
180.002244356864
  0
LINE
  5
3F5
  8
PREDEFINITO
 10
117.9034206210352
 20
2435.149778694404
 30
5.0
 11
117.9034206242875
 21
2286.953980770098
 31
5.0
  0
ARC
  5
3F6
  8
PREDEFINITO
 10
118.217609147398
 20
2287.129383118046
 30
5.000000000000004
 40
0.359833866833249
 50
209.1733572843816
 51
283.7965662213977
  0
ARC
  5
3F7
  8
PREDEFINITO
 10
118.3892544813839
 20
2287.129448460128
 30
4.999999999999996
 40
0.3599026624322331
 50
256.2024533811439
 51
330.7997257649663
  0
LINE
  5
3F8
  8
PREDEFINITO
 10
118.7034206206964
 20
2286.953864966214
 30
5.0
 11
118.7034206210352
 21
2435.149778694404
 31
5.0
  0
LINE
  5
3F9
  8
PREDEFINITO
 10
111.810843429519
 20
2485.649778694537
 30
5.0
 11
111.8133523595933
 21
2435.149778694371
 31
5.0
  0
LINE
  5
3FA
  8
PREDEFINITO
 10
111.8133523595933
 20
2435.149778694371
 30
5.0
 11
118.864988526177
 21
2435.149778694404
 31
5.0
  0
LINE
  5
3FB
  8
PREDEFINITO
 10
118.864988526177
 20
2435.149778694404
 30
5.0
 11
124.7689125305553
 21
2435.149778694371
 31
5.0
  0
LINE
  5
3FC
  8
PREDEFINITO
 10
124.7689125305553
 20
2435.149778694371
 30
5.0
 11
124.7953829184583
 21
2485.649778694537
 31
5.0
  0
POLYLINE
  5
3FD
  8
PREDEFINITO
 66
     1
 10
0.0
 20
0.0
 30
5.0
  0
VERTEX
  5
3FE
  8
PREDEFINITO
 10
124.7953829184583
 20
2485.649778694539
 30
5.0
  0
VERTEX
  5
3FF
  8
PREDEFINITO
 10
124.7981986262126
 20
2485.649778694538
 30
5.0
  0
VERTEX
  5
400
  8
PREDEFINITO
 10
124.7984290014756
 20
2485.649778694538
 30
5.0
  0
VERTEX
  5
401
  8
PREDEFINITO
 10
124.7984675504614
 20
2485.649778694538
 30
5.0
  0
VERTEX
  5
402
  8
PREDEFINITO
 10
124.7979644345546
 20
2485.649778694538
 30
5.0
  0
VERTEX
  5
403
  8
PREDEFINITO
 10
124.7880467820027
 20
2485.649778694538
 30
5.0
  0
VERTEX
  5
404
  8
PREDEFINITO
 10
124.7284862002123
 20
2485.649778694538
 30
5.0
  0
VERTEX
  5
405
  8
PREDEFINITO
 10
124.4384072461299
 20
2485.649778694538
 30
5.0
  0
VERTEX
  5
406
  8
PREDEFINITO
 10
123.1535793358964
 20
2485.649778694537
 30
5.0
  0
VERTEX
  5
407
  8
PREDEFINITO
 10
118.864988526177
 20
2485.649778694537
 30
5.0
  0
SEQEND
  5
408
  8
PREDEFINITO
  0
LINE
  5
409
  8
PREDEFINITO
 10
118.864988526177
 20
2485.649778694537
 30
5.0
 11
111.810843429519
 21
2485.649778694537
 31
5.0
  0
LINE
  5
40A
  8
PREDEFINITO
 10
118.7034206210352
 20
2741.594478140817
 30
5.0
 11
118.7034206210352
 21
2485.649778694538
 31
5.0
  0
LINE
  5
40B
  8
PREDEFINITO
 10
117.9034206210352
 20
2485.649778694538
 30
5.0
 11
117.9034206210352
 21
2741.594478140817
 31
5.0
  0
LINE
  5
40C
  8
PREDEFINITO
 10
116.9484761967841
 20
2485.649778694537
 30
5.0
 11
116.9484761967841
 21
2499.04925178848
 31
5.0
  0
LINE
  5
40D
  8
PREDEFINITO
 10
116.9484761967841
 20
2499.04925178848
 30
5.0
 11
116.9484789551028
 21
2507.658257757713
 31
5.0
  0
LINE
  5
40E
  8
PREDEFINITO
 10
116.9484789551028
 20
2507.658257757713
 30
5.0
 11
116.9486685304437
 21
2548.170032976242
 31
5.0
  0
ARC
  5
40F
  8
PREDEFINITO
 10
1994252.272441427
 20
2529.778372558836
 30
5.0
 40
1994135.323857708
 50
179.9983075779789
 51
179.9994715681993
  0
ARC
  5
410
  8
PREDEFINITO
 10
1378411.745004984
 20
2547.966670663496
 30
5.0
 40
1378294.796152678
 50
179.9974092584771
 51
179.9983074696186
  0
ARC
  5
411
  8
PREDEFINITO
 10
711767.64340023
 20
2578.110246061096
 30
4.999992292240488
 40
711650.6938664245
 50
179.9956696373397
 51
179.9974092543929
  0
ARC
  5
412
  8
PREDEFINITO
 10
639988.668832953
 20
2583.535097936914
 30
5.000015948679795
 40
639871.7190941501
 50
179.9939593326449
 51
179.9956696250327
  0
LINE
  5
413
  8
PREDEFINITO
 10
116.9532950136878
 20
2650.9964752088
 30
5.0
 11
116.9543018860899
 21
2716.421024582964
 31
5.0
  0
LINE
  5
414
  8
PREDEFINITO
 10
116.9543018860899
 20
2716.421024582964
 30
5.0
 11
116.9543018907067
 21
2718.577110618995
 31
5.0
  0
LINE
  5
415
  8
PREDEFINITO
 10
116.9543018907067
 20
2718.577110618995
 30
5.0
 11
116.9543018907451
 21
2720.821295629054
 31
5.0
  0
LINE
  5
416
  8
PREDEFINITO
 10
116.9543018907451
 20
2720.821295629054
 30
5.0
 11
116.9543018907584
 21
2723.094478140818
 31
5.0
  0
LINE
  5
417
  8
PREDEFINITO
 10
116.9543018907584
 20
2723.094478140818
 30
5.0
 11
116.9543018907586
 21
2741.594478140817
 31
5.0
  0
LINE
  5
418
  8
PREDEFINITO
 10
119.6543018907586
 20
2741.594478140817
 30
5.0
 11
119.6543018907584
 21
2723.094478140818
 31
5.0
  0
LINE
  5
419
  8
PREDEFINITO
 10
119.6543018907584
 20
2723.094478140818
 30
5.0
 11
119.6543018907451
 21
2720.821295629054
 31
5.0
  0
LINE
  5
41A
  8
PREDEFINITO
 10
119.6543018907451
 20
2720.821295629054
 30
5.0
 11
119.6543018907067
 21
2718.577110618995
 31
5.0
  0
LINE
  5
41B
  8
PREDEFINITO
 10
119.6543018907067
 20
2718.577110618995
 30
5.0
 11
119.6543018899294
 21
2716.421024582964
 31
5.0
  0
LINE
  5
41C
  8
PREDEFINITO
 10
119.6543018899294
 20
2716.421024582964
 30
5.0
 11
119.6543018860976
 21
2670.096715293194
 31
5.0
  0
LINE
  5
41D
  8
PREDEFINITO
 10
119.6543018860976
 20
2670.096715293194
 30
5.0
 11
119.6532950136478
 21
2650.996332715205
 31
5.0
  0
ARC
  5
41E
  8
PREDEFINITO
 10
639988.6653292446
 20
2583.535101488467
 30
5.0
 40
639869.0155904413
 50
179.9939593201999
 51
179.9956696162016
  0
ARC
  5
41F
  8
PREDEFINITO
 10
711767.7837441888
 20
2578.110233697389
 30
4.999992292266653
 40
711648.1342103839
 50
179.9956696289933
 51
179.9974092489992
  0
ARC
  5
420
  8
PREDEFINITO
 10
1378408.733167879
 20
2547.966772482597
 30
5.0
 40
1378289.084315571
 50
179.9974092545137
 51
179.9983074684966
  0
ARC
  5
421
  8
PREDEFINITO
 10
1994252.10895977
 20
2529.778389165166
 30
5.000034432308328
 40
1994132.460376051
 50
179.9983075771729
 51
179.9994715682813
  0
LINE
  5
422
  8
PREDEFINITO
 10
119.648668530502
 20
2548.170020317069
 30
5.0
 11
119.6484789548917
 21
2507.658257757712
 31
5.0
  0
LINE
  5
423
  8
PREDEFINITO
 10
119.6484789548917
 20
2507.658257757712
 30
5.0
 11
119.6484761967841
 21
2499.04925178848
 31
5.0
  0
LINE
  5
424
  8
PREDEFINITO
 10
119.6484761967841
 20
2499.04925178848
 30
5.0
 11
119.6484761967841
 21
2485.649778694537
 31
5.0
  0
POLYLINE
  5
425
  8
PREDEFINITO
 66
     1
 10
0.0
 20
0.0
 30
5.0
  0
VERTEX
  5
426
  8
PREDEFINITO
 10
126.7905484205396
 20
1626.083432946945
 30
5.0
  0
VERTEX
  5
427
  8
PREDEFINITO
 10
126.7877093496384
 20
1625.91717137891
 30
5.0
  0
VERTEX
  5
428
  8
PREDEFINITO
 10
126.7798168761753
 20
1625.751567901452
 30
5.0
  0
VERTEX
  5
429
  8
PREDEFINITO
 10
126.7668639512248
 20
1625.586871178445
 30
5.0
  0
VERTEX
  5
42A
  8
PREDEFINITO
 10
126.748858549305
 20
1625.423328162931
 30
5.0
  0
VERTEX
  5
42B
  8
PREDEFINITO
 10
126.7258236846976
 20
1625.261182866862
 30
5.0
  0
VERTEX
  5
42C
  8
PREDEFINITO
 10
126.6977973160948
 20
1625.100675149045
 30
5.0
  0
VERTEX
  5
42D
  8
PREDEFINITO
 10
126.6648321403702
 20
1624.942039533895
 30
5.0
  0
VERTEX
  5
42E
  8
PREDEFINITO
 10
126.6269952778032
 20
1624.785504073199
 30
5.0
  0
VERTEX
  5
42F
  8
PREDEFINITO
 10
126.392877357579
 20
1623.907576096332
 30
5.0
  0
VERTEX
  5
430
  8
PREDEFINITO
 10
126.1409650004762
 20
1623.034011028153
 30
5.0
  0
VERTEX
  5
431
  8
PREDEFINITO
 10
125.871384754632
 20
1622.165348474035
 30
5.0
  0
VERTEX
  5
432
  8
PREDEFINITO
 10
125.5842849341882
 20
1621.30212293479
 30
5.0
  0
VERTEX
  5
433
  8
PREDEFINITO
 10
125.279835350874
 20
1620.444862711916
 30
5.0
  0
VERTEX
  5
434
  8
PREDEFINITO
 10
124.9582269797036
 20
1619.5940888304
 30
5.0
  0
VERTEX
  5
435
  8
PREDEFINITO
 10
124.6196715601706
 20
1618.750313983709
 30
5.0
  0
VERTEX
  5
436
  8
PREDEFINITO
 10
124.2644011346822
 20
1617.91404150544
 30
5.0
  0
VERTEX
  5
437
  8
PREDEFINITO
 10
123.8919489673569
 20
1617.08521340605
 30
5.0
  0
VERTEX
  5
438
  8
PREDEFINITO
 10
123.5031187961007
 20
1616.2633627479
 30
5.0
  0
VERTEX
  5
439
  8
PREDEFINITO
 10
123.0981109744102
 20
1615.448972896073
 30
5.0
  0
VERTEX
  5
43A
  8
PREDEFINITO
 10
122.6771447993155
 20
1614.642519363609
 30
5.0
  0
VERTEX
  5
43B
  8
PREDEFINITO
 10
122.2404581176649
 20
1613.844468887344
 30
5.0
  0
VERTEX
  5
43C
  8
PREDEFINITO
 10
121.7883068785544
 20
1613.05527852795
 30
5.0
  0
VERTEX
  5
43D
  8
PREDEFINITO
 10
121.3209646336713
 20
1612.275394797816
 30
5.0
  0
VERTEX
  5
43E
  8
PREDEFINITO
 10
120.8387219875965
 20
1611.505252820263
 30
5.0
 42
-0.557308279423735
  0
VERTEX
  5
43F
  8
PREDEFINITO
 10
115.7359159975407
 20
1611.505252820308
 30
5.0
 42
-0.0800908912414128
  0
VERTEX
  5
440
  8
PREDEFINITO
 10
109.9488584561409
 20
1624.784631826037
 30
5.0
 42
-0.0658223120495655
  0
VERTEX
  5
441
  8
PREDEFINITO
 10
109.7844400632959
 20
1626.108572389609
 30
5.0
  0
SEQEND
  5
442
  8
PREDEFINITO
  0
ENDSEC
  0
EOF
