  0
SECTION
  2
HEADER
  9
$ACADVER
  1
AC1018
  9
$ACADMAINTVER
 70
    39
  9
$DWGCODEPAGE
  3
ANSI_1252
  9
$INSBASE
 10
0.0
 20
0.0
 30
0.0
  9
$EXTMIN
 10
0.0
 20
-58.88107486543407
 30
0.0
  9
$EXTMAX
 10
269.2070819705111
 20
124.1680440665666
 30
0.0
  9
$LIMMIN
 10
0.0
 20
0.0
  9
$LIMMAX
 10
12.0
 20
9.0
  9
$ORTHOMODE
 70
     0
  9
$REGENMODE
 70
     1
  9
$FILLMODE
 70
     1
  9
$QTEXTMODE
 70
     0
  9
$MIRRTEXT
 70
     1
  9
$LTSCALE
 40
1.0
  9
$ATTMODE
 70
     1
  9
$TEXTSIZE
 40
0.2
  9
$TRACEWID
 40
0.05
  9
$TEXTSTYLE
  7
Standard
  9
$CLAYER
  8
0
  9
$CELTYPE
  6
ByLayer
  9
$CECOLOR
 62
   256
  9
$CELTSCALE
 40
1.0
  9
$DISPSILH
 70
     0
  9
$DIMSCALE
 40
1.0
  9
$DIMASZ
 40
0.18
  9
$DIMEXO
 40
0.0625
  9
$DIMDLI
 40
0.38
  9
$DIMRND
 40
0.0
  9
$DIMDLE
 40
0.0
  9
$DIMEXE
 40
0.18
  9
$DIMTP
 40
0.0
  9
$DIMTM
 40
0.0
  9
$DIMTXT
 40
0.18
  9
$DIMCEN
 40
0.09
  9
$DIMTSZ
 40
0.0
  9
$DIMTOL
 70
     0
  9
$DIMLIM
 70
     0
  9
$DIMTIH
 70
     1
  9
$DIMTOH
 70
     1
  9
$DIMSE1
 70
     0
  9
$DIMSE2
 70
     0
  9
$DIMTAD
 70
     0
  9
$DIMZIN
 70
     0
  9
$DIMBLK
  1

  9
$DIMASO
 70
     1
  9
$DIMSHO
 70
     1
  9
$DIMPOST
  1

  9
$DIMAPOST
  1

  9
$DIMALT
 70
     0
  9
$DIMALTD
 70
     2
  9
$DIMALTF
 40
25.4
  9
$DIMLFAC
 40
1.0
  9
$DIMTOFL
 70
     0
  9
$DIMTVP
 40
0.0
  9
$DIMTIX
 70
     0
  9
$DIMSOXD
 70
     0
  9
$DIMSAH
 70
     0
  9
$DIMBLK1
  1

  9
$DIMBLK2
  1

  9
$DIMSTYLE
  2
Standard
  9
$DIMCLRD
 70
     0
  9
$DIMCLRE
 70
     0
  9
$DIMCLRT
 70
     0
  9
$DIMTFAC
 40
1.0
  9
$DIMGAP
 40
0.09
  9
$DIMJUST
 70
     0
  9
$DIMSD1
 70
     0
  9
$DIMSD2
 70
     0
  9
$DIMTOLJ
 70
     1
  9
$DIMTZIN
 70
     0
  9
$DIMALTZ
 70
     0
  9
$DIMALTTZ
 70
     0
  9
$DIMUPT
 70
     0
  9
$DIMDEC
 70
     4
  9
$DIMTDEC
 70
     4
  9
$DIMALTU
 70
     2
  9
$DIMALTTD
 70
     2
  9
$DIMTXSTY
  7
Standard
  9
$DIMAUNIT
 70
     0
  9
$DIMADEC
 70
     0
  9
$DIMALTRND
 40
0.0
  9
$DIMAZIN
 70
     0
  9
$DIMDSEP
 70
    46
  9
$DIMATFIT
 70
     3
  9
$DIMFRAC
 70
     0
  9
$DIMLDRBLK
  1

  9
$DIMLUNIT
 70
     2
  9
$DIMLWD
 70
    -2
  9
$DIMLWE
 70
    -2
  9
$DIMTMOVE
 70
     0
  9
$LUNITS
 70
     2
  9
$LUPREC
 70
     3
  9
$SKETCHINC
 40
0.1
  9
$FILLETRAD
 40
0.5
  9
$AUNITS
 70
     0
  9
$AUPREC
 70
     0
  9
$MENU
  1
.
  9
$ELEVATION
 40
0.0
  9
$PELEVATION
 40
0.0
  9
$THICKNESS
 40
0.0
  9
$LIMCHECK
 70
     0
  9
$CHAMFERA
 40
0.5
  9
$CHAMFERB
 40
0.5
  9
$CHAMFERC
 40
1.0
  9
$CHAMFERD
 40
0.0
  9
$SKPOLY
 70
     0
  9
$TDCREATE
 40
2455014.677004723
  9
$TDUCREATE
 40
2455014.593671389
  9
$TDUPDATE
 40
2455014.685381100
  9
$TDUUPDATE
 40
2455014.602047767
  9
$TDINDWG
 40
0.0027067130
  9
$TDUSRTIMER
 40
0.0027067130
  9
$USRTIMER
 70
     1
  9
$ANGBASE
 50
0.0
  9
$ANGDIR
 70
     0
  9
$PDMODE
 70
     0
  9
$PDSIZE
 40
0.0
  9
$PLINEWID
 40
0.0
  9
$SPLFRAME
 70
     0
  9
$SPLINETYPE
 70
     6
  9
$SPLINESEGS
 70
     8
  9
$HANDSEED
  5
ED
  9
$SURFTAB1
 70
     6
  9
$SURFTAB2
 70
     6
  9
$SURFTYPE
 70
     6
  9
$SURFU
 70
     6
  9
$SURFV
 70
     6
  9
$UCSBASE
  2

  9
$UCSNAME
  2

  9
$UCSORG
 10
0.0
 20
0.0
 30
0.0
  9
$UCSXDIR
 10
1.0
 20
0.0
 30
0.0
  9
$UCSYDIR
 10
0.0
 20
1.0
 30
0.0
  9
$UCSORTHOREF
  2

  9
$UCSORTHOVIEW
 70
     0
  9
$UCSORGTOP
 10
0.0
 20
0.0
 30
0.0
  9
$UCSORGBOTTOM
 10
0.0
 20
0.0
 30
0.0
  9
$UCSORGLEFT
 10
0.0
 20
0.0
 30
0.0
  9
$UCSORGRIGHT
 10
0.0
 20
0.0
 30
0.0
  9
$UCSORGFRONT
 10
0.0
 20
0.0
 30
0.0
  9
$UCSORGBACK
 10
0.0
 20
0.0
 30
0.0
  9
$PUCSBASE
  2

  9
$PUCSNAME
  2

  9
$PUCSORG
 10
0.0
 20
0.0
 30
0.0
  9
$PUCSXDIR
 10
1.0
 20
0.0
 30
0.0
  9
$PUCSYDIR
 10
0.0
 20
1.0
 30
0.0
  9
$PUCSORTHOREF
  2

  9
$PUCSORTHOVIEW
 70
     0
  9
$PUCSORGTOP
 10
0.0
 20
0.0
 30
0.0
  9
$PUCSORGBOTTOM
 10
0.0
 20
0.0
 30
0.0
  9
$PUCSORGLEFT
 10
0.0
 20
0.0
 30
0.0
  9
$PUCSORGRIGHT
 10
0.0
 20
0.0
 30
0.0
  9
$PUCSORGFRONT
 10
0.0
 20
0.0
 30
0.0
  9
$PUCSORGBACK
 10
0.0
 20
0.0
 30
0.0
  9
$USERI1
 70
     0
  9
$USERI2
 70
     0
  9
$USERI3
 70
     0
  9
$USERI4
 70
     0
  9
$USERI5
 70
     0
  9
$USERR1
 40
0.0
  9
$USERR2
 40
0.0
  9
$USERR3
 40
0.0
  9
$USERR4
 40
0.0
  9
$USERR5
 40
0.0
  9
$WORLDVIEW
 70
     1
  9
$SHADEDGE
 70
     3
  9
$SHADEDIF
 70
    70
  9
$TILEMODE
 70
     1
  9
$MAXACTVP
 70
    64
  9
$PINSBASE
 10
0.0
 20
0.0
 30
0.0
  9
$PLIMCHECK
 70
     0
  9
$PEXTMIN
 10
1.000000000000000E+20
 20
1.000000000000000E+20
 30
1.000000000000000E+20
  9
$PEXTMAX
 10
-1.000000000000000E+20
 20
-1.000000000000000E+20
 30
-1.000000000000000E+20
  9
$PLIMMIN
 10
0.0
 20
0.0
  9
$PLIMMAX
 10
12.0
 20
9.0
  9
$UNITMODE
 70
     0
  9
$VISRETAIN
 70
     1
  9
$PLINEGEN
 70
     0
  9
$PSLTSCALE
 70
     1
  9
$TREEDEPTH
 70
  3020
  9
$CMLSTYLE
  2
Standard
  9
$CMLJUST
 70
     0
  9
$CMLSCALE
 40
1.0
  9
$PROXYGRAPHICS
 70
     1
  9
$MEASUREMENT
 70
     0
  9
$CELWEIGHT
370
    -1
  9
$ENDCAPS
280
     0
  9
$JOINSTYLE
280
     0
  9
$LWDISPLAY
290
     0
  9
$INSUNITS
 70
     4
  9
$HYPERLINKBASE
  1

  9
$STYLESHEET
  1

  9
$XEDIT
290
     1
  9
$CEPSNTYPE
380
     0
  9
$PSTYLEMODE
290
     1
  9
$FINGERPRINTGUID
  2
{7F8E1847-B19F-42C4-84CF-09FD7B766821}
  9
$VERSIONGUID
  2
{C7331F69-49AA-439D-9DA3-0FA2FA5A0AA8}
  9
$EXTNAMES
290
     1
  9
$PSVPSCALE
 40
0.0
  9
$OLESTARTUP
290
     0
  9
$SORTENTS
280
   127
  9
$INDEXCTL
280
     0
  9
$HIDETEXT
280
     1
  9
$XCLIPFRAME
290
     0
  9
$HALOGAP
280
     0
  9
$OBSCOLOR
 70
   257
  9
$OBSLTYPE
280
     0
  9
$INTERSECTIONDISPLAY
280
     0
  9
$INTERSECTIONCOLOR
 70
   257
  9
$DIMASSOC
280
     2
  9
$PROJECTNAME
  1

  0
ENDSEC
  0
SECTION
  2
CLASSES
  0
CLASS
  1
ACDBDICTIONARYWDFLT
  2
AcDbDictionaryWithDefault
  3
ObjectDBX Classes
 90
        0
 91
        1
280
     0
281
     0
  0
CLASS
  1
TABLESTYLE
  2
AcDbTableStyle
  3
ObjectDBX Classes
 90
     2047
 91
        1
280
     0
281
     0
  0
CLASS
  1
DIMASSOC
  2
AcDbDimAssoc
  3
"AcDbDimAssoc|Product Desc:     AcDim ARX App For Dimension|Company:          Autodesk, Inc.|WEB Address:      www.autodesk.com"
 90
        0
 91
        1
280
     0
281
     0
  0
CLASS
  1
DICTIONARYVAR
  2
AcDbDictionaryVar
  3
ObjectDBX Classes
 90
        0
 91
        1
280
     0
281
     0
  0
ENDSEC
  0
SECTION
  2
TABLES
  0
TABLE
  2
VPORT
  5
8
330
0
100
AcDbSymbolTable
 70
     3
  0
VPORT
  5
EC
330
8
100
AcDbSymbolTableRecord
100
AcDbViewportTableRecord
  2
*Active
 70
     0
 10
0.0
 20
0.0
 11
1.0
 21
1.0
 12
112.3661496677219
 22
15.23018756007832
 13
0.0
 23
0.0
 14
0.5
 24
0.5
 15
0.5
 25
0.5
 16
0.0
 26
0.0
 36
1.0
 17
78.54328660312098
 27
62.08402223291929
 37
0.0
 40
439.4353933443828
 41
1.728782287822878
 42
50.0
 43
0.0
 44
0.0
 50
0.0
 51
0.0
 71
     0
 72
   100
 73
     1
 74
     3
 75
     0
 76
     0
 77
     0
 78
     0
281
     0
 65
     1
110
0.0
120
0.0
130
0.0
111
1.0
121
0.0
131
0.0
112
0.0
122
1.0
132
0.0
 79
     0
146
0.0
  0
ENDTAB
  0
TABLE
  2
LTYPE
  5
5
330
0
100
AcDbSymbolTable
 70
     1
  0
LTYPE
  5
14
330
5
100
AcDbSymbolTableRecord
100
AcDbLinetypeTableRecord
  2
ByBlock
 70
     0
  3

 72
    65
 73
     0
 40
0.0
  0
LTYPE
  5
15
330
5
100
AcDbSymbolTableRecord
100
AcDbLinetypeTableRecord
  2
ByLayer
 70
     0
  3

 72
    65
 73
     0
 40
0.0
  0
LTYPE
  5
16
330
5
100
AcDbSymbolTableRecord
100
AcDbLinetypeTableRecord
  2
Continuous
 70
     0
  3
Solid line
 72
    65
 73
     0
 40
0.0
  0
ENDTAB
  0
TABLE
  2
LAYER
  5
2
330
0
100
AcDbSymbolTable
 70
     3
  0
LAYER
  5
10
330
2
100
AcDbSymbolTableRecord
100
AcDbLayerTableRecord
  2
0
 70
     0
 62
     7
  6
Continuous
370
    -3
390
F
  0
LAYER
  5
2A
330
2
100
AcDbSymbolTableRecord
100
AcDbLayerTableRecord
  2
LINEE VISIBILI 2D
 70
     0
 62
     7
  6
Continuous
370
    -3
390
F
  0
LAYER
  5
CE
330
2
100
AcDbSymbolTableRecord
100
AcDbLayerTableRecord
  2
Defpoints
 70
     0
 62
     7
  6
Continuous
290
     0
370
    -3
390
F
  0
ENDTAB
  0
TABLE
  2
STYLE
  5
3
330
0
100
AcDbSymbolTable
 70
     1
  0
STYLE
  5
11
330
3
100
AcDbSymbolTableRecord
100
AcDbTextStyleTableRecord
  2
Standard
 70
     0
 40
0.0
 41
1.0
 50
0.0
 71
     0
 42
0.2
  3
txt
  4

  0
ENDTAB
  0
TABLE
  2
VIEW
  5
6
330
0
100
AcDbSymbolTable
 70
     0
  0
ENDTAB
  0
TABLE
  2
UCS
  5
7
330
0
100
AcDbSymbolTable
 70
     0
  0
ENDTAB
  0
TABLE
  2
APPID
  5
9
330
0
100
AcDbSymbolTable
 70
     1
  0
APPID
  5
12
330
9
100
AcDbSymbolTableRecord
100
AcDbRegAppTableRecord
  2
ACAD
 70
     0
  0
ENDTAB
  0
TABLE
  2
DIMSTYLE
  5
A
330
0
100
AcDbSymbolTable
 70
     1
100
AcDbDimStyleTable
 71
     1
340
27
  0
DIMSTYLE
105
27
330
A
100
AcDbSymbolTableRecord
100
AcDbDimStyleTableRecord
  2
Standard
 70
     0
340
11
  0
ENDTAB
  0
TABLE
  2
BLOCK_RECORD
  5
1
330
0
100
AcDbSymbolTable
 70
     2
  0
BLOCK_RECORD
  5
1F
330
1
100
AcDbSymbolTableRecord
100
AcDbBlockTableRecord
  2
*Model_Space
340
22
  0
BLOCK_RECORD
  5
1B
330
1
100
AcDbSymbolTableRecord
100
AcDbBlockTableRecord
  2
*Paper_Space
340
1E
  0
BLOCK_RECORD
  5
23
330
1
100
AcDbSymbolTableRecord
100
AcDbBlockTableRecord
  2
*Paper_Space0
340
26
  0
BLOCK_RECORD
  5
CF
330
1
100
AcDbSymbolTableRecord
100
AcDbBlockTableRecord
  2
*D1
340
0
  0
ENDTAB
  0
ENDSEC
  0
SECTION
  2
BLOCKS
  0
BLOCK
  5
20
330
1F
100
AcDbEntity
  8
0
100
AcDbBlockBegin
  2
*Model_Space
 70
     0
 10
0.0
 20
0.0
 30
0.0
  3
*Model_Space
  1

  0
ENDBLK
  5
21
330
1F
100
AcDbEntity
  8
0
100
AcDbBlockEnd
  0
BLOCK
  5
1C
330
1B
100
AcDbEntity
 67
     1
  8
0
100
AcDbBlockBegin
  2
*Paper_Space
 70
     0
 10
0.0
 20
0.0
 30
0.0
  3
*Paper_Space
  1

  0
ENDBLK
  5
1D
330
1B
100
AcDbEntity
 67
     1
  8
0
100
AcDbBlockEnd
  0
BLOCK
  5
24
330
23
100
AcDbEntity
  8
0
100
AcDbBlockBegin
  2
*Paper_Space0
 70
     0
 10
0.0
 20
0.0
 30
0.0
  3
*Paper_Space0
  1

  0
ENDBLK
  5
25
330
23
100
AcDbEntity
  8
0
100
AcDbBlockEnd
  0
BLOCK
  5
DA
330
CF
100
AcDbEntity
  8
0
100
AcDbBlockBegin
  2
*D1
 70
     1
 10
0.0
 20
0.0
 30
0.0
  3
*D1
  1

  0
LINE
  5
DD
330
CF
100
AcDbEntity
  8
0
 62
     0
370
    -2
100
AcDbLine
 10
97.08615778534682
 20
29.94676130218504
 30
0.0
 11
97.08615778534682
 21
67.22530559817673
 31
0.0
  0
LINE
  5
DE
330
CF
100
AcDbEntity
  8
0
 62
     0
370
    -2
100
AcDbLine
 10
157.0863418731685
 20
30.18240025556573
 30
0.0
 11
157.0863418731685
 21
67.22530559817673
 31
0.0
  0
LINE
  5
DF
330
CF
100
AcDbEntity
  8
0
 62
     0
370
    -2
100
AcDbLine
 10
97.26615778534682
 20
67.04530559817673
 30
0.0
 11
126.5162498292577
 21
67.04530559817673
 31
0.0
  0
LINE
  5
E0
330
CF
100
AcDbEntity
  8
0
 62
     0
370
    -2
100
AcDbLine
 10
156.9063418731685
 20
67.04530559817673
 30
0.0
 11
127.6562498292576
 21
67.04530559817673
 31
0.0
  0
SOLID
  5
E1
330
CF
100
AcDbEntity
  8
0
 62
     0
100
AcDbTrace
 10
97.26615778534682
 20
67.07530559817673
 30
0.0
 11
97.26615778534682
 21
67.01530559817673
 31
0.0
 12
97.08615778534682
 22
67.04530559817673
 32
0.0
 13
97.08615778534682
 23
67.04530559817673
 33
0.0
  0
SOLID
  5
E2
330
CF
100
AcDbEntity
  8
0
 62
     0
100
AcDbTrace
 10
156.9063418731685
 20
67.07530559817673
 30
0.0
 11
156.9063418731685
 21
67.01530559817673
 31
0.0
 12
157.0863418731685
 22
67.04530559817673
 32
0.0
 13
157.0863418731685
 23
67.04530559817673
 33
0.0
  0
MTEXT
  5
E3
330
CF
100
AcDbEntity
  8
0
 62
     0
100
AcDbMText
 10
127.0862498292576
 20
67.04530559817673
 30
0.0
 40
0.18
 41
0.0
 71
     5
 72
     1
  1
\A1;60.0002
 73
     1
 44
1.0
  0
POINT
  5
E4
330
CF
100
AcDbEntity
  8
Defpoints
 62
     0
100
AcDbPoint
 10
97.08615778534682
 20
29.88426130218504
 30
0.0
  0
POINT
  5
E5
330
CF
100
AcDbEntity
  8
Defpoints
 62
     0
100
AcDbPoint
 10
157.0863418731685
 20
30.11990025556573
 30
0.0
  0
POINT
  5
E6
330
CF
100
AcDbEntity
  8
Defpoints
 62
     0
100
AcDbPoint
 10
157.0863418731685
 20
67.04530559817673
 30
0.0
  0
ENDBLK
  5
DB
330
CF
100
AcDbEntity
  8
0
100
AcDbBlockEnd
  0
ENDSEC
  0
SECTION
  2
ENTITIES
  0
SPLINE
  5
2B
330
1F
100
AcDbEntity
  8
LINEE VISIBILI 2D
100
AcDbSpline
210
0.0
220
0.0
230
1.0
 70
    24
 71
     2
 72
     6
 73
     3
 74
     0
 42
0.0000000001
 43
0.0000000001
 40
0.0
 40
0.0
 40
0.0
 40
28.99325893094454
 40
28.99325893094454
 40
28.99325893094454
 10
30.00080327159645
 20
118.3912673712705
 30
0.0
 10
15.50417380612417
 20
118.3912673712705
 30
0.0
 10
1.0075443406519
 20
118.3912673712705
 30
0.0
  0
SPLINE
  5
2C
330
1F
100
AcDbEntity
  8
LINEE VISIBILI 2D
100
AcDbSpline
210
0.0
220
0.0
230
1.0
 70
    24
 71
     2
 72
     6
 73
     3
 74
     0
 42
0.0000000001
 43
0.0000000001
 40
0.0
 40
0.0
 40
0.0
 40
0.2178767439954008
 40
0.2178767439954008
 40
0.2178767439954008
 10
22.69334228523352
 20
124.1680440665666
 30
0.0
 10
22.80228065723122
 20
124.1680440665666
 30
0.0
 10
22.91121902922892
 20
124.1680440665666
 30
0.0
  0
SPLINE
  5
2D
330
1F
100
AcDbEntity
  8
LINEE VISIBILI 2D
100
AcDbSpline
210
0.0
220
0.0
230
1.0
 70
    12
 71
     2
 72
     6
 73
     3
 74
     0
 42
0.0000000001
 43
0.0000000001
 40
0.0
 40
0.0
 40
0.0
 40
0.0946356786949143
 40
0.0946356786949143
 40
0.0946356786949143
 10
39.4207828202203
 20
123.7930539348396
 30
0.0
 41
1.0
 10
39.37241339486551
 20
123.8005867305864
 30
0.0
 41
0.9506561633655174
 10
39.33779877135958
 20
123.8352013540924
 30
0.0
 41
1.0
  0
SPLINE
  5
2E
330
1F
100
AcDbEntity
  8
LINEE VISIBILI 2D
100
AcDbSpline
210
0.0
220
0.0
230
1.0
 70
    24
 71
     2
 72
     6
 73
     3
 74
     0
 42
0.0000000001
 43
0.0000000001
 40
0.0
 40
0.0
 40
0.0
 40
0.4707106781183786
 40
0.4707106781183786
 40
0.4707106781183786
 10
136.6255706732271
 20
124.1680440665666
 30
0.0
 10
136.4591493169899
 20
124.0016227103294
 30
0.0
 10
136.2927279607527
 20
123.8352013540922
 30
0.0
  0
SPLINE
  5
2F
330
1F
100
AcDbEntity
  8
LINEE VISIBILI 2D
100
AcDbSpline
210
0.0
220
0.0
230
1.0
 70
    12
 71
     2
 72
    10
 73
     7
 74
     0
 42
0.0000000001
 43
0.0000000001
 40
0.0
 40
0.0
 40
0.0
 40
0.5235987755982825
 40
0.5235987755982825
 40
63.43256411940527
 40
63.43256411940527
 40
63.7865001209823
 40
63.7865001209823
 40
63.7865001209823
 10
113.2428479504516
 20
123.7912673712701
 30
0.0
 41
1.0
 10
112.9748987580205
 20
123.7912673712702
 30
0.0
 41
0.965925826288953
 10
112.7428479504517
 20
123.6572927750547
 30
0.0
 41
1.0
 10
110.0188098447751
 20
122.0845686414596
 30
0.0
 41
1.0
 10
107.2947717390984
 20
120.5118445078644
 30
0.0
 41
1.0
 10
107.1395067330804
 20
120.4222022148442
 30
0.0
 41
0.9807303097206087
 10
106.961742801432
 20
120.3989009831894
 30
0.0
 41
1.0
  0
SPLINE
  5
30
330
1F
100
AcDbEntity
  8
LINEE VISIBILI 2D
100
AcDbSpline
210
0.0
220
0.0
230
1.0
 70
    24
 71
     2
 72
     6
 73
     3
 74
     0
 42
0.0000000001
 43
0.0000000001
 40
0.0
 40
0.0
 40
0.0
 40
0.9603553390593049
 40
0.9603553390593049
 40
0.9603553390593049
 10
137.5859260122864
 20
124.1680440665666
 30
0.0
 10
138.0661036818161
 20
124.1680440665666
 30
0.0
 10
138.5462813513458
 20
124.1680440665666
 30
0.0
  0
SPLINE
  5
31
330
1F
100
AcDbEntity
  8
LINEE VISIBILI 2D
100
AcDbSpline
210
0.0
220
0.0
230
1.0
 70
    24
 71
     2
 72
     6
 73
     3
 74
     0
 42
0.0000000001
 43
0.0000000001
 40
0.0
 40
0.0
 40
0.0
 40
13.83521668709738
 40
13.83521668709738
 40
13.83521668709738
 10
30.00113406707662
 20
123.7912673712701
 30
0.0
 10
23.08352572352793
 20
123.7912673712701
 30
0.0
 10
16.16591737997923
 20
123.7912673712701
 30
0.0
  0
SPLINE
  5
32
330
1F
100
AcDbEntity
  8
LINEE VISIBILI 2D
100
AcDbSpline
210
0.0
220
0.0
230
1.0
 70
     8
 71
     3
 72
    15
 73
    11
 74
     0
 42
0.0000000001
 43
0.0000000001
 40
0.0
 40
0.0
 40
0.0
 40
0.0
 40
1.353118603251316
 40
2.95007220510392
 40
4.873728346259794
 40
7.176437481053598
 40
9.483094995575349
 40
11.40518867181464
 40
12.99313264788876
 40
14.34872491455716
 40
14.34872491455716
 40
14.34872491455716
 40
14.34872491455716
 10
27.36812265130159
 20
92.9491759178656
 30
0.0
 10
27.37406689291569
 20
92.49500373220289
 30
0.0
 10
27.7728050576275
 20
91.54696902246859
 30
0.0
 10
29.09906623191386
 20
90.54485510173117
 30
0.0
 10
30.96683663965719
 20
89.96004015212736
 30
0.0
 10
33.1462681623672
 20
89.77886051586029
 30
0.0
 10
35.32434067504516
 20
89.96102876065387
 30
0.0
 10
37.19006545880719
 20
90.54720635628077
 30
0.0
 10
38.51226734457347
 20
91.54854460951753
 30
0.0
 10
38.9108103456647
 20
92.49459915623901
 30
0.0
 10
38.91689144784463
 20
92.94940468449823
 30
0.0
  0
SPLINE
  5
33
330
1F
100
AcDbEntity
  8
LINEE VISIBILI 2D
100
AcDbSpline
210
0.0
220
0.0
230
1.0
 70
    12
 71
     2
 72
     6
 73
     3
 74
     0
 42
0.0000000001
 43
0.0000000001
 40
0.0
 40
0.0
 40
0.0
 40
0.0995777408644736
 40
0.0995777408644736
 40
0.0995777408644736
 10
38.91759700833167
 20
92.94976726967282
 30
0.0
 41
1.0
 10
38.91719766469549
 20
92.99955728953477
 30
0.0
 41
0.9999171301978433
 10
38.91808031301247
 20
93.04934108695062
 30
0.0
 41
1.0
  0
SPLINE
  5
34
330
1F
100
AcDbEntity
  8
LINEE VISIBILI 2D
100
AcDbSpline
210
0.0
220
0.0
230
1.0
 70
     8
 71
     3
 72
    15
 73
    11
 74
     0
 42
0.0000000001
 43
0.0000000001
 40
0.0
 40
0.0
 40
0.0
 40
0.0
 40
0.1235895830133744
 40
0.2471350750825612
 40
0.4943655985322132
 40
0.5415264374299764
 40
6.699048038465971
 40
6.780652066957456
 40
6.824603078802308
 40
7.170850706319643
 40
7.170850706319643
 40
7.170850706319643
 40
7.170850706319643
 10
16.15805568116316
 20
123.79126737127
 30
0.0
 10
16.11690960088972
 20
123.7911978450428
 30
0.0
 10
16.03438641063648
 20
123.7862231121169
 30
0.0
 10
15.87238212260545
 20
123.7553693484742
 30
0.0
 10
15.74111986271526
 20
123.7051708707973
 30
0.0
 10
13.87852506573761
 20
122.6299900015388
 30
0.0
 10
12.06390298802545
 20
121.5821559745294
 30
0.0
 10
10.25012093459896
 20
120.5350073046763
 30
0.0
 10
10.11447755563918
 20
120.4553460610483
 30
0.0
 10
9.989031943266775
 20
120.413216128381
 30
0.0
 10
9.874446248449281
 20
120.398664270231
 30
0.0
  0
SPLINE
  5
35
330
1F
100
AcDbEntity
  8
LINEE VISIBILI 2D
100
AcDbSpline
210
0.0
220
0.0
230
1.0
 70
     8
 71
     3
 72
    13
 73
     9
 74
     0
 42
0.0000000001
 43
0.0000000001
 40
0.0
 40
0.0
 40
0.0
 40
0.0
 40
0.1582300297026064
 40
0.3227460936495996
 40
0.3604147462915985
 40
6.613617504053582
 40
6.656328120542278
 40
7.141057287822951
 40
7.141057287822951
 40
7.141057287822951
 40
7.141057287822951
 10
50.09835087485938
 20
120.4029694163053
 30
0.0
 10
50.04646623142392
 20
120.4117602025187
 30
0.0
 10
49.9412316981326
 20
120.4373298024876
 30
0.0
 10
49.83218664176781
 20
120.488628783807
 30
0.0
 10
47.96871410515012
 20
121.5646035319199
 30
0.0
 10
46.14061314337451
 20
122.6206022565482
 30
0.0
 10
44.1828625166066
 20
123.7501290481742
 30
0.0
 10
44.00482322721612
 20
123.7895940062451
 30
0.0
 10
43.84421245299002
 20
123.79126737127
 30
0.0
  0
SPLINE
  5
36
330
1F
100
AcDbEntity
  8
LINEE VISIBILI 2D
100
AcDbSpline
210
0.0
220
0.0
230
1.0
 70
    24
 71
     2
 72
     6
 73
     3
 74
     0
 42
0.0000000001
 43
0.0000000001
 40
0.0
 40
0.0
 40
0.0
 40
0.4707106781184791
 40
0.4707106781184791
 40
0.4707106781184791
 10
23.25086546586129
 20
123.8352013540921
 30
0.0
 10
23.08444410962405
 20
124.0016227103293
 30
0.0
 10
22.91802275338681
 20
124.1680440665666
 30
0.0
  0
SPLINE
  5
37
330
1F
100
AcDbEntity
  8
LINEE VISIBILI 2D
100
AcDbSpline
210
0.0
220
0.0
230
1.0
 70
    24
 71
     2
 72
     6
 73
     3
 74
     0
 42
0.0000000001
 43
0.0000000001
 40
0.0
 40
0.0
 40
0.0
 40
0.4707106781181426
 40
0.4707106781181426
 40
0.4707106781181426
 10
39.3377987713596
 20
123.8352013540923
 30
0.0
 10
39.17137741512247
 20
124.0016227103295
 30
0.0
 10
39.00495605888534
 20
124.1680440665666
 30
0.0
  0
SPLINE
  5
38
330
1F
100
AcDbEntity
  8
LINEE VISIBILI 2D
100
AcDbSpline
210
0.0
220
0.0
230
1.0
 70
     8
 71
     3
 72
    21
 73
    17
 74
     0
 42
0.0000000001
 43
0.0000000001
 40
0.0
 40
0.0
 40
0.0
 40
0.0
 40
0.8380532838066969
 40
1.611409279036218
 40
2.472319500602003
 40
3.536486343228851
 40
4.920396544266141
 40
6.621765709387062
 40
10.79232774927693
 40
14.97793167083144
 40
16.67557049818849
 40
18.06631913238319
 40
19.13830141946124
 40
20.00464256174549
 40
20.77300485641575
 40
21.61109999933267
 40
21.61109999933267
 40
21.61109999933267
 40
21.61109999933267
 10
124.236785931105
 20
93.2099648893967
 30
0.0
 10
124.2409179513559
 20
92.93189716096268
 30
0.0
 10
124.3101449356689
 20
92.38858656528924
 30
0.0
 10
124.7362153639483
 20
91.6642541016977
 30
0.0
 10
125.4557797367836
 20
91.10512788906381
 30
0.0
 10
126.4687649756328
 20
90.65901248180878
 30
0.0
 10
127.8091897068345
 20
90.30479036700649
 30
0.0
 10
130.2008323821401
 20
89.93252303837678
 30
0.0
 10
133.5562715219096
 20
89.78108758999349
 30
0.0
 10
136.9070080463561
 20
89.93091090776188
 30
0.0
 10
139.3073652281562
 20
90.30082418477414
 30
0.0
 10
140.6500762217772
 20
90.65570538791893
 30
0.0
 10
141.6708739186541
 20
91.10316448004395
 30
0.0
 10
142.3912470788397
 20
91.66505731600961
 30
0.0
 10
142.8153819135541
 20
92.39122345660963
 30
0.0
 10
142.8840209090596
 20
92.93234994766677
 30
0.0
 10
142.8881062198712
 20
93.21058140565169
 30
0.0
  0
SPLINE
  5
39
330
1F
100
AcDbEntity
  8
LINEE VISIBILI 2D
100
AcDbSpline
210
0.0
220
0.0
230
1.0
 70
    12
 71
     2
 72
     6
 73
     3
 74
     0
 42
0.0000000001
 43
0.0000000001
 40
0.0
 40
0.0
 40
0.0
 40
0.052285109480577
 40
0.052285109480577
 40
0.052285109480577
 10
126.1156967413604
 20
95.41344488608206
 30
0.0
 41
1.0
 10
126.0908233490474
 20
95.4053981514267
 30
0.0
 41
0.999997349319814
 10
126.0659872750401
 20
95.3972369620723
 30
0.0
 41
1.0
  0
SPLINE
  5
3A
330
1F
100
AcDbEntity
  8
LINEE VISIBILI 2D
100
AcDbSpline
210
0.0
220
0.0
230
1.0
 70
    12
 71
     2
 72
     6
 73
     3
 74
     0
 42
0.0000000001
 43
0.0000000001
 40
0.0
 40
0.0
 40
0.0
 40
0.3319568949974112
 40
0.3319568949974112
 40
0.3319568949974112
 10
126.4337770560033
 20
95.50832372762375
 30
0.0
 41
1.0
 10
126.2736778435841
 20
95.46443477788772
 30
0.0
 41
0.9997509043954966
 10
126.1156967413604
 20
95.41344488608206
 30
0.0
 41
1.0
  0
SPLINE
  5
3B
330
1F
100
AcDbEntity
  8
LINEE VISIBILI 2D
100
AcDbSpline
210
0.0
220
0.0
230
1.0
 70
     8
 71
     3
 72
    15
 73
    11
 74
     0
 42
0.0000000001
 43
0.0000000001
 40
0.0
 40
0.0
 40
0.0
 40
0.0
 40
2.783783133947612
 40
5.444306726472314
 40
7.693386264350544
 40
10.60676590688536
 40
11.27602478485622
 40
11.89410362401804
 40
12.06613275595789
 40
12.18542985738365
 40
12.18542985738365
 40
12.18542985738365
 40
12.18542985738365
 10
138.6021674285023
 20
95.3943297862512
 30
0.0
 10
137.674463973303
 20
95.41452436787755
 30
0.0
 10
135.8599417046715
 20
95.44664506752603
 30
0.0
 10
133.2954512510126
 20
95.4581069471086
 30
0.0
 10
130.6878190481561
 20
95.44874141248859
 30
0.0
 10
128.7441582167627
 20
95.40587029946351
 30
0.0
 10
127.3442867961666
 20
95.38750829773404
 30
0.0
 10
126.8572333985519
 20
95.4014158251296
 30
0.0
 10
126.5575306578379
 20
95.44918591272296
 30
0.0
 10
126.4654804482684
 20
95.48420156834536
 30
0.0
 10
126.4337770560033
 20
95.50832372762373
 30
0.0
  0
SPLINE
  5
3C
330
1F
100
AcDbEntity
  8
LINEE VISIBILI 2D
100
AcDbSpline
210
0.0
220
0.0
230
1.0
 70
    24
 71
     2
 72
     6
 73
     3
 74
     0
 42
0.0000000001
 43
0.0000000001
 40
0.0
 40
0.0
 40
0.0
 40
0.9603553390593617
 40
0.9603553390593617
 40
0.9603553390593617
 10
136.6255706732271
 20
124.1680440665666
 30
0.0
 10
137.1057483427568
 20
124.1680440665666
 30
0.0
 10
137.5859260122864
 20
124.1680440665666
 30
0.0
  0
SPLINE
  5
3D
330
1F
100
AcDbEntity
  8
LINEE VISIBILI 2D
100
AcDbSpline
210
0.0
220
0.0
230
1.0
 70
     8
 71
     3
 72
    11
 73
     7
 74
     0
 42
0.0000000001
 43
0.0000000001
 40
0.0
 40
0.0
 40
0.0
 40
0.0
 40
0.6827445826178052
 40
1.88205798319104
 40
2.27458951147833
 40
3.373637003098588
 40
3.373637003098588
 40
3.373637003098588
 40
3.373637003098588
 10
33.20557285356259
 20
95.50819054557393
 30
0.0
 10
33.43302673762362
 20
95.50652108456359
 30
0.0
 10
34.06072646140195
 20
95.49066332142642
 30
0.0
 10
34.8158650769229
 20
95.42300158451357
 30
0.0
 10
35.71216500616001
 20
95.37836951370875
 30
0.0
 10
36.20960446147224
 20
95.40244254241281
 30
0.0
 10
36.57498185965068
 20
95.4270556764882
 30
0.0
  0
SPLINE
  5
3E
330
1F
100
AcDbEntity
  8
LINEE VISIBILI 2D
100
AcDbSpline
210
0.0
220
0.0
230
1.0
 70
    12
 71
     2
 72
     6
 73
     3
 74
     0
 42
0.0000000001
 43
0.0000000001
 40
0.0
 40
0.0
 40
0.0
 40
0.0918500853507636
 40
0.0918500853507636
 40
0.0918500853507636
 10
30.40200038686144
 20
95.32566354973242
 30
0.0
 41
1.0
 10
30.45206947823983
 20
95.33820707401156
 30
0.0
 41
0.8425232819137827
 10
30.48446836716485
 20
95.29802541265686
 30
0.0
 41
1.0
  0
SPLINE
  5
3F
330
1F
100
AcDbEntity
  8
LINEE VISIBILI 2D
100
AcDbSpline
210
0.0
220
0.0
230
1.0
 70
     8
 71
     3
 72
    11
 73
     7
 74
     0
 42
0.0000000001
 43
0.0000000001
 40
0.0
 40
0.0
 40
0.0
 40
0.0
 40
0.0015488670835831
 40
0.6556967300882506
 40
1.385925095501312
 40
3.136608240878611
 40
3.136608240878611
 40
3.136608240878611
 40
3.136608240878611
 10
38.91507279411018
 20
92.94974134224458
 30
0.0
 10
38.91746084323336
 20
92.94920810646203
 30
0.0
 10
38.7004637093392
 20
92.97289248131409
 30
0.0
 10
38.2404567699895
 20
93.01797491732243
 30
0.0
 10
37.19825053878891
 20
93.09370343119534
 30
0.0
 10
36.37197962399103
 20
93.13188952775488
 30
0.0
 10
35.78890261913466
 20
93.15455223212087
 30
0.0
  0
SPLINE
  5
40
330
1F
100
AcDbEntity
  8
LINEE VISIBILI 2D
100
AcDbSpline
210
0.0
220
0.0
230
1.0
 70
    12
 71
     3
 72
     8
 73
     4
 74
     0
 42
0.0000000001
 43
0.0000000001
 40
-0.0902296038032193
 40
-0.0902296038032193
 40
-0.0902296038032193
 40
-0.0902296038032193
 40
0.0
 40
0.0
 40
0.0
 40
0.0
 10
29.66366509655784
 20
94.78909837632237
 30
0.0
 41
1.0
 10
29.55140545245173
 20
94.75349728360175
 30
0.0
 41
1.0
 10
29.48899076602302
 20
94.76388018737372
 30
0.0
 41
1.0
 10
29.482779734267
 20
94.80260647913164
 30
0.0
 41
1.0
  0
SPLINE
  5
41
330
1F
100
AcDbEntity
  8
LINEE VISIBILI 2D
100
AcDbSpline
210
0.0
220
0.0
230
1.0
 70
    12
 71
     2
 72
     6
 73
     3
 74
     0
 42
0.0000000001
 43
0.0000000001
 40
0.0
 40
0.0
 40
0.0
 40
0.2152626524587284
 40
0.2152626524587284
 40
0.2152626524587284
 10
29.48221342801437
 20
94.80832025021062
 30
0.0
 41
1.0
 10
29.50914933131466
 20
94.91769591459656
 30
0.0
 41
0.9345721294938257
 10
29.6020003989956
 20
94.98147097302046
 30
0.0
 41
1.0
  0
SPLINE
  5
42
330
1F
100
AcDbEntity
  8
LINEE VISIBILI 2D
100
AcDbSpline
210
0.0
220
0.0
230
1.0
 70
     8
 71
     3
 72
    11
 73
     7
 74
     0
 42
0.0000000001
 43
0.0000000001
 40
0.0
 40
0.0
 40
0.0
 40
0.0
 40
0.0023898861607651
 40
0.881580056777601
 40
1.814189882262588
 40
4.362808765267162
 40
4.362808765267162
 40
4.362808765267162
 40
4.362808765267162
 10
27.36961245474739
 20
93.04994618837497
 30
0.0
 10
27.36583078092593
 20
93.04931505673835
 30
0.0
 10
27.65792442306485
 20
93.07826042265771
 30
0.0
 10
28.26042048485413
 20
93.1337252163513
 30
0.0
 10
29.71079448343725
 20
93.22708801244809
 30
0.0
 10
30.87069065116681
 20
93.27048482122103
 30
0.0
 10
31.71978050717874
 20
93.29537565385926
 30
0.0
  0
SPLINE
  5
43
330
1F
100
AcDbEntity
  8
LINEE VISIBILI 2D
100
AcDbSpline
210
0.0
220
0.0
230
1.0
 70
    24
 71
     2
 72
     6
 73
     3
 74
     0
 42
0.0000000001
 43
0.0000000001
 40
0.0
 40
0.0
 40
0.0
 40
1.0
 40
1.0
 40
1.0
 10
97.08592601228648
 20
120.3912673712705
 30
0.0
 10
97.08592601228648
 20
119.8912673712705
 30
0.0
 10
97.08592601228648
 20
119.3912673712705
 30
0.0
  0
SPLINE
  5
44
330
1F
100
AcDbEntity
  8
LINEE VISIBILI 2D
100
AcDbSpline
210
0.0
220
0.0
230
1.0
 70
    24
 71
     2
 72
     6
 73
     3
 74
     0
 42
0.0000000001
 43
0.0000000001
 40
0.0
 40
0.0
 40
0.0
 40
57.99382989368194
 40
57.99382989368194
 40
57.99382989368194
 10
156.087163159066
 20
118.3912673712705
 30
0.0
 10
127.090248212225
 20
118.3912673712705
 30
0.0
 10
98.09333326538405
 20
118.3912673712705
 30
0.0
  0
SPLINE
  5
45
330
1F
100
AcDbEntity
  8
LINEE VISIBILI 2D
100
AcDbSpline
210
0.0
220
0.0
230
1.0
 70
    12
 71
     2
 72
     8
 73
     5
 74
     0
 42
0.0000000001
 43
0.0000000001
 40
0.0
 40
0.0
 40
0.0
 40
0.7852607939152819
 40
0.7852607939152819
 40
1.570521587830563
 40
1.570521587830563
 40
1.570521587830563
 10
157.086565915671
 20
119.3912673712705
 30
0.0
 41
1.0
 10
157.0868770768095
 20
118.9770999407169
 30
0.0
 41
0.9237929110248385
 10
156.7941038892064
 20
118.6841517917667
 30
0.0
 41
1.0
 10
156.5013307016032
 20
118.3912036428165
 30
0.0
 41
0.9237929110248385
 10
156.087163159066
 20
118.3912673712705
 30
0.0
 41
1.0
  0
SPLINE
  5
46
330
1F
100
AcDbEntity
  8
LINEE VISIBILI 2D
100
AcDbSpline
210
0.0
220
0.0
230
1.0
 70
    28
 71
     2
 72
     6
 73
     3
 74
     0
 42
0.0000000001
 43
0.0000000001
 40
0.0
 40
0.0
 40
0.0
 40
0.3393963846034751
 40
0.3393963846034751
 40
0.3393963846034751
 10
119.3799552131306
 20
124.1680311373984
 30
0.0
 41
1.0
 10
119.5496534054324
 20
124.1680311373985
 30
0.0
 41
1.0
 10
119.7193515977341
 20
124.1680311373986
 30
0.0
 41
1.0
  0
SPLINE
  5
47
330
1F
100
AcDbEntity
  8
LINEE VISIBILI 2D
100
AcDbSpline
210
0.0
220
0.0
230
1.0
 70
    24
 71
     2
 72
     6
 73
     3
 74
     0
 42
0.0000000001
 43
0.0000000001
 40
0.0
 40
0.0
 40
0.0
 40
1.574005410290808
 40
1.574005410290808
 40
1.574005410290808
 10
119.7193515977341
 20
124.1680440665666
 30
0.0
 10
120.5063543028795
 20
124.1680440665666
 30
0.0
 10
121.2933570080249
 20
124.1680440665666
 30
0.0
  0
SPLINE
  5
48
330
1F
100
AcDbEntity
  8
LINEE VISIBILI 2D
100
AcDbSpline
210
0.0
220
0.0
230
1.0
 70
    12
 71
     2
 72
    10
 73
     7
 74
     0
 42
0.0000000001
 43
0.0000000001
 40
0.0
 40
0.0
 40
0.0
 40
0.3539360015770224
 40
0.3539360015770224
 40
63.26290134538401
 40
63.26290134538401
 40
63.78650012098229
 40
63.78650012098229
 40
63.78650012098229
 10
147.2101092231409
 20
120.3989009831894
 30
0.0
 41
1.0
 10
147.0323452914925
 20
120.4222022148442
 30
0.0
 41
0.9807303097205991
 10
146.8770802854745
 20
120.5118445078644
 30
0.0
 41
1.0
 10
144.1530421797978
 20
122.0845686414596
 30
0.0
 41
1.0
 10
141.4290040741213
 20
123.6572927750547
 30
0.0
 41
1.0
 10
141.1969532665525
 20
123.7912673712703
 30
0.0
 41
0.9659258262889743
 10
140.9290040741213
 20
123.7912673712701
 30
0.0
 41
1.0
  0
SPLINE
  5
49
330
1F
100
AcDbEntity
  8
LINEE VISIBILI 2D
100
AcDbSpline
210
0.0
220
0.0
230
1.0
 70
    12
 71
     3
 72
    10
 73
     6
 74
     0
 42
0.0000000001
 43
0.0000000001
 40
-0.507130503361787
 40
-0.507130503361787
 40
-0.507130503361787
 40
-0.507130503361787
 40
-0.3130983607099375
 40
-0.3130983607099375
 40
-0.129993230834527
 40
-0.129993230834527
 40
-0.129993230834527
 40
-0.129993230834527
 10
30.48446836716485
 20
95.29802541265686
 30
0.0
 41
1.0
 10
30.49886238600682
 20
95.24714960242397
 30
0.0
 41
1.0
 10
30.36820594620446
 20
95.15410413986073
 30
0.0
 41
1.0
 10
30.06508566093067
 20
94.97005704942292
 30
0.0
 41
1.0
 10
29.85085294407604
 20
94.84858953721595
 30
0.0
 41
1.0
 10
29.66366509655784
 20
94.78909837632237
 30
0.0
 41
1.0
  0
SPLINE
  5
4A
330
1F
100
AcDbEntity
  8
LINEE VISIBILI 2D
100
AcDbSpline
210
0.0
220
0.0
230
1.0
 70
    12
 71
     2
 72
     6
 73
     3
 74
     0
 42
0.0000000001
 43
0.0000000001
 40
0.0
 40
0.0
 40
0.0
 40
0.2346887362301205
 40
0.2346887362301205
 40
0.2346887362301205
 10
29.60200039539648
 20
95.42854494572566
 30
0.0
 41
1.0
 10
29.48500681402763
 20
95.43798167456502
 30
0.0
 41
0.9996271223771485
 10
29.36870286325614
 20
95.45379119598843
 30
0.0
 41
1.0
  0
SPLINE
  5
4B
330
1F
100
AcDbEntity
  8
LINEE VISIBILI 2D
100
AcDbSpline
210
0.0
220
0.0
230
1.0
 70
    12
 71
     3
 72
     8
 73
     4
 74
     0
 42
0.0000000001
 43
0.0000000001
 40
-1.0
 40
-1.0
 40
-1.0
 40
-1.0
 40
0.0
 40
0.0
 40
0.0
 40
0.0
 10
31.35483171026778
 20
95.39374333863319
 30
0.0
 41
1.0
 10
31.16569858097952
 20
95.38103166097242
 30
0.0
 41
1.0
 10
31.07100543911722
 20
95.41063663822141
 30
0.0
 41
1.0
 10
31.08029146862747
 20
95.45187137724054
 30
0.0
 41
1.0
  0
SPLINE
  5
4C
330
1F
100
AcDbEntity
  8
LINEE VISIBILI 2D
100
AcDbSpline
210
0.0
220
0.0
230
1.0
 70
    12
 71
     2
 72
     6
 73
     3
 74
     0
 42
0.0000000001
 43
0.0000000001
 40
0.0
 40
0.0
 40
0.0
 40
0.1046985625503038
 40
0.1046985625503038
 40
0.1046985625503038
 10
33.09849516748943
 20
95.37745822036653
 30
0.0
 41
1.0
 10
33.09756230865527
 20
95.42979919161494
 30
0.0
 41
0.9999999324543894
 10
33.09666792566416
 20
95.4821408344617
 30
0.0
 41
1.0
  0
SPLINE
  5
4D
330
1F
100
AcDbEntity
  8
LINEE VISIBILI 2D
100
AcDbSpline
210
0.0
220
0.0
230
1.0
 70
    12
 71
     2
 72
     6
 73
     3
 74
     0
 42
0.0000000001
 43
0.0000000001
 40
0.0
 40
0.0
 40
0.0
 40
0.0564080668382289
 40
0.0564080668382289
 40
0.0564080668382289
 10
33.14878847710545
 20
95.36021824983375
 30
0.0
 41
1.0
 10
33.11784013913346
 20
95.35191327301241
 30
0.0
 41
0.8295980009520501
 10
33.09849516748944
 20
95.37745822036653
 30
0.0
 41
1.0
  0
SPLINE
  5
4E
330
1F
100
AcDbEntity
  8
LINEE VISIBILI 2D
100
AcDbSpline
210
0.0
220
0.0
230
1.0
 70
    12
 71
     2
 72
     6
 73
     3
 74
     0
 42
0.0000000001
 43
0.0000000001
 40
0.0
 40
0.0
 40
0.0
 40
0.0563823424377333
 40
0.0563823424377333
 40
0.0563823424377333
 10
33.20390657837577
 20
95.37735616875284
 30
0.0
 41
1.0
 10
33.18453994847623
 20
95.35183039821536
 30
0.0
 41
0.8291385867166255
 10
33.15361496777726
 20
95.36021352913206
 30
0.0
 41
1.0
  0
SPLINE
  5
4F
330
1F
100
AcDbEntity
  8
LINEE VISIBILI 2D
100
AcDbSpline
210
0.0
220
0.0
230
1.0
 70
    24
 71
     2
 72
     6
 73
     3
 74
     0
 42
0.0000000001
 43
0.0000000001
 40
0.0
 40
0.0
 40
0.0
 40
1.0
 40
1.0
 40
1.0
 10
60.00113406707656
 20
119.3912673712705
 30
0.0
 10
60.00113406707656
 20
119.8912673712705
 30
0.0
 10
60.00113406707656
 20
120.3912673712705
 30
0.0
  0
SPLINE
  5
50
330
1F
100
AcDbEntity
  8
LINEE VISIBILI 2D
100
AcDbSpline
210
0.0
220
0.0
230
1.0
 70
    12
 71
     2
 72
     6
 73
     3
 74
     0
 42
0.0000000001
 43
0.0000000001
 40
0.0
 40
0.0
 40
0.0
 40
1.570822989447339
 40
1.570822989447339
 40
1.570822989447339
 10
0.0
 20
119.3912673712705
 30
0.0
 41
1.0
 10
0.0000212032168681
 20
118.3912528116788
 30
0.0
 41
0.707109130023906
 10
1.000035762927378
 20
118.3912673712726
 30
0.0
 41
1.0
  0
SPLINE
  5
51
330
1F
100
AcDbEntity
  8
LINEE VISIBILI 2D
100
AcDbSpline
210
0.0
220
0.0
230
1.0
 70
    12
 71
     3
 72
     8
 73
     4
 74
     0
 42
0.0000000001
 43
0.0000000001
 40
-1.0
 40
-1.0
 40
-1.0
 40
-1.0
 40
-0.0275095363183914
 40
-0.0275095363183914
 40
-0.0275095363183914
 40
-0.0275095363183914
 10
31.08029146862747
 20
95.45187137724054
 30
0.0
 41
1.0
 10
31.10084626858162
 20
95.54310293508114
 30
0.0
 41
1.0
 10
30.85423553578524
 20
95.58205474949366
 30
0.0
 41
1.0
 10
30.40200039427756
 20
95.46607421865905
 30
0.0
 41
1.0
  0
SPLINE
  5
52
330
1F
100
AcDbEntity
  8
LINEE VISIBILI 2D
100
AcDbSpline
210
0.0
220
0.0
230
1.0
 70
    12
 71
     2
 72
     6
 73
     3
 74
     0
 42
0.0000000001
 43
0.0000000001
 40
0.0
 40
0.0
 40
0.0
 40
1.744340636856979
 40
1.744340636856979
 40
1.744340636856979
 10
33.09666792566414
 20
95.4821408344617
 30
0.0
 41
1.0
 10
32.22442052967517
 20
95.46413516434782
 30
0.0
 41
0.9995480463163481
 10
31.35483171026778
 20
95.39374333863319
 30
0.0
 41
1.0
  0
SPLINE
  5
53
330
1F
100
AcDbEntity
  8
LINEE VISIBILI 2D
100
AcDbSpline
210
0.0
220
0.0
230
1.0
 70
    12
 71
     2
 72
     6
 73
     3
 74
     0
 42
0.0000000001
 43
0.0000000001
 40
0.0
 40
0.0
 40
0.0
 40
0.0557531042507106
 40
0.0557531042507106
 40
0.0557531042507106
 10
33.15364368509107
 20
95.39723227667638
 30
0.0
 41
1.0
 10
33.18393345826952
 20
95.38921032939461
 30
0.0
 41
0.84241447919266
 10
33.20391731309241
 20
95.41334469377012
 30
0.0
 41
1.0
  0
SPLINE
  5
54
330
1F
100
AcDbEntity
  8
LINEE VISIBILI 2D
100
AcDbSpline
210
0.0
220
0.0
230
1.0
 70
     8
 71
     3
 72
    12
 73
     8
 74
     0
 42
0.0000000001
 43
0.0000000001
 40
0.0
 40
0.0
 40
0.0
 40
0.0
 40
0.4820613644441622
 40
0.9053915948012106
 40
1.626559098865429
 40
2.287555454381561
 40
3.006592471045132
 40
3.006592471045132
 40
3.006592471045132
 40
3.006592471045132
 10
126.0659863498857
 20
95.39723974264777
 30
0.0
 10
125.9140093091849
 20
95.34650038012024
 30
0.0
 10
125.6297678578958
 20
95.2405796490521
 30
0.0
 10
125.1453511313629
 20
94.99957648266676
 30
0.0
 10
124.6551403743995
 20
94.63448986369028
 30
0.0
 10
124.294950648666
 20
94.01585988435156
 30
0.0
 10
124.2409570182477
 20
93.55044323255974
 30
0.0
 10
124.2368148497829
 20
93.31185746620207
 30
0.0
  0
SPLINE
  5
55
330
1F
100
AcDbEntity
  8
LINEE VISIBILI 2D
100
AcDbSpline
210
0.0
220
0.0
230
1.0
 70
    12
 71
     2
 72
     6
 73
     3
 74
     0
 42
0.0000000001
 43
0.0000000001
 40
0.0
 40
0.0
 40
0.0
 40
0.0843244435039191
 40
0.0843244435039191
 40
0.0843244435039191
 10
139.4651618580891
 20
95.26503758560014
 30
0.0
 41
1.0
 10
139.4937266266931
 20
95.29781334067417
 30
0.0
 41
0.9552700367108133
 10
139.5358136369519
 20
95.30871653715655
 30
0.0
 41
1.0
  0
SPLINE
  5
56
330
1F
100
AcDbEntity
  8
LINEE VISIBILI 2D
100
AcDbSpline
210
0.0
220
0.0
230
1.0
 70
    12
 71
     3
 72
    10
 73
     6
 74
     0
 42
0.0000000001
 43
0.0000000001
 40
-1.0
 40
-1.0
 40
-1.0
 40
-1.0
 40
-0.8463679771062906
 40
-0.8463679771062906
 40
-0.69311235764313
 40
-0.69311235764313
 40
-0.69311235764313
 40
-0.69311235764313
 10
139.954321003987
 20
94.80832025021062
 30
0.0
 41
1.0
 10
139.8081286901068
 20
94.85662577666625
 30
0.0
 41
1.0
 10
139.6610638352161
 20
94.94307269037275
 30
0.0
 41
1.0
 10
139.4643575797501
 20
95.11886329165694
 30
0.0
 41
1.0
 10
139.4156459898137
 20
95.20713441250691
 30
0.0
 41
1.0
 10
139.4651618580891
 20
95.26503758560014
 30
0.0
 41
1.0
  0
SPLINE
  5
57
330
1F
100
AcDbEntity
  8
LINEE VISIBILI 2D
100
AcDbSpline
210
0.0
220
0.0
230
1.0
 70
    12
 71
     2
 72
     6
 73
     3
 74
     0
 42
0.0000000001
 43
0.0000000001
 40
0.0
 40
0.0
 40
0.0
 40
0.018744565179009
 40
0.018744565179009
 40
0.018744565179009
 10
139.9721732114399
 20
94.80260647913164
 30
0.0
 41
1.0
 10
139.9632204027519
 20
94.80537992721698
 30
0.0
 41
0.9999563142521211
 10
139.954321003987
 20
94.80832025021062
 30
0.0
 41
1.0
  0
SPLINE
  5
58
330
1F
100
AcDbEntity
  8
LINEE VISIBILI 2D
100
AcDbSpline
210
0.0
220
0.0
230
1.0
 70
     8
 71
     3
 72
    13
 73
     9
 74
     0
 42
0.0000000001
 43
0.0000000001
 40
0.0
 40
0.0
 40
0.0
 40
0.0
 40
1.634414805698473
 40
3.950678709036909
 40
9.493759752404251
 40
14.76344355036386
 40
17.05444145595412
 40
18.10125068241852
 40
18.10125068241852
 40
18.10125068241852
 40
18.10125068241852
 10
124.6836983468898
 20
93.26089704610501
 30
0.0
 10
125.2269766694961
 20
93.21972651450385
 30
0.0
 10
126.542414803767
 20
93.15566922246279
 30
0.0
 10
129.7058694772199
 20
93.06480925084697
 30
0.0
 10
134.0822891473182
 20
93.03367604694418
 30
0.0
 10
138.4502648459113
 20
93.08395336946688
 30
0.0
 10
141.3177292808959
 20
93.18569945414621
 30
0.0
 10
142.428706992248
 20
93.24996627972316
 30
0.0
 10
142.7749217758112
 20
93.29537565385926
 30
0.0
  0
SPLINE
  5
59
330
1F
100
AcDbEntity
  8
LINEE VISIBILI 2D
100
AcDbSpline
210
0.0
220
0.0
230
1.0
 70
    12
 71
     2
 72
     6
 73
     3
 74
     0
 42
0.0000000001
 43
0.0000000001
 40
0.0
 40
0.0
 40
0.0
 40
3.444331182750583
 40
3.444331182750583
 40
3.444331182750583
 10
35.47634244559706
 20
93.26749683431634
 30
0.0
 41
1.0
 10
37.19847812419853
 20
93.21787131308317
 30
0.0
 41
0.9994037549011128
 10
38.91308293982017
 20
93.04951361614911
 30
0.0
 41
1.0
  0
SPLINE
  5
5A
330
1F
100
AcDbEntity
  8
LINEE VISIBILI 2D
100
AcDbSpline
210
0.0
220
0.0
230
1.0
 70
    12
 71
     2
 72
    26
 73
    23
 74
     0
 42
0.0000000001
 43
0.0000000001
 40
0.0
 40
0.0
 40
0.0
 40
1.353140148905753
 40
1.353140148905753
 40
2.299557977971692
 40
2.299557977971692
 40
15.80613723792039
 40
15.80613723792039
 40
16.5004981797455
 40
16.5004981797455
 40
17.21510485247491
 40
17.21510485247491
 40
17.75736846305272
 40
17.75736846305272
 40
18.03141490618208
 40
18.03141490618208
 40
18.16693850151533
 40
18.16693850151533
 40
18.17150626187461
 40
18.17150626187461
 40
18.17439191958581
 40
18.17439191958581
 40
18.17598455666204
 40
18.17598455666204
 40
18.17598455666204
 10
124.7228193627425
 20
93.15643660727516
 30
0.0
 41
1.0
 10
125.3977035687355
 20
93.10789255202005
 30
0.0
 41
0.9998719738149823
 10
126.073795505486
 20
93.08096840188506
 30
0.0
 41
1.0
 10
126.5465681019906
 20
93.0605665813575
 30
0.0
 41
0.9999883261780517
 10
127.0195157802388
 20
93.04473446443774
 30
0.0
 41
1.0
 10
133.7719885096182
 20
92.84667131360171
 30
0.0
 41
0.9995365972903966
 10
140.5240001603048
 20
93.05987460092234
 30
0.0
 41
1.0
 10
140.8709355226678
 20
93.07296052004891
 30
0.0
 41
0.9999931085312258
 10
141.2177641583828
 20
93.08862207761416
 30
0.0
 41
1.0
 10
141.5747161991394
 20
93.10456806372823
 30
0.0
 41
0.9999802632345
 10
141.9314396940333
 20
93.12499799432515
 30
0.0
 41
1.0
 10
142.2021595142207
 20
93.14025789033287
 30
0.0
 41
0.9999017676724548
 10
142.4723452351484
 20
93.16309999345994
 30
0.0
 41
1.0
 10
142.6088987515715
 20
93.17459436303089
 30
0.0
 41
0.9998554175396176
 10
142.7449824513195
 20
93.19072539034477
 30
0.0
 41
1.0
 10
142.8122891919047
 20
93.19865814110096
 30
0.0
 41
0.999760840741783
 10
142.879184669437
 20
93.20952648727214
 30
0.0
 41
1.0
 10
142.8814402612908
 20
93.20988600680049
 30
0.0
 41
0.9998792065663606
 10
142.8837059377511
 20
93.21017524559465
 30
0.0
 41
1.0
 10
142.8851372084912
 20
93.21035904547938
 30
0.0
 41
0.9997971396745196
 10
142.8865747204609
 20
93.21048505209054
 30
0.0
 41
1.0
 10
142.8873681351172
 20
93.2105554758092
 30
0.0
 41
0.9995944139784445
 10
142.8881642722968
 20
93.21058061359465
 30
0.0
 41
1.0
  0
SPLINE
  5
5B
330
1F
100
AcDbEntity
  8
LINEE VISIBILI 2D
100
AcDbSpline
210
0.0
220
0.0
230
1.0
 70
     8
 71
     3
 72
    11
 73
     7
 74
     0
 42
0.0000000001
 43
0.0000000001
 40
0.0
 40
0.0
 40
0.0
 40
0.0
 40
0.3636487596830195
 40
0.7239479517815482
 40
1.48753488251301
 40
3.29866945602871
 40
3.29866945602871
 40
3.29866945602871
 40
3.29866945602871
 10
38.91685845449796
 20
93.04961332496663
 30
0.0
 10
38.91434872285925
 20
93.17075343937927
 30
0.0
 10
38.88370488480891
 20
93.41144335142031
 30
0.0
 10
38.73922151712932
 20
93.88707722529437
 30
0.0
 10
38.21049603339638
 20
94.72820207680269
 30
0.0
 10
37.4659137795459
 20
95.20892332043102
 30
0.0
 10
36.91865578981686
 20
95.45523960082364
 30
0.0
  0
SPLINE
  5
5C
330
1F
100
AcDbEntity
  8
LINEE VISIBILI 2D
100
AcDbSpline
210
0.0
220
0.0
230
1.0
 70
    24
 71
     2
 72
     6
 73
     3
 74
     0
 42
0.0000000001
 43
0.0000000001
 40
0.0
 40
0.0
 40
0.0
 40
0.470710678118454
 40
0.470710678118454
 40
0.470710678118454
 10
20.99731207526812
 20
124.1680440665666
 30
0.0
 10
20.83089071903088
 20
124.0016227103293
 30
0.0
 10
20.66446936279364
 20
123.8352013540921
 30
0.0
  0
SPLINE
  5
5D
330
1F
100
AcDbEntity
  8
LINEE VISIBILI 2D
100
AcDbSpline
210
0.0
220
0.0
230
1.0
 70
    24
 71
     2
 72
     6
 73
     3
 74
     0
 42
0.0000000001
 43
0.0000000001
 40
0.0
 40
0.0
 40
0.0
 40
0.4707106781183485
 40
0.4707106781183485
 40
0.4707106781183485
 10
31.29433211861045
 20
123.8352013540922
 30
0.0
 10
31.12791076237325
 20
124.0016227103294
 30
0.0
 10
30.96148940613605
 20
124.1680440665666
 30
0.0
  0
SPLINE
  5
5E
330
1F
100
AcDbEntity
  8
LINEE VISIBILI 2D
100
AcDbSpline
210
0.0
220
0.0
230
1.0
 70
    24
 71
     2
 72
     6
 73
     3
 74
     0
 42
0.0000000001
 43
0.0000000001
 40
0.0
 40
0.0
 40
0.0
 40
13.8430780462821
 40
13.8430780462821
 40
13.8430780462821
 10
43.84421211335871
 20
123.7912673712701
 30
0.0
 10
36.92267309021766
 20
123.7912673712701
 30
0.0
 10
30.00113406707661
 20
123.7912673712701
 30
0.0
  0
SPLINE
  5
5F
330
1F
100
AcDbEntity
  8
LINEE VISIBILI 2D
100
AcDbSpline
210
0.0
220
0.0
230
1.0
 70
    24
 71
     2
 72
     6
 73
     3
 74
     0
 42
0.0000000001
 43
0.0000000001
 40
0.0
 40
0.0
 40
0.0
 40
0.4707106781181576
 40
0.4707106781181576
 40
0.4707106781181576
 10
37.08424538076666
 20
124.1680440665666
 30
0.0
 10
36.91782402452953
 20
124.0016227103295
 30
0.0
 10
36.7514026682924
 20
123.8352013540923
 30
0.0
  0
SPLINE
  5
60
330
1F
100
AcDbEntity
  8
LINEE VISIBILI 2D
100
AcDbSpline
210
0.0
220
0.0
230
1.0
 70
     8
 71
     3
 72
    11
 73
     7
 74
     0
 42
0.0000000001
 43
0.0000000001
 40
0.0
 40
0.0
 40
0.0
 40
0.0
 40
0.4871715962991472
 40
0.9568073603862094
 40
1.806537394155469
 40
3.297531924463641
 40
3.297531924463641
 40
3.297531924463641
 40
3.297531924463641
 10
29.36564902503409
 20
95.45492124653172
 30
0.0
 10
29.21773658000619
 20
95.38809210843336
 30
0.0
 10
28.93164064577541
 20
95.24591672360351
 30
0.0
 10
28.42380662444811
 20
94.92093869523287
 30
0.0
 10
27.71902329999501
 20
94.29479687493895
 30
0.0
 10
27.37803248146828
 20
93.55236722635655
 30
0.0
 10
27.3681348543716
 20
93.04998491393599
 30
0.0
  0
SPLINE
  5
61
330
1F
100
AcDbEntity
  8
LINEE VISIBILI 2D
100
AcDbSpline
210
0.0
220
0.0
230
1.0
 70
    12
 71
     2
 72
     6
 73
     3
 74
     0
 42
0.0000000001
 43
0.0000000001
 40
0.0
 40
0.0
 40
0.0
 40
0.0420429637354919
 40
0.0420429637354919
 40
0.0420429637354919
 10
142.8895546554475
 20
93.21063753843729
 30
0.0
 41
1.0
 10
142.8886829255315
 20
93.23164097136197
 30
0.0
 41
0.9999976107618479
 10
142.8879030295309
 20
93.25264801470215
 30
0.0
 41
1.0
  0
SPLINE
  5
62
330
1F
100
AcDbEntity
  8
LINEE VISIBILI 2D
100
AcDbSpline
210
0.0
220
0.0
230
1.0
 70
    12
 71
     2
 72
     6
 73
     3
 74
     0
 42
0.0000000001
 43
0.0000000001
 40
0.0
 40
0.0
 40
0.0
 40
0.0144862433727037
 40
0.0144862433727037
 40
0.0144862433727037
 10
142.8878111984864
 20
93.29694180338785
 30
0.0
 41
1.0
 10
142.8879174350609
 20
93.30418420530445
 30
0.0
 41
0.9999877062304104
 10
142.8880954894006
 20
93.31142519752814
 30
0.0
 41
1.0
  0
SPLINE
  5
63
330
1F
100
AcDbEntity
  8
LINEE VISIBILI 2D
100
AcDbSpline
210
0.0
220
0.0
230
1.0
 70
    24
 71
     2
 72
     6
 73
     3
 74
     0
 42
0.0000000001
 43
0.0000000001
 40
0.0
 40
0.0
 40
0.0
 40
59.99260919056301
 40
59.99260919056301
 40
59.99260919056301
 10
97.09331682147952
 20
120.3912673712705
 30
0.0
 10
127.089621416761
 20
120.3912673712705
 30
0.0
 10
157.0859260120425
 20
120.3912673712705
 30
0.0
  0
SPLINE
  5
64
330
1F
100
AcDbEntity
  8
LINEE VISIBILI 2D
100
AcDbSpline
210
0.0
220
0.0
230
1.0
 70
    24
 71
     2
 72
     6
 73
     3
 74
     0
 42
0.0000000001
 43
0.0000000001
 40
0.0
 40
0.0
 40
0.0
 40
1.000000204738305
 40
1.000000204738305
 40
1.000000204738305
 10
157.086565915671
 20
119.3912673712705
 30
0.0
 10
157.0862459638567
 20
119.8912673712705
 30
0.0
 10
157.0859260120425
 20
120.3912673712705
 30
0.0
  0
SPLINE
  5
65
330
1F
100
AcDbEntity
  8
LINEE VISIBILI 2D
100
AcDbSpline
210
0.0
220
0.0
230
1.0
 70
    24
 71
     2
 72
     6
 73
     3
 74
     0
 42
0.0000000001
 43
0.0000000001
 40
0.0
 40
0.0
 40
0.0
 40
0.4707106781183585
 40
0.4707106781183585
 40
0.4707106781183585
 10
138.8791240638202
 20
123.8352013540922
 30
0.0
 10
138.712702707583
 20
124.0016227103294
 30
0.0
 10
138.5462813513458
 20
124.1680440665666
 30
0.0
  0
SPLINE
  5
66
330
1F
100
AcDbEntity
  8
LINEE VISIBILI 2D
100
AcDbSpline
210
0.0
220
0.0
230
1.0
 70
    24
 71
     2
 72
     6
 73
     3
 74
     0
 42
0.0000000001
 43
0.0000000001
 40
0.0
 40
0.0
 40
0.0
 40
23.33502416429401
 40
23.33502416429401
 40
23.33502416429401
 10
139.5358136333226
 20
118.3912673712705
 30
0.0
 10
139.5358136333226
 20
106.7237552891235
 30
0.0
 10
139.5358136333226
 20
95.05624320697656
 30
0.0
  0
SPLINE
  5
67
330
1F
100
AcDbEntity
  8
LINEE VISIBILI 2D
100
AcDbSpline
210
0.0
220
0.0
230
1.0
 70
    12
 71
     2
 72
     6
 73
     3
 74
     0
 42
0.0000000001
 43
0.0000000001
 40
0.0
 40
0.0
 40
0.0
 40
0.069013060557738
 40
0.069013060557738
 40
0.069013060557738
 10
119.0434580590439
 20
123.8352013540921
 30
0.0
 41
1.0
 10
119.0185281770414
 20
123.8104669775003
 30
0.0
 41
0.9740771683773498
 10
118.9852492722454
 20
123.7992507884136
 30
0.0
 41
1.0
  0
SPLINE
  5
68
330
1F
100
AcDbEntity
  8
LINEE VISIBILI 2D
100
AcDbSpline
210
0.0
220
0.0
230
1.0
 70
    12
 71
     2
 72
     6
 73
     3
 74
     0
 42
0.0000000001
 43
0.0000000001
 40
0.0
 40
0.0
 40
0.0
 40
0.0785762431747628
 40
0.0785762431747628
 40
0.0785762431747628
 10
136.2927279607527
 20
123.8352013540921
 30
0.0
 41
1.0
 10
136.2641839291587
 20
123.8069059784234
 30
0.0
 41
0.9666083995706598
 10
136.2253711704755
 20
123.7964675979324
 30
0.0
 41
1.0
  0
SPLINE
  5
69
330
1F
100
AcDbEntity
  8
LINEE VISIBILI 2D
100
AcDbSpline
210
0.0
220
0.0
230
1.0
 70
    24
 71
     2
 72
     6
 73
     3
 74
     0
 42
0.0000000001
 43
0.0000000001
 40
0.0
 40
0.0
 40
0.0
 40
0.9603553390593404
 40
0.9603553390593404
 40
0.9603553390593404
 10
30.00113406707671
 20
124.1680440665666
 30
0.0
 10
30.48131173660638
 20
124.1680440665666
 30
0.0
 10
30.96148940613605
 20
124.1680440665666
 30
0.0
  0
SPLINE
  5
6A
330
1F
100
AcDbEntity
  8
LINEE VISIBILI 2D
100
AcDbSpline
210
0.0
220
0.0
230
1.0
 70
    24
 71
     2
 72
     6
 73
     3
 74
     0
 42
0.0000000001
 43
0.0000000001
 40
0.0
 40
0.0
 40
0.0
 40
23.60216905140118
 40
23.60216905140118
 40
23.60216905140118
 10
140.3358136333225
 20
94.78909831986937
 30
0.0
 10
140.3358136333225
 20
106.5901828455699
 30
0.0
 10
140.3358136333225
 20
118.3912673712705
 30
0.0
  0
SPLINE
  5
6B
330
1F
100
AcDbEntity
  8
LINEE VISIBILI 2D
100
AcDbSpline
210
0.0
220
0.0
230
1.0
 70
    12
 71
     2
 72
     6
 73
     3
 74
     0
 42
0.0000000001
 43
0.0000000001
 40
0.0
 40
0.0
 40
0.0
 40
0.0917575146495241
 40
0.0917575146495241
 40
0.0917575146495241
 10
20.66446936279366
 20
123.8352013540921
 30
0.0
 41
1.0
 10
20.63097722096904
 20
123.8017092122675
 30
0.0
 41
0.9535888348870285
 10
20.58432477440702
 20
123.7935240819828
 30
0.0
 41
1.0
  0
SPLINE
  5
6C
330
1F
100
AcDbEntity
  8
LINEE VISIBILI 2D
100
AcDbSpline
210
0.0
220
0.0
230
1.0
 70
    24
 71
     2
 72
     6
 73
     3
 74
     0
 42
0.0000000001
 43
0.0000000001
 40
0.0
 40
0.0
 40
0.0
 40
1.692375767961074
 40
1.692375767961074
 40
1.692375767961074
 10
37.30892584891995
 20
124.1680440665666
 30
0.0
 10
38.15511373290049
 20
124.1680440665666
 30
0.0
 10
39.00130161688102
 20
124.1680440665666
 30
0.0
  0
SPLINE
  5
6D
330
1F
100
AcDbEntity
  8
LINEE VISIBILI 2D
100
AcDbSpline
210
0.0
220
0.0
230
1.0
 70
    28
 71
     2
 72
     6
 73
     3
 74
     0
 42
0.0000000001
 43
0.0000000001
 40
52.79829236543029
 40
52.79829236543029
 40
52.79829236543029
 40
60.34090556049179
 40
60.34090556049179
 40
60.34090556049179
 10
37.08789982277098
 20
124.1680440665666
 30
0.0
 41
0.8535533905932759
 10
37.05322994758598
 20
124.1680440665666
 30
0.0
 41
0.8535533905932759
 10
37.30892584891995
 20
124.1680440665666
 30
0.0
 41
1.0
  0
SPLINE
  5
6E
330
1F
100
AcDbEntity
  8
LINEE VISIBILI 2D
100
AcDbSpline
210
0.0
220
0.0
230
1.0
 70
    12
 71
     3
 72
    43
 73
    39
 74
     0
 42
0.0000000001
 43
0.0000000001
 40
0.0
 40
0.0
 40
0.0
 40
0.0
 40
0.0058576692362277
 40
0.6030500536444956
 40
1.323379967294519
 40
1.323379967294519
 40
1.323379967294519
 40
1.768012123025132
 40
1.768012123025132
 40
1.768012123025132
 40
2.448119252747582
 40
2.448119252747582
 40
2.448119252747582
 40
3.343084851321849
 40
3.343084851321849
 40
3.343084851321849
 40
4.21407998400812
 40
4.21407998400812
 40
4.21407998400812
 40
5.347946150293954
 40
5.347946150293954
 40
5.347946150293954
 40
5.468895620061021
 40
5.468895620061021
 40
5.468895620061021
 40
5.571659062731362
 40
5.571659062731362
 40
5.571659062731362
 40
5.651783128020722
 40
5.651783128020722
 40
5.651783128020722
 40
5.755899509048787
 40
5.755899509048787
 40
5.755899509048787
 40
6.226883206471461
 40
6.226883206471461
 40
6.226883206471461
 40
7.980028700645128
 40
7.980028700645128
 40
7.980028700645128
 40
7.980028700645128
 10
27.37323801652294
 20
92.9500133828265
 30
0.0
 41
1.0
 10
27.36407225563547
 20
92.9489517528566
 30
0.0
 41
1.0
 10
27.56292104924193
 20
92.96850706285111
 30
0.0
 41
1.0
 10
28.00342721571862
 20
93.01047382903846
 30
0.0
 41
1.0
 10
28.44046825851136
 20
93.04270769980542
 30
0.0
 41
1.0
 10
28.68023792984712
 20
93.0598746009223
 30
0.0
 41
1.0
 10
28.82809184718125
 20
93.07016060684677
 30
0.0
 41
0.9999924572851677
 10
28.9759930210994
 20
93.07974317135595
 30
0.0
 41
0.9999924572851673
 10
29.12393810487234
 20
93.08862207761416
 30
0.0
 41
1.0
 10
29.35023639854844
 20
93.10217689334582
 30
0.0
 41
0.9999867067000609
 10
29.57661577880678
 20
93.11430236010368
 30
0.0
 41
0.9999867067000611
 10
29.8030672176603
 20
93.12499799432513
 30
0.0
 41
1.0
 10
30.10105275501386
 20
93.13918580500628
 30
0.0
 41
0.999991700870091
 10
30.39910537593831
 20
93.1518865767898
 30
0.0
 41
0.9999917008700908
 10
30.6972176597013
 20
93.16309999345994
 30
0.0
 41
1.0
 10
30.98734593774853
 20
93.17401108814156
 30
0.0
 41
0.9999885239429112
 10
31.27753324264711
 20
93.18321965944774
 30
0.0
 41
0.999988523942909
 10
31.56776958377878
 20
93.19072539034477
 30
0.0
 41
1.0
 10
31.94560237235562
 20
93.20057065280254
 30
0.0
 41
0.9999701136335481
 10
32.32351144511644
 20
93.20683787241609
 30
0.0
 41
0.9999701136335483
 10
32.70146291907412
 20
93.20952648727214
 30
0.0
 41
1.0
 10
32.74177852326727
 20
93.20979545674946
 30
0.0
 41
0.9999994300677277
 10
32.78209444469695
 20
93.21001170964674
 30
0.0
 41
0.9999994300677279
 10
32.82241061443109
 20
93.21017524559465
 30
0.0
 41
1.0
 10
32.85666481907083
 20
93.21031436407501
 30
0.0
 41
0.9999996348947066
 10
32.89091915054875
 20
93.21041763294456
 30
0.0
 41
0.999999634894706
 10
32.92517357134537
 20
93.21048505209054
 30
0.0
 41
1.0
 10
32.95188154387223
 20
93.21053772550687
 30
0.0
 41
0.9999997974463703
 10
32.97858954934471
 20
93.21056957934807
 30
0.0
 41
0.9999997974463706
 10
33.00529757153336
 20
93.21058061359465
 30
0.0
 41
1.0
 10
33.04000303439652
 20
93.21059485531504
 30
0.0
 41
0.9999996863555955
 10
33.07470849474667
 20
93.2105754321396
 30
0.0
 41
0.9999996863555955
 10
33.10941391992818
 20
93.21052234408654
 30
0.0
 41
1.0
 10
33.26640867183771
 20
93.21026420296824
 30
0.0
 41
0.9999949256035559
 10
33.42340122158198
 20
93.2093935200368
 30
0.0
 41
0.9999949256035558
 10
33.58038917923367
 20
93.20791030854682
 30
0.0
 41
1.0
 10
34.16475506488807
 20
93.20214212626188
 30
0.0
 41
0.9999571462047651
 10
34.74901798566471
 20
93.18974859370866
 30
0.0
 41
0.9999571462047642
 10
35.33310282791277
 20
93.17073130421764
 30
0.0
 41
1.0
  0
SPLINE
  5
6F
330
1F
100
AcDbEntity
  8
LINEE VISIBILI 2D
100
AcDbSpline
210
0.0
220
0.0
230
1.0
 70
    24
 71
     2
 72
     6
 73
     3
 74
     0
 42
0.0000000001
 43
0.0000000001
 40
0.0
 40
0.0
 40
0.0
 40
23.61821892895399
 40
23.61821892895399
 40
23.61821892895399
 10
29.60200039430421
 20
118.3912673712705
 30
0.0
 10
29.60200039430421
 20
106.5821579067935
 30
0.0
 10
29.60200039430421
 20
94.77304844231655
 30
0.0
  0
SPLINE
  5
70
330
1F
100
AcDbEntity
  8
LINEE VISIBILI 2D
100
AcDbSpline
210
0.0
220
0.0
230
1.0
 70
     8
 71
     3
 72
    12
 73
     8
 74
     0
 42
0.0000000001
 43
0.0000000001
 40
0.0
 40
0.0
 40
0.0
 40
0.0
 40
0.3609258603576265
 40
0.6965770834136156
 40
1.329762183679318
 40
2.030115971499319
 40
2.890108592749077
 40
2.890108592749077
 40
2.890108592749077
 40
2.890108592749077
 10
142.8879803519993
 20
93.31142431517015
 30
0.0
 10
142.8870025431229
 20
93.43176772173938
 30
0.0
 10
142.8694352635247
 20
93.66374472341375
 30
0.0
 10
142.7758455691758
 20
94.09838147921554
 30
0.0
 10
142.5011447862996
 20
94.59582027911531
 30
0.0
 10
141.9206679964711
 20
95.05746063094656
 30
0.0
 10
141.4408815103483
 20
95.26387353118353
 30
0.0
 10
141.1708293937609
 20
95.36021957861571
 30
0.0
  0
SPLINE
  5
71
330
1F
100
AcDbEntity
  8
LINEE VISIBILI 2D
100
AcDbSpline
210
0.0
220
0.0
230
1.0
 70
    12
 71
     2
 72
     6
 73
     3
 74
     0
 42
0.0000000001
 43
0.0000000001
 40
0.0
 40
0.0
 40
0.0
 40
1.570827904507693
 40
1.570827904507693
 40
1.570827904507693
 10
59.00235995736385
 20
118.391267371271
 30
0.0
 41
1.0
 10
60.00237866239544
 20
118.3912486663182
 30
0.0
 41
0.7071081411513518
 10
60.00240121398516
 20
119.3912673712705
 30
0.0
 41
1.0
  0
SPLINE
  5
72
330
1F
100
AcDbEntity
  8
LINEE VISIBILI 2D
100
AcDbSpline
210
0.0
220
0.0
230
1.0
 70
    24
 71
     2
 72
     6
 73
     3
 74
     0
 42
0.0000000001
 43
0.0000000001
 40
0.0
 40
0.0
 40
0.0
 40
1.0
 40
1.0
 40
1.0
 10
0.0011340670766025
 20
120.3912673712705
 30
0.0
 10
0.0011340670766025
 20
119.8912673712705
 30
0.0
 10
0.0011340670766025
 20
119.3912673712705
 30
0.0
  0
SPLINE
  5
73
330
1F
100
AcDbEntity
  8
LINEE VISIBILI 2D
100
AcDbSpline
210
0.0
220
0.0
230
1.0
 70
    12
 71
     2
 72
     6
 73
     3
 74
     0
 42
0.0000000001
 43
0.0000000001
 40
0.0
 40
0.0
 40
0.0
 40
3.757237214633179
 40
3.757237214633179
 40
3.757237214633179
 10
31.71978050717874
 20
93.29537565385926
 30
0.0
 41
1.0
 10
33.5984828434884
 20
93.33821381350418
 30
0.0
 41
0.9995434325192993
 10
35.47634244559706
 20
93.26749683431634
 30
0.0
 41
1.0
  0
SPLINE
  5
74
330
1F
100
AcDbEntity
  8
LINEE VISIBILI 2D
100
AcDbSpline
210
0.0
220
0.0
230
1.0
 70
    12
 71
     2
 72
     6
 73
     3
 74
     0
 42
0.0000000001
 43
0.0000000001
 40
0.0
 40
0.0
 40
0.0
 40
0.4560780617926255
 40
0.4560780617926255
 40
0.4560780617926255
 10
35.78889310062664
 20
93.15455260045235
 30
0.0
 41
1.0
 10
35.56102320970123
 20
93.1633531726082
 30
0.0
 41
0.9999951302689783
 10
35.33310282791277
 20
93.17073130421764
 30
0.0
 41
1.0
  0
SPLINE
  5
75
330
1F
100
AcDbEntity
  8
LINEE VISIBILI 2D
100
AcDbSpline
210
0.0
220
0.0
230
1.0
 70
     8
 71
     3
 72
     9
 73
     5
 74
     0
 42
0.0000000001
 43
0.0000000001
 40
0.0
 40
0.0
 40
0.0
 40
0.0
 40
0.2015629793750459
 40
0.4492457516547883
 40
0.4492457516547883
 40
0.4492457516547883
 40
0.4492457516547883
 10
124.2378112402106
 20
93.31185361621896
 30
0.0
 10
124.303948465673
 20
93.30168129923839
 30
0.0
 10
124.4514504536724
 20
93.27293541839676
 30
0.0
 10
124.6015387603633
 20
93.26861636987576
 30
0.0
 10
124.683694312756
 20
93.26089738142039
 30
0.0
  0
SPLINE
  5
76
330
1F
100
AcDbEntity
  8
LINEE VISIBILI 2D
100
AcDbSpline
210
0.0
220
0.0
230
1.0
 70
    24
 71
     2
 72
     6
 73
     3
 74
     0
 42
0.0000000001
 43
0.0000000001
 40
0.0
 40
0.0
 40
0.0
 40
23.2043923775457
 40
23.2043923775457
 40
23.2043923775457
 10
30.40200039430416
 20
95.18687499372486
 30
0.0
 10
30.40200039430416
 20
106.7890711824977
 30
0.0
 10
30.40200039430416
 20
118.3912673712705
 30
0.0
  0
SPLINE
  5
77
330
1F
100
AcDbEntity
  8
LINEE VISIBILI 2D
100
AcDbSpline
210
0.0
220
0.0
230
1.0
 70
     8
 71
     3
 72
     8
 73
     4
 74
     0
 42
0.0000000001
 43
0.0000000001
 40
0.0
 40
0.0
 40
0.0
 40
0.0
 40
0.1153693105009943
 40
0.1153693105009943
 40
0.1153693105009943
 40
0.1153693105009943
 10
142.7749217758112
 20
93.29537565385926
 30
0.0
 10
142.8112947855166
 20
93.29815973199226
 30
0.0
 10
142.8534046880856
 20
93.30964419743512
 30
0.0
 10
142.8880973626224
 20
93.31142515139985
 30
0.0
  0
SPLINE
  5
78
330
1F
100
AcDbEntity
  8
LINEE VISIBILI 2D
100
AcDbSpline
210
0.0
220
0.0
230
1.0
 70
    24
 71
     2
 72
     6
 73
     3
 74
     0
 42
0.0000000001
 43
0.0000000001
 40
0.0
 40
0.0
 40
0.0
 40
0.470710678118459
 40
0.470710678118459
 40
0.470710678118459
 10
121.6298541621116
 20
123.8352013540921
 30
0.0
 10
121.4634328058743
 20
124.0016227103293
 30
0.0
 10
121.2970114496371
 20
124.1680440665666
 30
0.0
  0
SPLINE
  5
79
330
1F
100
AcDbEntity
  8
LINEE VISIBILI 2D
100
AcDbSpline
210
0.0
220
0.0
230
1.0
 70
    12
 71
     2
 72
     6
 73
     3
 74
     0
 42
0.0000000001
 43
0.0000000001
 40
0.0
 40
0.0
 40
0.0
 40
0.0722097593641259
 40
0.0722097593641259
 40
0.0722097593641259
 10
121.6911011966604
 20
123.7982581988327
 30
0.0
 41
1.0
 10
121.6559835198996
 20
123.8092790338445
 30
0.0
 41
0.9716546389122798
 10
121.6298541621116
 20
123.8352013540921
 30
0.0
 41
1.0
  0
SPLINE
  5
7A
330
1F
100
AcDbEntity
  8
LINEE VISIBILI 2D
100
AcDbSpline
210
0.0
220
0.0
230
1.0
 70
    12
 71
     2
 72
     6
 73
     3
 74
     0
 42
0.0000000001
 43
0.0000000001
 40
0.0
 40
0.0
 40
0.0
 40
0.3267022289272201
 40
0.3267022289272201
 40
0.3267022289272201
 10
138.9182950563989
 20
95.45585749301336
 30
0.0
 41
1.0
 10
138.7694996664897
 20
95.37747273744038
 30
0.0
 41
0.9574892513947441
 10
138.6021674285023
 20
95.3943297862512
 30
0.0
 41
1.0
  0
SPLINE
  5
7B
330
1F
100
AcDbEntity
  8
LINEE VISIBILI 2D
100
AcDbSpline
210
0.0
220
0.0
230
1.0
 70
    12
 71
     3
 72
     8
 73
     4
 74
     0
 42
0.0000000001
 43
0.0000000001
 40
-0.6402030957212545
 40
-0.6402030957212545
 40
-0.6402030957212545
 40
-0.6402030957212545
 40
0.0
 40
0.0
 40
0.0
 40
0.0
 10
139.5358136333306
 20
95.52646453626797
 30
0.0
 41
1.0
 10
139.2691598848822
 20
95.55180693094426
 30
0.0
 41
1.0
 10
139.0233136430174
 20
95.53803341078108
 30
0.0
 41
1.0
 10
138.9182950563989
 20
95.45585749301336
 30
0.0
 41
1.0
  0
SPLINE
  5
7C
330
1F
100
AcDbEntity
  8
LINEE VISIBILI 2D
100
AcDbSpline
210
0.0
220
0.0
230
1.0
 70
    12
 71
     2
 72
     6
 73
     3
 74
     0
 42
0.0000000001
 43
0.0000000001
 40
0.0
 40
0.0
 40
0.0
 40
0.1307681556895303
 40
0.1307681556895303
 40
0.1307681556895303
 10
140.4663830151716
 20
95.39374333863319
 30
0.0
 41
1.0
 10
140.4010865869937
 20
95.387614423922
 30
0.0
 41
0.9954465763717367
 10
140.3358136308193
 20
95.39398845879643
 30
0.0
 41
1.0
  0
SPLINE
  5
7D
330
1F
100
AcDbEntity
  8
LINEE VISIBILI 2D
100
AcDbSpline
210
0.0
220
0.0
230
1.0
 70
    12
 71
     3
 72
     8
 73
     4
 74
     0
 42
0.0000000001
 43
0.0000000001
 40
-1.0
 40
-1.0
 40
-1.0
 40
-1.0
 40
0.0
 40
0.0
 40
0.0
 40
0.0
 10
140.7887008773442
 20
95.4821408344617
 30
0.0
 41
1.0
 10
140.7878365612612
 20
95.47965065307883
 30
0.0
 41
1.0
 10
140.7498590252336
 20
95.43009071726141
 30
0.0
 41
1.0
 10
140.4663830151716
 20
95.39374333863319
 30
0.0
 41
1.0
  0
SPLINE
  5
7E
330
1F
100
AcDbEntity
  8
LINEE VISIBILI 2D
100
AcDbSpline
210
0.0
220
0.0
230
1.0
 70
    12
 71
     2
 72
     6
 73
     3
 74
     0
 42
0.0000000001
 43
0.0000000001
 40
0.0
 40
0.0
 40
0.0
 40
0.348564817045254
 40
0.348564817045254
 40
0.348564817045254
 10
141.121135866311
 20
95.37745822036653
 30
0.0
 41
1.0
 10
140.956243891531
 20
95.43400890957164
 30
0.0
 41
0.999679487907964
 10
140.7887008773442
 20
95.4821408344617
 30
0.0
 41
1.0
  0
SPLINE
  5
7F
330
1F
100
AcDbEntity
  8
LINEE VISIBILI 2D
100
AcDbSpline
210
0.0
220
0.0
230
1.0
 70
    12
 71
     2
 72
     6
 73
     3
 74
     0
 42
0.0000000001
 43
0.0000000001
 40
0.0
 40
0.0
 40
0.0
 40
0.0525656513384432
 40
0.0525656513384432
 40
0.0525656513384432
 10
141.1708273179741
 20
95.36021824983375
 30
0.0
 41
1.0
 10
141.1460187133291
 20
95.36889713935584
 30
0.0
 41
0.9999966748853543
 10
141.1211656765281
 20
95.37744796092644
 30
0.0
 41
1.0
  0
SPLINE
  5
80
330
1F
100
AcDbEntity
  8
LINEE VISIBILI 2D
100
AcDbSpline
210
0.0
220
0.0
230
1.0
 70
    12
 71
     2
 72
     6
 73
     3
 74
     0
 42
0.0000000001
 43
0.0000000001
 40
0.0
 40
0.0
 40
0.0
 40
0.3647912331566661
 40
0.3647912331566661
 40
0.3647912331566661
 10
140.3311059513391
 20
94.78909837632237
 30
0.0
 41
1.0
 10
140.1495183318442
 20
94.739487302138
 30
0.0
 41
0.9540523782451179
 10
139.9721732114399
 20
94.80260647913162
 30
0.0
 41
1.0
  0
SPLINE
  5
81
330
1F
100
AcDbEntity
  8
LINEE VISIBILI 2D
100
AcDbSpline
210
0.0
220
0.0
230
1.0
 70
    24
 71
     2
 72
     6
 73
     3
 74
     0
 42
0.0000000001
 43
0.0000000001
 40
0.0
 40
0.0
 40
0.0
 40
0.4707106781184791
 40
0.4707106781184791
 40
0.4707106781184791
 10
119.3763007715184
 20
124.1680440665666
 30
0.0
 10
119.2098794152812
 20
124.0016227103293
 30
0.0
 10
119.0434580590439
 20
123.8352013540921
 30
0.0
  0
SPLINE
  5
82
330
1F
100
AcDbEntity
  8
LINEE VISIBILI 2D
100
AcDbSpline
210
0.0
220
0.0
230
1.0
 70
    12
 71
     3
 72
    10
 73
     6
 74
     0
 42
0.0000000001
 43
0.0000000001
 40
-0.3489278544291643
 40
-0.3489278544291643
 40
-0.3489278544291643
 40
-0.3489278544291643
 40
-0.3130983607099375
 40
-0.3130983607099375
 40
-0.129993230834527
 40
-0.129993230834527
 40
-0.129993230834527
 40
-0.129993230834527
 10
140.3358136323188
 20
95.11144651577486
 30
0.0
 41
1.0
 10
140.3562534442131
 20
95.09432864015504
 30
0.0
 41
1.0
 10
140.3739079644379
 20
95.07689952669565
 30
0.0
 41
1.0
 10
140.4640163132967
 20
94.97005704942292
 30
0.0
 41
1.0
 10
140.4846427202836
 20
94.84858953721595
 30
0.0
 41
1.0
 10
140.3311059513391
 20
94.78909837632237
 30
0.0
 41
1.0
  0
SPLINE
  5
83
330
1F
100
AcDbEntity
  8
LINEE VISIBILI 2D
100
AcDbSpline
210
0.0
220
0.0
230
1.0
 70
    12
 71
     2
 72
     6
 73
     3
 74
     0
 42
0.0000000001
 43
0.0000000001
 40
0.0
 40
0.0
 40
0.0
 40
0.0732230589339141
 40
0.0732230589339141
 40
0.0732230589339141
 10
138.9413384768585
 20
123.7979562468444
 30
0.0
 41
1.0
 10
138.9056360770232
 20
123.8089029666181
 30
0.0
 41
0.9708794442843679
 10
138.8791240638202
 20
123.8352013540921
 30
0.0
 41
1.0
  0
SPLINE
  5
84
330
1F
100
AcDbEntity
  8
LINEE VISIBILI 2D
100
AcDbSpline
210
0.0
220
0.0
230
1.0
 70
    24
 71
     2
 72
     6
 73
     3
 74
     0
 42
0.0000000001
 43
0.0000000001
 40
0.0
 40
0.0
 40
0.0
 40
27.64775455622178
 40
27.64775455622178
 40
27.64775455622178
 10
140.890738330408
 20
123.7912673712701
 30
0.0
 10
127.0668610522971
 20
123.7912673712701
 30
0.0
 10
113.2429837741862
 20
123.7912673712701
 30
0.0
  0
SPLINE
  5
85
330
1F
100
AcDbEntity
  8
LINEE VISIBILI 2D
100
AcDbSpline
210
0.0
220
0.0
230
1.0
 70
    24
 71
     2
 72
     6
 73
     3
 74
     0
 42
0.0000000001
 43
0.0000000001
 40
0.0
 40
0.0
 40
0.0
 40
0.4707106781183536
 40
0.4707106781183536
 40
0.4707106781183536
 10
29.04077872801736
 20
124.1680440665666
 30
0.0
 10
28.87435737178016
 20
124.0016227103294
 30
0.0
 10
28.70793601554295
 20
123.8352013540922
 30
0.0
  0
SPLINE
  5
86
330
1F
100
AcDbEntity
  8
LINEE VISIBILI 2D
100
AcDbSpline
210
0.0
220
0.0
230
1.0
 70
    12
 71
     2
 72
     6
 73
     3
 74
     0
 42
0.0000000001
 43
0.0000000001
 40
0.0
 40
0.0
 40
0.0
 40
0.0993325292140547
 40
0.0993325292140547
 40
0.0993325292140547
 10
27.36695665647778
 20
93.04934317685477
 30
0.0
 41
1.0
 10
27.36730009616431
 20
92.99967794740195
 30
0.0
 41
0.9999954006127747
 10
27.36734226713338
 20
92.95001154840804
 30
0.0
 41
1.0
  0
SPLINE
  5
87
330
1F
100
AcDbEntity
  8
LINEE VISIBILI 2D
100
AcDbSpline
210
0.0
220
0.0
230
1.0
 70
    28
 71
     3
 72
    12
 73
     8
 74
     0
 42
0.0000000001
 43
0.0000000001
 40
-137.315635924304
 40
-137.315635924304
 40
-137.315635924304
 40
-137.315635924304
 40
-136.654850526741
 40
-124.639341453328
 40
-113.128505788256
 40
-101.675800045502
 40
-91.10323368449391
 40
-91.10323368449391
 40
-91.10323368449391
 40
-91.10323368449391
 10
58.99485688230679
 20
118.3912673712705
 30
0.0
 41
1.0
 10
58.99989330155087
 20
118.3912673712705
 30
0.0
 41
1.0
 10
59.04793241367803
 20
118.3912673712705
 30
0.0
 41
1.0
 10
57.3538465375167
 20
118.3912673712705
 30
0.0
 41
1.0
 10
50.5131560930171
 20
118.3912673712705
 30
0.0
 41
1.0
 10
40.86717523913409
 20
118.3912673712705
 30
0.0
 41
1.0
 10
33.52473528598471
 20
118.3912673712705
 30
0.0
 41
1.0
 10
30.00080327159645
 20
118.3912673712705
 30
0.0
 41
1.0
  0
SPLINE
  5
88
330
1F
100
AcDbEntity
  8
LINEE VISIBILI 2D
100
AcDbSpline
210
0.0
220
0.0
230
1.0
 70
    12
 71
     2
 72
     8
 73
     5
 74
     0
 42
0.0000000001
 43
0.0000000001
 40
0.0
 40
0.0
 40
0.0
 40
0.0073908091930342
 40
0.0073908091930342
 40
47.13123310365939
 40
47.13123310365939
 40
47.13123310365939
 10
0.0085248762696331
 20
120.3912674001966
 30
0.0
 41
1.0
 10
0.004829471673116
 20
120.3912674001967
 30
0.0
 41
1.0
 10
0.0011340670765989
 20
120.3912674001967
 30
0.0
 41
1.0
 10
0.001134067076603
 20
120.3912673712705
 30
0.0
 41
0.7071077893657821
 10
30.00104852017085
 20
120.3912673712705
 30
0.0
 41
1.0
  0
SPLINE
  5
89
330
1F
100
AcDbEntity
  8
LINEE VISIBILI 2D
100
AcDbSpline
210
0.0
220
0.0
230
1.0
 70
    24
 71
     2
 72
     6
 73
     3
 74
     0
 42
0.0000000001
 43
0.0000000001
 40
0.0
 40
0.0
 40
0.0
 40
29.99146287922526
 40
29.99146287922526
 40
29.99146287922526
 10
30.00104852017085
 20
120.3912673712705
 30
0.0
 10
44.99677995978347
 20
120.3912673712705
 30
0.0
 10
59.99251139939611
 20
120.3912673712705
 30
0.0
  0
SPLINE
  5
8A
330
1F
100
AcDbEntity
  8
LINEE VISIBILI 2D
100
AcDbSpline
210
0.0
220
0.0
230
1.0
 70
    28
 71
     2
 72
     8
 73
     5
 74
     0
 42
0.0000000001
 43
0.0000000001
 40
35.82741267654198
 40
35.82741267654198
 40
35.82741267654198
 40
45.25567917036879
 40
45.25567917036879
 40
60.34090556049179
 40
60.34090556049179
 40
60.34090556049179
 10
21.00411579942601
 20
124.1680440665666
 30
0.0
 41
0.8627063036811939
 10
20.9423841766745
 20
124.1680440665666
 30
0.0
 41
0.8169417382415918
 10
21.3403629014838
 20
124.1680440665666
 30
0.0
 41
1.0
 10
22.07603777238984
 20
124.1680440665666
 30
0.0
 41
0.7071067811865471
 10
22.69334228523352
 20
124.1680440665666
 30
0.0
 41
1.0
  0
SPLINE
  5
8B
330
1F
100
AcDbEntity
  8
LINEE VISIBILI 2D
100
AcDbSpline
210
0.0
220
0.0
230
1.0
 70
    12
 71
     2
 72
     6
 73
     3
 74
     0
 42
0.0000000001
 43
0.0000000001
 40
0.0
 40
0.0
 40
0.0
 40
0.1048606381343325
 40
0.1048606381343325
 40
0.1048606381343325
 10
33.20573664834608
 20
95.48220081171779
 30
0.0
 41
1.0
 10
33.2048835438108
 20
95.42977740923536
 30
0.0
 41
0.9999993021766126
 10
33.20390657837577
 20
95.37735616875284
 30
0.0
 41
1.0
  0
SPLINE
  5
8C
330
1F
100
AcDbEntity
  8
LINEE VISIBILI 2D
100
AcDbSpline
210
0.0
220
0.0
230
1.0
 70
    12
 71
     2
 72
     6
 73
     3
 74
     0
 42
0.0000000001
 43
0.0000000001
 40
0.0
 40
0.0
 40
0.0
 40
0.0791695154559109
 40
0.0791695154559109
 40
0.0791695154559109
 10
28.70793601554299
 20
123.8352013540921
 30
0.0
 41
1.0
 10
28.6792769607311
 20
123.8065422992802
 30
0.0
 41
0.9653804384434032
 10
28.64008427218773
 20
123.7962167963791
 30
0.0
 41
1.0
  0
SPLINE
  5
8D
330
1F
100
AcDbEntity
  8
LINEE VISIBILI 2D
100
AcDbSpline
210
0.0
220
0.0
230
1.0
 70
    12
 71
     2
 72
     6
 73
     3
 74
     0
 42
0.0000000001
 43
0.0000000001
 40
0.0
 40
0.0
 40
0.0
 40
0.0946356786949825
 40
0.0946356786949825
 40
0.0946356786949825
 10
31.37731616747121
 20
123.7930539348393
 30
0.0
 41
1.0
 10
31.32894674211639
 20
123.8005867305862
 30
0.0
 41
0.9506561633654081
 10
31.29433211861043
 20
123.8352013540922
 30
0.0
 41
1.0
  0
SPLINE
  5
8E
330
1F
100
AcDbEntity
  8
LINEE VISIBILI 2D
100
AcDbSpline
210
0.0
220
0.0
230
1.0
 70
    24
 71
     2
 72
     6
 73
     3
 74
     0
 42
0.0000000001
 43
0.0000000001
 40
0.0
 40
0.0
 40
0.0
 40
0.9603553390593475
 40
0.9603553390593475
 40
0.9603553390593475
 10
29.04077872801736
 20
124.1680440665666
 30
0.0
 10
29.52095639754703
 20
124.1680440665666
 30
0.0
 10
30.00113406707671
 20
124.1680440665666
 30
0.0
  0
SPLINE
  5
8F
330
1F
100
AcDbEntity
  8
LINEE VISIBILI 2D
100
AcDbSpline
210
0.0
220
0.0
230
1.0
 70
    12
 71
     2
 72
     6
 73
     3
 74
     0
 42
0.0000000001
 43
0.0000000001
 40
0.0
 40
0.0
 40
0.0
 40
0.0947313256533724
 40
0.0947313256533724
 40
0.0947313256533724
 10
36.75140266829242
 20
123.8352013540923
 30
0.0
 41
1.0
 10
36.7167506230067
 20
123.8005493088066
 30
0.0
 41
0.9505572012869119
 10
36.66832410698298
 20
123.793039246838
 30
0.0
 41
1.0
  0
SPLINE
  5
90
330
1F
100
AcDbEntity
  8
LINEE VISIBILI 2D
100
AcDbSpline
210
0.0
220
0.0
230
1.0
 70
    12
 71
     2
 72
     6
 73
     3
 74
     0
 42
0.0000000001
 43
0.0000000001
 40
0.0
 40
0.0
 40
0.0
 40
1.570449040266483
 40
1.570449040266483
 40
1.570449040266483
 10
97.08592457083433
 20
119.3912673712705
 30
0.0
 41
1.0
 10
97.08592682282072
 20
118.3916158825903
 30
0.0
 41
0.7072308058856692
 10
98.08557825077308
 20
118.3912674312559
 30
0.0
 41
1.0
  0
SPLINE
  5
91
330
1F
100
AcDbEntity
  8
LINEE VISIBILI 2D
100
AcDbSpline
210
0.0
220
0.0
230
1.0
 70
    12
 71
     2
 72
     6
 73
     3
 74
     0
 42
0.0000000001
 43
0.0000000001
 40
0.0
 40
0.0
 40
0.0
 40
0.0557736641089741
 40
0.0557736641089741
 40
0.0557736641089741
 10
33.09848446522706
 20
95.41344488608206
 30
0.0
 41
1.0
 10
33.11845129699383
 20
95.38930155129893
 30
0.0
 41
0.8430125553243133
 10
33.14875978163281
 20
95.3972369620723
 30
0.0
 41
1.0
  0
SPLINE
  5
92
330
1F
100
AcDbEntity
  8
LINEE VISIBILI 2D
100
AcDbSpline
210
0.0
220
0.0
230
1.0
 70
    12
 71
     2
 72
     6
 73
     3
 74
     0
 42
0.0000000001
 43
0.0000000001
 40
0.0
 40
0.0
 40
0.0
 40
0.0261761898551611
 40
0.0261761898551611
 40
0.0261761898551611
 10
33.09682834890342
 20
95.50832372762375
 30
0.0
 41
1.0
 10
33.09705257697554
 20
95.49523755356181
 30
0.0
 41
0.9999999957347929
 10
33.09727922232824
 20
95.48215142114266
 30
0.0
 41
1.0
  0
SPLINE
  5
93
330
1F
100
AcDbEntity
  8
LINEE VISIBILI 2D
100
AcDbSpline
210
0.0
220
0.0
230
1.0
 70
    12
 71
     2
 72
     6
 73
     3
 74
     0
 42
0.0000000001
 43
0.0000000001
 40
0.0
 40
0.0
 40
0.0
 40
1.956757469403724
 40
1.956757469403724
 40
1.956757469403724
 10
31.14290177031714
 20
95.40753777516162
 30
0.0
 41
1.0
 10
32.1185169282096
 20
95.48406683197599
 30
0.0
 41
0.9996423473912134
 10
33.09682834890342
 20
95.50832372762375
 30
0.0
 41
1.0
  0
SPLINE
  5
94
330
1F
100
AcDbEntity
  8
LINEE VISIBILI 2D
100
AcDbSpline
210
0.0
220
0.0
230
1.0
 70
    12
 71
     2
 72
     6
 73
     3
 74
     0
 42
0.0000000001
 43
0.0000000001
 40
0.0
 40
0.0
 40
0.0
 40
0.0259830594198139
 40
0.0259830594198139
 40
0.0259830594198139
 10
33.20513937827015
 20
95.4822111026473
 30
0.0
 41
1.0
 10
33.20536010339172
 20
95.49520075757831
 30
0.0
 41
0.9999999528842266
 10
33.20557285356258
 20
95.50819054557393
 30
0.0
 41
1.0
  0
SPLINE
  5
95
330
1F
100
AcDbEntity
  8
LINEE VISIBILI 2D
100
AcDbSpline
210
0.0
220
0.0
230
1.0
 70
    12
 71
     2
 72
     6
 73
     3
 74
     0
 42
0.0000000001
 43
0.0000000001
 40
0.0
 40
0.0
 40
0.0
 40
0.0470230353427268
 40
0.0470230353427268
 40
0.0470230353427268
 10
124.2370776446896
 20
93.25727495149081
 30
0.0
 41
1.0
 10
124.2361371908581
 20
93.23378222015611
 30
0.0
 41
0.9999980791689962
 10
124.2351046522234
 20
93.21029335592346
 30
0.0
 41
1.0
  0
SPLINE
  5
96
330
1F
100
AcDbEntity
  8
LINEE VISIBILI 2D
100
AcDbSpline
210
0.0
220
0.0
230
1.0
 70
    12
 71
     2
 72
     6
 73
     3
 74
     0
 42
0.0000000001
 43
0.0000000001
 40
0.0
 40
0.0
 40
0.0
 40
0.0099667520008506
 40
0.0099667520008506
 40
0.0099667520008506
 10
124.2367472459528
 20
93.31111679867445
 30
0.0
 41
1.0
 10
124.2369276648739
 20
93.30613656900005
 30
0.0
 41
0.9999636936301897
 10
124.2370231852751
 20
93.30115398789692
 30
0.0
 41
1.0
  0
SPLINE
  5
97
330
1F
100
AcDbEntity
  8
LINEE VISIBILI 2D
100
AcDbSpline
210
0.0
220
0.0
230
1.0
 70
    24
 71
     2
 72
     6
 73
     3
 74
     0
 42
0.0000000001
 43
0.0000000001
 40
0.0
 40
0.0
 40
0.0
 40
0.0653096171444645
 40
0.0653096171444645
 40
0.0653096171444645
 10
139.5358136333226
 20
95.13648668447759
 30
0.0
 10
139.5031588247503
 20
95.13648668447759
 30
0.0
 10
139.4705040161781
 20
95.13648668447759
 30
0.0
  0
SPLINE
  5
98
330
1F
100
AcDbEntity
  8
LINEE VISIBILI 2D
100
AcDbSpline
210
0.0
220
0.0
230
1.0
 70
    12
 71
     2
 72
     6
 73
     3
 74
     0
 42
0.0000000001
 43
0.0000000001
 40
0.0
 40
0.0
 40
0.0
 40
0.0890099752695967
 40
0.0890099752695967
 40
0.0890099752695967
 10
23.32830835052854
 20
123.7940236403839
 30
0.0
 41
1.0
 10
23.28329239928257
 20
123.8027744206709
 30
0.0
 41
0.9563065263363368
 10
23.25086546586133
 20
123.8352013540921
 30
0.0
 41
1.0
  0
SPLINE
  5
99
330
1F
100
AcDbEntity
  8
LINEE VISIBILI 2D
100
AcDbSpline
210
0.0
220
0.0
230
1.0
 70
     8
 71
     3
 72
    15
 73
    11
 74
     0
 42
0.0000000001
 43
0.0000000001
 40
0.0
 40
0.0
 40
0.0
 40
0.0
 40
0.0076472780125923
 40
0.013427979680417
 40
0.0308123760972479
 40
0.0912563655779766
 40
0.2653842142279217
 40
0.7664694750101635
 40
1.401761517002697
 40
3.727486498350696
 40
3.727486498350696
 40
3.727486498350696
 40
3.727486498350696
 10
36.91127430033513
 20
95.45515278848597
 30
0.0
 10
36.91288472072435
 20
95.45553180375216
 30
0.0
 10
36.92170776124099
 20
95.45559978374107
 30
0.0
 10
36.9091120340335
 20
95.45194423159388
 30
0.0
 10
36.88228142658887
 20
95.44840384242396
 30
0.0
 10
36.7988007938473
 20
95.43655230432664
 30
0.0
 10
36.55443300988901
 20
95.41673991103122
 30
0.0
 10
36.11914753656079
 20
95.38063108552256
 30
0.0
 10
34.96419453937945
 20
95.34887731211176
 30
0.0
 10
33.9812946287811
 20
95.48397927577253
 30
0.0
 10
33.20573664834607
 20
95.48220081171779
 30
0.0
  0
SPLINE
  5
9A
330
1F
100
AcDbEntity
  8
LINEE VISIBILI 2D
100
AcDbSpline
210
0.0
220
0.0
230
1.0
 70
    12
 71
     2
 72
     6
 73
     3
 74
     0
 42
0.0000000001
 43
0.0000000001
 40
0.0
 40
0.0
 40
0.0
 40
0.1031975969976053
 40
0.1031975969976053
 40
0.1031975969976053
 10
135.8306964405677
 20
38.81413359237969
 30
0.0
 41
1.0
 10
135.7793246568758
 20
38.81896951114229
 30
0.0
 41
0.999997108830205
 10
135.7279302099853
 20
38.82355831259613
 30
0.0
 41
1.0
  0
SPLINE
  5
9B
330
1F
100
AcDbEntity
  8
LINEE VISIBILI 2D
100
AcDbSpline
210
0.0
220
0.0
230
1.0
 70
    12
 71
     2
 72
    12
 73
     9
 74
     0
 42
0.0000000001
 43
0.0000000001
 40
0.0
 40
0.0
 40
0.0
 40
23.56272303735153
 40
23.56272303735153
 40
47.12544607470305
 40
47.12544607470305
 40
70.68816911205456
 40
70.68816911205456
 40
94.2508921494061
 40
94.2508921494061
 40
94.2508921494061
 10
157.0865732062419
 20
30.0009201925119
 30
0.0
 41
1.0
 10
157.0870539543712
 20
42.42776820221698
 30
0.0
 41
0.9238761723515043
 10
148.3001310844419
 20
51.21506233439117
 30
0.0
 41
1.0
 10
139.5132082145124
 20
60.0023564665653
 30
0.0
 41
0.9238761723515043
 10
127.0863601955872
 20
60.00240076253778
 30
0.0
 41
1.0
 10
114.6595121766618
 20
60.00244505851021
 30
0.0
 41
0.9238761723515043
 10
105.8725266616674
 20
51.21521356920097
 30
0.0
 41
1.0
 10
97.08554114667297
 20
42.4279820798917
 30
0.0
 41
0.9238761723515043
 10
97.08593330285742
 20
30.00113406707511
 30
0.0
 41
1.0
  0
SPLINE
  5
9C
330
1F
100
AcDbEntity
  8
LINEE VISIBILI 2D
100
AcDbSpline
210
0.0
220
0.0
230
1.0
 70
    12
 71
     2
 72
    12
 73
     9
 74
     0
 42
0.0000000001
 43
0.0000000001
 40
0.0
 40
0.0
 40
0.0
 40
23.56254958333532
 40
23.56254958333532
 40
47.12509916667063
 40
47.12509916667063
 40
70.68764875000595
 40
70.68764875000595
 40
94.25019833334127
 40
94.25019833334127
 40
94.25019833334127
 10
97.08593330285745
 20
30.0011340670751
 30
0.0
 41
1.0
 10
97.08559624844211
 20
17.57438765980271
 30
0.0
 41
0.9238772786079481
 10
105.8724980757132
 20
8.787216177342465
 30
0.0
 41
1.0
 10
114.6593999029843
 20
0.0000446948822185
 30
0.0
 41
0.9238772786079481
 10
127.0861463147487
 20
0.0000003992719506
 30
0.0
 41
1.0
 10
139.5128927265132
 20
-0.0000438963383194
 30
0.0
 41
0.9238772786079481
 10
148.299857197975
 20
8.787064943407031
 30
0.0
 41
1.0
 10
157.0868216694368
 20
17.57417378315239
 30
0.0
 41
0.9238772786079481
 10
157.0865732062419
 20
30.00092019251189
 30
0.0
 41
1.0
  0
SPLINE
  5
9D
330
1F
100
AcDbEntity
  8
LINEE VISIBILI 2D
100
AcDbSpline
210
0.0
220
0.0
230
1.0
 70
    12
 71
     2
 72
     6
 73
     3
 74
     0
 42
0.0000000001
 43
0.0000000001
 40
0.0
 40
0.0
 40
0.0
 40
0.4953614749904856
 40
0.4953614749904856
 40
0.4953614749904856
 10
142.3794272912985
 20
35.78889310062524
 30
0.0
 41
1.0
 10
142.4903733187955
 20
35.56708446272098
 30
0.0
 41
0.9980203104060009
 10
142.5725967183731
 20
35.33310282791137
 30
0.0
 41
1.0
  0
SPLINE
  5
9E
330
1F
100
AcDbEntity
  8
LINEE VISIBILI 2D
100
AcDbSpline
210
0.0
220
0.0
230
1.0
 70
     8
 71
     3
 72
    12
 73
     8
 74
     0
 42
0.0000000001
 43
0.0000000001
 40
0.0
 40
0.0
 40
0.0
 40
0.0
 40
1.31820006677416
 40
2.423049301888949
 40
4.459875509607254
 40
6.043678832069922
 40
7.517213809404517
 40
7.517213809404517
 40
7.517213809404517
 40
7.517213809404517
 10
135.8307952119837
 20
38.81516750070777
 30
0.0
 10
136.2681061111732
 20
38.77283447694617
 30
0.0
 10
137.0702535374534
 20
38.67395099773647
 30
0.0
 10
138.5304338478257
 20
38.39163288965105
 30
0.0
 10
140.0410418167402
 20
37.92395658806535
 30
0.0
 10
141.5147917697461
 20
37.04349322045728
 30
0.0
 10
142.1605213459679
 20
36.22828521849955
 30
0.0
 10
142.3794272912985
 20
35.7888931006253
 30
0.0
  0
SPLINE
  5
9F
330
1F
100
AcDbEntity
  8
LINEE VISIBILI 2D
100
AcDbSpline
210
0.0
220
0.0
230
1.0
 70
     8
 71
     3
 72
    19
 73
    15
 74
     0
 42
0.0000000001
 43
0.0000000001
 40
0.0
 40
0.0
 40
0.0
 40
0.0
 40
1.788096650738601
 40
2.413608651105397
 40
3.080845793632024
 40
4.06149486788258
 40
4.846752071766676
 40
5.635383877811881
 40
7.196743036321036
 40
9.108889492726474
 40
11.45226139292655
 40
14.24671291960635
 40
15.78989881060883
 40
17.33899237262219
 40
17.33899237262219
 40
17.33899237262219
 40
17.33899237262219
 10
124.7228266533135
 20
30.545172419214
 30
0.0
 10
124.4674070421184
 20
31.08552140931617
 30
0.0
 10
124.2830694624423
 20
31.87918022009675
 30
0.0
 10
124.2333307903503
 20
32.90496785294151
 30
0.0
 10
124.2370658309641
 20
33.66289209344008
 30
0.0
 10
124.3123759537787
 20
34.47265188176432
 30
0.0
 10
124.5181641756928
 20
35.30037789559568
 30
0.0
 10
124.9451590786053
 20
36.26303583150138
 30
0.0
 10
125.9376694829805
 20
37.31964897435436
 30
0.0
 10
127.7050387473398
 20
38.17064618872911
 30
0.0
 10
129.9972912289175
 20
38.70867393773035
 30
0.0
 10
132.2221990117253
 20
38.90716566829935
 30
0.0
 10
134.1832032078971
 20
38.92668777355288
 30
0.0
 10
135.2140601453582
 20
38.87044601241289
 30
0.0
 10
135.728037172318
 20
38.82473530730959
 30
0.0
  0
SPLINE
  5
A0
330
1F
100
AcDbEntity
  8
LINEE VISIBILI 2D
100
AcDbSpline
210
0.0
220
0.0
230
1.0
 70
    12
 71
     3
 72
    52
 73
    48
 74
     0
 42
0.0000000001
 43
0.0000000001
 40
0.0
 40
0.0
 40
0.0
 40
0.0
 40
2.070307630601483
 40
2.070307630601483
 40
2.070307630601483
 40
3.158793796847784
 40
3.158793796847784
 40
3.158793796847784
 40
4.574688291067041
 40
6.303212270635937
 40
10.26576223368944
 40
14.02406657711613
 40
15.6698746940262
 40
16.98938711298135
 40
16.98938711298135
 40
16.98938711298135
 40
17.81365602288714
 40
17.81365602288714
 40
17.81365602288714
 40
18.80119628664301
 40
18.80119628664301
 40
18.80119628664301
 40
19.84958785812545
 40
19.84958785812545
 40
19.84958785812545
 40
20.76335018477653
 40
20.76335018477653
 40
20.76335018477653
 40
21.90627050626341
 40
21.90627050626341
 40
21.90627050626341
 40
22.02730318156711
 40
22.02730318156711
 40
22.02730318156711
 40
22.13010651351399
 40
22.13010651351399
 40
22.13010651351399
 40
22.21024645331694
 40
22.21024645331694
 40
22.21024645331694
 40
22.31436994565539
 40
22.31436994565539
 40
22.31436994565539
 40
22.78546557287696
 40
22.78546557287696
 40
22.78546557287696
 40
24.57152288403486
 40
24.57152288403486
 40
24.57152288403486
 40
24.57152288403486
 10
124.7228266533135
 20
30.545172419214
 30
0.0
 41
1.0
 10
125.0343290421806
 20
29.92068731423104
 30
0.0
 41
0.9779508481571834
 10
125.4948075843927
 20
29.39630682567544
 30
0.0
 41
0.9779508481571834
 10
126.0738027960569
 20
29.006717388594
 30
0.0
 41
1.0
 10
126.3727052060054
 20
28.80019770238908
 30
0.0
 41
0.9973618905194548
 10
126.6887791352188
 20
28.62106003819007
 30
0.0
 41
0.9973618905194548
 10
127.0195230708098
 20
28.47072215030777
 30
0.0
 41
1.0
 10
127.4485878437179
 20
28.27293950506102
 30
0.0
 41
1.0
 10
128.4402557936833
 20
27.9268903057553
 30
0.0
 41
1.0
 10
130.7672561203552
 20
27.45526000174271
 30
0.0
 41
1.0
 10
133.9212188340243
 20
27.28101751524841
 30
0.0
 41
1.0
 10
137.041607329745
 20
27.54571148622347
 30
0.0
 41
1.0
 10
139.2240343330365
 20
28.08397523899328
 30
0.0
 41
1.0
 10
140.1368570459777
 20
28.47132529999764
 30
0.0
 41
1.0
 10
140.5240074508758
 20
28.68023792984572
 30
0.0
 41
1.0
 10
140.766012375732
 20
28.81086277090176
 30
0.0
 41
0.9981730783684845
 10
140.9976902991676
 20
28.9590335256004
 30
0.0
 41
0.9981730783684843
 10
141.2177714489537
 20
29.12393810487094
 30
0.0
 41
1.0
 10
141.4823615686899
 20
29.32110709788951
 30
0.0
 41
0.9951908703017359
 10
141.7214029951298
 20
29.5485774030187
 30
0.0
 41
0.9951908703017357
 10
141.9314469846043
 20
29.8030672176589
 30
0.0
 41
1.0
 10
142.1526721643407
 20
30.07504758329411
 30
0.0
 41
0.9935877598146053
 10
142.334137611411
 20
30.37502123373704
 30
0.0
 41
0.9935877598146053
 10
142.4723525257193
 20
30.6972176596999
 30
0.0
 41
1.0
 10
142.5920966113817
 20
30.97783120546618
 30
0.0
 41
0.9966809663944141
 10
142.6832783185892
 20
31.26898151782968
 30
0.0
 41
0.9966809663944136
 10
142.7449897418905
 20
31.56776958377738
 30
0.0
 41
1.0
 10
142.8210696353408
 20
31.94151615825631
 30
0.0
 41
0.9977056149785436
 10
142.8659065812637
 20
32.32028297359582
 30
0.0
 41
0.9977056149785438
 10
142.879191960008
 20
32.70146291907272
 30
0.0
 41
1.0
 10
142.8809002417136
 20
32.74177112897101
 30
0.0
 41
0.9999916982216939
 10
142.8824073436634
 20
32.78208736211978
 30
0.0
 41
0.9999916982216934
 10
142.883713228322
 20
32.82241061442969
 30
0.0
 41
1.0
 10
142.8848219952817
 20
32.85666056270836
 30
0.0
 41
0.9999933925078181
 10
142.8857782625035
 20
32.89091510801644
 30
0.0
 41
0.9999933925078181
 10
142.8865820110318
 20
32.92517357134397
 30
0.0
 41
1.0
 10
142.8872082270509
 20
32.9518796016736
 30
0.0
 41
0.9999956604336153
 10
142.8877380799624
 20
32.97858771763794
 30
0.0
 41
0.9999956604336148
 10
142.8881715628678
 20
33.00529757153196
 30
0.0
 41
1.0
 10
142.8887352702564
 20
33.04000096152006
 30
0.0
 41
0.9999920928798127
 10
142.8891299500588
 20
33.07470668540732
 30
0.0
 41
0.9999920928798124
 10
142.8893555929127
 20
33.10941391992678
 30
0.0
 41
1.0
 10
142.8904885304178
 20
33.26645772715236
 30
0.0
 41
0.9997960276339533
 10
142.8877366323623
 20
33.42348150876645
 30
0.0
 41
0.9997960276339529
 10
142.8811015826798
 20
33.58038917923227
 30
0.0
 41
1.0
 10
142.8646578907595
 20
34.1776609160136
 30
0.0
 41
0.9928385940354791
 10
142.7610811811246
 20
34.76611294276082
 30
0.0
 41
0.992838594035479
 10
142.5725967183731
 20
35.33310282791137
 30
0.0
 41
1.0
  0
SPLINE
  5
A1
330
1F
100
AcDbEntity
  8
LINEE VISIBILI 2D
100
AcDbSpline
210
0.0
220
0.0
230
1.0
 70
    24
 71
     2
 72
     6
 73
     3
 74
     0
 42
0.0000000001
 43
0.0000000001
 40
0.0
 40
0.0
 40
0.0
 40
19.94819922888923
 40
19.94819922888923
 40
19.94819922888923
 10
16.7506456312781
 20
5.522913596849295
 30
0.0
 10
16.99690466147355
 20
15.49397269851505
 30
0.0
 10
17.24316369166901
 20
25.4650318001808
 30
0.0
  0
SPLINE
  5
A2
330
1F
100
AcDbEntity
  8
LINEE VISIBILI 2D
100
AcDbSpline
210
0.0
220
0.0
230
1.0
 70
    24
 71
     2
 72
     6
 73
     3
 74
     0
 42
0.0000000001
 43
0.0000000001
 40
0.0
 40
0.0
 40
0.0
 40
27.84852814997595
 40
27.84852814997595
 40
27.84852814997595
 10
18.24962811129028
 20
33.52934522827933
 30
0.0
 10
17.92260329413503
 20
19.60892193015489
 30
0.0
 10
17.59557847697978
 20
5.688498632030467
 30
0.0
  0
SPLINE
  5
A3
330
1F
100
AcDbEntity
  8
LINEE VISIBILI 2D
100
AcDbSpline
210
0.0
220
0.0
230
1.0
 70
    24
 71
     2
 72
     6
 73
     3
 74
     0
 42
0.0000000001
 43
0.0000000001
 40
0.0
 40
0.0
 40
0.0
 40
0.986123973100444
 40
0.986123973100444
 40
0.986123973100444
 10
59.96308314800179
 20
31.71502334704291
 30
0.0
 10
59.98213182759538
 20
31.22232945588269
 30
0.0
 10
60.00118050718898
 20
30.72963556472248
 30
0.0
  0
SPLINE
  5
A4
330
1F
100
AcDbEntity
  8
LINEE VISIBILI 2D
100
AcDbSpline
210
0.0
220
0.0
230
1.0
 70
     8
 71
     3
 72
    15
 73
    11
 74
     0
 42
0.0000000001
 43
0.0000000001
 40
0.0
 40
0.0
 40
0.0
 40
0.0
 40
3.929359579251947
 40
7.514654770884082
 40
10.65153160610678
 40
13.30671896555962
 40
15.4339871186608
 40
17.11770139602067
 40
18.48148971211378
 40
19.71429098228078
 40
19.71429098228078
 40
19.71429098228078
 40
19.71429098228078
 10
17.20617262325442
 20
23.9672587881491
 30
0.0
 10
15.90502394690569
 20
24.11734948782975
 30
0.0
 10
13.42213714861799
 20
24.45340295487451
 30
0.0
 10
9.930578797345884
 20
25.10508893488398
 30
0.0
 10
6.896603661918259
 20
25.86431013112509
 30
0.0
 10
4.394051021365705
 20
26.71447993435018
 30
0.0
 10
2.444300735659264
 20
27.64460044664148
 30
0.0
 10
1.035149901661823
 20
28.65817547068468
 30
0.0
 10
0.1613766382014794
 20
29.81638305409593
 30
0.0
 10
-0.0193154569066332
 20
30.69042204713064
 30
0.0
 10
0.0031004893897014
 20
31.10003006112316
 30
0.0
  0
SPLINE
  5
A5
330
1F
100
AcDbEntity
  8
LINEE VISIBILI 2D
100
AcDbSpline
210
0.0
220
0.0
230
1.0
 70
     8
 71
     3
 72
    13
 73
     9
 74
     0
 42
0.0000000001
 43
0.0000000001
 40
0.0
 40
0.0
 40
0.0
 40
0.0
 40
3.182007664608628
 40
7.104883428994943
 40
11.67689270594563
 40
16.73010553688506
 40
27.71355105373602
 40
38.59393321777158
 40
38.59393321777158
 40
38.59393321777158
 40
38.59393321777158
 10
56.2174751726236
 20
26.7237217193855
 30
0.0
 10
55.24397205959963
 20
26.30127204648409
 30
0.0
 10
52.99391643069411
 20
25.54930808121494
 30
0.0
 10
49.19533235991825
 20
24.68588521461752
 30
0.0
 10
44.73014114480832
 20
23.99660723648542
 30
0.0
 10
37.89048254108003
 20
23.32986517327201
 30
0.0
 10
28.91294441468241
 20
23.09309025431821
 30
0.0
 10
21.62985321803545
 20
23.49246886944043
 30
0.0
 10
18.02286121296558
 20
23.87658785609406
 30
0.0
  0
SPLINE
  5
A6
330
1F
100
AcDbEntity
  8
LINEE VISIBILI 2D
100
AcDbSpline
210
0.0
220
0.0
230
1.0
 70
    24
 71
     2
 72
     6
 73
     3
 74
     0
 42
0.0000000001
 43
0.0000000001
 40
0.0
 40
0.0
 40
0.0
 40
0.9961279933986826
 40
0.9961279933986826
 40
0.9961279933986826
 10
0.0037402938316973
 20
31.09999844447007
 30
0.0
 10
0.0288814021367472
 20
31.59742750421761
 30
0.0
 10
0.0540225104417971
 20
32.09485656396514
 30
0.0
  0
SPLINE
  5
A7
330
1F
100
AcDbEntity
  8
LINEE VISIBILI 2D
100
AcDbSpline
210
0.0
220
0.0
230
1.0
 70
     8
 71
     3
 72
    12
 73
     8
 74
     0
 42
0.0000000001
 43
0.0000000001
 40
0.0
 40
0.0
 40
0.0
 40
0.0
 40
0.5688685922874058
 40
1.157280277397618
 40
2.419111413393835
 40
3.950321000030574
 40
5.847462972759553
 40
5.847462972759553
 40
5.847462972759553
 40
5.847462972759553
 10
60.00049652600829
 20
30.72684246516396
 30
0.0
 10
60.0080354042819
 20
30.53645174478546
 30
0.0
 10
59.97921487990883
 20
30.15170691540716
 30
0.0
 10
59.74230606870783
 20
29.37203451691699
 30
0.0
 10
59.07408458959157
 20
28.44276340624456
 30
0.0
 10
57.82081176907546
 20
27.49034063528817
 30
0.0
 10
56.7973824579532
 20
26.97638034619228
 30
0.0
 10
56.21747505708485
 20
26.72372198370102
 30
0.0
  0
SPLINE
  5
A8
330
1F
100
AcDbEntity
  8
LINEE VISIBILI 2D
100
AcDbSpline
210
0.0
220
0.0
230
1.0
 70
    24
 71
     2
 72
     6
 73
     3
 74
     0
 42
0.0000000001
 43
0.0000000001
 40
0.0
 40
0.0
 40
0.0
 40
0.0884095552545605
 40
0.0884095552545605
 40
0.0884095552545605
 10
16.66400985499543
 20
5.595823411084945
 30
0.0
 10
16.70820236458798
 20
5.594782036517379
 30
0.0
 10
16.75239487418053
 20
5.593740661949814
 30
0.0
  0
SPLINE
  5
A9
330
1F
100
AcDbEntity
  8
LINEE VISIBILI 2D
100
AcDbSpline
210
0.0
220
0.0
230
1.0
 70
    12
 71
     2
 72
     6
 73
     3
 74
     0
 42
0.0000000001
 43
0.0000000001
 40
0.0
 40
0.0
 40
0.0
 40
0.0976819251089904
 40
0.0976819251089904
 40
0.0976819251089904
 10
32.1604483056074
 20
3.485883227720109
 30
0.0
 41
1.0
 10
32.15907102806802
 20
3.43706167127882
 30
0.0
 41
0.9999994832651555
 10
32.15779301701788
 20
3.388237415477773
 30
0.0
 41
1.0
  0
SPLINE
  5
AA
330
1F
100
AcDbEntity
  8
LINEE VISIBILI 2D
100
AcDbSpline
210
0.0
220
0.0
230
1.0
 70
     8
 71
     3
 72
    12
 73
     8
 74
     0
 42
0.0000000001
 43
0.0000000001
 40
0.0
 40
0.0
 40
0.0
 40
0.0
 40
0.5602975790789185
 40
1.05011475021596
 40
1.884357640725597
 40
2.606855496048056
 40
3.361225825712922
 40
3.361225825712922
 40
3.361225825712922
 40
3.361225825712922
 10
29.9679612733624
 20
5.696258026071579
 30
0.0
 10
30.14572864940734
 20
5.640982919119525
 30
0.0
 10
30.47875753802435
 20
5.527008642291329
 30
0.0
 10
31.04860701709467
 20
5.266926064006356
 30
0.0
 10
31.62417362694433
 20
4.883774175665481
 30
0.0
 10
32.07057600624796
 20
4.236203176742382
 30
0.0
 10
32.15312902919603
 20
3.737839315613036
 30
0.0
 10
32.1591486285366
 20
3.4883395068311
 30
0.0
  0
SPLINE
  5
AB
330
1F
100
AcDbEntity
  8
LINEE VISIBILI 2D
100
AcDbSpline
210
0.0
220
0.0
230
1.0
 70
    12
 71
     2
 72
     6
 73
     3
 74
     0
 42
0.0000000001
 43
0.0000000001
 40
0.0
 40
0.0
 40
0.0
 40
0.3581183153001151
 40
0.3581183153001151
 40
0.3581183153001151
 10
15.32115145929636
 20
5.883188492060884
 30
0.0
 41
1.0
 10
15.49171711211657
 20
5.937796365329711
 30
0.0
 41
0.9997081825483517
 10
15.66472122809009
 20
5.984102278571493
 30
0.0
 41
1.0
  0
SPLINE
  5
AC
330
1F
100
AcDbEntity
  8
LINEE VISIBILI 2D
100
AcDbSpline
210
0.0
220
0.0
230
1.0
 70
     8
 71
     3
 72
    12
 73
     8
 74
     0
 42
0.0000000001
 43
0.0000000001
 40
0.0
 40
0.0
 40
0.0
 40
0.0
 40
0.3918799839518899
 40
0.7599992502947841
 40
1.46836178069073
 40
2.246550914720746
 40
3.185759660683592
 40
3.185759660683592
 40
3.185759660683592
 40
3.185759660683592
 10
13.2680312355188
 20
3.656145725867937
 30
0.0
 10
13.27388155189895
 20
3.786812404723579
 30
0.0
 10
13.30435698224526
 20
4.038591819361212
 30
0.0
 10
13.43490326153074
 20
4.512541406185786
 30
0.0
 10
13.76792722336212
 20
5.04676444638108
 30
0.0
 10
14.42137541426729
 20
5.540995200992224
 30
0.0
 10
14.95265199031166
 20
5.759970829417483
 30
0.0
 10
15.24954042808641
 20
5.859732335812389
 30
0.0
  0
SPLINE
  5
AD
330
1F
100
AcDbEntity
  8
LINEE VISIBILI 2D
100
AcDbSpline
210
0.0
220
0.0
230
1.0
 70
     8
 71
     3
 72
    21
 73
    17
 74
     0
 42
0.0000000001
 43
0.0000000001
 40
0.0
 40
0.0
 40
0.0
 40
0.0
 40
0.838410584873654
 40
1.654781900256326
 40
2.573960794628908
 40
3.677589049115626
 40
5.069013742762934
 40
6.748671622510663
 40
10.85859252527419
 40
15.07461258406588
 40
16.80909368955313
 40
18.23524408081236
 40
19.34150996561379
 40
20.24401103185831
 40
21.0397034294396
 40
21.88178083540319
 40
21.88178083540319
 40
21.88178083540319
 40
21.88178083540319
 10
32.15886533972457
 20
3.387542158505972
 30
0.0
 10
32.15078168677294
 20
3.1095805367459
 30
0.0
 10
32.0493285925592
 20
2.555518211430331
 30
0.0
 10
31.57693332967885
 20
1.822069538152843
 30
0.0
 10
30.81385733442757
 20
1.24331601112745
 30
0.0
 10
29.76960553215121
 20
0.7824274136510824
 30
0.0
 10
28.4204410028841
 20
0.4262133247467487
 30
0.0
 10
26.0526253146985
 20
0.0639171333095555
 30
0.0
 10
22.71277528593838
 20
-0.0623614051478523
 30
0.0
 10
19.36157914976534
 20
0.1256803270190109
 30
0.0
 10
16.9324549190358
 20
0.5328237488579532
 30
0.0
 10
15.56034825454201
 20
0.9153832411799628
 30
0.0
 10
14.51323745370987
 20
1.38949731837122
 30
0.0
 10
13.76898134196319
 20
1.974446043309942
 30
0.0
 10
13.33062187801713
 20
2.717977852595377
 30
0.0
 10
13.26247089519207
 20
3.271429285912514
 30
0.0
 10
13.26487716936497
 20
3.550677223449643
 30
0.0
  0
SPLINE
  5
AE
330
1F
100
AcDbEntity
  8
LINEE VISIBILI 2D
100
AcDbSpline
210
0.0
220
0.0
230
1.0
 70
    12
 71
     2
 72
     6
 73
     3
 74
     0
 42
0.0000000001
 43
0.0000000001
 40
0.0
 40
0.0
 40
0.0
 40
0.0907684309186328
 40
0.0907684309186328
 40
0.0907684309186328
 10
13.26567375446066
 20
3.563983146804098
 30
0.0
 41
1.0
 10
13.26481989235272
 20
3.609360037261259
 30
0.0
 41
0.9999766037265304
 10
13.26334532636203
 20
3.654720999808362
 30
0.0
 41
1.0
  0
SPLINE
  5
AF
330
1F
100
AcDbEntity
  8
LINEE VISIBILI 2D
100
AcDbSpline
210
0.0
220
0.0
230
1.0
 70
    12
 71
     2
 72
     8
 73
     5
 74
     0
 42
0.0000000001
 43
0.0000000001
 40
-173.1053469484785
 40
-173.1053469484785
 40
-173.1053469484785
 40
-141.3716219021601
 40
-141.3716219021601
 40
-94.24777960769381
 40
-94.24777960769381
 40
-94.24777960769381
 10
59.9630824134198
 20
31.71504234424187
 30
0.0
 41
129.7514802612797
 10
59.77568243764906
 20
36.56073446181288
 30
0.0
 41
105.8359419024148
 10
40.74634384476719
 20
38.41168895881818
 30
0.0
 41
126.3006286418966
 10
4.585056970327967
 20
41.92904171551243
 30
0.0
 41
82.70521432285129
 10
0.2408496552425896
 20
32.80673457310165
 30
0.0
 41
144.7109938987576
  0
SPLINE
  5
B0
330
1F
100
AcDbEntity
  8
LINEE VISIBILI 2D
100
AcDbSpline
210
0.0
220
0.0
230
1.0
 70
    12
 71
     2
 72
     6
 73
     3
 74
     0
 42
0.0000000001
 43
0.0000000001
 40
0.0
 40
0.0
 40
0.0
 40
0.7377060527610569
 40
0.7377060527610569
 40
0.7377060527610569
 10
0.2408496552425896
 20
32.80673457310165
 30
0.0
 41
1.0
 10
0.0765992305088766
 20
32.47103753079239
 30
0.0
 41
0.9805581112789143
 10
0.0541835197630252
 20
32.09798493108003
 30
0.0
 41
1.0
  0
SPLINE
  5
B1
330
1F
100
AcDbEntity
  8
LINEE VISIBILI 2D
100
AcDbSpline
210
0.0
220
0.0
230
1.0
 70
    12
 71
     2
 72
     6
 73
     3
 74
     0
 42
0.0000000001
 43
0.0000000001
 40
0.0
 40
0.0
 40
0.0
 40
0.1037316841507023
 40
0.1037316841507023
 40
0.1037316841507023
 10
16.75312694193339
 20
5.623382056915797
 30
0.0
 41
1.0
 10
16.70129180309115
 20
5.625167974809206
 30
0.0
 41
0.9999984533869252
 10
16.64946326690327
 20
5.627136212127149
 30
0.0
 41
1.0
  0
SPLINE
  5
B2
330
1F
100
AcDbEntity
  8
LINEE VISIBILI 2D
100
AcDbSpline
210
0.0
220
0.0
230
1.0
 70
     8
 71
     3
 72
    11
 73
     7
 74
     0
 42
0.0000000001
 43
0.0000000001
 40
0.0
 40
0.0
 40
0.0
 40
0.0
 40
1.551442623316625
 40
3.176404270468539
 40
6.256511924440779
 40
11.44069128550404
 40
11.44069128550404
 40
11.44069128550404
 40
11.44069128550404
 10
18.53906940443641
 20
6.057072824163259
 30
0.0
 10
19.05608182439715
 20
6.067501371421608
 30
0.0
 10
20.11486784264448
 20
6.083239426837347
 30
0.0
 10
22.20034965486707
 20
6.078182905740221
 30
0.0
 10
25.49647826766884
 20
6.020531591335382
 30
0.0
 10
28.24806440349957
 20
5.866130317994429
 30
0.0
 10
29.96795253612168
 20
5.696229709598692
 30
0.0
  0
SPLINE
  5
B3
330
1F
100
AcDbEntity
  8
LINEE VISIBILI 2D
100
AcDbSpline
210
0.0
220
0.0
230
1.0
 70
    12
 71
     2
 72
     6
 73
     3
 74
     0
 42
0.0000000001
 43
0.0000000001
 40
0.0
 40
0.0
 40
0.0
 40
0.3995438153827107
 40
0.3995438153827107
 40
0.3995438153827107
 10
18.14446606094134
 20
6.105735612737032
 30
0.0
 41
1.0
 10
18.337558427094
 20
6.047271236962432
 30
0.0
 41
0.9853634145555169
 10
18.53906940443641
 20
6.057072824163259
 30
0.0
 41
1.0
  0
SPLINE
  5
B4
330
1F
100
AcDbEntity
  8
LINEE VISIBILI 2D
100
AcDbSpline
210
0.0
220
0.0
230
1.0
 70
    12
 71
     2
 72
     6
 73
     3
 74
     0
 42
0.0000000001
 43
0.0000000001
 40
0.0
 40
0.0
 40
0.0
 40
0.543607875550565
 40
0.543607875550565
 40
0.543607875550565
 10
17.60671767735774
 20
6.162659540753449
 30
0.0
 41
1.0
 10
17.88070218055048
 20
6.182473614454274
 30
0.0
 41
0.9842606594766239
 10
18.14446606094134
 20
6.105735612737032
 30
0.0
 41
1.0
  0
SPLINE
  5
B5
330
1F
100
AcDbEntity
  8
LINEE VISIBILI 2D
100
AcDbSpline
210
0.0
220
0.0
230
1.0
 70
    12
 71
     2
 72
     6
 73
     3
 74
     0
 42
0.0000000001
 43
0.0000000001
 40
0.0
 40
0.0
 40
0.0
 40
0.4242771293940433
 40
0.4242771293940433
 40
0.4242771293940433
 10
16.34205888538226
 20
6.005751480097069
 30
0.0
 41
1.0
 10
16.55462410430509
 20
6.010178501087013
 30
0.0
 41
0.9966680285767617
 10
16.76364122490406
 20
6.049106821203151
 30
0.0
 41
1.0
  0
SPLINE
  5
B6
330
1F
100
AcDbEntity
  8
LINEE VISIBILI 2D
100
AcDbSpline
210
0.0
220
0.0
230
1.0
 70
    12
 71
     3
 72
     8
 73
     4
 74
     0
 42
0.0000000001
 43
0.0000000001
 40
-0.9398484349891024
 40
-0.9398484349891024
 40
-0.9398484349891024
 40
-0.9398484349891024
 40
0.0
 40
0.0
 40
0.0
 40
0.0
 10
15.66474264677168
 20
5.98404027573343
 30
0.0
 41
147.1186361634403
 10
15.7846624704346
 20
6.015568542639774
 30
0.0
 41
146.6219127779372
 10
15.96125971881103
 20
6.010465792928474
 30
0.0
 41
146.0777934597802
 10
16.34205888538226
 20
6.005751480097069
 30
0.0
 41
145.6833112156355
  0
SPLINE
  5
B7
330
1F
100
AcDbEntity
  8
LINEE VISIBILI 2D
100
AcDbSpline
210
0.0
220
0.0
230
1.0
 70
    12
 71
     2
 72
     6
 73
     3
 74
     0
 42
0.0000000001
 43
0.0000000001
 40
0.0
 40
0.0
 40
0.0
 40
0.0191545308698471
 40
0.0191545308698471
 40
0.0191545308698471
 10
15.30291730672606
 20
5.877300829636261
 30
0.0
 41
1.0
 10
15.31202664824098
 20
5.880257865193991
 30
0.0
 41
0.9999987823746778
 10
15.32114517445409
 20
5.883186455610221
 30
0.0
 41
1.0
  0
SPLINE
  5
B8
330
1F
100
AcDbEntity
  8
LINEE VISIBILI 2D
100
AcDbSpline
210
0.0
220
0.0
230
1.0
 70
    12
 71
     2
 72
     6
 73
     3
 74
     0
 42
0.0000000001
 43
0.0000000001
 40
0.0
 40
0.0
 40
0.0
 40
0.056194145651816
 40
0.056194145651816
 40
0.056194145651816
 10
15.24954118510351
 20
5.859729386467173
 30
0.0
 41
1.0
 10
15.27619495884867
 20
5.868619260601588
 30
0.0
 41
0.9999923849839998
 10
15.30291730672606
 20
5.877300829636262
 30
0.0
 41
1.0
  0
SPLINE
  5
B9
330
1F
100
AcDbEntity
  8
LINEE VISIBILI 2D
100
AcDbSpline
210
0.0
220
0.0
230
1.0
 70
    12
 71
     2
 72
     6
 73
     3
 74
     0
 42
0.0000000001
 43
0.0000000001
 40
0.0
 40
0.0
 40
0.0
 40
0.4157751498321903
 40
0.4157751498321903
 40
0.4157751498321903
 10
16.83918498222048
 20
5.490114547133703
 30
0.0
 41
1.0
 10
17.0470561953325
 20
5.446338939146905
 30
0.0
 41
0.9682279049680071
 10
17.25012733941711
 20
5.508699628170067
 30
0.0
 41
1.0
  0
SPLINE
  5
BA
330
1F
100
AcDbEntity
  8
LINEE VISIBILI 2D
100
AcDbSpline
210
0.0
220
0.0
230
1.0
 70
    12
 71
     3
 72
    10
 73
     6
 74
     0
 42
0.0000000001
 43
0.0000000001
 40
-0.3848530197923648
 40
-0.3848530197923648
 40
-0.3848530197923648
 40
-0.3848530197923648
 40
-0.3130983607099375
 40
-0.3130983607099375
 40
-0.129993230834527
 40
-0.129993230834527
 40
-0.129993230834527
 40
-0.129993230834527
 10
16.75823737887863
 20
5.830304411913583
 30
0.0
 41
144.7830639965851
 10
16.71413131221337
 20
5.800665210110963
 30
0.0
 41
144.7184818685591
 10
16.68300082655228
 20
5.769038599098777
 30
0.0
 41
144.647925565439
 10
16.61749390647897
 20
5.655494909201714
 30
0.0
 41
144.3986772759733
 10
16.64073252088843
 20
5.543267305230258
 30
0.0
 41
144.1676059759008
 10
16.83918498222048
 20
5.490114547133703
 30
0.0
 41
144.0292804067493
  0
SPLINE
  5
BB
330
1F
100
AcDbEntity
  8
LINEE VISIBILI 2D
100
AcDbSpline
210
0.0
220
0.0
230
1.0
 70
    12
 71
     2
 72
     6
 73
     3
 74
     0
 42
0.0000000001
 43
0.0000000001
 40
0.0
 40
0.0
 40
0.0
 40
0.0396022947584828
 40
0.0396022947584828
 40
0.0396022947584828
 10
17.63752993892654
 20
5.937443943723142
 30
0.0
 41
1.0
 10
17.62040652188558
 20
5.947483144053349
 30
0.0
 41
0.9963608519947591
 10
17.60182674982882
 20
5.95446805813635
 30
0.0
 41
1.0
  0
SPLINE
  5
BC
330
1F
100
AcDbEntity
  8
LINEE VISIBILI 2D
100
AcDbSpline
210
0.0
220
0.0
230
1.0
 70
    12
 71
     3
 72
    10
 73
     6
 74
     0
 42
0.0000000001
 43
0.0000000001
 40
-1.0
 40
-1.0
 40
-1.0
 40
-1.0
 40
-0.8463679771062906
 40
-0.8463679771062906
 40
-0.69311235764313
 40
-0.69311235764313
 40
-0.69311235764313
 40
-0.69311235764313
 10
17.26878796536889
 20
5.514352183100444
 30
0.0
 41
143.9829205897696
 10
17.42097136476225
 20
5.562033010803868
 30
0.0
 41
144.0371321275355
 10
17.55939580880088
 20
5.64504525292328
 30
0.0
 41
144.1625819132928
 10
17.71231938055221
 20
5.808628012740776
 30
0.0
 41
144.4779382928459
 10
17.72607509852598
 20
5.888036419804387
 30
0.0
 41
144.6671878164088
 10
17.63752993892654
 20
5.937443943723141
 30
0.0
 41
144.8234477512835
  0
SPLINE
  5
BD
330
1F
100
AcDbEntity
  8
LINEE VISIBILI 2D
100
AcDbSpline
210
0.0
220
0.0
230
1.0
 70
    12
 71
     2
 72
     6
 73
     3
 74
     0
 42
0.0000000001
 43
0.0000000001
 40
0.0
 40
0.0
 40
0.0
 40
0.0194982465026853
 40
0.0194982465026853
 40
0.0194982465026853
 10
17.25012733941711
 20
5.508699628170067
 30
0.0
 41
1.0
 10
17.25948431615993
 20
5.511437881266187
 30
0.0
 41
0.9999555005715848
 10
17.26878796536889
 20
5.514352183100444
 30
0.0
 41
1.0
  0
SPLINE
  5
BE
330
1F
100
AcDbEntity
  8
LINEE VISIBILI 2D
100
AcDbSpline
210
0.0
220
0.0
230
1.0
 70
     8
 71
     3
 72
    13
 73
     9
 74
     0
 42
0.0000000001
 43
0.0000000001
 40
0.0
 40
0.0
 40
0.0
 40
0.0
 40
0.2510612922443712
 40
0.8214040825575214
 40
8.674677107434785
 40
16.12125548730593
 40
17.55463725081806
 40
18.29859280741308
 40
18.29859280741308
 40
18.29859280741308
 40
18.29859280741308
 10
32.1315847042816
 20
3.50379573593763
 30
0.0
 10
32.04879428729871
 20
3.515198707901221
 30
0.0
 10
31.77530966342122
 20
3.534358526903324
 30
0.0
 10
28.88415234830698
 20
3.576600915771658
 30
0.0
 10
23.59415027042744
 20
3.634037814050512
 30
0.0
 10
18.01887252568602
 20
3.809036488650734
 30
0.0
 10
14.811412256632
 20
3.86462562186428
 30
0.0
 10
14.08542321275577
 20
3.847228711216377
 30
0.0
 10
13.83800789756398
 20
3.832101194520675
 30
0.0
  0
SPLINE
  5
BF
330
1F
100
AcDbEntity
  8
LINEE VISIBILI 2D
100
AcDbSpline
210
0.0
220
0.0
230
1.0
 70
    12
 71
     2
 72
     6
 73
     3
 74
     0
 42
0.0000000001
 43
0.0000000001
 40
0.0
 40
0.0
 40
0.0
 40
0.03459955256967
 40
0.03459955256967
 40
0.03459955256967
 10
32.15795731443757
 20
3.48595357622029
 30
0.0
 41
1.0
 10
32.15228755916722
 20
3.505984916324085
 30
0.0
 41
0.7647396285277234
 10
32.1315847042816
 20
3.503795735937627
 30
0.0
 41
1.0
  0
SPLINE
  5
C0
330
1F
100
AcDbEntity
  8
LINEE VISIBILI 2D
100
AcDbSpline
210
0.0
220
0.0
230
1.0
 70
    12
 71
     2
 72
     6
 73
     3
 74
     0
 42
0.0000000001
 43
0.0000000001
 40
0.0
 40
0.0
 40
0.0
 40
0.0531800129067192
 40
0.0531800129067192
 40
0.0531800129067192
 10
13.30184154366602
 20
3.603763602773733
 30
0.0
 41
1.0
 10
13.32339253173809
 20
3.588068506178762
 30
0.0
 41
0.99603970782527
 10
13.34738263685502
 20
3.576438544850949
 30
0.0
 41
1.0
  0
SPLINE
  5
C1
330
1F
100
AcDbEntity
  8
LINEE VISIBILI 2D
100
AcDbSpline
210
0.0
220
0.0
230
1.0
 70
     8
 71
     3
 72
    11
 73
     7
 74
     0
 42
0.0000000001
 43
0.0000000001
 40
0.0
 40
0.0
 40
0.0
 40
0.0
 40
0.2417168240351629
 40
0.4221103389613922
 40
0.5452392746002567
 40
0.6202488939646801
 40
0.6202488939646801
 40
0.6202488939646801
 40
0.6202488939646801
 10
13.83800789756398
 20
3.832101194520676
 30
0.0
 10
13.75801360227954
 20
3.824669478570799
 30
0.0
 10
13.61698861839262
 20
3.813457429866648
 30
0.0
 10
13.44035359671648
 20
3.769857806814572
 30
0.0
 10
13.32084327026578
 20
3.729876399730397
 30
0.0
 10
13.27081819956828
 20
3.680539196354757
 30
0.0
 10
13.26799570840612
 20
3.654870697644969
 30
0.0
  0
SPLINE
  5
C2
330
1F
100
AcDbEntity
  8
LINEE VISIBILI 2D
100
AcDbSpline
210
0.0
220
0.0
230
1.0
 70
    12
 71
     2
 72
     6
 73
     3
 74
     0
 42
0.0000000001
 43
0.0000000001
 40
0.0
 40
0.0
 40
0.0
 40
0.0394846022641202
 40
0.0394846022641202
 40
0.0394846022641202
 10
32.11974543182046
 20
3.40248648984967
 30
0.0
 41
1.0
 10
32.14064863957271
 20
3.403091616703701
 30
0.0
 41
0.9181743337186464
 10
32.15543032494617
 20
3.388299319709561
 30
0.0
 41
1.0
  0
SPLINE
  5
C3
330
1F
100
AcDbEntity
  8
LINEE VISIBILI 2D
100
AcDbSpline
210
0.0
220
0.0
230
1.0
 70
    12
 71
     2
 72
    32
 73
    29
 74
     0
 42
0.0000000001
 43
0.0000000001
 40
0.0
 40
0.0
 40
0.0
 40
0.8329862044773392
 40
0.8329862044773392
 40
1.594324045795871
 40
1.594324045795871
 40
15.30798774037854
 40
15.30798774037854
 40
16.12834531742305
 40
16.12834531742305
 40
17.01729549260325
 40
17.01729549260325
 40
17.76651642717283
 40
17.76651642717283
 40
18.22767440698609
 40
18.22767440698609
 40
18.59777794516488
 40
18.59777794516488
 40
18.6273356872459
 40
18.6273356872459
 40
18.6515118960664
 40
18.6515118960664
 40
18.66974223890455
 40
18.66974223890455
 40
18.69259327740901
 40
18.69259327740901
 40
18.78330665070027
 40
18.78330665070027
 40
18.89411796779063
 40
18.89411796779063
 40
18.89411796779063
 10
32.11974543182046
 20
3.402486489849669
 30
0.0
 41
1.0
 10
31.70453978253795
 20
3.438575297467705
 30
0.0
 41
0.9989998305230354
 10
31.28777028720501
 20
3.437425953601206
 30
0.0
 41
1.0
 10
30.90715864710343
 20
3.444086022058018
 30
0.0
 41
0.9999961185957372
 10
30.52651580407916
 20
3.448625091022461
 30
0.0
 41
1.0
 10
23.66988290419408
 20
3.521781807565353
 30
0.0
 41
0.9999581499455166
 10
16.81573630098685
 20
3.720379316877011
 30
0.0
 41
1.0
 10
16.40567816718732
 20
3.730360750713404
 30
0.0
 41
0.999997042019144
 10
15.99557633015247
 20
3.73834732552496
 30
0.0
 41
1.0
 10
15.55118453721704
 20
3.747256081166053
 30
0.0
 41
0.9999797733160027
 10
15.10671537642304
 20
3.750511332079756
 30
0.0
 41
1.0
 10
14.73210058599262
 20
3.753662369838211
 30
0.0
 41
0.9999296307138401
 10
14.35751648033538
 20
3.747924945576464
 30
0.0
 41
1.0
 10
14.12691448002387
 20
3.744713718874179
 30
0.0
 41
0.999704947962382
 10
13.89674055499437
 20
3.730306819099561
 30
0.0
 41
1.0
 10
13.71166181856525
 20
3.720398427422126
 30
0.0
 41
0.9976384511320276
 10
13.52968719354436
 20
3.685219587868596
 30
0.0
 41
1.0
 10
13.51522485702817
 20
3.682174673697763
 30
0.0
 41
0.9999462623178844
 10
13.50082875832621
 20
3.678830571130806
 30
0.0
 41
1.0
 10
13.48905389013441
 20
3.676094988946807
 30
0.0
 41
0.9999555402168398
 10
13.47733270459394
 20
3.673137838232748
 30
0.0
 41
1.0
 10
13.46849441060159
 20
3.67090752006136
 30
0.0
 41
0.9999692214300088
 10
13.45969220078671
 20
3.668538794198003
 30
0.0
 41
1.0
 10
13.44865842004542
 20
3.665570854979868
 30
0.0
 41
0.9999397343100413
 10
13.43769246224894
 20
3.662361376789416
 30
0.0
 41
1.0
 10
13.39400392556623
 20
3.649926305252642
 30
0.0
 41
0.9977860902310212
 10
13.35235217819088
 20
3.631803083072744
 30
0.0
 41
1.0
 10
13.29673229642768
 20
3.614654964090515
 30
0.0
 41
0.9294340927892699
 10
13.26801986171758
 20
3.564026658519424
 30
0.0
 41
1.0
  0
ENDSEC
  0
SECTION
  2
OBJECTS
  0
DICTIONARY
  5
C
330
0
100
AcDbDictionary
281
     1
  3
ACAD_COLOR
350
C6
  3
ACAD_GROUP
350
D
  3
ACAD_LAYOUT
350
1A
  3
ACAD_MATERIAL
350
C5
  3
ACAD_MLINESTYLE
350
17
  3
ACAD_PLOTSETTINGS
350
19
  3
ACAD_PLOTSTYLENAME
350
E
  3
ACAD_TABLESTYLE
350
C7
  3
AcDbVariableDictionary
350
EA
  0
DICTIONARY
  5
C6
102
{ACAD_REACTORS
330
C
102
}
330
C
100
AcDbDictionary
281
     1
  0
DICTIONARY
  5
D
102
{ACAD_REACTORS
330
C
102
}
330
C
100
AcDbDictionary
281
     1
  0
DICTIONARY
  5
1A
102
{ACAD_REACTORS
330
C
102
}
330
C
100
AcDbDictionary
281
     1
  3
Layout1
350
1E
  3
Layout2
350
26
  3
Model
350
22
  0
DICTIONARY
  5
C5
102
{ACAD_REACTORS
330
C
102
}
330
C
100
AcDbDictionary
281
     1
  0
DICTIONARY
  5
17
102
{ACAD_REACTORS
330
C
102
}
330
C
100
AcDbDictionary
281
     1
  3
Standard
350
18
  0
DICTIONARY
  5
19
102
{ACAD_REACTORS
330
C
102
}
330
C
100
AcDbDictionary
281
     1
  0
ACDBDICTIONARYWDFLT
  5
E
102
{ACAD_REACTORS
330
C
102
}
330
C
100
AcDbDictionary
281
     1
  3
Normal
350
F
100
AcDbDictionaryWithDefault
340
F
  0
DICTIONARY
  5
C7
102
{ACAD_REACTORS
330
C
102
}
330
C
100
AcDbDictionary
281
     1
  3
Standard
350
C8
  0
DICTIONARY
  5
EA
102
{ACAD_REACTORS
330
C
102
}
330
C
100
AcDbDictionary
281
     1
  3
CTABLESTYLE
350
EB
  0
LAYOUT
  5
1E
102
{ACAD_REACTORS
330
1A
102
}
330
1A
100
AcDbPlotSettings
  1

  2
none_device
  4

  6

 40
0.0
 41
0.0
 42
0.0
 43
0.0
 44
0.0
 45
0.0
 46
0.0
 47
0.0
 48
0.0
 49
0.0
140
0.0
141
0.0
142
1.0
143
1.0
 70
   688
 72
     0
 73
     0
 74
     5
  7

 75
    16
147
1.0
 76
     0
 77
     2
 78
   300
148
0.0
149
0.0
100
AcDbLayout
  1
Layout1
 70
     1
 71
     1
 10
0.0
 20
0.0
 11
12.0
 21
9.0
 12
0.0
 22
0.0
 32
0.0
 14
1.000000000000000E+20
 24
1.000000000000000E+20
 34
1.000000000000000E+20
 15
-1.000000000000000E+20
 25
-1.000000000000000E+20
 35
-1.000000000000000E+20
146
0.0
 13
0.0
 23
0.0
 33
0.0
 16
1.0
 26
0.0
 36
0.0
 17
0.0
 27
1.0
 37
0.0
 76
     0
330
1B
  0
LAYOUT
  5
26
102
{ACAD_REACTORS
330
1A
102
}
330
1A
100
AcDbPlotSettings
  1

  2
none_device
  4

  6

 40
0.0
 41
0.0
 42
0.0
 43
0.0
 44
0.0
 45
0.0
 46
0.0
 47
0.0
 48
0.0
 49
0.0
140
0.0
141
0.0
142
1.0
143
1.0
 70
   688
 72
     0
 73
     0
 74
     5
  7

 75
    16
147
1.0
 76
     0
 77
     2
 78
   300
148
0.0
149
0.0
100
AcDbLayout
  1
Layout2
 70
     1
 71
     2
 10
0.0
 20
0.0
 11
0.0
 21
0.0
 12
0.0
 22
0.0
 32
0.0
 14
0.0
 24
0.0
 34
0.0
 15
0.0
 25
0.0
 35
0.0
146
0.0
 13
0.0
 23
0.0
 33
0.0
 16
1.0
 26
0.0
 36
0.0
 17
0.0
 27
1.0
 37
0.0
 76
     0
330
23
  0
LAYOUT
  5
22
102
{ACAD_REACTORS
330
1A
102
}
330
1A
100
AcDbPlotSettings
  1

  2
none_device
  4

  6

 40
0.0
 41
0.0
 42
0.0
 43
0.0
 44
0.0
 45
0.0
 46
0.0
 47
0.0
 48
0.0
 49
0.0
140
0.0
141
0.0
142
1.0
143
1.0
 70
  1712
 72
     0
 73
     0
 74
     0
  7

 75
     0
147
1.0
 76
     0
 77
     2
 78
   300
148
0.0
149
0.0
100
AcDbLayout
  1
Model
 70
     1
 71
     0
 10
0.0
 20
0.0
 11
12.0
 21
9.0
 12
0.0
 22
0.0
 32
0.0
 14
0.0
 24
0.0000003992719506
 34
0.0
 15
157.0865732062419
 25
124.1680440665666
 35
0.0
146
0.0
 13
0.0
 23
0.0
 33
0.0
 16
1.0
 26
0.0
 36
0.0
 17
0.0
 27
1.0
 37
0.0
 76
     0
330
1F
  0
MLINESTYLE
  5
18
102
{ACAD_REACTORS
330
17
102
}
330
17
100
AcDbMlineStyle
  2
STANDARD
 70
     0
  3

 62
   256
 51
90.0
 52
90.0
 71
     2
 49
0.5
 62
   256
  6
BYLAYER
 49
-0.5
 62
   256
  6
BYLAYER
  0
ACDBPLACEHOLDER
  5
F
102
{ACAD_REACTORS
330
E
102
}
330
E
  0
TABLESTYLE
  5
C8
102
{ACAD_REACTORS
330
C7
102
}
330
C7
100
AcDbTableStyle
  3
Standard
 70
     0
 71
     0
 40
0.06
 41
0.06
280
     0
281
     0
  7
Standard
140
0.18
170
     2
 62
     0
 63
     7
283
     0
274
    -2
284
     1
 64
     0
275
    -2
285
     1
 65
     0
276
    -2
286
     1
 66
     0
277
    -2
287
     1
 67
     0
278
    -2
288
     1
 68
     0
279
    -2
289
     1
 69
     0
  7
Standard
140
0.25
170
     5
 62
     0
 63
     7
283
     0
274
    -2
284
     1
 64
     0
275
    -2
285
     1
 65
     0
276
    -2
286
     1
 66
     0
277
    -2
287
     1
 67
     0
278
    -2
288
     1
 68
     0
279
    -2
289
     1
 69
     0
  7
Standard
140
0.18
170
     5
 62
     0
 63
     7
283
     0
274
    -2
284
     1
 64
     0
275
    -2
285
     1
 65
     0
276
    -2
286
     1
 66
     0
277
    -2
287
     1
 67
     0
278
    -2
288
     1
 68
     0
279
    -2
289
     1
 69
     0
  0
DICTIONARYVAR
  5
EB
102
{ACAD_REACTORS
330
EA
102
}
330
EA
100
DictionaryVariables
280
     0
  1
STANDARD
  0
ENDSEC
  0
EOF
