  0
SECTION
  2
HEADER
  9
$ACADVER
  1
AC1018
  9
$ACADMAINTVER
 70
    39
  9
$DWGCODEPAGE
  3
ANSI_1252
  9
$INSBASE
 10
0.0
 20
0.0
 30
0.0
  9
$EXTMIN
 10
-2.166039482593099
 20
-138.9100815527733
 30
0.0
  9
$EXTMAX
 10
145.9916760097751
 20
118.8810052150647
 30
0.0
  9
$LIMMIN
 10
0.0
 20
0.0
  9
$LIMMAX
 10
12.0
 20
9.0
  9
$ORTHOMODE
 70
     0
  9
$REGENMODE
 70
     1
  9
$FILLMODE
 70
     1
  9
$QTEXTMODE
 70
     0
  9
$MIRRTEXT
 70
     1
  9
$LTSCALE
 40
1.0
  9
$ATTMODE
 70
     1
  9
$TEXTSIZE
 40
0.2
  9
$TRACEWID
 40
0.05
  9
$TEXTSTYLE
  7
Standard
  9
$CLAYER
  8
0
  9
$CELTYPE
  6
ByLayer
  9
$CECOLOR
 62
   256
  9
$CELTSCALE
 40
1.0
  9
$DISPSILH
 70
     0
  9
$DIMSCALE
 40
1.0
  9
$DIMASZ
 40
0.18
  9
$DIMEXO
 40
0.0625
  9
$DIMDLI
 40
0.38
  9
$DIMRND
 40
0.0
  9
$DIMDLE
 40
0.0
  9
$DIMEXE
 40
0.18
  9
$DIMTP
 40
0.0
  9
$DIMTM
 40
0.0
  9
$DIMTXT
 40
0.18
  9
$DIMCEN
 40
0.09
  9
$DIMTSZ
 40
0.0
  9
$DIMTOL
 70
     0
  9
$DIMLIM
 70
     0
  9
$DIMTIH
 70
     1
  9
$DIMTOH
 70
     1
  9
$DIMSE1
 70
     0
  9
$DIMSE2
 70
     0
  9
$DIMTAD
 70
     0
  9
$DIMZIN
 70
     0
  9
$DIMBLK
  1

  9
$DIMASO
 70
     1
  9
$DIMSHO
 70
     1
  9
$DIMPOST
  1

  9
$DIMAPOST
  1

  9
$DIMALT
 70
     0
  9
$DIMALTD
 70
     2
  9
$DIMALTF
 40
25.4
  9
$DIMLFAC
 40
1.0
  9
$DIMTOFL
 70
     0
  9
$DIMTVP
 40
0.0
  9
$DIMTIX
 70
     0
  9
$DIMSOXD
 70
     0
  9
$DIMSAH
 70
     0
  9
$DIMBLK1
  1

  9
$DIMBLK2
  1

  9
$DIMSTYLE
  2
Standard
  9
$DIMCLRD
 70
     0
  9
$DIMCLRE
 70
     0
  9
$DIMCLRT
 70
     0
  9
$DIMTFAC
 40
1.0
  9
$DIMGAP
 40
0.09
  9
$DIMJUST
 70
     0
  9
$DIMSD1
 70
     0
  9
$DIMSD2
 70
     0
  9
$DIMTOLJ
 70
     1
  9
$DIMTZIN
 70
     0
  9
$DIMALTZ
 70
     0
  9
$DIMALTTZ
 70
     0
  9
$DIMUPT
 70
     0
  9
$DIMDEC
 70
     4
  9
$DIMTDEC
 70
     4
  9
$DIMALTU
 70
     2
  9
$DIMALTTD
 70
     2
  9
$DIMTXSTY
  7
Standard
  9
$DIMAUNIT
 70
     0
  9
$DIMADEC
 70
     0
  9
$DIMALTRND
 40
0.0
  9
$DIMAZIN
 70
     0
  9
$DIMDSEP
 70
    46
  9
$DIMATFIT
 70
     3
  9
$DIMFRAC
 70
     0
  9
$DIMLDRBLK
  1

  9
$DIMLUNIT
 70
     2
  9
$DIMLWD
 70
    -2
  9
$DIMLWE
 70
    -2
  9
$DIMTMOVE
 70
     0
  9
$LUNITS
 70
     2
  9
$LUPREC
 70
     4
  9
$SKETCHINC
 40
0.1
  9
$FILLETRAD
 40
0.5
  9
$AUNITS
 70
     0
  9
$AUPREC
 70
     0
  9
$MENU
  1
.
  9
$ELEVATION
 40
0.0
  9
$PELEVATION
 40
0.0
  9
$THICKNESS
 40
0.0
  9
$LIMCHECK
 70
     0
  9
$CHAMFERA
 40
0.5
  9
$CHAMFERB
 40
0.5
  9
$CHAMFERC
 40
1.0
  9
$CHAMFERD
 40
0.0
  9
$SKPOLY
 70
     0
  9
$TDCREATE
 40
2454992.594786077
  9
$TDUCREATE
 40
2454992.511452743
  9
$TDUPDATE
 40
2454992.620135324
  9
$TDUUPDATE
 40
2454992.536801991
  9
$TDINDWG
 40
0.0249067361
  9
$TDUSRTIMER
 40
0.0249067361
  9
$USRTIMER
 70
     1
  9
$ANGBASE
 50
0.0
  9
$ANGDIR
 70
     0
  9
$PDMODE
 70
     0
  9
$PDSIZE
 40
0.0
  9
$PLINEWID
 40
0.0
  9
$SPLFRAME
 70
     0
  9
$SPLINETYPE
 70
     6
  9
$SPLINESEGS
 70
     8
  9
$HANDSEED
  5
DDAA
  9
$SURFTAB1
 70
     6
  9
$SURFTAB2
 70
     6
  9
$SURFTYPE
 70
     6
  9
$SURFU
 70
     6
  9
$SURFV
 70
     6
  9
$UCSBASE
  2

  9
$UCSNAME
  2

  9
$UCSORG
 10
0.0
 20
0.0
 30
0.0
  9
$UCSXDIR
 10
1.0
 20
0.0
 30
0.0
  9
$UCSYDIR
 10
0.0
 20
1.0
 30
0.0
  9
$UCSORTHOREF
  2

  9
$UCSORTHOVIEW
 70
     0
  9
$UCSORGTOP
 10
0.0
 20
0.0
 30
0.0
  9
$UCSORGBOTTOM
 10
0.0
 20
0.0
 30
0.0
  9
$UCSORGLEFT
 10
0.0
 20
0.0
 30
0.0
  9
$UCSORGRIGHT
 10
0.0
 20
0.0
 30
0.0
  9
$UCSORGFRONT
 10
0.0
 20
0.0
 30
0.0
  9
$UCSORGBACK
 10
0.0
 20
0.0
 30
0.0
  9
$PUCSBASE
  2

  9
$PUCSNAME
  2

  9
$PUCSORG
 10
0.0
 20
0.0
 30
0.0
  9
$PUCSXDIR
 10
1.0
 20
0.0
 30
0.0
  9
$PUCSYDIR
 10
0.0
 20
1.0
 30
0.0
  9
$PUCSORTHOREF
  2

  9
$PUCSORTHOVIEW
 70
     0
  9
$PUCSORGTOP
 10
0.0
 20
0.0
 30
0.0
  9
$PUCSORGBOTTOM
 10
0.0
 20
0.0
 30
0.0
  9
$PUCSORGLEFT
 10
0.0
 20
0.0
 30
0.0
  9
$PUCSORGRIGHT
 10
0.0
 20
0.0
 30
0.0
  9
$PUCSORGFRONT
 10
0.0
 20
0.0
 30
0.0
  9
$PUCSORGBACK
 10
0.0
 20
0.0
 30
0.0
  9
$USERI1
 70
     0
  9
$USERI2
 70
     0
  9
$USERI3
 70
     0
  9
$USERI4
 70
     0
  9
$USERI5
 70
     0
  9
$USERR1
 40
0.0
  9
$USERR2
 40
0.0
  9
$USERR3
 40
0.0
  9
$USERR4
 40
0.0
  9
$USERR5
 40
0.0
  9
$WORLDVIEW
 70
     1
  9
$SHADEDGE
 70
     3
  9
$SHADEDIF
 70
    70
  9
$TILEMODE
 70
     1
  9
$MAXACTVP
 70
    64
  9
$PINSBASE
 10
0.0
 20
0.0
 30
0.0
  9
$PLIMCHECK
 70
     0
  9
$PEXTMIN
 10
1.000000000000000E+20
 20
1.000000000000000E+20
 30
1.000000000000000E+20
  9
$PEXTMAX
 10
-1.000000000000000E+20
 20
-1.000000000000000E+20
 30
-1.000000000000000E+20
  9
$PLIMMIN
 10
0.0
 20
0.0
  9
$PLIMMAX
 10
12.0
 20
9.0
  9
$UNITMODE
 70
     0
  9
$VISRETAIN
 70
     1
  9
$PLINEGEN
 70
     0
  9
$PSLTSCALE
 70
     1
  9
$TREEDEPTH
 70
  3020
  9
$CMLSTYLE
  2
Standard
  9
$CMLJUST
 70
     0
  9
$CMLSCALE
 40
1.0
  9
$PROXYGRAPHICS
 70
     1
  9
$MEASUREMENT
 70
     0
  9
$CELWEIGHT
370
    -1
  9
$ENDCAPS
280
     0
  9
$JOINSTYLE
280
     0
  9
$LWDISPLAY
290
     1
  9
$INSUNITS
 70
     1
  9
$HYPERLINKBASE
  1

  9
$STYLESHEET
  1

  9
$XEDIT
290
     1
  9
$CEPSNTYPE
380
     0
  9
$PSTYLEMODE
290
     1
  9
$FINGERPRINTGUID
  2
{E6C8A458-C8EC-4277-A496-41363E194E54}
  9
$VERSIONGUID
  2
{BDBA2CBD-9CD1-4A16-A84E-5162BEAA7CEC}
  9
$EXTNAMES
290
     1
  9
$PSVPSCALE
 40
0.0
  9
$OLESTARTUP
290
     0
  9
$SORTENTS
280
   127
  9
$INDEXCTL
280
     0
  9
$HIDETEXT
280
     1
  9
$XCLIPFRAME
290
     0
  9
$HALOGAP
280
     0
  9
$OBSCOLOR
 70
   257
  9
$OBSLTYPE
280
     0
  9
$INTERSECTIONDISPLAY
280
     0
  9
$INTERSECTIONCOLOR
 70
   257
  9
$DIMASSOC
280
     2
  9
$PROJECTNAME
  1

  0
ENDSEC
  0
SECTION
  2
CLASSES
  0
CLASS
  1
ACDBDICTIONARYWDFLT
  2
AcDbDictionaryWithDefault
  3
ObjectDBX Classes
 90
        0
 91
        1
280
     0
281
     0
  0
CLASS
  1
VISUALSTYLE
  2
AcDbVisualStyle
  3
ObjectDBX Classes
 90
     4095
 91
       16
280
     0
281
     0
  0
CLASS
  1
TABLESTYLE
  2
AcDbTableStyle
  3
ObjectDBX Classes
 90
     2047
 91
        1
280
     0
281
     0
  0
CLASS
  1
SORTENTSTABLE
  2
AcDbSortentsTable
  3
ObjectDBX Classes
 90
        0
 91
        1
280
     0
281
     0
  0
CLASS
  1
DICTIONARYVAR
  2
AcDbDictionaryVar
  3
ObjectDBX Classes
 90
        0
 91
        1
280
     0
281
     0
  0
CLASS
  1
DIMASSOC
  2
AcDbDimAssoc
  3
"AcDbDimAssoc|Product Desc:     AcDim ARX App For Dimension|Company:          Autodesk, Inc.|WEB Address:      www.autodesk.com"
 90
        0
 91
        1
280
     0
281
     0
  0
ENDSEC
  0
SECTION
  2
TABLES
  0
TABLE
  2
VPORT
  5
8
330
0
100
AcDbSymbolTable
 70
     7
  0
VPORT
  5
DDA9
330
8
100
AcDbSymbolTableRecord
100
AcDbViewportTableRecord
  2
*Active
 70
     0
 10
0.0
 20
0.0
 11
1.0
 21
1.0
 12
73.58788590401016
 22
-10.42322665700578
 13
0.0
 23
0.0
 14
0.5
 24
0.5
 15
0.5
 25
0.5
 16
0.0
 26
0.0
 36
1.0
 17
10.96963051131415
 27
15.94771064412485
 37
0.0
 40
308.9589605781462
 41
1.489236790606653
 42
50.0
 43
0.0
 44
0.0
 50
0.0
 51
0.0
 71
     0
 72
   100
 73
     1
 74
     3
 75
     0
 76
     0
 77
     0
 78
     0
281
     0
 65
     1
110
0.0
120
0.0
130
0.0
111
1.0
121
0.0
131
0.0
112
0.0
122
1.0
132
0.0
 79
     0
146
0.0
  0
ENDTAB
  0
TABLE
  2
LTYPE
  5
5
330
0
100
AcDbSymbolTable
 70
     1
  0
LTYPE
  5
14
330
5
100
AcDbSymbolTableRecord
100
AcDbLinetypeTableRecord
  2
ByBlock
 70
     0
  3

 72
    65
 73
     0
 40
0.0
  0
LTYPE
  5
15
330
5
100
AcDbSymbolTableRecord
100
AcDbLinetypeTableRecord
  2
ByLayer
 70
     0
  3

 72
    65
 73
     0
 40
0.0
  0
LTYPE
  5
16
330
5
100
AcDbSymbolTableRecord
100
AcDbLinetypeTableRecord
  2
Continuous
 70
     0
  3
Solid line
 72
    65
 73
     0
 40
0.0
  0
ENDTAB
  0
TABLE
  2
LAYER
  5
2
330
0
100
AcDbSymbolTable
 70
     4
  0
LAYER
  5
10
330
2
100
AcDbSymbolTableRecord
100
AcDbLayerTableRecord
  2
0
 70
     0
 62
     7
  6
Continuous
370
    -3
390
F
  0
LAYER
  5
3B
330
2
100
AcDbSymbolTableRecord
100
AcDbLayerTableRecord
  2
Layer 1
 70
     0
 62
     7
  6
Continuous
370
    -3
390
F
  0
LAYER
  5
D802
330
2
100
AcDbSymbolTableRecord
100
AcDbLayerTableRecord
  2
LINEE VISIBILI 2D
 70
     0
 62
     7
  6
Continuous
370
    -3
390
F
  0
LAYER
  5
DD86
330
2
100
AcDbSymbolTableRecord
100
AcDbLayerTableRecord
  2
Defpoints
 70
     0
 62
     7
  6
Continuous
290
     0
370
    -3
390
F
  0
ENDTAB
  0
TABLE
  2
STYLE
  5
3
330
0
100
AcDbSymbolTable
 70
     1
  0
STYLE
  5
11
330
3
100
AcDbSymbolTableRecord
100
AcDbTextStyleTableRecord
  2
Standard
 70
     0
 40
0.0
 41
1.0
 50
0.0
 71
     0
 42
0.2
  3
txt
  4

  0
ENDTAB
  0
TABLE
  2
VIEW
  5
6
330
0
100
AcDbSymbolTable
 70
     0
  0
ENDTAB
  0
TABLE
  2
UCS
  5
7
330
0
100
AcDbSymbolTable
 70
     0
  0
ENDTAB
  0
TABLE
  2
APPID
  5
9
330
0
100
AcDbSymbolTable
 70
     1
  0
APPID
  5
12
330
9
100
AcDbSymbolTableRecord
100
AcDbRegAppTableRecord
  2
ACAD
 70
     0
  0
ENDTAB
  0
TABLE
  2
DIMSTYLE
  5
A
330
0
100
AcDbSymbolTable
 70
     1
100
AcDbDimStyleTable
 71
     1
340
27
  0
DIMSTYLE
105
27
330
A
100
AcDbSymbolTableRecord
100
AcDbDimStyleTableRecord
  2
Standard
 70
     0
340
11
  0
ENDTAB
  0
TABLE
  2
BLOCK_RECORD
  5
1
330
0
100
AcDbSymbolTable
 70
     3
  0
BLOCK_RECORD
  5
1F
102
{ACAD_XDICTIONARY
360
89C
102
}
330
1
100
AcDbSymbolTableRecord
100
AcDbBlockTableRecord
  2
*Model_Space
340
22
  0
BLOCK_RECORD
  5
1B
330
1
100
AcDbSymbolTableRecord
100
AcDbBlockTableRecord
  2
*Paper_Space
340
1E
  0
BLOCK_RECORD
  5
23
330
1
100
AcDbSymbolTableRecord
100
AcDbBlockTableRecord
  2
*Paper_Space0
340
26
  0
BLOCK_RECORD
  5
DD87
330
1
100
AcDbSymbolTableRecord
100
AcDbBlockTableRecord
  2
*D2
340
0
  0
ENDTAB
  0
ENDSEC
  0
SECTION
  2
BLOCKS
  0
BLOCK
  5
20
330
1F
100
AcDbEntity
  8
0
100
AcDbBlockBegin
  2
*Model_Space
 70
     0
 10
0.0
 20
0.0
 30
0.0
  3
*Model_Space
  1

  0
ENDBLK
  5
21
330
1F
100
AcDbEntity
  8
0
100
AcDbBlockEnd
  0
BLOCK
  5
1C
330
1B
100
AcDbEntity
 67
     1
  8
0
100
AcDbBlockBegin
  2
*Paper_Space
 70
     0
 10
0.0
 20
0.0
 30
0.0
  3
*Paper_Space
  1

  0
ENDBLK
  5
1D
330
1B
100
AcDbEntity
 67
     1
  8
0
100
AcDbBlockEnd
  0
BLOCK
  5
24
330
23
100
AcDbEntity
  8
0
100
AcDbBlockBegin
  2
*Paper_Space0
 70
     0
 10
0.0
 20
0.0
 30
0.0
  3
*Paper_Space0
  1

  0
ENDBLK
  5
25
330
23
100
AcDbEntity
  8
0
100
AcDbBlockEnd
  0
BLOCK
  5
DD92
330
DD87
100
AcDbEntity
  8
0
100
AcDbBlockBegin
  2
*D2
 70
     1
 10
0.0
 20
0.0
 30
0.0
  3
*D2
  1

  0
LINE
  5
DD95
330
DD87
100
AcDbEntity
  8
0
 62
     0
370
    -2
100
AcDbLine
 10
64.84407181617246
 20
108.3403225871505
 30
0.0
 11
145.6916760097751
 21
108.3403225871505
 31
0.0
  0
LINE
  5
DD96
330
DD87
100
AcDbEntity
  8
0
 62
     0
370
    -2
100
AcDbLine
 10
64.84418107948842
 20
-1.659763956187283
 30
0.0
 11
145.691676009775
 21
-1.659763956187306
 31
0.0
  0
LINE
  5
DD97
330
DD87
100
AcDbEntity
  8
0
 62
     0
370
    -2
100
AcDbLine
 10
145.5116760097751
 20
108.1603225871505
 30
0.0
 11
145.511676009775
 21
53.5202793154816
 31
0.0
  0
LINE
  5
DD98
330
DD87
100
AcDbEntity
  8
0
 62
     0
370
    -2
100
AcDbLine
 10
145.511676009775
 20
-1.479763956187306
 30
0.0
 11
145.511676009775
 21
53.16027931548159
 31
0.0
  0
SOLID
  5
DD99
330
DD87
100
AcDbEntity
  8
0
 62
     0
100
AcDbTrace
 10
145.4816760097751
 20
108.1603225871505
 30
0.0
 11
145.5416760097751
 21
108.1603225871505
 31
0.0
 12
145.5116760097751
 22
108.3403225871505
 32
0.0
 13
145.5116760097751
 23
108.3403225871505
 33
0.0
  0
SOLID
  5
DD9A
330
DD87
100
AcDbEntity
  8
0
 62
     0
100
AcDbTrace
 10
145.481676009775
 20
-1.479763956187306
 30
0.0
 11
145.541676009775
 21
-1.479763956187306
 31
0.0
 12
145.511676009775
 22
-1.659763956187306
 32
0.0
 13
145.511676009775
 23
-1.659763956187306
 33
0.0
  0
MTEXT
  5
DD9B
330
DD87
100
AcDbEntity
  8
0
 62
     0
100
AcDbMText
 10
145.511676009775
 20
53.34027931548162
 30
0.0
 40
0.18
 41
0.0
 71
     5
 72
     1
  1
\A1;110.0001
 73
     1
 44
1.0
  0
POINT
  5
DD9C
330
DD87
100
AcDbEntity
  8
Defpoints
 62
     0
100
AcDbPoint
 10
64.78157181617246
 20
108.3403225871505
 30
0.0
  0
POINT
  5
DD9D
330
DD87
100
AcDbEntity
  8
Defpoints
 62
     0
100
AcDbPoint
 10
64.78168107948842
 20
-1.659763956187283
 30
0.0
  0
POINT
  5
DD9E
330
DD87
100
AcDbEntity
  8
Defpoints
 62
     0
100
AcDbPoint
 10
145.511676009775
 20
-1.659763956187306
 30
0.0
  0
ENDBLK
  5
DD93
330
DD87
100
AcDbEntity
  8
0
100
AcDbBlockEnd
  0
ENDSEC
  0
SECTION
  2
ENTITIES
  0
LINE
  5
D7A7
330
1F
100
AcDbEntity
  8
0
100
AcDbLine
 10
52.80765108903977
 20
-54.81932199609415
 30
0.0
 11
53.42904331838546
 21
-54.4159128960198
 31
0.0
  0
LINE
  5
D7A8
330
1F
100
AcDbEntity
  8
0
100
AcDbLine
 10
53.42904331838546
 20
-54.4159128960198
 30
0.0
 11
54.90614064457439
 21
-54.4159128960198
 31
0.0
  0
LINE
  5
D7A9
330
1F
100
AcDbEntity
  8
0
100
AcDbLine
 10
54.90614064457439
 20
-54.4159128960198
 30
0.0
 11
55.51671056467815
 21
-54.81932199609415
 31
0.0
  0
LINE
  5
D7AB
330
1F
100
AcDbEntity
  8
0
100
AcDbLine
 10
66.65850260861224
 20
-54.81932199609417
 30
0.0
 11
67.27989634867025
 21
-54.41591289614081
 31
0.0
  0
LINE
  5
D7AC
330
1F
100
AcDbEntity
  8
0
100
AcDbLine
 10
67.27989634867025
 20
-54.41591289614081
 30
0.0
 11
68.76249354969353
 21
-54.41591289614081
 31
0.0
  0
LINE
  5
D7AD
330
1F
100
AcDbEntity
  8
0
100
AcDbLine
 10
68.76249354969353
 20
-54.41591289614081
 30
0.0
 11
69.39479982973914
 21
-54.81932199609413
 31
0.0
  0
LINE
  5
D7AF
330
1F
100
AcDbEntity
  8
0
100
AcDbLine
 10
80.51458935402338
 20
-54.81932199609415
 30
0.0
 11
81.13598309427429
 21
-54.4159128960198
 31
0.0
  0
LINE
  5
D7B0
330
1F
100
AcDbEntity
  8
0
100
AcDbLine
 10
81.13598309427429
 20
-54.4159128960198
 30
0.0
 11
82.61866901475874
 21
-54.4159128960198
 31
0.0
  0
LINE
  5
D7B1
330
1F
100
AcDbEntity
  8
0
100
AcDbLine
 10
82.61866901475874
 20
-54.4159128960198
 30
0.0
 11
83.2511527346686
 21
-54.81932199609415
 31
0.0
  0
LINE
  5
D7B8
330
1F
100
AcDbEntity
  8
0
100
AcDbLine
 10
99.81065021550868
 20
-55.6587890965283
 30
0.0
 11
104.6322301749839
 21
-58.42782393744549
 31
0.0
  0
LINE
  5
D7BC
330
1F
100
AcDbEntity
  8
0
100
AcDbLine
 10
13.02115058926162
 20
-58.71128381752856
 30
0.0
 11
123.0211505892616
 21
-58.71128381752857
 31
0.0
  0
LINE
  5
D7BF
330
1F
100
AcDbEntity
  8
0
100
AcDbLine
 10
122.8030482043543
 20
-59.91051056804039
 30
0.0
 11
13.23922394927541
 21
-59.91050985792995
 31
0.0
  0
ARC
  5
D7C0
330
1F
100
AcDbEntity
  8
0
100
AcDbCircle
 10
13.24470792729414
 20
-59.68695251989741
 30
0.0
 40
0.223624590336336
100
AcDbArc
 50
181.4052135181375
 51
268.5947864818643
  0
LINE
  5
D7C2
330
1F
100
AcDbEntity
  8
0
100
AcDbLine
 10
13.03197440940875
 20
-58.71128381752853
 30
0.0
 11
13.03197440940875
 21
-58.71128381752853
 31
0.0
  0
LINE
  5
D7C3
330
1F
100
AcDbEntity
  8
0
100
AcDbLine
 10
13.74066846953502
 20
-58.43873647742992
 30
0.0
 11
13.74066846953502
 21
-58.71128381752853
 31
0.0
  0
LINE
  5
D7C6
330
1F
100
AcDbEntity
  8
0
100
AcDbLine
 10
31.40885392545607
 20
-58.4278239374455
 30
0.0
 11
36.23132465792128
 21
-55.6587890965283
 31
0.0
  0
LINE
  5
D7CC
330
1F
100
AcDbEntity
  8
0
100
AcDbLine
 10
63.59500662761416
 20
-77.55101547506467
 30
0.0
 11
63.59500662752821
 21
-59.91051018429831
 31
0.0
  0
LINE
  5
D7CD
330
1F
100
AcDbEntity
  8
0
100
AcDbLine
 10
64.39082356794141
 20
-77.84459195153008
 30
0.0
 11
64.39082356794141
 21
-59.91051018945621
 31
0.0
  0
SPLINE
  5
D7D3
330
1F
100
AcDbEntity
  8
0
100
AcDbSpline
210
0.0
220
0.0
230
1.0
 70
     8
 71
     3
 72
    20
 73
    16
 74
    14
 42
0.0000000001
 43
0.0000000001
 44
0.0000000001
 40
0.0
 40
0.0
 40
0.0
 40
0.0
 40
0.367136546167802
 40
0.6567982993495339
 40
0.722522736875538
 40
1.633190236216018
 40
2.69251865863401
 40
3.755103046437702
 40
4.274405705927145
 40
4.488527479771868
 40
4.639231724776528
 40
4.794038229580515
 40
5.073119507745945
 40
5.398512044212393
 40
5.431387014833056
 40
5.431387014833056
 40
5.431387014833056
 40
5.431387014833056
 10
50.490909222753
 20
-77.14646752409198
 30
0.0
 10
49.84689396267679
 20
-77.33782691361873
 30
0.0
 10
48.69476641779363
 20
-77.68016418000548
 30
0.0
 10
48.27445007126052
 20
-79.01193871376
 30
0.0
 10
48.37197134544134
 20
-81.19996991044388
 30
0.0
 10
52.73657076311922
 20
-82.85973088120375
 30
0.0
 10
57.53299030980721
 20
-82.84274655471751
 30
0.0
 10
62.17462914848463
 20
-82.69083930908943
 30
0.0
 10
65.19941572218431
 20
-81.91077767760493
 30
0.0
 10
66.46340352296225
 20
-81.00394933197103
 30
0.0
 10
66.90571090304158
 20
-80.19583494647827
 30
0.0
 10
66.99818730668446
 20
-79.18794509644624
 30
0.0
 10
66.61441527294569
 20
-77.81495200237682
 30
0.0
 10
65.49635756806873
 20
-77.34866435416083
 30
0.0
 10
64.90314078956069
 20
-77.19336668726694
 30
0.0
 10
64.84870664809
 20
-77.17911642416575
 30
0.0
 11
50.490909222753
 21
-77.14646752409198
 31
0.0
 11
48.79947002718949
 21
-77.99185022589501
 31
0.0
 11
48.29970668197544
 21
-79.3975559551443
 31
0.0
 11
48.3160318998705
 21
-79.73567562688754
 31
0.0
 11
52.18109485020346
 21
-82.39293987213855
 31
0.0
 11
57.6207902254135
 21
-82.81531024636151
 31
0.0
 11
63.07712700850232
 21
-82.39063689933701
 31
0.0
 11
65.6198040184062
 21
-81.56079504641761
 31
0.0
 11
66.4813734223037
 21
-80.87236185814617
 31
0.0
 11
66.85070101919404
 21
-80.18965663439141
 31
0.0
 11
66.94187376885153
 21
-79.39755595514433
 31
0.0
 11
66.47691648071262
 21
-78.03742550473828
 31
0.0
 11
65.01230602818826
 21
-77.22276658415629
 31
0.0
 11
64.84870664809
 21
-77.17911642416575
 31
0.0
  0
ARC
  5
D7D7
330
1F
100
AcDbEntity
  8
0
100
AcDbCircle
 10
57.6207902254278
 20
91.0380021352457
 30
0.0
 40
170.6902518013439
100
AcDbArc
 50
266.8696247698341
 51
273.1303752301564
  0
SPLINE
  5
D7D8
330
1F
100
AcDbEntity
  8
0
100
AcDbSpline
210
0.0
220
0.0
230
1.0
 70
     8
 71
     3
 72
    11
 73
     7
 74
     0
 42
0.0000000001
 43
0.0000000001
 40
0.0
 40
0.0
 40
0.0
 40
0.0
 40
0.0142052121539969
 40
0.0987231515360579
 40
2.394553762927994
 40
2.547786587423952
 40
2.547786587423952
 40
2.547786587423952
 40
2.547786587423952
 10
50.49090922291159
 20
-77.14646752404977
 30
0.0
 10
50.51257429532301
 20
-77.15783439627642
 30
0.0
 10
50.66314186189824
 20
-77.23683169931965
 30
0.0
 10
54.87754852010041
 20
-77.45222135776924
 30
0.0
 10
59.15690248438378
 20
-77.14662048583932
 30
0.0
 10
63.33246190773905
 20
-77.2691069942017
 30
0.0
 10
63.5950066276128
 20
-77.27309020730712
 30
0.0
  0
ELLIPSE
  5
D7D9
330
1F
100
AcDbEntity
  8
0
100
AcDbEllipse
 10
64.00928466939936
 20
-77.57973047163978
 30
0.0
 11
-0.4796630385645523
 21
0.1989546128080584
 31
0.0
210
0.0
220
0.0
230
1.0
 40
0.3903666763613123
 41
5.893818140025649
 42
10.25307051062922
  0
LINE
  5
D7DA
330
1F
100
AcDbEntity
  8
0
100
AcDbLine
 10
74.60593691156602
 20
-83.54979499171463
 30
0.0
 11
74.60593691145082
 21
-59.9105102556629
 31
0.0
  0
LINE
  5
D7DB
330
1F
100
AcDbEntity
  8
0
100
AcDbLine
 10
75.4017538518933
 20
-83.84337146818003
 30
0.0
 11
75.4017538518933
 21
-59.91051026082079
 31
0.0
  0
SPLINE
  5
D7DC
330
1F
100
AcDbEntity
  8
0
100
AcDbSpline
210
0.0
220
0.0
230
1.0
 70
     8
 71
     3
 72
    20
 73
    16
 74
    14
 42
0.0000000001
 43
0.0000000001
 44
0.0000000001
 40
0.0
 40
0.0
 40
0.0
 40
0.0
 40
0.367136546167802
 40
0.6567982993495339
 40
0.722522736875538
 40
1.633190236216018
 40
2.69251865863401
 40
3.755103046437702
 40
4.274405705927145
 40
4.488527479771868
 40
4.639231724776528
 40
4.794038229580515
 40
5.073119507745945
 40
5.398512044212393
 40
5.431387014833056
 40
5.431387014833056
 40
5.431387014833056
 40
5.431387014833056
 10
61.50183950670485
 20
-83.14524704074191
 30
0.0
 10
60.85782424662865
 20
-83.33660643026869
 30
0.0
 10
59.70569670174548
 20
-83.6789436966554
 30
0.0
 10
59.28538035521238
 20
-85.01071823040996
 30
0.0
 10
59.3829016293932
 20
-87.19874942709381
 30
0.0
 10
63.74750104707107
 20
-88.85851039785368
 30
0.0
 10
68.54392059375907
 20
-88.84152607136744
 30
0.0
 10
73.18555943243649
 20
-88.68961882573936
 30
0.0
 10
76.21034600613618
 20
-87.90955719425486
 30
0.0
 10
77.4743338069141
 20
-87.00272884862096
 30
0.0
 10
77.91664118699344
 20
-86.1946144631282
 30
0.0
 10
78.0091175906363
 20
-85.1867246130962
 30
0.0
 10
77.62534555689754
 20
-83.81373151902678
 30
0.0
 10
76.50728785202059
 20
-83.34744387081077
 30
0.0
 10
75.91407107351256
 20
-83.19214620391688
 30
0.0
 10
75.85963693204186
 20
-83.17789594081569
 30
0.0
 11
61.50183950670485
 21
-83.14524704074191
 31
0.0
 11
59.81040031114135
 21
-83.99062974254494
 31
0.0
 11
59.3106369659273
 21
-85.39633547179423
 31
0.0
 11
59.32696218382236
 21
-85.7344551435375
 31
0.0
 11
63.19202513415532
 21
-88.39171938878848
 31
0.0
 11
68.63172050936535
 21
-88.81408976301145
 31
0.0
 11
74.08805729245418
 21
-88.38941641598694
 31
0.0
 11
76.63073430235806
 21
-87.55957456306754
 31
0.0
 11
77.49230370625555
 21
-86.87114137479614
 31
0.0
 11
77.86163130314591
 21
-86.18843615104134
 31
0.0
 11
77.95280405280339
 21
-85.39633547179425
 31
0.0
 11
77.48784676466448
 21
-84.03620502138821
 31
0.0
 11
76.02323631214011
 21
-83.22154610080621
 31
0.0
 11
75.85963693204186
 21
-83.17789594081569
 31
0.0
  0
ARC
  5
D7DD
330
1F
100
AcDbEntity
  8
0
100
AcDbCircle
 10
68.63172050937963
 20
85.03922261859576
 30
0.0
 40
170.6902518013439
100
AcDbArc
 50
266.8696247698341
 51
273.1303752301564
  0
SPLINE
  5
D7DE
330
1F
100
AcDbEntity
  8
0
100
AcDbSpline
210
0.0
220
0.0
230
1.0
 70
     8
 71
     3
 72
    11
 73
     7
 74
     0
 42
0.0000000001
 43
0.0000000001
 40
0.0
 40
0.0
 40
0.0
 40
0.0
 40
0.0142052121539969
 40
0.0987231515360579
 40
2.394553762927994
 40
2.547786587423953
 40
2.547786587423953
 40
2.547786587423953
 40
2.547786587423953
 10
61.50183950686344
 20
-83.1452470406997
 30
0.0
 10
61.52350457927486
 20
-83.15661391292639
 30
0.0
 10
61.6740721458501
 20
-83.23561121596958
 30
0.0
 10
65.88847880405229
 20
-83.45100087441919
 30
0.0
 10
70.16783276833564
 20
-83.14540000248928
 30
0.0
 10
74.34339219169089
 20
-83.26788651085166
 30
0.0
 10
74.60593691156464
 20
-83.27186972395708
 30
0.0
  0
ELLIPSE
  5
D7DF
330
1F
100
AcDbEntity
  8
0
100
AcDbEllipse
 10
75.02021495335121
 20
-83.5785099882897
 30
0.0
 11
-0.4796630385645523
 21
0.1989546128080584
 31
0.0
210
0.0
220
0.0
230
1.0
 40
0.3903666763613123
 41
5.893818140025636
 42
10.25307051062922
  0
LINE
  5
D7E0
330
1F
100
AcDbEntity
  8
0
100
AcDbLine
 10
77.0804218924646
 20
-72.26856897363217
 30
0.0
 11
77.08042177643129
 21
-59.91051027170066
 31
0.0
  0
LINE
  5
D7E1
330
1F
100
AcDbEntity
  8
0
100
AcDbLine
 10
76.28460495236938
 20
-72.56214544957202
 30
0.0
 11
76.28460483683021
 21
-59.91051026654276
 31
0.0
  0
SPLINE
  5
D7E2
330
1F
100
AcDbEntity
  8
0
100
AcDbSpline
210
0.0
220
0.0
230
1.0
 70
     8
 71
     3
 72
    14
 73
    10
 74
     0
 42
0.0000000001
 43
0.0000000001
 40
0.0
 40
0.0
 40
0.0
 40
0.0
 40
0.367136546167802
 40
0.6567982993495339
 40
0.722522736875538
 40
1.633190236216018
 40
2.69251865863401
 40
3.755103046437702
 40
4.198948869812462
 40
4.198948869812462
 40
4.198948869812462
 40
4.198948869812462
 10
90.18451929777226
 20
-71.86402102218167
 30
0.0
 10
90.82853455784848
 20
-72.05538041170846
 30
0.0
 10
91.98066210273163
 20
-72.39771767809518
 30
0.0
 10
92.40097844926474
 20
-73.72949221184973
 30
0.0
 10
92.30345717508392
 20
-75.91752340853358
 30
0.0
 10
87.93885775740607
 20
-77.57728437929348
 30
0.0
 10
83.14243821071805
 20
-77.5603000528072
 30
0.0
 10
78.63340626654437
 20
-77.41273264248204
 30
0.0
 10
76.09105856170167
 20
-76.78552096165944
 30
0.0
 10
75.40175385189328
 20
-76.45814782543451
 30
0.0
  0
ARC
  5
D7E3
330
1F
100
AcDbEntity
  8
0
100
AcDbCircle
 10
83.05463829509749
 20
96.320448637156
 30
0.0
 40
170.6902518013439
100
AcDbArc
 50
266.8696247698436
 51
267.1628560678481
  0
SPLINE
  5
D7E4
330
1F
100
AcDbEntity
  8
0
100
AcDbSpline
210
0.0
220
0.0
230
1.0
 70
     8
 71
     3
 72
    11
 73
     7
 74
     0
 42
0.0000000001
 43
0.0000000001
 40
0.0
 40
0.0
 40
0.0
 40
0.0
 40
0.0142052121539969
 40
0.0987231515360579
 40
2.394553762927994
 40
2.547786588018762
 40
2.547786588018762
 40
2.547786588018762
 40
2.547786588018762
 10
90.18451929761367
 20
-71.8640210221395
 30
0.0
 10
90.16285422520226
 20
-71.87538789436615
 30
0.0
 10
90.01228665862702
 20
-71.95438519740935
 30
0.0
 10
85.79788000042483
 20
-72.16977485585895
 30
0.0
 10
81.51852603513683
 20
-71.86417398385732
 30
0.0
 10
77.34296661075795
 20
-71.98666049235095
 30
0.0
 10
77.08042188985507
 20
-71.99064370544324
 30
0.0
  0
ELLIPSE
  5
D7E5
330
1F
100
AcDbEntity
  8
0
100
AcDbEllipse
 10
76.66614385112591
 20
-72.29728396972948
 30
0.0
 11
0.4796630385645523
 21
0.1989546128080584
 31
0.0
210
0.0
220
0.0
230
-1.0
 40
0.3903666763613123
 41
5.893818129890663
 42
10.25307050177336
  0
LINE
  5
D7E7
330
1F
100
AcDbEntity
  8
0
100
AcDbLine
 10
123.0211505892616
 20
-59.69243649791648
 30
0.0
 11
13.02115058926159
 21
-59.69243649791613
 31
0.0
  0
LINE
  5
D7E8
330
1F
100
AcDbEntity
  8
0
100
AcDbLine
 10
47.87684003412652
 20
-54.81932199609415
 30
0.0
 11
88.26325848710057
 21
-54.81932199609415
 31
0.0
  0
ARC
  5
D7E9
330
1F
100
AcDbEntity
  8
0
100
AcDbCircle
 10
47.99525478246079
 20
-56.26973006590318
 30
0.0
 40
1.455233871784962
100
AcDbArc
 50
94.66741127000833
 51
146.2936517600791
  0
LINE
  5
D7EE
330
1F
100
AcDbEntity
  8
0
100
AcDbLine
 10
46.78465643279714
 20
-55.46216752505449
 30
0.0
 11
99.08494681975138
 21
-55.46216752505447
 31
0.0
  0
ARC
  5
D7EF
330
1F
100
AcDbEntity
  8
0
100
AcDbCircle
 10
88.14484373876625
 20
-56.26973006590318
 30
0.0
 40
1.455233871784962
100
AcDbArc
 50
33.70634823992091
 51
85.33258872999168
  0
LINE
  5
D7F0
330
1F
100
AcDbEntity
  8
0
100
AcDbLine
 10
99.08494681975138
 20
-55.46216752505451
 30
0.0
 11
36.95702805367853
 21
-55.46216752505449
 31
0.0
  0
ARC
  5
D7F1
330
1F
100
AcDbEntity
  8
0
100
AcDbCircle
 10
36.97315141499956
 20
-56.9592235517485
 30
0.0
 40
1.497142848842803
100
AcDbArc
 50
90.61705428712626
 51
119.7023947842349
  0
ARC
  5
D7F3
330
1F
100
AcDbEntity
  8
0
100
AcDbCircle
 10
99.06882345843037
 20
-56.9592235517485
 30
0.0
 40
1.497142848842803
100
AcDbArc
 50
60.29760521576505
 51
89.38294571287375
  0
LINE
  5
D7F4
330
1F
100
AcDbEntity
  8
0
100
AcDbLine
 10
13.75149228968215
 20
-58.4278239374455
 30
0.0
 11
122.2908088888411
 21
-58.4278239374455
 31
0.0
  0
ARC
  5
D7F5
330
1F
100
AcDbEntity
  8
0
100
AcDbCircle
 10
13.75321564233729
 20
-58.44035745990029
 30
0.0
 40
0.012651447723455
100
AcDbArc
 50
97.82904652892801
 51
172.6386715229781
  0
LINE
  5
D7F6
330
1F
100
AcDbEntity
  8
0
100
AcDbLine
 10
122.3016327089882
 20
-58.43873647742992
 30
0.0
 11
122.3016327089882
 21
-58.71128381752853
 31
0.0
  0
ARC
  5
D7F7
330
1F
100
AcDbEntity
  8
0
100
AcDbCircle
 10
122.2890855361859
 20
-58.44035745990029
 30
0.0
 40
0.012651447723455
100
AcDbArc
 50
7.361328477021924
 51
82.17095347107202
  0
LINE
  5
D7F8
330
1F
100
AcDbEntity
  8
0
100
AcDbLine
 10
13.02115058926162
 20
-59.69243649791613
 30
0.0
 11
13.02115058926162
 21
-58.71128381752856
 31
0.0
  0
ARC
  5
D7F9
330
1F
100
AcDbEntity
  8
0
100
AcDbCircle
 10
122.7975932512291
 20
-59.68695251989741
 30
0.0
 40
0.223624590336336
100
AcDbArc
 50
271.3977747038062
 51
358.5947864818625
  0
LINE
  5
D7FA
330
1F
100
AcDbEntity
  8
0
100
AcDbLine
 10
123.0211505892616
 20
-59.69243649791613
 30
0.0
 11
123.0211505892616
 21
-58.71128381752856
 31
0.0
  0
SPLINE
  5
D7FB
330
1F
100
AcDbEntity
  8
0
100
AcDbSpline
210
0.0
220
0.0
230
1.0
 70
     8
 71
     3
 72
    10
 73
     6
 74
     0
 42
0.0000000001
 43
0.0000000001
 40
2.701629583575639
 40
2.701629583575639
 40
2.701629583575639
 40
2.701629583575639
 40
2.714179616110721
 40
2.768659651683163
 40
2.79282783759706
 40
2.79282783759706
 40
2.79282783759706
 40
2.79282783759706
 10
64.39082356794142
 20
-77.26857755703332
 30
0.0
 10
64.41263214477515
 20
-77.26785960580349
 30
0.0
 10
64.52919938449219
 20
-77.26370191527474
 30
0.0
 10
64.68845247332024
 20
-77.25558393042391
 30
0.0
 10
64.81103705065973
 20
-77.19709099610113
 30
0.0
 10
64.84870664825937
 20
-77.17911642420813
 30
0.0
  0
SPLINE
  5
D7FC
330
1F
100
AcDbEntity
  8
0
100
AcDbSpline
210
0.0
220
0.0
230
1.0
 70
     8
 71
     3
 72
    10
 73
     6
 74
     0
 42
0.0000000001
 43
0.0000000001
 40
2.701629583575639
 40
2.701629583575639
 40
2.701629583575639
 40
2.701629583575639
 40
2.714179616110721
 40
2.768659651683163
 40
2.79282783759706
 40
2.79282783759706
 40
2.79282783759706
 40
2.79282783759706
 10
75.40175385189328
 20
-83.26735707368328
 30
0.0
 10
75.42356242872701
 20
-83.26663912245342
 30
0.0
 10
75.54012966844402
 20
-83.2624814319247
 30
0.0
 10
75.69938275727209
 20
-83.25436344707384
 30
0.0
 10
75.82196733461159
 20
-83.19587051275107
 30
0.0
 10
75.85963693221123
 20
-83.17789594085807
 30
0.0
  0
SPLINE
  5
D7FD
330
1F
100
AcDbEntity
  8
0
100
AcDbSpline
210
0.0
220
0.0
230
1.0
 70
     8
 71
     3
 72
    12
 73
     8
 74
     0
 42
0.0000000001
 43
0.0000000001
 40
4.377972950062654
 40
4.377972950062654
 40
4.377972950062654
 40
4.377972950062654
 40
4.488527479771868
 40
4.639231724776528
 40
4.794038229580515
 40
5.073119507745945
 40
5.179647045451968
 40
5.179647045451968
 40
5.179647045451968
 40
5.179647045451968
 10
74.60593691153054
 20
-75.98401820987778
 30
0.0
 10
74.45447436761916
 20
-75.86767558981932
 30
0.0
 10
74.12386932152189
 20
-75.56043866251534
 30
0.0
 10
73.76971761748368
 20
-74.91338844456797
 30
0.0
 10
73.67724121384082
 20
-73.90549859453597
 30
0.0
 10
73.95038972219842
 20
-72.92827518412548
 30
0.0
 10
74.45248173590816
 20
-72.49583678250852
 30
0.0
 10
74.60593691151166
 20
-72.39305948029002
 30
0.0
  0
ARC
  5
D7FE
330
1F
100
AcDbEntity
  8
0
100
AcDbCircle
 10
83.05463829509749
 20
96.320448637156
 30
0.0
 40
170.6902518013439
100
AcDbArc
 50
267.4302866702249
 51
273.130375230166
  0
SPLINE
  5
D7FF
330
1F
100
AcDbEntity
  8
0
100
AcDbSpline
210
0.0
220
0.0
230
1.0
 70
     8
 71
     3
 72
     9
 73
     5
 74
     0
 42
0.0000000001
 43
0.0000000001
 40
5.34642474851187
 40
5.34642474851187
 40
5.34642474851187
 40
5.34642474851187
 40
5.398512044212393
 40
5.431387014833056
 40
5.431387014833056
 40
5.431387014833056
 40
5.431387014833056
 10
75.40175385189417
 20
-72.01951492791542
 30
0.0
 10
75.48894449124507
 20
-71.99058414689165
 30
0.0
 10
75.63160781742292
 20
-71.94774864864928
 30
0.0
 10
75.77228773096456
 20
-71.91092018535667
 30
0.0
 10
75.82672187243527
 20
-71.89666992225548
 30
0.0
  0
SPLINE
  5
D800
330
1F
100
AcDbEntity
  8
0
100
AcDbSpline
210
0.0
220
0.0
230
1.0
 70
     8
 71
     3
 72
    10
 73
     6
 74
     0
 42
0.0000000001
 43
0.0000000001
 40
2.701629584625825
 40
2.701629584625825
 40
2.701629584625825
 40
2.701629584625825
 40
2.714179616110721
 40
2.768659651683163
 40
2.79282783759706
 40
2.79282783759706
 40
2.79282783759706
 40
2.79282783759706
 10
76.28460494710902
 20
-71.98613105494283
 30
0.0
 10
76.26279637209748
 20
-71.98541310376294
 30
0.0
 10
76.14622913419921
 20
-71.98125541327098
 30
0.0
 10
75.98697604720502
 20
-71.97313742851363
 30
0.0
 10
75.86439146986553
 20
-71.91464449419084
 30
0.0
 10
75.82672187226589
 20
-71.89666992229783
 30
0.0
  0
CIRCLE
  5
DDA1
330
1F
100
AcDbEntity
  8
0
100
AcDbCircle
 10
64.78157181617246
 20
53.34031847519188
 30
0.0
 40
55.00000411195864
  0
SPLINE
  5
DDA2
330
1F
100
AcDbEntity
  8
0
100
AcDbSpline
210
0.0
220
0.0
230
1.0
 70
    11
 71
     3
 72
    28
 73
    24
 74
    22
 42
0.0000000001
 43
0.0000000001
 44
0.0000000001
 40
0.0
 40
0.0
 40
0.0
 40
0.0
 40
2.051408757983859
 40
4.435688500193053
 40
9.739838214727306
 40
15.37226787913857
 40
17.58009214007218
 40
18.97343857028721
 40
20.83880556900997
 40
23.03435479288884
 40
24.70299425538691
 40
26.11943444032801
 40
27.79198667816739
 40
29.71217573247209
 40
32.92783826302332
 40
36.3443381834807
 40
40.25181141525798
 40
42.45437223531625
 40
43.79606987464105
 40
45.00506967129171
 40
46.60077911535069
 40
48.33868874729648
 40
49.84274478400461
 40
49.84274478400461
 40
49.84274478400461
 40
49.84274478400461
 10
44.32471010846605
 20
29.84722040751964
 30
0.0
 10
43.85037404851586
 20
30.35220667070419
 30
0.0
 10
42.8247339862126
 20
31.4441205818862
 30
0.0
 10
41.9229530171885
 20
34.65165725884526
 30
0.0
 10
41.62958805140994
 20
39.06322025921063
 30
0.0
 10
42.0897508903345
 20
43.52338477628037
 30
0.0
 10
43.61915343216572
 20
46.29361195451226
 30
0.0
 10
45.15526142962306
 20
47.36613258905971
 30
0.0
 10
46.98298405609739
 20
47.68934111043948
 30
0.0
 10
48.90407488494168
 20
47.63674795003441
 30
0.0
 10
50.60859079274585
 20
47.02155788701158
 30
0.0
 10
51.74273836039036
 20
45.85903817857924
 30
0.0
 10
52.49890946055974
 20
44.35117051446927
 30
0.0
 10
53.07729901501631
 20
42.14718157822423
 30
0.0
 10
53.37539970961249
 20
39.29979112992711
 30
0.0
 10
53.28746698370375
 20
35.78358071282189
 30
0.0
 10
52.74280487842713
 20
32.62229103224439
 30
0.0
 10
51.52526022224245
 20
30.37676621266712
 30
0.0
 10
50.21806140186376
 20
29.41569917622187
 30
0.0
 10
48.87439688960805
 20
29.01653434217959
 30
0.0
 10
47.36245886144432
 20
28.9492005107879
 30
0.0
 10
45.7140755784566
 20
29.05183072942014
 30
0.0
 10
44.76501225035727
 20
29.59515442022562
 30
0.0
 10
44.32471010846605
 20
29.84722040751964
 30
0.0
 11
44.32471010846605
 21
29.84722040751964
 31
0.0
 11
43.03323189087188
 21
31.44107168847801
 31
0.0
 11
42.24546919960407
 21
33.69145384077029
 31
0.0
 11
41.78352883009293
 21
38.9754499884988
 31
0.0
 11
42.73819728455939
 21
44.52638433026385
 31
0.0
 11
43.91021869983868
 21
46.39744118917909
 31
0.0
 11
45.0548521018523
 21
47.19194018199639
 31
0.0
 11
46.87250716825809
 21
47.61113476628071
 31
0.0
 11
49.06514130449419
 21
47.49803331143903
 31
0.0
 11
50.61382283563832
 21
46.87679006527942
 31
0.0
 11
51.62490064872841
 21
45.88480999824534
 31
0.0
 11
52.41013341759921
 21
44.40804309484014
 31
0.0
 11
52.93128046946749
 21
42.5599273639941
 31
0.0
 11
53.3010458637379
 21
39.36559502943792
 31
0.0
 11
53.21374094210175
 21
35.95021078207373
 31
0.0
 11
52.37990260328606
 21
32.13274294569618
 31
0.0
 11
51.23182060183126
 21
30.25306694063806
 31
0.0
 11
50.14695522861075
 21
29.46362430348394
 31
0.0
 11
48.99513702487153
 21
29.09620719196585
 31
0.0
 11
47.40375012136076
 21
28.97883448136669
 31
0.0
 11
45.67910695794933
 21
29.19316097928091
 31
0.0
 11
44.32471010846605
 21
29.84722040751964
 31
0.0
  0
SPLINE
  5
DDA4
330
1F
100
AcDbEntity
  8
0
100
AcDbSpline
210
0.0
220
0.0
230
1.0
 70
    11
 71
     3
 72
    28
 73
    24
 74
    22
 42
0.0000000001
 43
0.0000000001
 44
0.0000000001
 40
0.0
 40
0.0
 40
0.0
 40
0.0
 40
2.051408757983859
 40
4.435688500193053
 40
9.739838214727306
 40
15.37226787913857
 40
17.58009214007218
 40
18.97343857028721
 40
20.83880556900997
 40
23.03435479288884
 40
24.70299425538691
 40
26.11943444032801
 40
27.79198667816739
 40
29.71217573247209
 40
32.92783826302332
 40
36.3443381834807
 40
40.25181141525798
 40
42.45437223531625
 40
43.79606987464105
 40
45.00506967129171
 40
46.60077911535069
 40
48.33868874729648
 40
49.84274478400461
 40
49.84274478400461
 40
49.84274478400461
 40
49.84274478400461
 10
49.10342627920703
 20
55.29213368582873
 30
0.0
 10
48.62909021925684
 20
55.79711994901329
 30
0.0
 10
47.60345015695358
 20
56.88903386019529
 30
0.0
 10
46.70166918792948
 20
60.09657053715436
 30
0.0
 10
46.40830422215091
 20
64.50813353751974
 30
0.0
 10
46.86846706107548
 20
68.96829805458946
 30
0.0
 10
48.3978696029067
 20
71.73852523282135
 30
0.0
 10
49.93397760036404
 20
72.81104586736882
 30
0.0
 10
51.76170022683837
 20
73.13425438874858
 30
0.0
 10
53.68279105568266
 20
73.08166122834352
 30
0.0
 10
55.38730696348683
 20
72.46647116532068
 30
0.0
 10
56.52145453113134
 20
71.30395145688834
 30
0.0
 10
57.27762563130072
 20
69.79608379277838
 30
0.0
 10
57.85601518575729
 20
67.59209485653333
 30
0.0
 10
58.15411588035347
 20
64.74470440823622
 30
0.0
 10
58.06618315444473
 20
61.22849399113099
 30
0.0
 10
57.52152104916811
 20
58.06720431055349
 30
0.0
 10
56.30397639298343
 20
55.82167949097622
 30
0.0
 10
54.99677757260474
 20
54.86061245453097
 30
0.0
 10
53.65311306034903
 20
54.46144762048869
 30
0.0
 10
52.1411750321853
 20
54.394113789097
 30
0.0
 10
50.49279174919758
 20
54.49674400772924
 30
0.0
 10
49.54372842109825
 20
55.04006769853472
 30
0.0
 10
49.10342627920703
 20
55.29213368582873
 30
0.0
 11
49.10342627920703
 21
55.29213368582873
 31
0.0
 11
47.81194806161286
 21
56.88598496678711
 31
0.0
 11
47.02418537034505
 21
59.1363671190794
 31
0.0
 11
46.56224500083391
 21
64.42036326680789
 31
0.0
 11
47.51691345530036
 21
69.97129760857297
 31
0.0
 11
48.68893487057966
 21
71.84235446748819
 31
0.0
 11
49.83356827259328
 21
72.6368534603055
 31
0.0
 11
51.65122333899907
 21
73.05604804458981
 31
0.0
 11
53.84385747523516
 21
72.94294658974813
 31
0.0
 11
55.39253900637929
 21
72.32170334358852
 31
0.0
 11
56.40361681946938
 21
71.32972327655444
 31
0.0
 11
57.18884958834019
 21
69.85295637314924
 31
0.0
 11
57.70999664020847
 21
68.00484064230321
 31
0.0
 11
58.07976203447888
 21
64.81050830774703
 31
0.0
 11
57.99245711284273
 21
61.39512406038283
 31
0.0
 11
57.15861877402704
 21
57.57765622400528
 31
0.0
 11
56.01053677257224
 21
55.69798021894716
 31
0.0
 11
54.92567139935173
 21
54.90853758179304
 31
0.0
 11
53.77385319561251
 21
54.54112047027495
 31
0.0
 11
52.18246629210174
 21
54.42374775967579
 31
0.0
 11
50.45782312869031
 21
54.63807425759
 31
0.0
 11
49.10342627920703
 21
55.29213368582873
 31
0.0
  0
SPLINE
  5
DDA7
330
1F
100
AcDbEntity
  8
0
100
AcDbSpline
210
0.0
220
0.0
230
1.0
 70
    11
 71
     3
 72
    28
 73
    24
 74
    22
 42
0.0000000001
 43
0.0000000001
 44
0.0000000001
 40
0.0
 40
0.0
 40
0.0
 40
0.0
 40
2.051408757983859
 40
4.435688500193052
 40
9.739838214727299
 40
15.37226787913858
 40
17.58009214007218
 40
18.97343857028722
 40
20.83880556900998
 40
23.03435479288886
 40
24.70299425538693
 40
26.11943444032802
 40
27.7919866781674
 40
29.7121757324721
 40
32.92783826302332
 40
36.34433818348071
 40
40.251811415258
 40
42.45437223531626
 40
43.79606987464105
 40
45.00506967129171
 40
46.6007791153507
 40
48.33868874729649
 40
49.84274478400462
 40
49.84274478400462
 40
49.84274478400462
 40
49.84274478400462
 10
68.30202101473807
 20
44.27467682960896
 30
0.0
 10
67.82768495478787
 20
44.77966309279351
 30
0.0
 10
66.80204489248461
 20
45.87157700397551
 30
0.0
 10
65.90026392346056
 20
49.0791136809346
 30
0.0
 10
65.60689895768195
 20
53.49067668129996
 30
0.0
 10
66.06706179660651
 20
57.95084119836971
 30
0.0
 10
67.59646433843773
 20
60.72106837660157
 30
0.0
 10
69.13257233589506
 20
61.79358901114906
 30
0.0
 10
70.96029496236943
 20
62.1167975325288
 30
0.0
 10
72.88138579121369
 20
62.06420437212377
 30
0.0
 10
74.58590169901788
 20
61.4490143091009
 30
0.0
 10
75.72004926666238
 20
60.28649460066857
 30
0.0
 10
76.47622036683173
 20
58.77862693655858
 30
0.0
 10
77.05460992128834
 20
56.57463800031358
 30
0.0
 10
77.35271061588448
 20
53.72724755201641
 30
0.0
 10
77.26477788997576
 20
50.21103713491122
 30
0.0
 10
76.72011578469917
 20
47.04974745433372
 30
0.0
 10
75.50257112851446
 20
44.80422263475644
 30
0.0
 10
74.19537230813578
 20
43.8431555983112
 30
0.0
 10
72.85170779588006
 20
43.44399076426892
 30
0.0
 10
71.33976976771636
 20
43.37665693287723
 30
0.0
 10
69.69138648472863
 20
43.47928715150946
 30
0.0
 10
68.74232315662928
 20
44.02261084231495
 30
0.0
 10
68.30202101473807
 20
44.27467682960896
 30
0.0
 11
68.30202101473807
 21
44.27467682960896
 31
0.0
 11
67.0105427971439
 21
45.86852811056734
 31
0.0
 11
66.2227801058761
 21
48.11891026285962
 31
0.0
 11
65.76083973636494
 21
53.40290641058812
 31
0.0
 11
66.7155081908314
 21
58.9538407523532
 31
0.0
 11
67.88752960611069
 21
60.82489761126842
 31
0.0
 11
69.03216300812431
 21
61.61939660408573
 31
0.0
 11
70.84981807453011
 21
62.03859118837004
 31
0.0
 11
73.04245221076621
 21
61.92548973352836
 31
0.0
 11
74.59113374191034
 21
61.30424648736875
 31
0.0
 11
75.60221155500042
 21
60.31226642033467
 31
0.0
 11
76.38744432387122
 21
58.83549951692947
 31
0.0
 11
76.90859137573951
 21
56.98738378608343
 31
0.0
 11
77.27835677000992
 21
53.79305145152725
 31
0.0
 11
77.19105184837378
 21
50.37766720416306
 31
0.0
 11
76.35721350955808
 21
46.56019936778551
 31
0.0
 11
75.20913150810328
 21
44.68052336272739
 31
0.0
 11
74.12426613488277
 21
43.89108072557326
 31
0.0
 11
72.97244793114355
 21
43.52366361405517
 31
0.0
 11
71.38106102763277
 21
43.40629090345601
 31
0.0
 11
69.65641786422134
 21
43.62061740137023
 31
0.0
 11
68.30202101473807
 21
44.27467682960896
 31
0.0
  0
ENDSEC
  0
SECTION
  2
OBJECTS
  0
DICTIONARY
  5
C
330
0
100
AcDbDictionary
281
     1
  3
ACAD_COLOR
350
88E
  3
ACAD_GROUP
350
D
  3
ACAD_LAYOUT
350
1A
  3
ACAD_MATERIAL
350
88D
  3
ACAD_MLINESTYLE
350
17
  3
ACAD_PLOTSETTINGS
350
19
  3
ACAD_PLOTSTYLENAME
350
E
  3
ACAD_TABLESTYLE
350
88B
  3
ACAD_VISUALSTYLE
350
2A
  3
AcDbVariableDictionary
350
D7D5
  0
DICTIONARY
  5
89C
330
1F
100
AcDbDictionary
280
     1
281
     1
  3
ACAD_SORTENTS
360
89D
  0
DICTIONARY
  5
88E
102
{ACAD_REACTORS
330
C
102
}
330
C
100
AcDbDictionary
281
     1
  0
DICTIONARY
  5
D
102
{ACAD_REACTORS
330
C
102
}
330
C
100
AcDbDictionary
281
     1
  0
DICTIONARY
  5
1A
102
{ACAD_REACTORS
330
C
102
}
330
C
100
AcDbDictionary
281
     1
  3
Layout1
350
1E
  3
Layout2
350
26
  3
Model
350
22
  0
DICTIONARY
  5
88D
102
{ACAD_REACTORS
330
C
102
}
330
C
100
AcDbDictionary
281
     1
  0
DICTIONARY
  5
17
102
{ACAD_REACTORS
330
C
102
}
330
C
100
AcDbDictionary
281
     1
  3
Standard
350
18
  0
DICTIONARY
  5
19
102
{ACAD_REACTORS
330
C
102
}
330
C
100
AcDbDictionary
281
     1
  0
ACDBDICTIONARYWDFLT
  5
E
102
{ACAD_REACTORS
330
C
102
}
330
C
100
AcDbDictionary
281
     1
  3
Normal
350
F
100
AcDbDictionaryWithDefault
340
F
  0
DICTIONARY
  5
88B
102
{ACAD_REACTORS
330
C
102
}
330
C
100
AcDbDictionary
281
     1
  3
Standard
350
88F
  0
DICTIONARY
  5
2A
102
{ACAD_REACTORS
330
C
102
}
330
C
100
AcDbDictionary
281
     1
  3
2dWireframe
350
2F
  3
3D Hidden
350
31
  3
3dWireframe
350
30
  3
Basic
350
32
  3
Brighten
350
36
  3
ColorChange
350
3A
  3
Conceptual
350
34
  3
Dim
350
35
  3
Facepattern
350
39
  3
Flat
350
2B
  3
FlatWithEdges
350
2C
  3
Gouraud
350
2D
  3
GouraudWithEdges
350
2E
  3
Linepattern
350
38
  3
Realistic
350
33
  3
Thicken
350
37
  0
DICTIONARY
  5
D7D5
102
{ACAD_REACTORS
330
C
102
}
330
C
100
AcDbDictionary
281
     1
  3
CTABLESTYLE
350
D7D6
  0
SORTENTSTABLE
  5
89D
102
{ACAD_REACTORS
330
89C
102
}
330
89C
100
AcDbSortentsTable
330
1F
331
D7D9
  5
D7DA
331
D7FB
  5
D7D9
331
D7E8
  5
D7F3
331
D7C6
  5
D7C6
331
D7F9
  5
D7FF
331
D7D7
  5
D7D7
331
D7F7
  5
D7FD
331
D7E4
  5
D7EE
331
D7C2
  5
D7C2
331
D7F5
  5
D7FB
331
D7D3
  5
D7D3
331
D7B1
  5
D7B1
331
D7E2
  5
D7E4
331
D7C0
  5
D7C0
331
D7F3
  5
D7F9
331
D7AF
  5
D7AF
331
D7E0
  5
D7E2
331
D7F1
  5
D7F8
331
D7AD
  5
D7AD
331
D800
  5
D7EF
331
D7EF
  5
D7F6
331
D7CD
  5
D7CD
331
D7DE
  5
D7DF
331
D7BC
  5
D7BC
331
D7AB
  5
D7AB
331
D7FE
  5
D7E9
331
D7DC
  5
D7DD
331
D7A9
  5
D7A9
331
D7FC
  5
D7E0
331
D7DA
  5
D7DB
331
D7B8
  5
D7B8
331
D7A7
  5
D7A7
331
D7E9
  5
D7F4
331
D7FA
  5
D800
331
D7D8
  5
D7D8
331
D7F8
  5
D7FE
331
D7E7
  5
D7F1
331
D7F6
  5
D7FC
331
D7E5
  5
D7F0
331
D7C3
  5
D7C3
331
D7E3
  5
D7E8
331
D7F4
  5
D7FA
331
D7B0
  5
D7B0
331
D7E1
  5
D7E3
331
D7BF
  5
D7BF
331
D7F0
  5
D7F7
331
D7DF
  5
D7E1
331
D7AC
  5
D7AC
331
D7EE
  5
D7F5
331
D7FF
  5
D7E7
331
D7DD
  5
D7DE
331
D7CC
  5
D7CC
331
D7FD
  5
D7E5
331
D7DB
  5
D7DC
331
D7A8
  5
D7A8
  0
LAYOUT
  5
1E
102
{ACAD_REACTORS
330
1A
102
}
330
1A
100
AcDbPlotSettings
  1

  2
none_device
  4

  6

 40
0.0
 41
0.0
 42
0.0
 43
0.0
 44
0.0
 45
0.0
 46
0.0
 47
0.0
 48
0.0
 49
0.0
140
0.0
141
0.0
142
1.0
143
1.0
 70
   688
 72
     0
 73
     0
 74
     5
  7

 75
    16
147
1.0
 76
     0
 77
     2
 78
   300
148
0.0
149
0.0
100
AcDbLayout
  1
Layout1
 70
     1
 71
     1
 10
0.0
 20
0.0
 11
12.0
 21
9.0
 12
0.0
 22
0.0
 32
0.0
 14
1.000000000000000E+20
 24
1.000000000000000E+20
 34
1.000000000000000E+20
 15
-1.000000000000000E+20
 25
-1.000000000000000E+20
 35
-1.000000000000000E+20
146
0.0
 13
0.0
 23
0.0
 33
0.0
 16
1.0
 26
0.0
 36
0.0
 17
0.0
 27
1.0
 37
0.0
 76
     0
330
1B
  0
LAYOUT
  5
26
102
{ACAD_REACTORS
330
1A
102
}
330
1A
100
AcDbPlotSettings
  1

  2
none_device
  4

  6

 40
0.0
 41
0.0
 42
0.0
 43
0.0
 44
0.0
 45
0.0
 46
0.0
 47
0.0
 48
0.0
 49
0.0
140
0.0
141
0.0
142
1.0
143
1.0
 70
   688
 72
     0
 73
     0
 74
     5
  7

 75
    16
147
1.0
 76
     0
 77
     2
 78
   300
148
0.0
149
0.0
100
AcDbLayout
  1
Layout2
 70
     1
 71
     2
 10
0.0
 20
0.0
 11
0.0
 21
0.0
 12
0.0
 22
0.0
 32
0.0
 14
0.0
 24
0.0
 34
0.0
 15
0.0
 25
0.0
 35
0.0
146
0.0
 13
0.0
 23
0.0
 33
0.0
 16
1.0
 26
0.0
 36
0.0
 17
0.0
 27
1.0
 37
0.0
 76
     0
330
23
  0
LAYOUT
  5
22
102
{ACAD_REACTORS
330
1A
102
}
330
1A
100
AcDbPlotSettings
  1

  2
none_device
  4

  6

 40
0.0
 41
0.0
 42
0.0
 43
0.0
 44
0.0
 45
0.0
 46
0.0
 47
0.0
 48
0.0
 49
0.0
140
0.0
141
0.0
142
1.0
143
1.0
 70
  1712
 72
     0
 73
     0
 74
     0
  7

 75
     0
147
1.0
 76
     0
 77
     2
 78
   300
148
0.0
149
0.0
100
AcDbLayout
  1
Model
 70
     1
 71
     0
 10
0.0
 20
0.0
 11
12.0
 21
9.0
 12
0.0
 22
0.0
 32
0.0
 14
1.000000000000000E+20
 24
1.000000000000000E+20
 34
1.000000000000000E+20
 15
-1.000000000000000E+20
 25
-1.000000000000000E+20
 35
-1.000000000000000E+20
146
0.0
 13
0.0
 23
0.0
 33
0.0
 16
1.0
 26
0.0
 36
0.0
 17
0.0
 27
1.0
 37
0.0
 76
     0
330
1F
  0
MLINESTYLE
  5
18
102
{ACAD_REACTORS
330
17
102
}
330
17
100
AcDbMlineStyle
  2
STANDARD
 70
     0
  3

 62
   256
 51
90.0
 52
90.0
 71
     2
 49
0.5
 62
   256
  6
BYLAYER
 49
-0.5
 62
   256
  6
BYLAYER
  0
ACDBPLACEHOLDER
  5
F
102
{ACAD_REACTORS
330
E
102
}
330
E
  0
TABLESTYLE
  5
88F
102
{ACAD_REACTORS
330
88B
102
}
330
88B
100
AcDbTableStyle
  3
Standard
 70
     0
 71
     0
 40
0.06
 41
0.06
280
     0
281
     0
  7
Standard
140
0.18
170
     2
 62
     0
 63
     7
283
     0
274
    -2
284
     1
 64
     0
275
    -2
285
     1
 65
     0
276
    -2
286
     1
 66
     0
277
    -2
287
     1
 67
     0
278
    -2
288
     1
 68
     0
279
    -2
289
     1
 69
     0
  7
Standard
140
0.25
170
     5
 62
     0
 63
     7
283
     0
274
    -2
284
     1
 64
     0
275
    -2
285
     1
 65
     0
276
    -2
286
     1
 66
     0
277
    -2
287
     1
 67
     0
278
    -2
288
     1
 68
     0
279
    -2
289
     1
 69
     0
  7
Standard
140
0.18
170
     5
 62
     0
 63
     7
283
     0
274
    -2
284
     1
 64
     0
275
    -2
285
     1
 65
     0
276
    -2
286
     1
 66
     0
277
    -2
287
     1
 67
     0
278
    -2
288
     1
 68
     0
279
    -2
289
     1
 69
     0
  0
ACAD_PROXY_OBJECT
  5
2F
102
{ACAD_REACTORS
330
2A
102
}
330
2A
100
AcDbProxyObject
 90
      499
 91
      501
 95
       25
 70
     0
 93
      590
310
42CC9915DA5C99599C985B595049028333333333333E3BF0000000000000FB023FFFFFF0802405048070000C3008000000C800405A000000320014050640A01C00030C010500920280D0
 94
        0
1001
ACAD
1000
AcDbSavedByObjectVersion
1070
     0
  0
ACAD_PROXY_OBJECT
  5
31
102
{ACAD_REACTORS
330
2A
102
}
330
2A
100
AcDbProxyObject
 90
      499
 91
      501
 95
       25
 70
     0
 93
      654
310
424CD108121A5919195B90640502408333333333333E3BF0000000000000FB023FFFFFF0802409028070000C3008000000C8004080000000000004440A000000320014050640A01C00030C010300920280D0
 94
        0
1001
ACAD
1000
AcDbSavedByObjectVersion
1070
     0
  0
ACAD_PROXY_OBJECT
  5
30
102
{ACAD_REACTORS
330
2A
102
}
330
2A
100
AcDbProxyObject
 90
      499
 91
      501
 95
       25
 70
     0
 93
      590
310
42CCD915DA5C99599C985B595059028333333333333E3BF0000000000000FB023FFFFFF0802405048070000C3008000000C800405A000000320014050640A01C00030C010500920280D3
 94
        0
1001
ACAD
1000
AcDbSavedByObjectVersion
1070
     0
  0
ACAD_PROXY_OBJECT
  5
32
102
{ACAD_REACTORS
330
2A
102
}
330
2A
100
AcDbProxyObject
 90
      499
 91
      501
 95
       25
 70
     0
 93
      550
310
4150985CDA58D07406404333333333333E3BF0000000000000FB023FFFFFF08029048070000C3008000000C80040542201C00030C014050640A01C00030C010500920280D5
 94
        0
1001
ACAD
1000
AcDbSavedByObjectVersion
1070
     0
  0
ACAD_PROXY_OBJECT
  5
36
102
{ACAD_REACTORS
330
2A
102
}
330
2A
100
AcDbProxyObject
 90
      499
 91
      501
 95
       25
 70
     0
 93
      590
310
42109C9A59DA1D195B90C409028333333333333E3BF0000000000000FB023FFFFFF0802405048070000C3008000000C80040542201C00030C014050640A01C00030C010500920280A654
 94
        0
1001
ACAD
1000
AcDbSavedByObjectVersion
1070
     0
  0
ACAD_PROXY_OBJECT
  5
3A
102
{ACAD_REACTORS
330
2A
102
}
330
2A
100
AcDbProxyObject
 90
      499
 91
      501
 95
       25
 70
     0
 93
      614
310
42D0DBDB1BDC90DA185B99D95104090240C333333333333E3BF0000000000000FB0220202030802405048070000C3008000000C800405422202020308014050640A01C00030C010500920280D7
 94
        0
1001
ACAD
1000
AcDbSavedByObjectVersion
1070
     0
  0
ACAD_PROXY_OBJECT
  5
34
102
{ACAD_REACTORS
330
2A
102
}
330
2A
100
AcDbProxyObject
 90
      499
 91
      501
 95
       25
 70
     0
 93
      662
310
4290DBDB98D95C1D1D585B10940D028333333333333E3BF0000000000000FB023FFFFFF0802409028070000C3008000000C800404000000000000444042201C00030C014050640A01C00030C010300920280D0
 94
        0
1001
ACAD
1000
AcDbSavedByObjectVersion
1070
     0
  0
ACAD_PROXY_OBJECT
  5
35
102
{ACAD_REACTORS
330
2A
102
}
330
2A
100
AcDbProxyObject
 90
      499
 91
      501
 95
       25
 70
     0
 93
      574
310
40D11A5B50B409028333333333333E3BF0000000000000FB023FFFFFF0802405048070000C3008000000C80040542201C00030C014050640A01C00030C01050092028099DFFFFFF6
 94
        0
1001
ACAD
1000
AcDbSavedByObjectVersion
1070
     0
  0
ACAD_PROXY_OBJECT
  5
39
102
{ACAD_REACTORS
330
2A
102
}
330
2A
100
AcDbProxyObject
 90
      499
 91
      501
 95
       25
 70
     0
 93
      606
310
42D19858D95C185D1D195C9B90F409028333333333333E3BF0000000000000FB023FFFFFF0802405048070000C3008000000C80040542201C00030C014050640A01C00030C010500920280D4
 94
        0
1001
ACAD
1000
AcDbSavedByObjectVersion
1070
     0
  0
ACAD_PROXY_OBJECT
  5
2B
102
{ACAD_REACTORS
330
2A
102
}
330
2A
100
AcDbProxyObject
 90
      499
 91
      501
 95
       25
 70
     0
 93
      550
310
41119B185D240901404333333333333E3BF0000000000000F9023FFFFFF0801029048070000C3008000000C80040542201C00030C014050640A01C00030C010500920286D6
 94
        0
1001
ACAD
1000
AcDbSavedByObjectVersion
1070
     0
  0
ACAD_PROXY_OBJECT
  5
2C
102
{ACAD_REACTORS
330
2A
102
}
330
2A
100
AcDbProxyObject
 90
      499
 91
      501
 95
       25
 70
     0
 93
      630
310
43519B185D15DA5D1A115919D95CD0140901404333333333333E3BF0000000000000F9023FFFFFF080102405048070000C3008000000C800405A000000320014050640A01C00030C010500920286D5
 94
        0
1001
ACAD
1000
AcDbSavedByObjectVersion
1070
     0
  0
ACAD_PROXY_OBJECT
  5
2D
102
{ACAD_REACTORS
330
2A
102
}
330
2A
100
AcDbProxyObject
 90
      499
 91
      501
 95
       25
 70
     0
 93
      574
310
41D1DBDD5C985D5910240902404333333333333E3BF0000000000000F9023FFFFFF0801029048070000C3008000000C800405A01C00030C014050640A01C00030C010500920286D5
 94
        0
1001
ACAD
1000
AcDbSavedByObjectVersion
1070
     0
  0
ACAD_PROXY_OBJECT
  5
2E
102
{ACAD_REACTORS
330
2A
102
}
330
2A
100
AcDbProxyObject
 90
      499
 91
      501
 95
       25
 70
     0
 93
      654
310
4411DBDD5C985D5915DA5D1A115919D95CD0340902404333333333333E3BF0000000000000F9023FFFFFF080102405048070000C3008000000C800405A000000320014050640A01C00030C010500920286D5
 94
        0
1001
ACAD
1000
AcDbSavedByObjectVersion
1070
     0
  0
ACAD_PROXY_OBJECT
  5
38
102
{ACAD_REACTORS
330
2A
102
}
330
2A
100
AcDbProxyObject
 90
      499
 91
      501
 95
       25
 70
     0
 93
      606
310
42D31A5B995C185D1D195C9B90E409028333333333333E3BF0000000000000FB023FFFFFF0802405048070000C3008000000C80041D42201C00030C014050640A01C00030C010500920E80D5
 94
        0
1001
ACAD
1000
AcDbSavedByObjectVersion
1070
     0
  0
ACAD_PROXY_OBJECT
  5
33
102
{ACAD_REACTORS
330
2A
102
}
330
2A
100
AcDbProxyObject
 90
      499
 91
      501
 95
       25
 70
     0
 93
      582
310
425499585B1A5CDD1A58D08409028333333333333E3BF0000000000000FB023FFFFFF08024068070000C3008000000C8004054221E1E1E308014050640A01C00030C010500920286D0
 94
        0
1001
ACAD
1000
AcDbSavedByObjectVersion
1070
     0
  0
ACAD_PROXY_OBJECT
  5
37
102
{ACAD_REACTORS
330
2A
102
}
330
2A
100
AcDbProxyObject
 90
      499
 91
      501
 95
       25
 70
     0
 93
      574
310
41D51A1A58DAD95B90D409028333333333333E3BF0000000000000FB023FFFFFF0802405048070000C3008000000C80040543201C00030C014050640A01C00030C010500920280D6
 94
        0
1001
ACAD
1000
AcDbSavedByObjectVersion
1070
     0
  0
DICTIONARYVAR
  5
D7D6
102
{ACAD_REACTORS
330
D7D5
102
}
330
D7D5
100
DictionaryVariables
280
     0
  1
STANDARD
  0
ENDSEC
  0
EOF
