  0
SECTION
  2
HEADER
  9
$ACADVER
  1
AC1021
  9
$ACADMAINTVER
 70
    25
  9
$DWGCODEPAGE
  3
ANSI_1252
  9
$LASTSAVEDBY
  1
noseda_d
  9
$INSBASE
 10
0.0
 20
0.0
 30
0.0
  9
$EXTMIN
 10
405.186325405587
 20
89.94970995789281
 30
0.0
  9
$EXTMAX
 10
694.8883426250325
 20
417.9906883256448
 30
0.0
  9
$LIMMIN
 10
0.0
 20
0.0
  9
$LIMMAX
 10
12.0
 20
9.0
  9
$ORTHOMODE
 70
     0
  9
$REGENMODE
 70
     1
  9
$FILLMODE
 70
     1
  9
$QTEXTMODE
 70
     0
  9
$MIRRTEXT
 70
     1
  9
$LTSCALE
 40
1.0
  9
$ATTMODE
 70
     1
  9
$TEXTSIZE
 40
0.2
  9
$TRACEWID
 40
0.05
  9
$TEXTSTYLE
  7
Standard
  9
$CLAYER
  8
0
  9
$CELTYPE
  6
ByLayer
  9
$CECOLOR
 62
   256
  9
$CELTSCALE
 40
1.0
  9
$DISPSILH
 70
     0
  9
$DIMSCALE
 40
1.0
  9
$DIMASZ
 40
0.18
  9
$DIMEXO
 40
0.0625
  9
$DIMDLI
 40
0.38
  9
$DIMRND
 40
0.0
  9
$DIMDLE
 40
0.0
  9
$DIMEXE
 40
0.18
  9
$DIMTP
 40
0.0
  9
$DIMTM
 40
0.0
  9
$DIMTXT
 40
0.18
  9
$DIMCEN
 40
0.09
  9
$DIMTSZ
 40
0.0
  9
$DIMTOL
 70
     0
  9
$DIMLIM
 70
     0
  9
$DIMTIH
 70
     1
  9
$DIMTOH
 70
     1
  9
$DIMSE1
 70
     0
  9
$DIMSE2
 70
     0
  9
$DIMTAD
 70
     0
  9
$DIMZIN
 70
     0
  9
$DIMBLK
  1

  9
$DIMASO
 70
     1
  9
$DIMSHO
 70
     1
  9
$DIMPOST
  1

  9
$DIMAPOST
  1

  9
$DIMALT
 70
     0
  9
$DIMALTD
 70
     2
  9
$DIMALTF
 40
25.4
  9
$DIMLFAC
 40
1.0
  9
$DIMTOFL
 70
     0
  9
$DIMTVP
 40
0.0
  9
$DIMTIX
 70
     0
  9
$DIMSOXD
 70
     0
  9
$DIMSAH
 70
     0
  9
$DIMBLK1
  1

  9
$DIMBLK2
  1

  9
$DIMSTYLE
  2
STANDARD_ACAD
  9
$DIMCLRD
 70
     0
  9
$DIMCLRE
 70
     0
  9
$DIMCLRT
 70
     0
  9
$DIMTFAC
 40
1.0
  9
$DIMGAP
 40
0.09
  9
$DIMJUST
 70
     0
  9
$DIMSD1
 70
     0
  9
$DIMSD2
 70
     0
  9
$DIMTOLJ
 70
     1
  9
$DIMTZIN
 70
     0
  9
$DIMALTZ
 70
     0
  9
$DIMALTTZ
 70
     0
  9
$DIMUPT
 70
     0
  9
$DIMDEC
 70
     4
  9
$DIMTDEC
 70
     4
  9
$DIMALTU
 70
     2
  9
$DIMALTTD
 70
     2
  9
$DIMTXSTY
  7
Standard
  9
$DIMAUNIT
 70
     0
  9
$DIMADEC
 70
     0
  9
$DIMALTRND
 40
0.0
  9
$DIMAZIN
 70
     0
  9
$DIMDSEP
 70
    46
  9
$DIMATFIT
 70
     3
  9
$DIMFRAC
 70
     0
  9
$DIMLDRBLK
  1

  9
$DIMLUNIT
 70
     2
  9
$DIMLWD
 70
    -2
  9
$DIMLWE
 70
    -2
  9
$DIMTMOVE
 70
     2
  9
$DIMFXL
 40
1.0
  9
$DIMFXLON
 70
     0
  9
$DIMJOGANG
 40
0.7853981633974483
  9
$DIMTFILL
 70
     0
  9
$DIMTFILLCLR
 70
     0
  9
$DIMARCSYM
 70
     0
  9
$DIMLTYPE
  6

  9
$DIMLTEX1
  6

  9
$DIMLTEX2
  6

  9
$LUNITS
 70
     2
  9
$LUPREC
 70
     3
  9
$SKETCHINC
 40
0.1
  9
$FILLETRAD
 40
0.0
  9
$AUNITS
 70
     0
  9
$AUPREC
 70
     0
  9
$MENU
  1
.
  9
$ELEVATION
 40
0.0
  9
$PELEVATION
 40
0.0
  9
$THICKNESS
 40
0.0
  9
$LIMCHECK
 70
     0
  9
$CHAMFERA
 40
0.0
  9
$CHAMFERB
 40
0.0
  9
$CHAMFERC
 40
0.0
  9
$CHAMFERD
 40
0.0
  9
$SKPOLY
 70
     0
  9
$TDCREATE
 40
2460017.607094549
  9
$TDUCREATE
 40
2460017.565427882
  9
$TDUPDATE
 40
2460017.607111598
  9
$TDUUPDATE
 40
2460017.565444931
  9
$TDINDWG
 40
0.0000000116
  9
$TDUSRTIMER
 40
0.0000000116
  9
$USRTIMER
 70
     1
  9
$ANGBASE
 50
0.0
  9
$ANGDIR
 70
     0
  9
$PDMODE
 70
     0
  9
$PDSIZE
 40
0.0
  9
$PLINEWID
 40
0.0
  9
$SPLFRAME
 70
     0
  9
$SPLINETYPE
 70
     6
  9
$SPLINESEGS
 70
     8
  9
$HANDSEED
  5
167
  9
$SURFTAB1
 70
     6
  9
$SURFTAB2
 70
     6
  9
$SURFTYPE
 70
     6
  9
$SURFU
 70
     6
  9
$SURFV
 70
     6
  9
$UCSBASE
  2

  9
$UCSNAME
  2

  9
$UCSORG
 10
0.0
 20
0.0
 30
0.0
  9
$UCSXDIR
 10
1.0
 20
0.0
 30
0.0
  9
$UCSYDIR
 10
0.0
 20
1.0
 30
0.0
  9
$UCSORTHOREF
  2

  9
$UCSORTHOVIEW
 70
     0
  9
$UCSORGTOP
 10
0.0
 20
0.0
 30
0.0
  9
$UCSORGBOTTOM
 10
0.0
 20
0.0
 30
0.0
  9
$UCSORGLEFT
 10
0.0
 20
0.0
 30
0.0
  9
$UCSORGRIGHT
 10
0.0
 20
0.0
 30
0.0
  9
$UCSORGFRONT
 10
0.0
 20
0.0
 30
0.0
  9
$UCSORGBACK
 10
0.0
 20
0.0
 30
0.0
  9
$PUCSBASE
  2

  9
$PUCSNAME
  2

  9
$PUCSORG
 10
0.0
 20
0.0
 30
0.0
  9
$PUCSXDIR
 10
1.0
 20
0.0
 30
0.0
  9
$PUCSYDIR
 10
0.0
 20
1.0
 30
0.0
  9
$PUCSORTHOREF
  2

  9
$PUCSORTHOVIEW
 70
     0
  9
$PUCSORGTOP
 10
0.0
 20
0.0
 30
0.0
  9
$PUCSORGBOTTOM
 10
0.0
 20
0.0
 30
0.0
  9
$PUCSORGLEFT
 10
0.0
 20
0.0
 30
0.0
  9
$PUCSORGRIGHT
 10
0.0
 20
0.0
 30
0.0
  9
$PUCSORGFRONT
 10
0.0
 20
0.0
 30
0.0
  9
$PUCSORGBACK
 10
0.0
 20
0.0
 30
0.0
  9
$USERI1
 70
     0
  9
$USERI2
 70
     0
  9
$USERI3
 70
     0
  9
$USERI4
 70
     0
  9
$USERI5
 70
     0
  9
$USERR1
 40
0.0
  9
$USERR2
 40
0.0
  9
$USERR3
 40
0.0
  9
$USERR4
 40
0.0
  9
$USERR5
 40
0.0
  9
$WORLDVIEW
 70
     1
  9
$SHADEDGE
 70
     3
  9
$SHADEDIF
 70
    70
  9
$TILEMODE
 70
     1
  9
$MAXACTVP
 70
    64
  9
$PINSBASE
 10
0.0
 20
0.0
 30
0.0
  9
$PLIMCHECK
 70
     0
  9
$PEXTMIN
 10
1.000000000000000E+20
 20
1.000000000000000E+20
 30
1.000000000000000E+20
  9
$PEXTMAX
 10
-1.000000000000000E+20
 20
-1.000000000000000E+20
 30
-1.000000000000000E+20
  9
$PLIMMIN
 10
0.0
 20
0.0
  9
$PLIMMAX
 10
12.0
 20
9.0
  9
$UNITMODE
 70
     0
  9
$VISRETAIN
 70
     1
  9
$PLINEGEN
 70
     0
  9
$PSLTSCALE
 70
     1
  9
$TREEDEPTH
 70
  3020
  9
$CMLSTYLE
  2
Standard
  9
$CMLJUST
 70
     0
  9
$CMLSCALE
 40
1.0
  9
$PROXYGRAPHICS
 70
     1
  9
$MEASUREMENT
 70
     1
  9
$CELWEIGHT
370
    -1
  9
$ENDCAPS
280
     0
  9
$JOINSTYLE
280
     0
  9
$LWDISPLAY
290
     0
  9
$INSUNITS
 70
     4
  9
$HYPERLINKBASE
  1

  9
$STYLESHEET
  1

  9
$XEDIT
290
     1
  9
$CEPSNTYPE
380
     0
  9
$PSTYLEMODE
290
     1
  9
$FINGERPRINTGUID
  2
{a1babf66-b669-9244-bf6f-9ba0f66de494}
  9
$VERSIONGUID
  2
{FAEB1C32-E019-11D5-929B-00C0DF256EC4}
  9
$EXTNAMES
290
     1
  9
$PSVPSCALE
 40
0.0
  9
$OLESTARTUP
290
     0
  9
$SORTENTS
280
   127
  9
$INDEXCTL
280
     0
  9
$HIDETEXT
280
     1
  9
$XCLIPFRAME
290
     0
  9
$HALOGAP
280
     0
  9
$OBSCOLOR
 70
   257
  9
$OBSLTYPE
280
     0
  9
$INTERSECTIONDISPLAY
280
     0
  9
$INTERSECTIONCOLOR
 70
   257
  9
$DIMASSOC
280
     2
  9
$PROJECTNAME
  1

  9
$CAMERADISPLAY
290
     0
  9
$LENSLENGTH
 40
50.0
  9
$CAMERAHEIGHT
 40
0.0
  9
$STEPSPERSEC
 40
2.0
  9
$STEPSIZE
 40
6.0
  9
$3DDWFPREC
 40
2.0
  9
$PSOLWIDTH
 40
0.25
  9
$PSOLHEIGHT
 40
4.0
  9
$LOFTANG1
 40
1.570796326794897
  9
$LOFTANG2
 40
1.570796326794897
  9
$LOFTMAG1
 40
0.0
  9
$LOFTMAG2
 40
0.0
  9
$LOFTPARAM
 70
     7
  9
$LOFTNORMALS
280
     1
  9
$LATITUDE
 40
37.795
  9
$LONGITUDE
 40
-122.394
  9
$NORTHDIRECTION
 40
0.0
  9
$TIMEZONE
 70
 -8000
  9
$LIGHTGLYPHDISPLAY
280
     1
  9
$TILEMODELIGHTSYNCH
280
     1
  9
$CMATERIAL
347
44
  9
$SOLIDHIST
280
     0
  9
$SHOWHIST
280
     1
  9
$DWFFRAME
280
     2
  9
$DGNFRAME
280
     2
  9
$REALWORLDSCALE
290
     1
  9
$INTERFERECOLOR
 62
   256
  9
$CSHADOW
280
     0
  9
$SHADOWPLANELOCATION
 40
0.0
  0
ENDSEC
  0
SECTION
  2
CLASSES
  0
CLASS
  1
ACDBDICTIONARYWDFLT
  2
AcDbDictionaryWithDefault
  3
ObjectDBX Classes
 90
        0
 91
        3
280
     0
281
     0
  0
CLASS
  1
VISUALSTYLE
  2
AcDbVisualStyle
  3
ObjectDBX Classes
 90
     4095
 91
        3
280
     0
281
     0
  0
CLASS
  1
MATERIAL
  2
AcDbMaterial
  3
ObjectDBX Classes
 90
     1153
 91
        3
280
     0
281
     0
  0
CLASS
  1
SCALE
  2
AcDbScale
  3
ObjectDBX Classes
 90
     1153
 91
        3
280
     0
281
     0
  0
CLASS
  1
TABLESTYLE
  2
AcDbTableStyle
  3
ObjectDBX Classes
 90
     4095
 91
        3
280
     0
281
     0
  0
CLASS
  1
MLEADERSTYLE
  2
AcDbMLeaderStyle
  3
ACDB_MLEADERSTYLE_CLASS
 90
     4095
 91
        3
280
     0
281
     0
  0
CLASS
  1
SUN
  2
AcDbSun
  3
SCENEOE
 90
     1153
 91
        3
280
     0
281
     0
  0
CLASS
  1
DICTIONARYVAR
  2
AcDbDictionaryVar
  3
ObjectDBX Classes
 90
        0
 91
        3
280
     0
281
     0
  0
CLASS
  1
CELLSTYLEMAP
  2
AcDbCellStyleMap
  3
ObjectDBX Classes
 90
     1152
 91
        3
280
     0
281
     0
  0
ENDSEC
  0
SECTION
  2
TABLES
  0
TABLE
  2
VPORT
  5
8
330
0
100
AcDbSymbolTable
 70
     1
  0
VPORT
  5
29
330
8
100
AcDbSymbolTableRecord
100
AcDbViewportTableRecord
  2
*Active
 70
     0
 10
0.0
 20
0.0
 11
1.0
 21
1.0
 12
10.42990654205607
 22
4.5
 13
0.0
 23
0.0
 14
0.5
 24
0.5
 15
0.5
 25
0.5
 16
0.0
 26
0.0
 36
1.0
 17
0.0
 27
0.0
 37
0.0
 40
9.0
 41
1.972972972850329
 42
50.0
 43
0.0
 44
0.0
 50
0.0
 51
0.0
 71
     0
 72
   100
 73
     1
 74
     3
 75
     0
 76
     0
 77
     0
 78
     0
281
     0
 65
     1
110
0.0
120
0.0
130
0.0
111
1.0
121
0.0
131
0.0
112
0.0
122
1.0
132
0.0
 79
     0
146
0.0
348
2F
 60
     3
 61
     5
292
     1
282
     1
141
0.0
142
0.0
 63
   250
361
5D
  0
ENDTAB
  0
TABLE
  2
LTYPE
  5
5
330
0
100
AcDbSymbolTable
 70
     1
  0
LTYPE
  5
14
330
5
100
AcDbSymbolTableRecord
100
AcDbLinetypeTableRecord
  2
ByBlock
 70
     0
  3

 72
    65
 73
     0
 40
0.0
  0
LTYPE
  5
15
330
5
100
AcDbSymbolTableRecord
100
AcDbLinetypeTableRecord
  2
ByLayer
 70
     0
  3

 72
    65
 73
     0
 40
0.0
  0
LTYPE
  5
16
330
5
100
AcDbSymbolTableRecord
100
AcDbLinetypeTableRecord
  2
Continuous
 70
     0
  3
Solid line
 72
    65
 73
     0
 40
0.0
  0
ENDTAB
  0
TABLE
  2
LAYER
  5
2
330
0
100
AcDbSymbolTable
 70
     2
  0
LAYER
  5
10
330
2
100
AcDbSymbolTableRecord
100
AcDbLayerTableRecord
  2
0
 70
     0
 62
     7
  6
Continuous
370
    -3
390
F
347
46
  0
LAYER
  5
5F
330
2
100
AcDbSymbolTableRecord
100
AcDbLayerTableRecord
  2
Make2D$Visibile$Curve
 70
     0
 62
    18
420
        0
  6
Continuous
370
    -3
390
F
347
46
  0
ENDTAB
  0
TABLE
  2
STYLE
  5
3
330
0
100
AcDbSymbolTable
 70
     1
  0
STYLE
  5
11
330
3
100
AcDbSymbolTableRecord
100
AcDbTextStyleTableRecord
  2
Standard
 70
     0
 40
0.0
 41
1.0
 50
0.0
 71
     0
 42
0.2
  3
txt
  4

  0
ENDTAB
  0
TABLE
  2
VIEW
  5
6
330
0
100
AcDbSymbolTable
 70
     0
  0
ENDTAB
  0
TABLE
  2
UCS
  5
7
330
0
100
AcDbSymbolTable
 70
     0
  0
ENDTAB
  0
TABLE
  2
APPID
  5
9
330
0
100
AcDbSymbolTable
 70
     3
  0
APPID
  5
12
330
9
100
AcDbSymbolTableRecord
100
AcDbRegAppTableRecord
  2
ACAD
 70
     0
  0
APPID
  5
5E
330
9
100
AcDbSymbolTableRecord
100
AcDbRegAppTableRecord
  2
Rhino
 70
     0
  0
APPID
  5
15F
330
9
100
AcDbSymbolTableRecord
100
AcDbRegAppTableRecord
  2
ACAD_MLEADERVER
 70
     0
  0
ENDTAB
  0
TABLE
  2
DIMSTYLE
  5
A
330
0
100
AcDbSymbolTable
 70
     1
100
AcDbDimStyleTable
  0
DIMSTYLE
105
27
330
A
100
AcDbSymbolTableRecord
100
AcDbDimStyleTableRecord
  2
STANDARD_ACAD
 70
     0
178
     0
340
11
  0
ENDTAB
  0
TABLE
  2
BLOCK_RECORD
  5
1
330
0
100
AcDbSymbolTable
 70
     1
  0
BLOCK_RECORD
  5
1F
330
1
100
AcDbSymbolTableRecord
100
AcDbBlockTableRecord
  2
*Model_Space
340
22
 70
     0
280
     1
281
     0
  0
BLOCK_RECORD
  5
1B
330
1
100
AcDbSymbolTableRecord
100
AcDbBlockTableRecord
  2
*Paper_Space
340
1E
 70
     0
280
     1
281
     0
  0
BLOCK_RECORD
  5
23
330
1
100
AcDbSymbolTableRecord
100
AcDbBlockTableRecord
  2
*Paper_Space0
340
26
 70
     0
280
     1
281
     0
  0
ENDTAB
  0
ENDSEC
  0
SECTION
  2
BLOCKS
  0
BLOCK
  5
20
330
1F
100
AcDbEntity
  8
0
100
AcDbBlockBegin
  2
*Model_Space
 70
     0
 10
0.0
 20
0.0
 30
0.0
  3
*Model_Space
  1

  0
ENDBLK
  5
21
330
1F
100
AcDbEntity
  8
0
100
AcDbBlockEnd
  0
BLOCK
  5
1C
330
1B
100
AcDbEntity
 67
     1
  8
0
100
AcDbBlockBegin
  2
*Paper_Space
 70
     0
 10
0.0
 20
0.0
 30
0.0
  3
*Paper_Space
  1

  0
ENDBLK
  5
1D
330
1B
100
AcDbEntity
 67
     1
  8
0
100
AcDbBlockEnd
  0
BLOCK
  5
24
330
23
100
AcDbEntity
  8
0
100
AcDbBlockBegin
  2
*Paper_Space0
 70
     0
 10
0.0
 20
0.0
 30
0.0
  3
*Paper_Space0
  1

  0
ENDBLK
  5
25
330
23
100
AcDbEntity
  8
0
100
AcDbBlockEnd
  0
ENDSEC
  0
SECTION
  2
ENTITIES
  0
SPLINE
  5
60
330
1F
100
AcDbEntity
  8
Make2D$Visibile$Curve
370
    -3
100
AcDbSpline
210
0.0
220
0.0
230
1.0
 70
    12
 71
     2
 72
     6
 73
     3
 74
     0
 42
0.0000000001
 43
0.0000000001
 40
139.6680731084663
 40
139.6680731084663
 40
139.6680731084663
 40
155.1072072688045
 40
155.1072072688045
 40
155.1072072688045
 10
515.0254935632636
 20
382.041132304571
 30
0.0
 41
0.9021783097658567
 10
512.6013638779273
 20
374.1542189143803
 30
0.0
 41
0.845584377243832
 10
506.2655341489271
 20
368.8686693170359
 30
0.0
 41
0.8624312493151873
  0
SPLINE
  5
61
330
1F
100
AcDbEntity
  8
Make2D$Visibile$Curve
370
    -3
100
AcDbSpline
210
0.0
220
0.0
230
1.0
 70
    12
 71
     2
 72
     6
 73
     3
 74
     0
 42
0.0000000001
 43
0.0000000001
 40
106.891393971039
 40
106.891393971039
 40
106.891393971039
 40
122.3686631558709
 40
122.3686631558709
 40
122.3686631558709
 10
506.3888495362825
 20
411.4363961470536
 30
0.0
 41
0.8595908846159119
 10
512.6700627015477
 20
406.1343897269776
 30
0.0
 41
0.85089660654208
 10
515.0557207383074
 20
398.2684135775903
 30
0.0
 41
0.9160063821544104
  0
SPLINE
  5
62
330
1F
100
AcDbEntity
  8
Make2D$Visibile$Curve
370
    -3
100
AcDbSpline
210
0.0
220
0.0
230
1.0
 70
    12
 71
     3
 72
    22
 73
    18
 74
     0
 42
0.0000000001
 43
0.0000000001
 40
53.25953257693315
 40
53.25953257693315
 40
53.25953257693315
 40
53.25953257693315
 40
63.09745036083754
 40
63.09745036083754
 40
63.09745036083754
 40
89.81139141955887
 40
89.81139141955887
 40
89.81139141955887
 40
96.20837620138823
 40
96.20837620138823
 40
97.70748685408103
 40
97.70748685408103
 40
99.28665443017806
 40
99.28665443017806
 40
101.9513527345266
 40
101.9513527345266
 40
102.0567027315537
 40
102.0567027315537
 40
102.0567027315537
 40
102.0567027315537
 10
461.8197674231502
 20
398.2755808591288
 30
0.0
 41
1.0
 10
462.7522500292457
 20
401.3471929379427
 30
0.0
 41
1.0
 10
464.2155507855313
 20
404.2526922805324
 30
0.0
 41
1.0
 10
466.1621372816069
 20
406.8535873086398
 30
0.0
 41
1.0
 10
471.3985861073098
 20
413.8501701695435
 30
0.0
 41
1.0
 10
479.6280006398995
 20
417.981895712531
 30
0.0
 41
1.0
 10
488.3806689174781
 20
417.9906978622287
 30
0.0
 41
1.0
 10
491.3530074623152
 20
417.9936870042816
 30
0.0
 41
1.0
 10
494.3031937513961
 20
417.5196830623403
 30
0.0
 41
1.0
 10
497.7784153707643
 20
416.3725778940656
 30
0.0
 41
1.0
 10
498.429504103248
 20
416.1302214764075
 30
0.0
 41
1.0
 10
499.7456451481596
 20
415.5833818164806
 30
0.0
 41
1.0
 10
500.409457453495
 20
415.2763176012288
 30
0.0
 41
1.0
 10
502.1577929185124
 20
414.3822935829646
 30
0.0
 41
1.0
 10
505.1839382263637
 20
412.3941941873687
 30
0.0
 41
1.0
 10
506.2261842726283
 20
411.5266165294001
 30
0.0
 41
1.0
 10
506.2827663776864
 20
411.4791872427303
 30
0.0
 41
1.0
 10
506.3137454484155
 20
411.4530853147734
 30
0.0
 41
1.0
  0
SPLINE
  5
63
330
1F
100
AcDbEntity
  8
Make2D$Visibile$Curve
370
    -3
100
AcDbSpline
210
0.0
220
0.0
230
1.0
 70
    12
 71
     3
 72
    11
 73
     7
 74
     0
 42
0.0000000001
 43
0.0000000001
 40
0.0
 40
0.0
 40
0.0
 40
0.0
 40
26.713991908419
 40
26.713991908419
 40
26.713991908419
 40
36.51091530911326
 40
36.51091530911326
 40
36.51091530911326
 40
36.51091530911326
 10
488.436558485144
 20
362.4178485173171
 30
0.0
 41
1.0
 10
479.6839015259631
 20
362.4090463790019
 30
0.0
 41
1.0
 10
471.4461859581512
 20
366.5242048524232
 30
0.0
 41
1.0
 10
466.1956694608795
 20
373.5102494759351
 30
0.0
 41
1.0
 10
464.2519908660848
 20
376.0963998868625
 30
0.0
 41
1.0
 10
462.786968559017
 20
378.9855849342837
 30
0.0
 41
1.0
 10
461.8478190670546
 20
382.0411323045709
 30
0.0
 41
1.0
  0
SPLINE
  5
64
330
1F
100
AcDbEntity
  8
Make2D$Visibile$Curve
370
    -3
100
AcDbSpline
210
0.0
220
0.0
230
1.0
 70
     8
 71
     5
 72
    12
 73
     6
 74
     0
 42
0.0000000001
 43
0.0000000001
 40
0.0456538383625923
 40
0.0456538383625923
 40
0.0456538383625923
 40
0.0456538383625923
 40
0.0456538383625923
 40
0.0456538383625923
 40
0.2034963991646506
 40
0.2034963991646506
 40
0.2034963991646506
 40
0.2034963991646506
 40
0.2034963991646506
 40
0.2034963991646506
 10
405.1871103583364
 20
397.1771203311625
 30
0.0
 10
405.1871065391901
 20
397.2103843247672
 30
0.0
 10
405.1870617406057
 20
397.2404866319898
 30
0.0
 10
405.1869708513159
 20
397.2692211721354
 30
0.0
 10
405.1868287600533
 20
397.2983818645089
 30
0.0
 10
405.1866303555506
 20
397.3297626284156
 30
0.0
  0
SPLINE
  5
65
330
1F
100
AcDbEntity
  8
Make2D$Visibile$Curve
370
    -3
100
AcDbSpline
210
0.0
220
0.0
230
1.0
 70
     8
 71
     5
 72
    12
 73
     6
 74
     0
 42
0.0000000001
 43
0.0000000001
 40
0.0456538382515234
 40
0.0456538382515234
 40
0.0456538382515234
 40
0.0456538382515234
 40
0.0456538382515234
 40
0.0456538382515234
 40
0.2034963990367188
 40
0.2034963990367188
 40
0.2034963990367188
 40
0.2034963990367188
 40
0.2034963990367188
 40
0.2034963990367188
 10
581.3170874540307
 20
398.2684146761051
 30
0.0
 10
581.3503514476122
 20
398.2684184952514
 30
0.0
 10
581.3804537548394
 20
398.2684632938358
 30
0.0
 10
581.4091882949996
 20
398.2685541831256
 30
0.0
 10
581.4383489873795
 20
398.2686962743882
 30
0.0
 10
581.4697297512664
 20
398.2688946788908
 30
0.0
  0
SPLINE
  5
66
330
1F
100
AcDbEntity
  8
Make2D$Visibile$Curve
370
    -3
100
AcDbSpline
210
0.0
220
0.0
230
1.0
 70
     8
 71
     5
 72
    12
 73
     6
 74
     0
 42
0.0000000001
 43
0.0000000001
 40
0.9414213562373245
 40
0.9414213562373245
 40
0.9414213562373245
 40
0.9414213562373245
 40
0.9414213562373245
 40
0.9414213562373245
 40
1.882842712474649
 40
1.882842712474649
 40
1.882842712474649
 40
1.882842712474649
 40
1.882842712474649
 40
1.882842712474649
 10
405.3746114568512
 20
382.2286323045709
 30
0.0
 10
405.2746114568512
 20
382.3286323045709
 30
0.0
 10
405.2121114568512
 20
382.4661323045708
 30
0.0
 10
405.1871114568512
 20
382.6411323045709
 30
0.0
 10
405.1871114568512
 20
382.8411323045708
 30
0.0
 10
405.1871114568512
 20
383.0411323045709
 30
0.0
  0
SPLINE
  5
67
330
1F
100
AcDbEntity
  8
Make2D$Visibile$Curve
370
    -3
100
AcDbSpline
210
0.0
220
0.0
230
1.0
 70
     8
 71
     5
 72
    12
 73
     6
 74
     0
 42
0.0000000001
 43
0.0000000001
 40
-1.882842712474582
 40
-1.882842712474582
 40
-1.882842712474582
 40
-1.882842712474582
 40
-1.882842712474582
 40
-1.882842712474582
 40
-0.9414213562372911
 40
-0.9414213562372911
 40
-0.9414213562372911
 40
-0.9414213562372911
 40
-0.9414213562372911
 40
-0.9414213562372911
 10
582.4083807004454
 20
397.2684135775903
 30
0.0
 10
582.4083807004454
 20
397.4684135775902
 30
0.0
 10
582.4083807004454
 20
397.6684135775903
 30
0.0
 10
582.3833807004453
 20
397.8434135775902
 30
0.0
 10
582.3208807004453
 20
397.9809135775903
 30
0.0
 10
582.2208807004454
 20
398.0809135775902
 30
0.0
  0
SPLINE
  5
68
330
1F
100
AcDbEntity
  8
Make2D$Visibile$Curve
370
    -3
100
AcDbSpline
210
0.0
220
0.0
230
1.0
 70
    24
 71
     2
 72
     6
 73
     3
 74
     0
 42
0.0000000001
 43
0.0000000001
 40
1.707106781186572
 40
1.707106781186572
 40
1.707106781186572
 40
175.5141624624075
 40
175.5141624624075
 40
175.5141624624075
 10
580.7012739192587
 20
382.0411323045709
 30
0.0
 10
493.7977460786482
 20
382.0411323045709
 30
0.0
 10
406.8942182380378
 20
382.0411323045709
 30
0.0
  0
SPLINE
  5
69
330
1F
100
AcDbEntity
  8
Make2D$Visibile$Curve
370
    -3
100
AcDbSpline
210
0.0
220
0.0
230
1.0
 70
    24
 71
     2
 72
     6
 73
     3
 74
     0
 42
0.0000000001
 43
0.0000000001
 40
-175.5141624624074
 40
-175.5141624624074
 40
-175.5141624624074
 40
-1.707106781186657
 40
-1.707106781186657
 40
-1.707106781186657
 10
406.8942182380379
 20
398.2684135775903
 30
0.0
 10
493.7977460786482
 20
398.2684135775903
 30
0.0
 10
580.7012739192586
 20
398.2684135775903
 30
0.0
  0
SPLINE
  5
6A
330
1F
100
AcDbEntity
  8
Make2D$Visibile$Curve
370
    -3
100
AcDbSpline
210
0.0
220
0.0
230
1.0
 70
    12
 71
     2
 72
     8
 73
     5
 74
     0
 42
0.0000000001
 43
0.0000000001
 40
37.14096586959607
 40
37.14096586959607
 40
37.14096586959607
 40
57.02066076879632
 40
57.02066076879632
 40
76.93589548991946
 40
76.93589548991946
 40
76.93589548991946
 10
472.1220202718632
 20
398.2684135775902
 30
0.0
 41
0.8763519414196046
 10
477.1184761580213
 20
408.34319478539
 30
0.0
 41
0.7957712958934183
 10
488.3641667662546
 20
408.3545040512101
 30
0.0
 41
1.0
 10
499.6351330457779
 20
408.3658387355925
 30
0.0
 41
0.7954061870820262
 10
504.6428189026857
 20
398.2684135775903
 30
0.0
 41
0.8766409669453361
  0
SPLINE
  5
6B
330
1F
100
AcDbEntity
  8
Make2D$Visibile$Curve
370
    -3
100
AcDbSpline
210
0.0
220
0.0
230
1.0
 70
     8
 71
     3
 72
    16
 73
    12
 74
     0
 42
0.0000000001
 43
0.0000000001
 40
19.51206294143412
 40
19.51206294143412
 40
19.51206294143412
 40
19.51206294143412
 40
19.68382408437023
 40
19.68382408437023
 40
23.97897986544339
 40
23.97897986544339
 40
26.52739497387481
 40
26.52739497387481
 40
28.94665253287218
 40
28.94665253287218
 40
39.27021969400052
 40
39.27021969400052
 40
39.27021969400052
 40
39.27021969400052
 10
506.2915030831157
 20
368.9367400157751
 30
0.0
 10
506.2827663782861
 20
368.9293591373191
 30
0.0
 10
506.2261842726609
 20
368.881929850173
 30
0.0
 10
505.1953225981056
 20
368.0238286748043
 30
0.0
 10
502.205099563972
 20
366.0532885205134
 30
0.0
 10
500.4598690737745
 20
365.1564196302469
 30
0.0
 10
499.7966713323713
 20
364.8480185859474
 30
0.0
 10
498.4816216709578
 20
364.2985282173745
 30
0.0
 10
497.8310204942903
 20
364.0548632263321
 30
0.0
 10
494.3581339887438
 20
362.9007775975531
 30
0.0
 10
491.4089013213189
 20
362.4208376636857
 30
0.0
 10
488.436558485144
 20
362.4178485173172
 30
0.0
  0
SPLINE
  5
6C
330
1F
100
AcDbEntity
  8
Make2D$Visibile$Curve
370
    -3
100
AcDbSpline
210
0.0
220
0.0
230
1.0
 70
    12
 71
     3
 72
     8
 73
     4
 74
     0
 42
0.0000000001
 43
0.0000000001
 40
102.1126667686661
 40
102.1126667686661
 40
102.1126667686661
 40
102.1126667686661
 40
102.1809657844955
 40
102.1809657844955
 40
102.1809657844955
 40
102.1809657844955
 10
506.3367307519526
 20
411.4337201776648
 30
0.0
 41
1.0
 10
506.3367307042715
 20
411.4337199483068
 30
0.0
 41
1.0
 10
506.3270068579977
 20
411.4419097589541
 30
0.0
 41
1.0
 10
506.3137382027138
 20
411.4530767053725
 30
0.0
 41
1.0
  0
SPLINE
  5
6D
330
1F
100
AcDbEntity
  8
Make2D$Visibile$Curve
370
    -3
100
AcDbSpline
210
0.0
220
0.0
230
1.0
 70
    12
 71
     2
 72
     8
 73
     5
 74
     0
 42
0.0000000001
 43
0.0000000001
 40
-19.77201946947642
 40
-19.77201946947642
 40
-19.77201946947642
 40
0.0
 40
0.0
 40
19.7237044651954
 40
19.7237044651954
 40
19.7237044651954
 10
504.5933442556619
 20
382.041132304571
 30
0.0
 41
0.8754873905173073
 10
499.5699263953193
 20
372.0652747254151
 30
0.0
 41
0.796877470489564
 10
488.4006724082944
 20
372.054042328335
 30
0.0
 41
1.0
 10
477.2656473404799
 20
372.0428443536802
 30
0.0
 41
0.7973738217043713
 10
472.2104471596848
 20
381.9642333359403
 30
0.0
 41
0.8751048896230491
  0
SPLINE
  5
6E
330
1F
100
AcDbEntity
  8
Make2D$Visibile$Curve
370
    -3
100
AcDbSpline
210
0.0
220
0.0
230
1.0
 70
     8
 71
     5
 72
    12
 73
     6
 74
     0
 42
0.0000000001
 43
0.0000000001
 40
0.0456538382655653
 40
0.0456538382655653
 40
0.0456538382655653
 40
0.0456538382655653
 40
0.0456538382655653
 40
0.0456538382655653
 40
0.2034963990136365
 40
0.2034963990136365
 40
0.2034963990136365
 40
0.2034963990136365
 40
0.2034963990136365
 40
0.2034963990136365
 10
406.278404703225
 20
382.0411312060561
 30
0.0
 10
406.2451407095981
 20
382.0411273869097
 30
0.0
 10
406.2150384024087
 20
382.0410825883255
 30
0.0
 10
406.186303862313
 20
382.0409916990359
 30
0.0
 10
406.1571431699674
 20
382.0408496077733
 30
0.0
 10
406.1257624060282
 20
382.0406512032704
 30
0.0
  0
SPLINE
  5
6F
330
1F
100
AcDbEntity
  8
Make2D$Visibile$Curve
370
    -3
100
AcDbSpline
210
0.0
220
0.0
230
1.0
 70
     8
 71
     5
 72
    12
 73
     6
 74
     0
 42
0.0000000001
 43
0.0000000001
 40
0.2959492990437139
 40
0.2959492990437139
 40
0.2959492990437139
 40
0.2959492990437139
 40
0.2959492990437139
 40
0.2959492990437139
 40
0.4153492677129866
 40
0.4153492677129866
 40
0.4153492677129866
 40
0.4153492677129866
 40
0.4153492677129866
 40
0.4153492677129866
 10
405.186325405587
 20
397.4155866992877
 30
0.0
 10
405.1863815408743
 20
397.4391841264263
 30
0.0
 10
405.1865510242192
 20
397.4614779890302
 30
0.0
 10
405.1869363439577
 20
397.4834986879708
 30
0.0
 10
405.1876399884256
 20
397.5062766241199
 30
0.0
 10
405.188764445959
 20
397.530842198349
 30
0.0
  0
SPLINE
  5
70
330
1F
100
AcDbEntity
  8
Make2D$Visibile$Curve
370
    -3
100
AcDbSpline
210
0.0
220
0.0
230
1.0
 70
     8
 71
     5
 72
    12
 73
     6
 74
     0
 42
0.0000000001
 43
0.0000000001
 40
0.2959490971018359
 40
0.2959490971018359
 40
0.2959490971018359
 40
0.2959490971018359
 40
0.2959490971018359
 40
0.2959490971018359
 40
0.4153491391075861
 40
0.4153491391075861
 40
0.4153491391075861
 40
0.4153491391075861
 40
0.4153491391075861
 40
0.4153491391075861
 10
582.4091667554454
 20
382.8939592771703
 30
0.0
 10
582.4091106207032
 20
382.8703618205009
 30
0.0
 10
582.4089411395222
 20
382.8480679942955
 30
0.0
 10
582.4085558223046
 20
382.8260473500171
 30
0.0
 10
582.4078521794531
 20
382.8032694391286
 30
0.0
 10
582.4067277213699
 20
382.7787038130928
 30
0.0
  0
SPLINE
  5
71
330
1F
100
AcDbEntity
  8
Make2D$Visibile$Curve
370
    -3
100
AcDbSpline
210
0.0
220
0.0
230
1.0
 70
     8
 71
     5
 72
    12
 73
     6
 74
     0
 42
0.0000000001
 43
0.0000000001
 40
0.0456539399185566
 40
0.0456539399185566
 40
0.0456539399185566
 40
0.0456539399185566
 40
0.0456539399185566
 40
0.0456539399185566
 40
0.2034967631612529
 40
0.2034967631612529
 40
0.2034967631612529
 40
0.2034967631612529
 40
0.2034967631612529
 40
0.2034967631612529
 10
582.4083817989997
 20
383.1324253622986
 30
0.0
 10
582.4083856182417
 20
383.0991615464678
 30
0.0
 10
582.4084304187093
 20
383.0690590613534
 30
0.0
 10
582.4085213103822
 20
383.040324224964
 30
0.0
 10
582.4086634032402
 20
383.0111633553084
 30
0.0
 10
582.4088618072632
 20
382.9797827703954
 30
0.0
  0
SPLINE
  5
72
330
1F
100
AcDbEntity
  8
Make2D$Visibile$Curve
370
    -3
100
AcDbSpline
210
0.0
220
0.0
230
1.0
 70
     8
 71
     5
 72
    12
 73
     6
 74
     0
 42
0.0000000001
 43
0.0000000001
 40
0.5871048706310082
 40
0.5871048706310082
 40
0.5871048706310082
 40
0.5871048706310082
 40
0.5871048706310082
 40
0.5871048706310082
 40
0.9414213562373245
 40
0.9414213562373245
 40
0.9414213562373245
 40
0.9414213562373245
 40
0.9414213562373245
 40
0.9414213562373245
 10
405.6146576040416
 20
382.0923151121591
 30
0.0
 10
405.5567770926795
 20
382.1097072687173
 30
0.0
 10
405.503456012114
 20
382.1316588560724
 30
0.0
 10
405.455195975899
 20
382.1586714877778
 30
0.0
 10
405.4122477908114
 20
382.1909959706106
 30
0.0
 10
405.3746114568512
 20
382.2286323045709
 30
0.0
  0
SPLINE
  5
73
330
1F
100
AcDbEntity
  8
Make2D$Visibile$Curve
370
    -3
100
AcDbSpline
210
0.0
220
0.0
230
1.0
 70
     8
 71
     5
 72
    12
 73
     6
 74
     0
 42
0.0000000001
 43
0.0000000001
 40
1.150973126753339
 40
1.150973126753339
 40
1.150973126753339
 40
1.150973126753339
 40
1.150973126753339
 40
1.150973126753339
 40
1.31305913442143
 40
1.31305913442143
 40
1.31305913442143
 40
1.31305913442143
 40
1.31305913442143
 40
1.31305913442143
 10
405.8281903043081
 20
382.0527298826428
 30
0.0
 10
405.8599080508852
 20
382.0496006032332
 30
0.0
 10
405.8926930268825
 20
382.047138802217
 30
0.0
 10
405.925764710599
 20
382.0452710241542
 30
0.0
 10
405.9583425803335
 20
382.0439238136046
 30
0.0
 10
405.9896461143849
 20
382.0430237151282
 30
0.0
  0
SPLINE
  5
74
330
1F
100
AcDbEntity
  8
Make2D$Visibile$Curve
370
    -3
100
AcDbSpline
210
0.0
220
0.0
230
1.0
 70
     8
 71
     5
 72
    12
 73
     6
 74
     0
 42
0.0000000001
 43
0.0000000001
 40
1.169396900718535
 40
1.169396900718535
 40
1.169396900718535
 40
1.169396900718535
 40
1.169396900718535
 40
1.169396900718535
 40
1.252367595015649
 40
1.252367595015649
 40
1.252367595015649
 40
1.252367595015649
 40
1.252367595015649
 40
1.252367595015649
 10
405.1970157215312
 20
397.6091820552978
 30
0.0
 10
405.1955662997577
 20
397.5927285477405
 30
0.0
 10
405.1942852168015
 20
397.5760651318313
 30
0.0
 10
405.19316261982
 20
397.5592965017623
 30
0.0
 10
405.1921886559703
 20
397.5425273517262
 30
0.0
 10
405.1913534724096
 20
397.5258623759153
 30
0.0
  0
SPLINE
  5
75
330
1F
100
AcDbEntity
  8
Make2D$Visibile$Curve
370
    -3
100
AcDbSpline
210
0.0
220
0.0
230
1.0
 70
     8
 71
     5
 72
    12
 73
     6
 74
     0
 42
0.0000000001
 43
0.0000000001
 40
1.127793965484105
 40
1.127793965484105
 40
1.127793965484105
 40
1.127793965484105
 40
1.127793965484105
 40
1.127793965484105
 40
1.313059134448529
 40
1.313059134448529
 40
1.313059134448529
 40
1.313059134448529
 40
1.313059134448529
 40
1.313059134448529
 10
581.7897398047899
 20
398.2544398304708
 30
0.0
 10
581.7542934996899
 20
398.2584633285989
 30
0.0
 10
581.7170154240928
 20
398.2615736208943
 30
0.0
 10
581.679071124858
 20
398.263880397782
 30
0.0
 10
581.6416261488445
 20
398.2654933496866
 30
0.0
 10
581.6058460429117
 20
398.2665221670328
 30
0.0
  0
SPLINE
  5
76
330
1F
100
AcDbEntity
  8
Make2D$Visibile$Curve
370
    -3
100
AcDbSpline
210
0.0
220
0.0
230
1.0
 70
     8
 71
     5
 72
    12
 73
     6
 74
     0
 42
0.0000000001
 43
0.0000000001
 40
0.0734979877296476
 40
0.0734979877296476
 40
0.0734979877296476
 40
0.0734979877296476
 40
0.0734979877296476
 40
0.0734979877296476
 40
0.1158300574507534
 40
0.1158300574507534
 40
0.1158300574507534
 40
0.1158300574507534
 40
0.1158300574507534
 40
0.1158300574507534
 10
406.1091568000591
 20
382.0412489462922
 30
0.0
 10
406.100203616473
 20
382.0412889875656
 30
0.0
 10
406.0912618099681
 20
382.0413404059202
 30
0.0
 10
406.0823334760735
 20
382.0414052968852
 30
0.0
 10
406.0734206592148
 20
382.041485704886
 30
0.0
 10
406.0645253527139
 20
382.0415836232446
 30
0.0
  0
SPLINE
  5
77
330
1F
100
AcDbEntity
  8
Make2D$Visibile$Curve
370
    -3
100
AcDbSpline
210
0.0
220
0.0
230
1.0
 70
     8
 71
     5
 72
    12
 73
     6
 74
     0
 42
0.0000000001
 43
0.0000000001
 40
1.534084258777787
 40
1.534084258777787
 40
1.534084258777787
 40
1.534084258777787
 40
1.534084258777787
 40
1.534084258777787
 40
1.649491529198462
 40
1.649491529198462
 40
1.649491529198462
 40
1.649491529198462
 40
1.649491529198462
 40
1.649491529198462
 10
582.3968473958962
 20
382.682206142287
 30
0.0
 10
582.3990593718014
 20
382.7045118320701
 30
0.0
 10
582.4009311468685
 20
382.7271577226915
 30
0.0
 10
582.402491715294
 20
382.7501148199544
 30
0.0
 10
582.4037728942457
 20
382.7733513066911
 30
0.0
 10
582.4048093238631
 20
382.796832542762
 30
0.0
  0
SPLINE
  5
78
330
1F
100
AcDbEntity
  8
Make2D$Visibile$Curve
370
    -3
100
AcDbSpline
210
0.0
220
0.0
230
1.0
 70
     8
 71
     5
 72
    12
 73
     6
 74
     0
 42
0.0000000001
 43
0.0000000001
 40
-0.1520894037436252
 40
-0.1520894037436252
 40
-0.1520894037436252
 40
-0.1520894037436252
 40
-0.1520894037436252
 40
-0.1520894037436252
 40
-0.1158300571096562
 40
-0.1158300571096562
 40
-0.1158300571096562
 40
-0.1158300571096562
 40
-0.1158300571096562
 40
-0.1158300571096562
 10
581.5689221237185
 20
398.2674020440114
 30
0.0
 10
581.5613616815455
 20
398.2675447087191
 30
0.0
 10
581.5537847171236
 20
398.2676708511779
 30
0.0
 10
581.5461924280851
 20
398.2677816690199
 30
0.0
 10
581.5385860395695
 20
398.2678783873849
 30
0.0
 10
581.5309668042244
 20
398.2679622589204
 30
0.0
  0
SPLINE
  5
79
330
1F
100
AcDbEntity
  8
Make2D$Visibile$Curve
370
    -3
100
AcDbSpline
210
0.0
220
0.0
230
1.0
 70
     8
 71
     5
 72
    12
 73
     6
 74
     0
 42
0.0000000001
 43
0.0000000001
 40
0.2959492988917376
 40
0.2959492988917376
 40
0.2959492988917376
 40
0.2959492988917376
 40
0.2959492988917376
 40
0.2959492988917376
 40
0.415349267557161
 40
0.415349267557161
 40
0.415349267557161
 40
0.415349267557161
 40
0.415349267557161
 40
0.415349267557161
 10
406.0399383351532
 20
382.0403462533068
 30
0.0
 10
406.0163409079981
 20
382.0404023885942
 30
0.0
 10
405.994047045404
 20
382.0405718719386
 30
0.0
 10
405.9720263464818
 20
382.0409571916766
 30
0.0
 10
405.9492484103422
 20
382.0416608361445
 30
0.0
 10
405.9246828360959
 20
382.0427852936787
 30
0.0
  0
SPLINE
  5
7A
330
1F
100
AcDbEntity
  8
Make2D$Visibile$Curve
370
    -3
100
AcDbSpline
210
0.0
220
0.0
230
1.0
 70
     8
 71
     5
 72
    12
 73
     6
 74
     0
 42
0.0000000001
 43
0.0000000001
 40
0.5142137336309217
 40
0.5142137336309217
 40
0.5142137336309217
 40
0.5142137336309217
 40
0.5142137336309217
 40
0.5142137336309217
 40
0.7355774645301038
 40
0.7355774645301038
 40
0.7355774645301038
 40
0.7355774645301038
 40
0.7355774645301038
 40
0.7355774645301038
 10
405.8279200680595
 20
382.0499908223944
 30
0.0
 10
405.7864100152428
 20
382.0544104393508
 30
0.0
 10
405.744739282599
 20
382.0608624290098
 30
0.0
 10
405.7052851161128
 20
382.0685387416531
 30
0.0
 10
405.670424761769
 20
382.0766313275619
 30
0.0
 10
405.6425354655523
 20
382.0843321370178
 30
0.0
  0
SPLINE
  5
7B
330
1F
100
AcDbEntity
  8
Make2D$Visibile$Curve
370
    -3
100
AcDbSpline
210
0.0
220
0.0
230
1.0
 70
     8
 71
     5
 72
    12
 73
     6
 74
     0
 42
0.0000000001
 43
0.0000000001
 40
0.5142137337836812
 40
0.5142137337836812
 40
0.5142137337836812
 40
0.5142137337836812
 40
0.5142137337836812
 40
0.5142137337836812
 40
0.7355774646827142
 40
0.7355774646827142
 40
0.7355774646827142
 40
0.7355774646827142
 40
0.7355774646827142
 40
0.7355774646827142
 10
405.1959699746745
 20
397.6276049663821
 30
0.0
 10
405.2003895916314
 20
397.6691150192025
 30
0.0
 10
405.20684158129
 20
397.7107857518448
 30
0.0
 10
405.2145178939326
 20
397.7502399183275
 30
0.0
 10
405.2226104798413
 20
397.7851002726694
 30
0.0
 10
405.230311289298
 20
397.8129895688893
 30
0.0
  0
SPLINE
  5
7C
330
1F
100
AcDbEntity
  8
Make2D$Visibile$Curve
370
    -3
100
AcDbSpline
210
0.0
220
0.0
230
1.0
 70
     8
 71
     5
 72
    12
 73
     6
 74
     0
 42
0.0000000001
 43
0.0000000001
 40
0.2959492989164721
 40
0.2959492989164721
 40
0.2959492989164721
 40
0.2959492989164721
 40
0.2959492989164721
 40
0.2959492989164721
 40
0.4153492675824315
 40
0.4153492675824315
 40
0.4153492675824315
 40
0.4153492675824315
 40
0.4153492675824315
 40
0.4153492675824315
 10
581.5555538221436
 20
398.2691996288544
 30
0.0
 10
581.5791512492967
 20
398.2691434935671
 30
0.0
 10
581.601445111892
 20
398.2689740102226
 30
0.0
 10
581.6234658108165
 20
398.2685886904844
 30
0.0
 10
581.6462437469572
 20
398.2678850460165
 30
0.0
 10
581.6708093212015
 20
398.2667605884825
 30
0.0
  0
SPLINE
  5
7D
330
1F
100
AcDbEntity
  8
Make2D$Visibile$Curve
370
    -3
100
AcDbSpline
210
0.0
220
0.0
230
1.0
 70
     8
 71
     5
 72
    12
 73
     6
 74
     0
 42
0.0000000001
 43
0.0000000001
 40
0.5142137336553998
 40
0.5142137336553998
 40
0.5142137336553998
 40
0.5142137336553998
 40
0.5142137336553998
 40
0.5142137336553998
 40
0.735577464551491
 40
0.735577464551491
 40
0.735577464551491
 40
0.735577464551491
 40
0.735577464551491
 40
0.735577464551491
 10
581.7675720892373
 20
398.2595550597667
 30
0.0
 10
581.8090821420586
 20
398.2551354428099
 30
0.0
 10
581.8507528746995
 20
398.2486834531516
 30
0.0
 10
581.8902070411805
 20
398.2410071405094
 30
0.0
 10
581.9250673955219
 20
398.2329145546008
 30
0.0
 10
581.9529566917444
 20
398.2252137451435
 30
0.0
  0
SPLINE
  5
7E
330
1F
100
AcDbEntity
  8
Make2D$Visibile$Curve
370
    -3
100
AcDbSpline
210
0.0
220
0.0
230
1.0
 70
    24
 71
     5
 72
    22
 73
    16
 74
     0
 42
0.0000000001
 43
0.0000000001
 40
0.0
 40
0.0
 40
0.0
 40
0.0
 40
0.0
 40
0.0
 40
0.1119822832033975
 40
0.1119822832033975
 40
0.1119822832033975
 40
0.1119822832033975
 40
0.1119822832033975
 40
0.2341854198477249
 40
0.2341854198477249
 40
0.2341854198477249
 40
0.2341854198477249
 40
0.2341854198477249
 40
0.3688244740841472
 40
0.3688244740841472
 40
0.3688244740841472
 40
0.3688244740841472
 40
0.3688244740841472
 40
0.3688244740841472
 10
582.4083807004453
 20
396.9219312548089
 30
0.0
 10
582.4083807004453
 20
396.9021322649356
 30
0.0
 10
582.4083807004453
 20
396.8816261682812
 30
0.0
 10
582.4083807004453
 20
396.8604129648456
 30
0.0
 10
582.4083807004453
 20
396.8384926546288
 30
0.0
 10
582.4083807004453
 20
396.8158652376309
 30
0.0
 10
582.4083807004453
 20
396.793237820633
 30
0.0
 10
582.4083807004453
 20
396.7699032968537
 30
0.0
 10
582.4083807004453
 20
396.7458616662934
 30
0.0
 10
582.4083807004454
 20
396.7211129289519
 30
0.0
 10
582.4083807004454
 20
396.6956570848291
 30
0.0
 10
582.4083807004454
 20
396.6702012407064
 30
0.0
 10
582.4083807004454
 20
396.6440382898026
 30
0.0
 10
582.4083807004454
 20
396.6171682321175
 30
0.0
 10
582.4083807004454
 20
396.5895910676512
 30
0.0
 10
582.4083807004454
 20
396.5613067964038
 30
0.0
  0
SPLINE
  5
7F
330
1F
100
AcDbEntity
  8
Make2D$Visibile$Curve
370
    -3
100
AcDbSpline
210
0.0
220
0.0
230
1.0
 70
     8
 71
     5
 72
    12
 73
     6
 74
     0
 42
0.0000000001
 43
0.0000000001
 40
0.5142137744502523
 40
0.5142137744502523
 40
0.5142137744502523
 40
0.5142137744502523
 40
0.5142137744502523
 40
0.5142137744502523
 40
0.7355774987062123
 40
0.7355774987062123
 40
0.7355774987062123
 40
0.7355774987062123
 40
0.7355774987062123
 40
0.7355774987062123
 10
582.3995221848772
 20
382.681940892979
 30
0.0
 10
582.3951025701053
 20
382.6404308662442
 30
0.0
 10
582.3886505753272
 20
382.5987601217143
 30
0.0
 10
582.3809742561501
 20
382.5593059321791
 30
0.0
 10
582.372881668181
 20
382.5244455704275
 30
0.0
 10
582.3651808670268
 20
382.4965563092489
 30
0.0
  0
SPLINE
  5
80
330
1F
100
AcDbEntity
  8
Make2D$Visibile$Curve
370
    -3
100
AcDbSpline
210
0.0
220
0.0
230
1.0
 70
     8
 71
     5
 72
    12
 73
     6
 74
     0
 42
0.0000000001
 43
0.0000000001
 40
0.9414213562373245
 40
0.9414213562373245
 40
0.9414213562373245
 40
0.9414213562373245
 40
0.9414213562373245
 40
0.9414213562373245
 40
1.337187145711747
 40
1.337187145711747
 40
1.337187145711747
 40
1.337187145711747
 40
1.337187145711747
 40
1.337187145711747
 10
582.2208807004454
 20
382.2286323045709
 30
0.0
 10
582.2629198773614
 20
382.2706714814869
 30
0.0
 10
582.2983317077933
 20
382.3193380048872
 30
0.0
 10
582.327116191741
 20
382.3746318747717
 30
0.0
 10
582.3496637445061
 20
382.4361626758388
 30
0.0
 10
582.3667551966914
 20
382.5031495774855
 30
0.0
  0
SPLINE
  5
81
330
1F
100
AcDbEntity
  8
Make2D$Visibile$Curve
370
    -3
100
AcDbSpline
210
0.0
220
0.0
230
1.0
 70
     8
 71
     5
 72
    12
 73
     6
 74
     0
 42
0.0000000001
 43
0.0000000001
 40
0.0
 40
0.0
 40
0.0
 40
0.0
 40
0.0
 40
0.0
 40
0.9414213562373245
 40
0.9414213562373245
 40
0.9414213562373245
 40
0.9414213562373245
 40
0.9414213562373245
 40
0.9414213562373245
 10
581.4083807004454
 20
382.0411323045709
 30
0.0
 10
581.6083807004453
 20
382.0411323045709
 30
0.0
 10
581.8083807004454
 20
382.0411323045709
 30
0.0
 10
581.9833807004453
 20
382.0661323045708
 30
0.0
 10
582.1208807004454
 20
382.1286323045708
 30
0.0
 10
582.2208807004454
 20
382.2286323045709
 30
0.0
  0
SPLINE
  5
82
330
1F
100
AcDbEntity
  8
Make2D$Visibile$Curve
370
    -3
100
AcDbSpline
210
0.0
220
0.0
230
1.0
 70
     8
 71
     5
 72
    12
 73
     6
 74
     0
 42
0.0000000001
 43
0.0000000001
 40
-0.9414213562373113
 40
-0.9414213562373113
 40
-0.9414213562373113
 40
-0.9414213562373113
 40
-0.9414213562373113
 40
-0.9414213562373113
 40
0.0
 40
0.0
 40
0.0
 40
0.0
 40
0.0
 40
0.0
 10
405.3746114568512
 20
398.0809135775903
 30
0.0
 10
405.4746114568512
 20
398.1809135775902
 30
0.0
 10
405.6121114568512
 20
398.2434135775902
 30
0.0
 10
405.7871114568512
 20
398.2684135775903
 30
0.0
 10
405.9871114568512
 20
398.2684135775903
 30
0.0
 10
406.1871114568512
 20
398.2684135775903
 30
0.0
  0
SPLINE
  5
83
330
1F
100
AcDbEntity
  8
Make2D$Visibile$Curve
370
    -3
100
AcDbSpline
210
0.0
220
0.0
230
1.0
 70
    24
 71
     5
 72
    14
 73
     8
 74
     0
 42
0.0000000001
 43
0.0000000001
 40
-1.0
 40
-1.0
 40
-1.0
 40
-1.0
 40
-1.0
 40
-1.0
 40
-0.8
 40
-0.6
 40
-0.4
 40
-0.4
 40
-0.4
 40
-0.4
 40
-0.4
 40
-0.4
 10
405.1871114568512
 20
396.5613067964038
 30
0.0
 10
405.1871114568512
 20
396.5895910676512
 30
0.0
 10
405.1871114568512
 20
396.6447453965837
 30
0.0
 10
405.1871114568512
 20
396.7232342492954
 30
0.0
 10
405.1871114568512
 20
396.7953591409764
 30
0.0
 10
405.1871114568512
 20
396.8611200716268
 30
0.0
 10
405.1871114568512
 20
396.9021322649356
 30
0.0
 10
405.1871114568512
 20
396.9219312548089
 30
0.0
  0
SPLINE
  5
84
330
1F
100
AcDbEntity
  8
Make2D$Visibile$Curve
370
    -3
100
AcDbSpline
210
0.0
220
0.0
230
1.0
 70
    24
 71
     2
 72
     6
 73
     3
 74
     0
 42
0.0000000001
 43
0.0000000001
 40
1.707106781186582
 40
1.707106781186582
 40
1.707106781186582
 40
14.52017449183285
 40
14.52017449183285
 40
14.52017449183285
 10
405.1871114568512
 20
383.7482390857574
 30
0.0
 10
405.1871114568512
 20
390.1547729410806
 30
0.0
 10
405.1871114568512
 20
396.5613067964038
 30
0.0
  0
SPLINE
  5
85
330
1F
100
AcDbEntity
  8
Make2D$Visibile$Curve
370
    -3
100
AcDbSpline
210
0.0
220
0.0
230
1.0
 70
    24
 71
     5
 72
    14
 73
     8
 74
     0
 42
0.0000000001
 43
0.0000000001
 40
0.4
 40
0.4
 40
0.4
 40
0.4
 40
0.4
 40
0.4
 40
0.6
 40
0.8
 40
1.0
 40
1.0
 40
1.0
 40
1.0
 40
1.0
 40
1.0
 10
405.1871114568512
 20
383.3876146273523
 30
0.0
 10
405.1871114568512
 20
383.4074136172255
 30
0.0
 10
405.1871114568512
 20
383.4484258105343
 30
0.0
 10
405.1871114568512
 20
383.5141867411846
 30
0.0
 10
405.1871114568512
 20
383.5863116328657
 30
0.0
 10
405.1871114568512
 20
383.6648004855774
 30
0.0
 10
405.1871114568512
 20
383.7199548145099
 30
0.0
 10
405.1871114568512
 20
383.7482390857574
 30
0.0
  0
SPLINE
  5
86
330
1F
100
AcDbEntity
  8
Make2D$Visibile$Curve
370
    -3
100
AcDbSpline
210
0.0
220
0.0
230
1.0
 70
    24
 71
     2
 72
     6
 73
     3
 74
     0
 42
0.0000000001
 43
0.0000000001
 40
1.707106781186546
 40
1.707106781186546
 40
1.707106781186546
 40
14.52017449183285
 40
14.52017449183285
 40
14.52017449183285
 10
582.4083807004454
 20
383.7482390857574
 30
0.0
 10
582.4083807004454
 20
390.1547729410806
 30
0.0
 10
582.4083807004454
 20
396.5613067964038
 30
0.0
  0
SPLINE
  5
87
330
1F
100
AcDbEntity
  8
Make2D$Visibile$Curve
370
    -3
100
AcDbSpline
210
0.0
220
0.0
230
1.0
 70
    24
 71
     5
 72
    14
 73
     8
 74
     0
 42
0.0000000001
 43
0.0000000001
 40
0.4
 40
0.4
 40
0.4
 40
0.4
 40
0.4
 40
0.4
 40
0.6
 40
0.8
 40
1.0
 40
1.0
 40
1.0
 40
1.0
 40
1.0
 40
1.0
 10
582.4083807004453
 20
383.3876146273523
 30
0.0
 10
582.4083807004453
 20
383.4074136172255
 30
0.0
 10
582.4083807004453
 20
383.4484258105343
 30
0.0
 10
582.4083807004453
 20
383.5141867411846
 30
0.0
 10
582.4083807004454
 20
383.5863116328657
 30
0.0
 10
582.4083807004454
 20
383.6648004855774
 30
0.0
 10
582.4083807004454
 20
383.7199548145099
 30
0.0
 10
582.4083807004454
 20
383.7482390857574
 30
0.0
  0
SPLINE
  5
88
330
1F
100
AcDbEntity
  8
Make2D$Visibile$Curve
370
    -3
100
AcDbSpline
210
0.0
220
0.0
230
1.0
 70
    24
 71
     5
 72
    14
 73
     8
 74
     0
 42
0.0000000001
 43
0.0000000001
 40
-1.0
 40
-1.0
 40
-1.0
 40
-1.0
 40
-1.0
 40
-1.0
 40
-0.8
 40
-0.6
 40
-0.4
 40
-0.4
 40
-0.4
 40
-0.4
 40
-0.4
 40
-0.4
 10
406.8942182380378
 20
382.0411323045709
 30
0.0
 10
406.8659339667903
 20
382.0411323045709
 30
0.0
 10
406.8107796378578
 20
382.0411323045709
 30
0.0
 10
406.732290785146
 20
382.0411323045709
 30
0.0
 10
406.660165893465
 20
382.0411323045709
 30
0.0
 10
406.5944049628146
 20
382.0411323045709
 30
0.0
 10
406.5533927695058
 20
382.0411323045709
 30
0.0
 10
406.5335937796326
 20
382.0411323045709
 30
0.0
  0
SPLINE
  5
89
330
1F
100
AcDbEntity
  8
Make2D$Visibile$Curve
370
    -3
100
AcDbSpline
210
0.0
220
0.0
230
1.0
 70
    24
 71
     5
 72
    14
 73
     8
 74
     0
 42
0.0000000001
 43
0.0000000001
 40
-1.0
 40
-1.0
 40
-1.0
 40
-1.0
 40
-1.0
 40
-1.0
 40
-0.8
 40
-0.6
 40
-0.4
 40
-0.4
 40
-0.4
 40
-0.4
 40
-0.4
 40
-0.4
 10
580.7012739192587
 20
382.0411323045709
 30
0.0
 10
580.7295581905062
 20
382.0411323045709
 30
0.0
 10
580.7847125194387
 20
382.0411323045709
 30
0.0
 10
580.8632013721503
 20
382.0411323045709
 30
0.0
 10
580.9353262638313
 20
382.041132304571
 30
0.0
 10
581.0010871944816
 20
382.041132304571
 30
0.0
 10
581.0420993877904
 20
382.0411323045709
 30
0.0
 10
581.0618983776636
 20
382.0411323045709
 30
0.0
  0
SPLINE
  5
8A
330
1F
100
AcDbEntity
  8
Make2D$Visibile$Curve
370
    -3
100
AcDbSpline
210
0.0
220
0.0
230
1.0
 70
    24
 71
     5
 72
    14
 73
     8
 74
     0
 42
0.0000000001
 43
0.0000000001
 40
-1.0
 40
-1.0
 40
-1.0
 40
-1.0
 40
-1.0
 40
-1.0
 40
-0.8
 40
-0.6
 40
-0.3999999999999761
 40
-0.3999999999999761
 40
-0.3999999999999761
 40
-0.3999999999999761
 40
-0.3999999999999761
 40
-0.3999999999999761
 10
580.7012739192587
 20
398.2684135775903
 30
0.0
 10
580.7295581905062
 20
398.2684135775903
 30
0.0
 10
580.7847125194387
 20
398.2684135775903
 30
0.0
 10
580.8632013721501
 20
398.2684135775903
 30
0.0
 10
580.9353262638311
 20
398.2684135775903
 30
0.0
 10
581.0010871944816
 20
398.2684135775903
 30
0.0
 10
581.0420993877904
 20
398.2684135775903
 30
0.0
 10
581.0618983776636
 20
398.2684135775903
 30
0.0
  0
SPLINE
  5
8B
330
1F
100
AcDbEntity
  8
Make2D$Visibile$Curve
370
    -3
100
AcDbSpline
210
0.0
220
0.0
230
1.0
 70
    24
 71
     5
 72
    14
 73
     8
 74
     0
 42
0.0000000001
 43
0.0000000001
 40
0.4
 40
0.4
 40
0.4
 40
0.4
 40
0.4
 40
0.4
 40
0.6
 40
0.8
 40
1.0
 40
1.0
 40
1.0
 40
1.0
 40
1.0
 40
1.0
 10
406.5335937796327
 20
398.2684135775903
 30
0.0
 10
406.553392769506
 20
398.2684135775903
 30
0.0
 10
406.5944049628148
 20
398.2684135775903
 30
0.0
 10
406.6601658934651
 20
398.2684135775903
 30
0.0
 10
406.7322907851462
 20
398.2684135775903
 30
0.0
 10
406.8107796378579
 20
398.2684135775903
 30
0.0
 10
406.8659339667904
 20
398.2684135775903
 30
0.0
 10
406.8942182380379
 20
398.2684135775903
 30
0.0
  0
SPLINE
  5
8C
330
1F
100
AcDbEntity
  8
Make2D$Visibile$Curve
370
    -3
100
AcDbSpline
210
0.0
220
0.0
230
1.0
 70
     8
 71
     5
 72
    12
 73
     6
 74
     0
 42
0.0000000001
 43
0.0000000001
 40
0.9414213562373113
 40
0.9414213562373113
 40
0.9414213562373113
 40
0.9414213562373113
 40
0.9414213562373113
 40
0.9414213562373113
 40
1.320255598239353
 40
1.320255598239353
 40
1.320255598239353
 40
1.320255598239353
 40
1.320255598239353
 40
1.320255598239353
 10
405.3746114568512
 20
398.0809135775902
 30
0.0
 10
405.3343707888982
 20
398.0406729096372
 30
0.0
 10
405.3002025385351
 20
397.9943598240943
 30
0.0
 10
405.2721067057619
 20
397.9419743209615
 30
0.0
 10
405.2497555194196
 20
397.883844171398
 30
0.0
 10
405.2324934371902
 20
397.8206249177214
 30
0.0
  0
SPLINE
  5
8D
330
1F
100
AcDbEntity
  8
Make2D$Visibile$Curve
370
    -3
100
AcDbSpline
210
0.0
220
0.0
230
1.0
 70
     8
 71
     5
 72
    12
 73
     6
 74
     0
 42
0.0000000001
 43
0.0000000001
 40
-0.9414213562372264
 40
-0.9414213562372264
 40
-0.9414213562372264
 40
-0.9414213562372264
 40
-0.9414213562372264
 40
-0.9414213562372264
 40
-0.5625871142357104
 40
-0.5625871142357104
 40
-0.5625871142357104
 40
-0.5625871142357104
 40
-0.5625871142357104
 40
-0.5625871142357104
 10
582.2208807004453
 20
398.0809135775902
 30
0.0
 10
582.1806400324923
 20
398.1211542455432
 30
0.0
 10
582.1343269469495
 20
398.1553224959063
 30
0.0
 10
582.0819414438168
 20
398.1834183286794
 30
0.0
 10
582.0238112942533
 20
398.2057695150218
 30
0.0
 10
581.9605920405768
 20
398.2230315972512
 30
0.0
  0
SPLINE
  5
8E
330
1F
100
AcDbEntity
  8
Make2D$Visibile$Curve
370
    -3
100
AcDbSpline
210
0.0
220
0.0
230
1.0
 70
    28
 71
     2
 72
     6
 73
     3
 74
     0
 42
0.0000000001
 43
0.0000000001
 40
-5.733406592801372
 40
-5.733406592801372
 40
-5.733406592801372
 40
0.0
 40
0.0
 40
0.0
 10
670.8560745216337
 20
263.5051226356438
 30
0.0
 41
1.0
 10
670.8560745216337
 20
263.5051226356438
 30
0.0
 41
0.7071067811865475
 10
667.2060745216336
 20
263.5051226356438
 30
0.0
 41
1.0
  0
SPLINE
  5
8F
330
1F
100
AcDbEntity
  8
Make2D$Visibile$Curve
370
    -3
100
AcDbSpline
210
0.0
220
0.0
230
1.0
 70
    28
 71
     2
 72
     6
 73
     3
 74
     0
 42
0.0000000001
 43
0.0000000001
 40
-22.93362637120549
 40
-22.93362637120549
 40
-22.93362637120549
 40
-17.20021977840412
 40
-17.20021977840412
 40
-17.20021977840412
 10
667.2060745216336
 20
263.5051226356438
 30
0.0
 41
1.0
 10
663.5560745216336
 20
263.5051226356438
 30
0.0
 41
0.7071067811865476
 10
663.5560745216337
 20
263.5051226356438
 30
0.0
 41
1.0
  0
SPLINE
  5
90
330
1F
100
AcDbEntity
  8
Make2D$Visibile$Curve
370
    -3
100
AcDbSpline
210
0.0
220
0.0
230
1.0
 70
    12
 71
     2
 72
     8
 73
     5
 74
     0
 42
0.0000000001
 43
0.0000000001
 40
0.6241973297329292
 40
0.6241973297329292
 40
0.6241973297329292
 40
0.8485281374238447
 40
0.8485281374238447
 40
1.097056274847702
 40
1.097056274847702
 40
1.097056274847702
 10
649.5475689792393
 20
90.24892741469743
 30
0.0
 41
0.9728714087090682
 10
649.5397447161907
 20
90.13703524013835
 30
0.0
 41
0.8535533905932737
 10
649.4604317985172
 20
90.05772232246467
 30
0.0
 41
0.8535533905932737
 10
649.3725638328731
 20
89.96985435682063
 30
0.0
 41
0.8535533905932737
 10
649.2482997641613
 20
89.96985435682063
 30
0.0
 41
1.0
  0
SPLINE
  5
91
330
1F
100
AcDbEntity
  8
Make2D$Visibile$Curve
370
    -3
100
AcDbSpline
210
0.0
220
0.0
230
1.0
 70
     8
 71
     3
 72
    25
 73
    21
 74
     0
 42
0.0000000001
 43
0.0000000001
 40
64.44215064365602
 40
64.44215064365602
 40
64.44215064365602
 40
64.44215064365602
 40
66.80594838157518
 40
66.80594838157518
 40
70.56541210343934
 40
70.56541210343934
 40
78.50946147150303
 40
78.50946147150303
 40
78.50946147150303
 40
94.0655936911283
 40
94.0655936911283
 40
94.0655936911283
 40
109.6217257005775
 40
109.6217257005775
 40
109.6217257005775
 40
118.3198442013586
 40
118.3198442013586
 40
122.4361364668613
 40
122.4361364668613
 40
125.0214189558167
 40
125.0214189558167
 40
125.0214189558167
 40
125.0214189558167
 10
686.3681893808725
 20
89.98129023934311
 30
0.0
 10
686.3249916787117
 20
89.9820057324185
 30
0.0
 10
686.2255691851503
 20
89.9828423687757
 30
0.0
 10
685.8543771115305
 20
89.98484830515295
 30
0.0
 10
685.5069690510323
 20
89.98605895834717
 30
0.0
 10
684.0736753691625
 20
89.98968917699028
 30
0.0
 10
682.6083406172803
 20
89.99192809780943
 30
0.0
 10
680.741287314089
 20
89.99380193157145
 30
0.0
 10
677.1111707412729
 20
89.99744523140792
 30
0.0
 10
672.1959720130209
 20
89.9994799309751
 30
0.0
 10
667.0839269413212
 20
89.9994747609746
 30
0.0
 10
661.9718822009975
 20
89.99946959097446
 30
0.0
 10
657.0607624883135
 20
89.99742495328842
 30
0.0
 10
653.4379410587887
 20
89.99377431949996
 30
0.0
 10
651.5746413308404
 20
89.99189671524118
 30
0.0
 10
650.1137851979574
 20
89.98965482848097
 30
0.0
 10
648.6877677754557
 20
89.98602175103099
 30
0.0
 10
648.3427745959622
 20
89.9848103417698
 30
0.0
 10
647.9757987264053
 20
89.98280477125493
 30
0.0
 10
647.8776730238845
 20
89.98196205877342
 30
0.0
 10
647.8364091820291
 20
89.98125509392452
 30
0.0
  0
SPLINE
  5
92
330
1F
100
AcDbEntity
  8
Make2D$Visibile$Curve
370
    -3
100
AcDbSpline
210
0.0
220
0.0
230
1.0
 70
    12
 71
     2
 72
     8
 73
     5
 74
     0
 42
0.0000000001
 43
0.0000000001
 40
57.06422932416875
 40
57.06422932416875
 40
57.06422932416875
 40
85.5527754308807
 40
85.5527754308807
 40
114.0413215375927
 40
114.0413215375927
 40
114.0413215375927
 10
685.253565009453
 20
199.8431898871529
 30
0.0
 41
1.0
 10
685.2282796618173
 20
199.861420805397
 30
0.0
 41
0.7075309956191844
 10
667.0998111806948
 20
199.8614172582519
 30
0.0
 41
1.0
 10
648.9713426995723
 20
199.8614137111067
 30
0.0
 41
0.7075309956191844
 10
648.9531117635947
 20
199.8431827843479
 30
0.0
 41
1.0
  0
SPLINE
  5
93
330
1F
100
AcDbEntity
  8
Make2D$Visibile$Curve
370
    -3
100
AcDbSpline
210
0.0
220
0.0
230
1.0
 70
    12
 71
     2
 72
     8
 73
     5
 74
     0
 42
0.0000000001
 43
0.0000000001
 40
0.0
 40
0.0
 40
0.0
 40
43.14569234332036
 40
43.14569234332036
 40
86.29138468664071
 40
86.29138468664071
 40
86.29138468664071
 10
694.5883254653739
 20
114.3102231920358
 30
0.0
 41
1.0
 10
694.5607128976166
 20
114.3378357458304
 30
0.0
 41
0.7074622336040035
 10
667.1033418464783
 20
114.3378357450482
 30
0.0
 41
1.0
 10
639.6459707953398
 20
114.337835744266
 30
0.0
 41
0.7074622336040035
 10
639.618359783125
 20
114.3102231904699
 30
0.0
 41
1.0
  0
SPLINE
  5
94
330
1F
100
AcDbEntity
  8
Make2D$Visibile$Curve
370
    -3
100
AcDbSpline
210
0.0
220
0.0
230
1.0
 70
    12
 71
     2
 72
     8
 73
     5
 74
     0
 42
0.0000000001
 43
0.0000000001
 40
0.0
 40
0.0
 40
0.0
 40
43.17333704894628
 40
43.17333704894628
 40
86.34667409789256
 40
86.34667409789256
 40
86.34667409789256
 10
639.6183565233279
 20
115.7201778014041
 30
0.0
 41
1.0
 10
639.6459968762076
 20
115.7478181403069
 30
0.0
 41
0.7071067810966504
 10
667.1309829848936
 20
115.7477903437161
 30
0.0
 41
1.0
 10
694.6159690935798
 20
115.7477625471253
 30
0.0
 41
0.7071067810966504
 10
694.5883287267229
 20
115.7201222082224
 30
0.0
 41
1.0
  0
SPLINE
  5
95
330
1F
100
AcDbEntity
  8
Make2D$Visibile$Curve
370
    -3
100
AcDbSpline
210
0.0
220
0.0
230
1.0
 70
     8
 71
     5
 72
    12
 73
     6
 74
     0
 42
0.0000000001
 43
0.0000000001
 40
0.2959492990332192
 40
0.2959492990332192
 40
0.2959492990332192
 40
0.2959492990332192
 40
0.2959492990332192
 40
0.2959492990332192
 40
0.4153492676978125
 40
0.4153492676978125
 40
0.4153492676978125
 40
0.4153492676978125
 40
0.4153492676978125
 40
0.4153492676978125
 10
659.793028618133
 20
287.0300869611428
 30
0.0
 10
659.7694311909928
 20
287.0301430964302
 30
0.0
 10
659.7471373283913
 20
287.030312579775
 30
0.0
 10
659.7251166294545
 20
287.0306978995134
 30
0.0
 10
659.7023386933079
 20
287.0314015439812
 30
0.0
 10
659.6777731190771
 20
287.0325260015146
 30
0.0
  0
SPLINE
  5
96
330
1F
100
AcDbEntity
  8
Make2D$Visibile$Curve
370
    -3
100
AcDbSpline
210
0.0
220
0.0
230
1.0
 70
     8
 71
     5
 72
    12
 73
     6
 74
     0
 42
0.0000000001
 43
0.0000000001
 40
0.5142137744167617
 40
0.5142137744167617
 40
0.5142137744167617
 40
0.5142137744167617
 40
0.5142137744167617
 40
0.5142137744167617
 40
0.7355774986744243
 40
0.7355774986744243
 40
0.7355774986744243
 40
0.7355774986744243
 40
0.7355774986744243
 40
0.7355774986744243
 10
658.9490602553985
 20
304.8794214209317
 30
0.0
 10
658.9534798701711
 20
304.9209314476728
 30
0.0
 10
658.9599318649485
 20
304.9626021922002
 30
0.0
 10
658.9676081841247
 20
305.00205638173
 30
0.0
 10
658.9757007720937
 20
305.0369167434785
 30
0.0
 10
658.9834015732492
 20
305.064806004662
 30
0.0
  0
SPLINE
  5
97
330
1F
100
AcDbEntity
  8
Make2D$Visibile$Curve
370
    -3
100
AcDbSpline
210
0.0
220
0.0
230
1.0
 70
     8
 71
     5
 72
    12
 73
     6
 74
     0
 42
0.0000000001
 43
0.0000000001
 40
0.9414213562373147
 40
0.9414213562373147
 40
0.9414213562373147
 40
0.9414213562373147
 40
0.9414213562373147
 40
0.9414213562373147
 40
1.882842712474629
 40
1.882842712474629
 40
1.882842712474629
 40
1.882842712474629
 40
1.882842712474629
 40
1.882842712474629
 10
659.1277017398306
 20
287.218373012407
 30
0.0
 10
659.0277017398307
 20
287.3183730124071
 30
0.0
 10
658.9652017398307
 20
287.4558730124071
 30
0.0
 10
658.9402017398306
 20
287.6308730124071
 30
0.0
 10
658.9402017398306
 20
287.8308730124071
 30
0.0
 10
658.9402017398306
 20
288.030873012407
 30
0.0
  0
SPLINE
  5
98
330
1F
100
AcDbEntity
  8
Make2D$Visibile$Curve
370
    -3
100
AcDbSpline
210
0.0
220
0.0
230
1.0
 70
     8
 71
     5
 72
    12
 73
     6
 74
     0
 42
0.0000000001
 43
0.0000000001
 40
0.9414213562373092
 40
0.9414213562373092
 40
0.9414213562373092
 40
0.9414213562373092
 40
0.9414213562373092
 40
0.9414213562373092
 40
1.882842712474618
 40
1.882842712474618
 40
1.882842712474618
 40
1.882842712474618
 40
1.882842712474618
 40
1.882842712474618
 10
674.9799830128501
 20
305.3327300093391
 30
0.0
 10
675.0799830128501
 20
305.2327300093391
 30
0.0
 10
675.1424830128501
 20
305.095230009339
 30
0.0
 10
675.1674830128501
 20
304.9202300093391
 30
0.0
 10
675.1674830128501
 20
304.720230009339
 30
0.0
 10
675.1674830128501
 20
304.5202300093391
 30
0.0
  0
SPLINE
  5
99
330
1F
100
AcDbEntity
  8
Make2D$Visibile$Curve
370
    -3
100
AcDbSpline
210
0.0
220
0.0
230
1.0
 70
     8
 71
     5
 72
    12
 73
     6
 74
     0
 42
0.0000000001
 43
0.0000000001
 40
0.5534320831914474
 40
0.5534320831914474
 40
0.5534320831914474
 40
0.5534320831914474
 40
0.5534320831914474
 40
0.5534320831914474
 40
0.9414213562373092
 40
0.9414213562373092
 40
0.9414213562373092
 40
0.9414213562373092
 40
0.9414213562373092
 40
0.9414213562373092
 10
674.7120258402758
 20
305.476904206502
 30
0.0
 10
674.7772743275259
 20
305.4597264198046
 30
0.0
 10
674.8372352220129
 20
305.4372610403441
 30
0.0
 10
674.8911872789306
 20
305.4087868233145
 30
0.0
 10
674.9387698758763
 20
305.3739431463127
 30
0.0
 10
674.9799830128501
 20
305.3327300093391
 30
0.0
  0
SPLINE
  5
9A
330
1F
100
AcDbEntity
  8
Make2D$Visibile$Curve
370
    -3
100
AcDbSpline
210
0.0
220
0.0
230
1.0
 70
     8
 71
     5
 72
    12
 73
     6
 74
     0
 42
0.0000000001
 43
0.0000000001
 40
0.2467124148043245
 40
0.2467124148043245
 40
0.2467124148043245
 40
0.2467124148043245
 40
0.2467124148043245
 40
0.2467124148043245
 40
0.3487584305998448
 40
0.3487584305998448
 40
0.3487584305998448
 40
0.3487584305998448
 40
0.3487584305998448
 40
0.3487584305998448
 10
675.1632783344747
 20
287.7730139366836
 30
0.0
 10
675.162259228709
 20
287.7523539048093
 30
0.0
 10
675.1610394466454
 20
287.7318945492329
 30
0.0
 10
675.1595954922329
 20
287.7116593660054
 30
0.0
 10
675.1579055950922
 20
287.6916701255062
 30
0.0
 10
675.1559497105145
 20
287.6719468724439
 30
0.0
  0
SPLINE
  5
9B
330
1F
100
AcDbEntity
  8
Make2D$Visibile$Curve
370
    -3
100
AcDbSpline
210
0.0
220
0.0
230
1.0
 70
     8
 71
     5
 72
    12
 73
     6
 74
     0
 42
0.0000000001
 43
0.0000000001
 40
1.169993573973276
 40
1.169993573973276
 40
1.169993573973276
 40
1.169993573973276
 40
1.169993573973276
 40
1.169993573973276
 40
1.247558857148152
 40
1.247558857148152
 40
1.247558857148152
 40
1.247558857148152
 40
1.247558857148152
 40
1.247558857148152
 10
658.9500539493445
 20
304.8604064720635
 30
0.0
 10
658.9487034813513
 20
304.8450192672885
 30
0.0
 10
658.9474999467767
 20
304.8294505885447
 30
0.0
 10
658.9464352957397
 20
304.8137859722023
 30
0.0
 10
658.9455014783592
 20
304.7981109546315
 30
0.0
 10
658.9446904447543
 20
304.7825110722029
 30
0.0
  0
SPLINE
  5
9C
330
1F
100
AcDbEntity
  8
Make2D$Visibile$Curve
370
    -3
100
AcDbSpline
210
0.0
220
0.0
230
1.0
 70
    28
 71
     2
 72
     6
 73
     3
 74
     0
 42
0.0000000001
 43
0.0000000001
 40
18.12735087298486
 40
18.12735087298486
 40
18.12735087298486
 40
81.7711787399284
 40
81.7711787399284
 40
81.7711787399284
 10
665.004148682944
 20
199.8612947687003
 30
0.0
 41
1.0
 10
665.004148682944
 20
231.6832087021721
 30
0.0
 41
1.0
 10
665.004148682944
 20
263.5051226356438
 30
0.0
 41
1.0
  0
SPLINE
  5
9D
330
1F
100
AcDbEntity
  8
Make2D$Visibile$Curve
370
    -3
100
AcDbSpline
210
0.0
220
0.0
230
1.0
 70
    28
 71
     2
 72
     8
 73
     5
 74
     0
 42
0.0000000001
 43
0.0000000001
 40
-17.90707812546183
 40
-17.90707812546183
 40
-17.90707812546183
 40
-11.93805208364121
 40
-11.93805208364121
 40
-5.969026041820601
 40
-5.969026041820601
 40
-5.969026041820601
 10
670.9041780163452
 20
263.9051226356418
 30
0.0
 41
1.0
 10
670.9041780163451
 20
263.9051226356418
 30
0.0
 41
0.7071067811865471
 10
667.1041780163451
 20
263.9051226356418
 30
0.0
 41
1.0
 10
663.3041780163451
 20
263.9051226356417
 30
0.0
 41
0.707106781186547
 10
663.3041780163451
 20
263.9051226356418
 30
0.0
 41
1.0
  0
SPLINE
  5
9E
330
1F
100
AcDbEntity
  8
Make2D$Visibile$Curve
370
    -3
100
AcDbSpline
210
0.0
220
0.0
230
1.0
 70
    28
 71
     2
 72
     6
 73
     3
 74
     0
 42
0.0000000001
 43
0.0000000001
 40
40.6288212600716
 40
40.6288212600716
 40
40.6288212600716
 40
104.2671916333034
 40
104.2671916333034
 40
104.2671916333034
 10
669.204148682944
 20
263.5051226356437
 30
0.0
 41
1.0
 10
669.204148682944
 20
231.6859374490278
 30
0.0
 41
1.0
 10
669.204148682944
 20
199.866752262412
 30
0.0
 41
1.0
  0
SPLINE
  5
9F
330
1F
100
AcDbEntity
  8
Make2D$Visibile$Curve
370
    -3
100
AcDbSpline
210
0.0
220
0.0
230
1.0
 70
    28
 71
     2
 72
     6
 73
     3
 74
     0
 42
0.0000000001
 43
0.0000000001
 40
1.229999999999992
 40
1.229999999999992
 40
1.229999999999992
 40
1.529999999999995
 40
1.529999999999995
 40
1.529999999999995
 10
670.8560745216337
 20
263.8051226356438
 30
0.0
 41
1.0
 10
670.8560745216337
 20
263.6551226356438
 30
0.0
 41
1.0
 10
670.8560745216337
 20
263.5051226356438
 30
0.0
 41
1.0
  0
SPLINE
  5
A0
330
1F
100
AcDbEntity
  8
Make2D$Visibile$Curve
370
    -3
100
AcDbSpline
210
0.0
220
0.0
230
1.0
 70
    28
 71
     2
 72
     6
 73
     3
 74
     0
 42
0.0000000001
 43
0.0000000001
 40
1.230000000000024
 40
1.230000000000024
 40
1.230000000000024
 40
1.530000000000013
 40
1.530000000000013
 40
1.530000000000013
 10
663.5560745216337
 20
263.5051226356438
 30
0.0
 41
1.0
 10
663.5560745216337
 20
263.6551226356438
 30
0.0
 41
1.0
 10
663.5560745216337
 20
263.8051226356438
 30
0.0
 41
1.0
  0
SPLINE
  5
A1
330
1F
100
AcDbEntity
  8
Make2D$Visibile$Curve
370
    -3
100
AcDbSpline
210
0.0
220
0.0
230
1.0
 70
    12
 71
     2
 72
     6
 73
     3
 74
     0
 42
0.0000000001
 43
0.0000000001
 40
0.0
 40
0.0
 40
0.0
 40
0.3653052284152357
 40
0.3653052284152357
 40
0.3653052284152357
 10
662.1041780163451
 20
267.5717893023085
 30
0.0
 41
1.0
 10
662.1041780163453
 20
267.4051226356419
 30
0.0
 41
0.9354225489461709
 10
662.1582320703993
 20
267.2474649779843
 30
0.0
 41
0.8993213268846272
  0
SPLINE
  5
A2
330
1F
100
AcDbEntity
  8
Make2D$Visibile$Curve
370
    -3
100
AcDbSpline
210
0.0
220
0.0
230
1.0
 70
    12
 71
     2
 72
     6
 73
     3
 74
     0
 42
0.0000000001
 43
0.0000000001
 40
0.0
 40
0.0
 40
0.0
 40
0.3653052284152328
 40
0.3653052284152328
 40
0.3653052284152328
 10
672.1041780163451
 20
267.5717893023085
 30
0.0
 41
1.0
 10
672.1041780163451
 20
267.4051226356418
 30
0.0
 41
0.9354225489461716
 10
672.0501239622911
 20
267.2474649779843
 30
0.0
 41
0.8993213268846278
  0
SPLINE
  5
A3
330
1F
100
AcDbEntity
  8
Make2D$Visibile$Curve
370
    -3
100
AcDbSpline
210
0.0
220
0.0
230
1.0
 70
    28
 71
     2
 72
     6
 73
     3
 74
     0
 42
0.0000000001
 43
0.0000000001
 40
5.966908795192467
 40
5.966908795192467
 40
5.966908795192467
 40
10.96666666666654
 40
10.96666666666654
 40
10.96666666666654
 10
662.1041780163451
 20
270.4053647641676
 30
0.0
 41
1.0
 10
662.1041780163451
 20
272.9052436999046
 30
0.0
 41
1.0
 10
662.1041780163451
 20
275.4051226356416
 30
0.0
 41
1.0
  0
SPLINE
  5
A4
330
1F
100
AcDbEntity
  8
Make2D$Visibile$Curve
370
    -3
100
AcDbSpline
210
0.0
220
0.0
230
1.0
 70
    28
 71
     2
 72
     6
 73
     3
 74
     0
 42
0.0000000001
 43
0.0000000001
 40
10.96666666666655
 40
10.96666666666655
 40
10.96666666666655
 40
22.46666666666655
 40
22.46666666666655
 40
22.46666666666655
 10
662.1041780163451
 20
275.4051226356416
 30
0.0
 41
1.0
 10
662.1041780163451
 20
281.1551226356416
 30
0.0
 41
1.0
 10
662.1041780163451
 20
286.9051226356416
 30
0.0
 41
1.0
  0
SPLINE
  5
A5
330
1F
100
AcDbEntity
  8
Make2D$Visibile$Curve
370
    -3
100
AcDbSpline
210
0.0
220
0.0
230
1.0
 70
    28
 71
     2
 72
     6
 73
     3
 74
     0
 42
0.0000000001
 43
0.0000000001
 40
3.133333333333351
 40
3.133333333333351
 40
3.133333333333351
 40
5.966908791589874
 40
5.966908791589874
 40
5.966908791589874
 10
662.1041780163451
 20
267.5717893023085
 30
0.0
 41
1.0
 10
662.1041780163451
 20
268.9885770314368
 30
0.0
 41
1.0
 10
662.1041780163451
 20
270.405364760565
 30
0.0
 41
1.0
  0
SPLINE
  5
A6
330
1F
100
AcDbEntity
  8
Make2D$Visibile$Curve
370
    -3
100
AcDbSpline
210
0.0
220
0.0
230
1.0
 70
    28
 71
     2
 72
     6
 73
     3
 74
     0
 42
0.0000000001
 43
0.0000000001
 40
3.133333333333354
 40
3.133333333333354
 40
3.133333333333354
 40
22.46666666666657
 40
22.46666666666657
 40
22.46666666666657
 10
672.1041780163451
 20
286.9051226356416
 30
0.0
 41
1.0
 10
672.1041780163451
 20
277.2384559689751
 30
0.0
 41
1.0
 10
672.1041780163451
 20
267.5717893023085
 30
0.0
 41
1.0
  0
SPLINE
  5
A7
330
1F
100
AcDbEntity
  8
Make2D$Visibile$Curve
370
    -3
100
AcDbSpline
210
0.0
220
0.0
230
1.0
 70
    28
 71
     2
 72
     6
 73
     3
 74
     0
 42
0.0000000001
 43
0.0000000001
 40
2.793571428571501
 40
2.793571428571501
 40
2.793571428571501
 40
6.326904761904996
 40
6.326904761904996
 40
6.326904761904996
 10
672.0501239622911
 20
267.2474649779842
 30
0.0
 41
1.0
 10
671.4771509893181
 20
265.576293806813
 30
0.0
 41
1.0
 10
670.9041780163452
 20
263.9051226356418
 30
0.0
 41
1.0
  0
SPLINE
  5
A8
330
1F
100
AcDbEntity
  8
Make2D$Visibile$Curve
370
    -3
100
AcDbSpline
210
0.0
220
0.0
230
1.0
 70
    28
 71
     2
 72
     6
 73
     3
 74
     0
 42
0.0000000001
 43
0.0000000001
 40
11.71666666666684
 40
11.71666666666684
 40
11.71666666666684
 40
15.25000000000032
 40
15.25000000000032
 40
15.25000000000032
 10
663.3041780163452
 20
263.9051226356418
 30
0.0
 41
1.0
 10
662.7312050433723
 20
265.576293806813
 30
0.0
 41
1.0
 10
662.1582320703992
 20
267.2474649779842
 30
0.0
 41
1.0
  0
SPLINE
  5
A9
330
1F
100
AcDbEntity
  8
Make2D$Visibile$Curve
370
    -3
100
AcDbSpline
210
0.0
220
0.0
230
1.0
 70
    28
 71
     2
 72
     8
 73
     5
 74
     0
 42
0.0000000001
 43
0.0000000001
 40
15.70796326794879
 40
15.70796326794879
 40
15.70796326794879
 40
23.56194490192345
 40
23.56194490192345
 40
31.4159265358981
 40
31.4159265358981
 40
31.4159265358981
 10
672.1041780163451
 20
286.9051226356416
 30
0.0
 41
1.0
 10
672.1041780163453
 20
286.9051226356416
 30
0.0
 41
0.7071067811865412
 10
667.1041780163453
 20
286.9051226356416
 30
0.0
 41
1.0
 10
662.1041780163451
 20
286.9051226356416
 30
0.0
 41
0.7071067811865412
 10
662.1041780163451
 20
286.9051226356416
 30
0.0
 41
1.0
  0
SPLINE
  5
AA
330
1F
100
AcDbEntity
  8
Make2D$Visibile$Curve
370
    -3
100
AcDbSpline
210
0.0
220
0.0
230
1.0
 70
    12
 71
     2
 72
     8
 73
     5
 74
     0
 42
0.0000000001
 43
0.0000000001
 40
0.6241973297329446
 40
0.6241973297329446
 40
0.6241973297329446
 40
0.8485281374238656
 40
0.8485281374238656
 40
1.020946405304292
 40
1.020946405304292
 40
1.020946405304292
 10
684.7559780187886
 20
90.24892741469795
 30
0.0
 41
0.9728714087090675
 10
684.763802281837
 20
90.13703524013883
 30
0.0
 41
0.8535533905932737
 10
684.8431151995107
 20
90.05772232246518
 30
0.0
 41
0.8535533905932737
 10
684.90407426272
 20
89.99676325925584
 30
0.0
 41
0.8535533905932737
 10
684.9880959662266
 20
89.9774664171684
 30
0.0
 41
0.9240380729255206
  0
SPLINE
  5
AB
330
1F
100
AcDbEntity
  8
Make2D$Visibile$Curve
370
    -3
100
AcDbSpline
210
0.0
220
0.0
230
1.0
 70
    28
 71
     3
 72
     8
 73
     4
 74
     0
 42
0.0000000001
 43
0.0000000001
 40
5.719188983832812
 40
5.719188983832812
 40
5.719188983832812
 40
5.719188983832812
 40
6.14346511033723
 40
6.14346511033723
 40
6.14346511033723
 40
6.14346511033723
 10
639.3183599352388
 20
114.0102065929572
 30
0.0
 41
0.9991684440942749
 10
639.4183598845136
 20
114.1102121254407
 30
0.0
 41
0.9991684440942749
 10
639.5183598337883
 20
114.2102176579243
 30
0.0
 41
0.9991684440942749
 10
639.6183597830629
 20
114.3102231904078
 30
0.0
 41
0.9991684440942749
  0
SPLINE
  5
AC
330
1F
100
AcDbEntity
  8
Make2D$Visibile$Curve
370
    -3
100
AcDbSpline
210
0.0
220
0.0
230
1.0
 70
    28
 71
     2
 72
     6
 73
     3
 74
     0
 42
0.0000000001
 43
0.0000000001
 40
38.8707599079718
 40
38.8707599079718
 40
38.8707599079718
 40
39.2950360344871
 40
39.2950360344871
 40
39.2950360344871
 10
694.5883254653739
 20
114.3102231920358
 30
0.0
 41
1.0
 10
694.7383253892814
 20
114.1602148933152
 30
0.0
 41
1.0
 10
694.8883253131888
 20
114.0102065945946
 30
0.0
 41
1.0
  0
SPLINE
  5
AD
330
1F
100
AcDbEntity
  8
Make2D$Visibile$Curve
370
    -3
100
AcDbSpline
210
0.0
220
0.0
230
1.0
 70
     8
 71
     3
 72
     8
 73
     4
 74
     0
 42
0.0000000001
 43
0.0000000001
 40
0.3636244526392252
 40
0.3636244526392252
 40
0.3636244526392252
 40
0.3636244526392252
 40
0.6653175480268185
 40
0.6653175480268185
 40
0.6653175480268185
 40
0.6653175480268185
 10
686.6350478654949
 20
90.08106160634668
 30
0.0
 10
686.5614283948742
 20
90.02202942186523
 30
0.0
 10
686.4862880575283
 20
89.98626147049703
 30
0.0
 10
686.4577809220832
 20
89.9828053323049
 30
0.0
  0
SPLINE
  5
AE
330
1F
100
AcDbEntity
  8
Make2D$Visibile$Curve
370
    -3
100
AcDbSpline
210
0.0
220
0.0
230
1.0
 70
    12
 71
     3
 72
    14
 73
    10
 74
     0
 42
0.0000000001
 43
0.0000000001
 40
-0.0000000000000002
 40
-0.0000000000000002
 40
-0.0000000000000002
 40
-0.0000000000000002
 40
8.257038860406288
 40
8.257038860406288
 40
16.51407772081258
 40
16.51407772081258
 40
24.77111658121886
 40
24.77111658121886
 40
33.02815544162522
 40
33.02815544162522
 40
33.02815544162522
 40
33.02815544162522
 10
639.318359936876
 20
114.0101503946316
 30
0.0
 41
1.0
 10
639.3184820366046
 20
111.8620895095767
 30
0.0
 41
1.0
 10
639.3235999341455
 20
109.7260334536187
 30
0.0
 41
1.0
 10
639.6803615093925
 20
105.3666878882721
 30
0.0
 41
1.0
 10
640.0514905627895
 20
103.1035774966015
 30
0.0
 41
1.0
 10
641.3033445960942
 20
98.69043599099565
 30
0.0
 41
1.0
 10
642.1759172923312
 20
96.55951139641333
 30
0.0
 41
1.0
 10
644.4659381190061
 20
92.85272392011429
 30
0.0
 41
1.0
 10
645.9059416386649
 20
91.30592595452568
 30
0.0
 41
1.0
 10
647.5553968339282
 20
90.0607883080527
 30
0.0
 41
1.0
  0
SPLINE
  5
AF
330
1F
100
AcDbEntity
  8
Make2D$Visibile$Curve
370
    -3
100
AcDbSpline
210
0.0
220
0.0
230
1.0
 70
     8
 71
     3
 72
    17
 73
    13
 74
     0
 42
0.0000000001
 43
0.0000000001
 40
0.0
 40
0.0
 40
0.0
 40
0.0
 40
6.471056369450879
 40
6.471056369450879
 40
6.471056369450879
 40
13.24488124707783
 40
13.24488124707783
 40
13.24488124707783
 40
20.02009985898223
 40
20.02009985898223
 40
20.02009985898223
 40
26.37857267324723
 40
26.37857267324723
 40
26.37857267324723
 40
26.37857267324723
 10
694.8883393631831
 20
114.0101784930158
 30
0.0
 10
694.8882157459831
 20
111.8354223237264
 30
0.0
 10
694.8822985511824
 20
109.7162751097163
 30
0.0
 10
694.7047183919608
 20
107.5463863007653
 30
0.0
 10
694.5217614811897
 20
105.3107978490929
 30
0.0
 10
694.14184878724
 20
103.0565046703859
 30
0.0
 10
693.5292799581382
 20
100.8970258882181
 30
0.0
 10
692.9219985646334
 20
98.75618681548646
 30
0.0
 10
692.0592639301309
 20
96.60563398138854
 30
0.0
 10
690.8857649804958
 20
94.7061268511648
 30
0.0
 10
689.7696063734518
 20
92.89943479302568
 30
0.0
 10
688.3454051016026
 20
91.3396390815835
 30
0.0
 10
686.6512809543815
 20
90.06078188855895
 30
0.0
  0
SPLINE
  5
B0
330
1F
100
AcDbEntity
  8
Make2D$Visibile$Curve
370
    -3
100
AcDbSpline
210
0.0
220
0.0
230
1.0
 70
    28
 71
     2
 72
     6
 73
     3
 74
     0
 42
0.0000000001
 43
0.0000000001
 40
2.605878592348529
 40
2.605878592348529
 40
2.605878592348529
 40
4.015833914683316
 40
4.015833914683316
 40
4.015833914683316
 10
640.3533426250325
 20
114.3101953954553
 30
0.0
 41
0.9995838279132597
 10
640.3533426250324
 20
115.0151727001378
 30
0.0
 41
0.9995838279132598
 10
640.3533426250324
 20
115.7201500048203
 30
0.0
 41
0.9995838279132598
  0
SPLINE
  5
B1
330
1F
100
AcDbEntity
  8
Make2D$Visibile$Curve
370
    -3
100
AcDbSpline
210
0.0
220
0.0
230
1.0
 70
    28
 71
     2
 72
     6
 73
     3
 74
     0
 42
0.0000000001
 43
0.0000000001
 40
1.515833914683402
 40
1.515833914683402
 40
1.515833914683402
 40
2.925789237018191
 40
2.925789237018191
 40
2.925789237018191
 10
693.8533426250324
 20
115.7201500048203
 30
0.0
 41
0.9995838279132601
 10
693.8533426250324
 20
115.0151727001378
 30
0.0
 41
0.9995838279132601
 10
693.8533426250324
 20
114.3101953954553
 30
0.0
 41
0.9995838279132601
  0
SPLINE
  5
B2
330
1F
100
AcDbEntity
  8
Make2D$Visibile$Curve
370
    -3
100
AcDbSpline
210
0.0
220
0.0
230
1.0
 70
    12
 71
     3
 72
    17
 73
    13
 74
     0
 42
0.0000000001
 43
0.0000000001
 40
-0.0000000000000409
 40
-0.0000000000000409
 40
-0.0000000000000409
 40
-0.0000000000000409
 40
11.91237140508737
 40
11.91237140508737
 40
23.82474281017473
 40
23.82474281017473
 40
29.78092851271842
 40
29.78092851271842
 40
35.7371142152621
 40
35.7371142152621
 40
47.64948562034947
 40
95.29897124069895
 40
95.29897124069895
 40
95.29897124069895
 40
95.29897124069895
 10
648.9531117635947
 20
199.8431827843479
 30
0.0
 41
1.0
 10
646.0773132592525
 20
197.7697111380932
 30
0.0
 41
1.0
 10
643.8507584325482
 20
195.2765453396659
 30
0.0
 41
1.0
 10
640.7101200315838
 20
189.0011337985221
 30
0.0
 41
1.0
 10
639.8172870002345
 20
185.0638499107456
 30
0.0
 41
1.0
 10
639.3522586898588
 20
179.5368262377179
 30
0.0
 41
1.0
 10
639.3243344602706
 20
177.726966636385
 30
0.0
 41
1.0
 10
639.3144992483228
 20
174.1020789591641
 30
0.0
 41
1.0
 10
639.3183566750283
 20
172.2854990050362
 30
0.0
 41
1.0
 10
639.3183566750283
 20
166.8404679354944
 30
0.0
 41
1.0
 10
639.3183566750283
 20
148.6903643703551
 30
0.0
 41
1.0
 10
639.3183566750283
 20
130.540260805216
 30
0.0
 41
1.0
 10
639.3183566750283
 20
116.0201779531046
 30
0.0
 41
1.0
  0
SPLINE
  5
B3
330
1F
100
AcDbEntity
  8
Make2D$Visibile$Curve
370
    -3
100
AcDbSpline
210
0.0
220
0.0
230
1.0
 70
    12
 71
     3
 72
    23
 73
    19
 74
     0
 42
0.0000000001
 43
0.0000000001
 40
0.0
 40
0.0
 40
0.0
 40
0.0
 40
10.39699593872567
 40
10.39699593872567
 40
10.39699593872567
 40
21.642326191881
 40
21.642326191881
 40
21.642326191881
 40
27.11368098594791
 40
27.11368098594791
 40
27.11368098594791
 40
32.55772868641937
 40
32.55772868641937
 40
32.55772868641937
 40
43.44779633226582
 40
43.44779633226582
 40
43.44779633226582
 40
87.00806691565148
 40
87.00806691565148
 40
87.00806691565148
 40
87.00806691565148
 10
685.253565009453
 20
199.843189887153
 30
0.0
 41
1.0
 10
688.1077174666282
 20
197.785325354212
 30
0.0
 41
1.0
 10
690.3451756739094
 20
195.2980334085925
 30
0.0
 41
1.0
 10
691.9262554262535
 20
192.1388270286653
 30
0.0
 41
1.0
 10
693.5383618634926
 20
188.9176252302768
 30
0.0
 41
1.0
 10
694.400241551899
 20
184.9351110940646
 30
0.0
 41
1.0
 10
694.6994309790987
 20
181.3791419013094
 30
0.0
 41
1.0
 10
694.8534663833946
 20
179.5483781694626
 30
0.0
 41
1.0
 10
694.8823015896523
 20
177.7502490667014
 30
0.0
 41
1.0
 10
694.8872824451244
 20
175.9144947751014
 30
0.0
 41
1.0
 10
694.8922067410233
 20
174.0995861956016
 30
0.0
 41
1.0
 10
694.8883426250325
 20
172.2848899939354
 30
0.0
 41
1.0
 10
694.8883426250325
 20
170.4704605485376
 30
0.0
 41
1.0
 10
694.8883426250324
 20
166.8404398355098
 30
0.0
 41
0.9999999999999999
 10
694.8883426250324
 20
163.2104191224819
 30
0.0
 41
0.9999999999999999
 10
694.8883426250324
 20
159.580398409454
 30
0.0
 41
0.9999999999999999
 10
694.8883426250324
 20
145.0603155573426
 30
0.0
 41
0.9999999999999998
 10
694.8883426250324
 20
130.5402327052312
 30
0.0
 41
0.9999999999999998
 10
694.8883426250324
 20
116.0201498531198
 30
0.0
 41
0.9999999999999998
  0
SPLINE
  5
B4
330
1F
100
AcDbEntity
  8
Make2D$Visibile$Curve
370
    -3
100
AcDbSpline
210
0.0
220
0.0
230
1.0
 70
    12
 71
     2
 72
     8
 73
     5
 74
     0
 42
0.0000000001
 43
0.0000000001
 40
87.28915186586275
 40
87.28915186586275
 40
87.28915186586275
 40
130.9337278129238
 40
130.9337278129238
 40
174.5783037599848
 40
174.5783037599848
 40
174.5783037599848
 10
694.8883285750223
 20
116.0201217531208
 30
0.0
 41
1.0
 10
694.9162706377153
 20
116.0480637875547
 30
0.0
 41
0.7071067810966504
 10
667.1312846806535
 20
116.0480918875466
 30
0.0
 41
1.0
 10
639.3462987235918
 20
116.0481199875384
 30
0.0
 41
0.7071067810966504
 10
639.3183566750283
 20
116.0201779531045
 30
0.0
 41
1.0
  0
SPLINE
  5
B5
330
1F
100
AcDbEntity
  8
Make2D$Visibile$Curve
370
    -3
100
AcDbSpline
210
0.0
220
0.0
230
1.0
 70
    28
 71
     3
 72
     8
 73
     4
 74
     0
 42
0.0000000001
 43
0.0000000001
 40
5.719128638200772
 40
5.719128638200772
 40
5.719128638200772
 40
5.719128638200772
 40
6.14339270691269
 40
6.14339270691269
 40
6.14339270691269
 40
6.14339270691269
 10
694.8883285750223
 20
116.0201217531208
 30
0.0
 41
0.9999999997893578
 10
694.7883286255892
 20
115.9201219048214
 30
0.0
 41
0.9999999997893578
 10
694.6883286761562
 20
115.8201220565219
 30
0.0
 41
0.9999999997893578
 10
694.588328726723
 20
115.7201222082225
 30
0.0
 41
0.9999999997893578
  0
SPLINE
  5
B6
330
1F
100
AcDbEntity
  8
Make2D$Visibile$Curve
370
    -3
100
AcDbSpline
210
0.0
220
0.0
230
1.0
 70
    28
 71
     3
 72
     8
 73
     4
 74
     0
 42
0.0000000001
 43
0.0000000001
 40
35.11853274576985
 40
35.11853274576985
 40
35.11853274576985
 40
35.11853274576985
 40
35.54279638540787
 40
35.54279638540787
 40
35.54279638540787
 40
35.54279638540787
 10
639.6183843199258
 20
115.7200944116666
 30
0.0
 41
0.9991684205041342
 10
639.5183844716264
 20
115.8200941588325
 30
0.0
 41
0.9991684205041342
 10
639.418384623327
 20
115.9200939059985
 30
0.0
 41
0.9991684205041342
 10
639.3183847750274
 20
116.0200936531644
 30
0.0
 41
0.9991684205041342
  0
SPLINE
  5
B7
330
1F
100
AcDbEntity
  8
Make2D$Visibile$Curve
370
    -3
100
AcDbSpline
210
0.0
220
0.0
230
1.0
 70
    12
 71
     2
 72
     8
 73
     5
 74
     0
 42
0.0000000001
 43
0.0000000001
 40
87.2891416325906
 40
87.2891416325906
 40
87.2891416325906
 40
130.9337124488859
 40
130.9337124488859
 40
174.5782832651812
 40
174.5782832651812
 40
174.5782832651812
 10
639.318359936876
 20
114.0101503946316
 30
0.0
 41
1.0
 10
639.2904178916001
 20
114.0380924257781
 30
0.0
 41
0.7071067811865477
 10
667.0754005797564
 20
114.0381205257596
 30
0.0
 41
1.0
 10
694.8603832679129
 20
114.0381486257411
 30
0.0
 41
0.7071067811865477
 10
694.8883253131888
 20
114.0102065945946
 30
0.0
 41
1.0
  0
SPLINE
  5
B8
330
1F
100
AcDbEntity
  8
Make2D$Visibile$Curve
370
    -3
100
AcDbSpline
210
0.0
220
0.0
230
1.0
 70
     8
 71
     5
 72
    12
 73
     6
 74
     0
 42
0.0000000001
 43
0.0000000001
 40
0.0456538382257953
 40
0.0456538382257953
 40
0.0456538382257953
 40
0.0456538382257953
 40
0.0456538382257953
 40
0.0456538382257953
 40
0.2034963991519492
 40
0.2034963991519492
 40
0.2034963991519492
 40
0.2034963991519492
 40
0.2034963991519492
 40
0.2034963991519492
 10
660.0314949863852
 20
287.0308719138922
 30
0.0
 10
659.9982309935881
 20
287.030868094746
 30
0.0
 10
659.9681286859037
 20
287.0308232961589
 30
0.0
 10
659.9393941448811
 20
287.0307324068664
 30
0.0
 10
659.9102334520692
 20
287.0305903156038
 30
0.0
 10
659.8788526890169
 20
287.0303919111064
 30
0.0
  0
SPLINE
  5
B9
330
1F
100
AcDbEntity
  8
Make2D$Visibile$Curve
370
    -3
100
AcDbSpline
210
0.0
220
0.0
230
1.0
 70
     8
 71
     5
 72
    12
 73
     6
 74
     0
 42
0.0000000001
 43
0.0000000001
 40
0.0456538382464801
 40
0.0456538382464801
 40
0.0456538382464801
 40
0.0456538382464801
 40
0.0456538382464801
 40
0.0456538382464801
 40
0.2034963990334363
 40
0.2034963990334363
 40
0.2034963990334363
 40
0.2034963990334363
 40
0.2034963990334363
 40
0.2034963990334363
 10
675.167484111365
 20
288.1221662588248
 30
0.0
 10
675.1674879305112
 20
288.0889022652245
 30
0.0
 10
675.1675327290956
 20
288.058799958006
 30
0.0
 10
675.1676236183853
 20
288.0300654178639
 30
0.0
 10
675.1677657096479
 20
288.0009047254927
 30
0.0
 10
675.1679641141505
 20
287.9695239615871
 30
0.0
  0
SPLINE
  5
BA
330
1F
100
AcDbEntity
  8
Make2D$Visibile$Curve
370
    -3
100
AcDbSpline
210
0.0
220
0.0
230
1.0
 70
     8
 71
     5
 72
    12
 73
     6
 74
     0
 42
0.0000000001
 43
0.0000000001
 40
0.2510901389345461
 40
0.2510901389345461
 40
0.2510901389345461
 40
0.2510901389345461
 40
0.2510901389345461
 40
0.2510901389345461
 40
0.4082545788572133
 40
0.4082545788572133
 40
0.4082545788572133
 40
0.4082545788572133
 40
0.4082545788572133
 40
0.4082545788572133
 10
674.4297699031458
 20
305.5158030235675
 30
0.0
 10
674.4615356664777
 20
305.5141800308697
 30
0.0
 10
674.4928182735339
 20
305.5120738818962
 30
0.0
 10
674.52353242919
 20
305.5093992815227
 30
0.0
 10
674.5536025476911
 20
305.506080643994
 30
0.0
 10
674.5829627526497
 20
305.502052092923
 30
0.0
  0
SPLINE
  5
BB
330
1F
100
AcDbEntity
  8
Make2D$Visibile$Curve
370
    -3
100
AcDbSpline
210
0.0
220
0.0
230
1.0
 70
     8
 71
     5
 72
    12
 73
     6
 74
     0
 42
0.0000000001
 43
0.0000000001
 40
0.2959492988266686
 40
0.2959492988266686
 40
0.2959492988266686
 40
0.2959492988266686
 40
0.2959492988266686
 40
0.2959492988266686
 40
0.4153492674937283
 40
0.4153492674937283
 40
0.4153492674937283
 40
0.4153492674937283
 40
0.4153492674937283
 40
0.4153492674937283
 10
674.3146561345486
 20
305.5210160606031
 30
0.0
 10
674.3382535616952
 20
305.5209599253158
 30
0.0
 10
674.3605474242943
 20
305.520790441971
 30
0.0
 10
674.3825681232258
 20
305.5204051222328
 30
0.0
 10
674.4053460593705
 20
305.5197014777649
 30
0.0
 10
674.4299116336083
 20
305.5185770202311
 30
0.0
  0
SPLINE
  5
BC
330
1F
100
AcDbEntity
  8
Make2D$Visibile$Curve
370
    -3
100
AcDbSpline
210
0.0
220
0.0
230
1.0
 70
     8
 71
     5
 72
    12
 73
     6
 74
     0
 42
0.0000000001
 43
0.0000000001
 40
0.0456539399028744
 40
0.0456539399028744
 40
0.0456539399028744
 40
0.0456539399028744
 40
0.0456539399028744
 40
0.0456539399028744
 40
0.2034967631377197
 40
0.2034967631377197
 40
0.2034967631377197
 40
0.2034967631377197
 40
0.2034967631377197
 40
0.2034967631377197
 10
658.9402006412763
 20
304.4289369516364
 30
0.0
 10
658.9401968220342
 20
304.4622007673817
 30
0.0
 10
658.9401520215663
 20
304.4923032525363
 30
0.0
 10
658.9400611298931
 20
304.5210380890077
 30
0.0
 10
658.939919037035
 20
304.5501989587027
 30
0.0
 10
658.9397206330126
 20
304.5815795435285
 30
0.0
  0
SPLINE
  5
BD
330
1F
100
AcDbEntity
  8
Make2D$Visibile$Curve
370
    -3
100
AcDbSpline
210
0.0
220
0.0
230
1.0
 70
     8
 71
     5
 72
    12
 73
     6
 74
     0
 42
0.0000000001
 43
0.0000000001
 40
0.5787326286255947
 40
0.5787326286255947
 40
0.5787326286255947
 40
0.5787326286255947
 40
0.5787326286255947
 40
0.5787326286255947
 40
0.9414213562373147
 40
0.9414213562373147
 40
0.9414213562373147
 40
0.9414213562373147
 40
0.9414213562373147
 40
0.9414213562373147
 10
659.3746116505694
 20
287.0800263903417
 30
0.0
 10
659.3149240712298
 20
287.097390117563
 30
0.0
 10
659.2599762417296
 20
287.1194935946236
 30
0.0
 10
659.210318893744
 20
287.1468875531988
 30
0.0
 10
659.1662273931111
 20
287.1798473591267
 30
0.0
 10
659.1277017398306
 20
287.218373012407
 30
0.0
  0
SPLINE
  5
BE
330
1F
100
AcDbEntity
  8
Make2D$Visibile$Curve
370
    -3
100
AcDbSpline
210
0.0
220
0.0
230
1.0
 70
     8
 71
     5
 72
    12
 73
     6
 74
     0
 42
0.0000000001
 43
0.0000000001
 40
0.589465899036827
 40
0.589465899036827
 40
0.589465899036827
 40
0.589465899036827
 40
0.589465899036827
 40
0.589465899036827
 40
0.9414213562373122
 40
0.9414213562373122
 40
0.9414213562373122
 40
0.9414213562373122
 40
0.9414213562373122
 40
0.9414213562373122
 10
675.1157187061044
 20
287.4564927186171
 30
0.0
 10
675.098321592384
 20
287.3991187524448
 30
0.0
 10
675.0764157484722
 20
287.3462535164637
 30
0.0
 10
675.0495127980039
 20
287.298385387039
 30
0.0
 10
675.0173685527965
 20
287.2557585523535
 30
0.0
 10
674.9799830128501
 20
287.218373012407
 30
0.0
  0
SPLINE
  5
BF
330
1F
100
AcDbEntity
  8
Make2D$Visibile$Curve
370
    -3
100
AcDbSpline
210
0.0
220
0.0
230
1.0
 70
     8
 71
     5
 72
    12
 73
     6
 74
     0
 42
0.0000000001
 43
0.0000000001
 40
-1.82503470206483
 40
-1.82503470206483
 40
-1.82503470206483
 40
-1.82503470206483
 40
-1.82503470206483
 40
-1.82503470206483
 40
-1.76701268603113
 40
-1.76701268603113
 40
-1.76701268603113
 40
-1.76701268603113
 40
-1.76701268603113
 40
-1.76701268603113
 10
658.9402587343726
 20
304.5815780488202
 30
0.0
 10
658.9402928793206
 20
304.5938703750425
 30
0.0
 10
658.9403439809112
 20
304.6061457446223
 30
0.0
 10
658.9404175325858
 20
304.6183986641178
 30
0.0
 10
658.9405188474248
 20
304.6306238204492
 30
0.0
 10
658.9406530581458
 20
304.6428160808983
 30
0.0
  0
SPLINE
  5
C0
330
1F
100
AcDbEntity
  8
Make2D$Visibile$Curve
370
    -3
100
AcDbSpline
210
0.0
220
0.0
230
1.0
 70
     8
 71
     5
 72
    12
 73
     6
 74
     0
 42
0.0000000001
 43
0.0000000001
 40
0.0629434808456669
 40
0.0629434808456669
 40
0.0629434808456669
 40
0.0629434808456669
 40
0.0629434808456669
 40
0.0629434808456669
 40
0.1158300571317458
 40
0.1158300571317458
 40
0.1158300571317458
 40
0.1158300571317458
 40
0.1158300571317458
 40
0.1158300571317458
 10
659.8734151594244
 20
287.0309464840154
 30
0.0
 10
659.8622165149851
 20
287.0309833136675
 30
0.0
 10
659.8510331667644
 20
287.0310354395384
 30
0.0
 10
659.839869250672
 20
287.0311069975376
 30
0.0
 10
659.8287287781209
 20
287.031201999078
 30
0.0
 10
659.8176156360286
 20
287.0313243310771
 30
0.0
  0
SPLINE
  5
C1
330
1F
100
AcDbEntity
  8
Make2D$Visibile$Curve
370
    -3
100
AcDbSpline
210
0.0
220
0.0
230
1.0
 70
     8
 71
     5
 72
    12
 73
     6
 74
     0
 42
0.0000000001
 43
0.0000000001
 40
-1.320255597696182
 40
-1.320255597696182
 40
-1.320255597696182
 40
-1.320255597696182
 40
-1.320255597696182
 40
-1.320255597696182
 40
-0.9414213562373145
 40
-0.9414213562373145
 40
-0.9414213562373145
 40
-0.9414213562373145
 40
-0.9414213562373145
 40
-0.9414213562373145
 10
658.9855837202933
 20
305.0724413499235
 30
0.0
 10
659.0028458025272
 20
305.1356606034801
 30
0.0
 10
659.0251969888623
 20
305.1937907529358
 30
0.0
 10
659.0532928216126
 20
305.246176255976
 30
0.0
 10
659.0874610719354
 20
305.2924893414438
 30
0.0
 10
659.1277017398306
 20
305.3327300093391
 30
0.0
  0
SPLINE
  5
C2
330
1F
100
AcDbEntity
  8
Make2D$Visibile$Curve
370
    -3
100
AcDbSpline
210
0.0
220
0.0
230
1.0
 70
     8
 71
     5
 72
    12
 73
     6
 74
     0
 42
0.0000000001
 43
0.0000000001
 40
1.76701265534289
 40
1.76701265534289
 40
1.76701265534289
 40
1.76701265534289
 40
1.76701265534289
 40
1.76701265534289
 40
1.819899231628974
 40
1.819899231628974
 40
1.819899231628974
 40
1.819899231628974
 40
1.819899231628974
 40
1.819899231628974
 10
659.8176156360284
 20
287.0313243310771
 30
0.0
 10
659.8287287781209
 20
287.031201999078
 30
0.0
 10
659.839869250672
 20
287.0311069975376
 30
0.0
 10
659.8510331667644
 20
287.0310354395384
 30
0.0
 10
659.8622165149851
 20
287.0309833136675
 30
0.0
 10
659.8734151594244
 20
287.0309464840154
 30
0.0
  0
SPLINE
  5
C3
330
1F
100
AcDbEntity
  8
Make2D$Visibile$Curve
370
    -3
100
AcDbSpline
210
0.0
220
0.0
230
1.0
 70
     8
 71
     5
 72
    12
 73
     6
 74
     0
 42
0.0000000001
 43
0.0000000001
 40
0.7341479251366906
 40
0.7341479251366906
 40
0.7341479251366906
 40
0.7341479251366906
 40
0.7341479251366906
 40
0.7341479251366906
 40
0.9414213562373147
 40
0.9414213562373147
 40
0.9414213562373147
 40
0.9414213562373147
 40
0.9414213562373147
 40
0.9414213562373147
 10
659.0356476898148
 20
287.3464896964916
 30
0.0
 10
659.0505109824205
 20
287.3173188422772
 30
0.0
 10
659.0671039742178
 20
287.2898776872545
 30
0.0
 10
659.0854854112164
 20
287.2642249774329
 30
0.0
 10
659.1056846664206
 20
287.2403900858171
 30
0.0
 10
659.1277017398306
 20
287.218373012407
 30
0.0
  0
SPLINE
  5
C4
330
1F
100
AcDbEntity
  8
Make2D$Visibile$Curve
370
    -3
100
AcDbSpline
210
0.0
220
0.0
230
1.0
 70
     8
 71
     5
 72
    12
 73
     6
 74
     0
 42
0.0000000001
 43
0.0000000001
 40
1.70394096583156
 40
1.70394096583156
 40
1.70394096583156
 40
1.70394096583156
 40
1.70394096583156
 40
1.70394096583156
 40
1.767012655020496
 40
1.767012655020496
 40
1.767012655020496
 40
1.767012655020496
 40
1.767012655020496
 40
1.767012655020496
 10
674.3558825204433
 20
305.5185958561726
 30
0.0
 10
674.3428231974638
 20
305.5189357807822
 30
0.0
 10
674.3297059805408
 20
305.5192178114481
 30
0.0
 10
674.316536958846
 20
305.5194480373424
 30
0.0
 10
674.3033224733838
 20
305.5196327994693
 30
0.0
 10
674.2900691169909
 20
305.5197786906652
 30
0.0
  0
SPLINE
  5
C5
330
1F
100
AcDbEntity
  8
Make2D$Visibile$Curve
370
    -3
100
AcDbSpline
210
0.0
220
0.0
230
1.0
 70
     8
 71
     5
 72
    12
 73
     6
 74
     0
 42
0.0000000001
 43
0.0000000001
 40
0.7341479251366415
 40
0.7341479251366415
 40
0.7341479251366415
 40
0.7341479251366415
 40
0.7341479251366415
 40
0.7341479251366415
 40
0.9414213562373092
 40
0.9414213562373092
 40
0.9414213562373092
 40
0.9414213562373092
 40
0.9414213562373092
 40
0.9414213562373092
 10
675.072037062866
 20
305.2046133252544
 30
0.0
 10
675.0571737702603
 20
305.2337841794688
 30
0.0
 10
675.0405807784629
 20
305.2612253344915
 30
0.0
 10
675.0221993414643
 20
305.2868780443132
 30
0.0
 10
675.0020000862601
 20
305.310712935929
 30
0.0
 10
674.9799830128501
 20
305.332730009339
 30
0.0
  0
SPLINE
  5
C6
330
1F
100
AcDbEntity
  8
Make2D$Visibile$Curve
370
    -3
100
AcDbSpline
210
0.0
220
0.0
230
1.0
 70
     8
 71
     5
 72
    12
 73
     6
 74
     0
 42
0.0000000001
 43
0.0000000001
 40
0.5142137337732464
 40
0.5142137337732464
 40
0.5142137337732464
 40
0.5142137337732464
 40
0.5142137337732464
 40
0.5142137337732464
 40
0.7355774646701579
 40
0.7355774646701579
 40
0.7355774646701579
 40
0.7355774646701579
 40
0.7355774646701579
 40
0.7355774646701579
 10
659.5810103510388
 20
287.0397315302305
 30
0.0
 10
659.5395002982193
 20
287.0441511471871
 30
0.0
 10
659.4978295655773
 20
287.0506031368458
 30
0.0
 10
659.4583753990942
 20
287.0582794494884
 30
0.0
 10
659.4235150447519
 20
287.066372035397
 30
0.0
 10
659.395625748532
 20
287.0740728448537
 30
0.0
  0
SPLINE
  5
C7
330
1F
100
AcDbEntity
  8
Make2D$Visibile$Curve
370
    -3
100
AcDbSpline
210
0.0
220
0.0
230
1.0
 70
     8
 71
     5
 72
    12
 73
     6
 74
     0
 42
0.0000000001
 43
0.0000000001
 40
0.1158300486557177
 40
0.1158300486557177
 40
0.1158300486557177
 40
0.1158300486557177
 40
0.1158300486557177
 40
0.1158300486557177
 40
0.1304382743500954
 40
0.1304382743500954
 40
0.1304382743500954
 40
0.1304382743500954
 40
0.1304382743500954
 40
0.1304382743500954
 10
675.167031694278
 20
287.9082869175103
 30
0.0
 10
675.1669979039796
 20
287.905217267336
 30
0.0
 10
675.1669620284657
 20
287.9021497023771
 30
0.0
 10
675.1669239858218
 20
287.8990843045482
 30
0.0
 10
675.1668836948581
 20
287.8960211550392
 30
0.0
 10
675.1668410751092
 20
287.8929603343153
 30
0.0
  0
SPLINE
  5
C8
330
1F
100
AcDbEntity
  8
Make2D$Visibile$Curve
370
    -3
100
AcDbSpline
210
0.0
220
0.0
230
1.0
 70
     8
 71
     5
 72
    12
 73
     6
 74
     0
 42
0.0000000001
 43
0.0000000001
 40
0.2959492989140686
 40
0.2959492989140686
 40
0.2959492989140686
 40
0.2959492989140686
 40
0.2959492989140686
 40
0.2959492989140686
 40
0.4153492675775736
 40
0.4153492675775736
 40
0.4153492675775736
 40
0.4153492675775736
 40
0.4153492675775736
 40
0.4153492675775736
 10
675.1682690641142
 20
287.8836998907085
 30
0.0
 10
675.1682129288267
 20
287.8601024635544
 30
0.0
 10
675.1680434454823
 20
287.8378086009603
 30
0.0
 10
675.1676581257443
 20
287.8157879020376
 30
0.0
 10
675.1669544812764
 20
287.793009965898
 30
0.0
 10
675.1658300237424
 20
287.7684443916529
 30
0.0
  0
SPLINE
  5
C9
330
1F
100
AcDbEntity
  8
Make2D$Visibile$Curve
370
    -3
100
AcDbSpline
210
0.0
220
0.0
230
1.0
 70
     8
 71
     5
 72
    12
 73
     6
 74
     0
 42
0.0000000001
 43
0.0000000001
 40
0.5142137336526292
 40
0.5142137336526292
 40
0.5142137336526292
 40
0.5142137336526292
 40
0.5142137336526292
 40
0.5142137336526292
 40
0.7355774645469
 40
0.7355774645469
 40
0.7355774645469
 40
0.7355774645469
 40
0.7355774645469
 40
0.7355774645469
 10
675.1586244950265
 20
287.6716816236151
 30
0.0
 10
675.1542048780698
 20
287.6301715707953
 30
0.0
 10
675.1477528884113
 20
287.588500838154
 30
0.0
 10
675.1400765757691
 20
287.549046671672
 30
0.0
 10
675.1319839898604
 20
287.5141863173299
 30
0.0
 10
675.1242831804033
 20
287.4862970211083
 30
0.0
  0
SPLINE
  5
CA
330
1F
100
AcDbEntity
  8
Make2D$Visibile$Curve
370
    -3
100
AcDbSpline
210
0.0
220
0.0
230
1.0
 70
     8
 71
     5
 72
    12
 73
     6
 74
     0
 42
0.0000000001
 43
0.0000000001
 40
1.405258171690157
 40
1.405258171690157
 40
1.405258171690157
 40
1.405258171690157
 40
1.405258171690157
 40
1.405258171690157
 40
1.461839348754146
 40
1.461839348754146
 40
1.461839348754146
 40
1.461839348754146
 40
1.461839348754146
 40
1.461839348754146
 10
674.2900644330947
 20
305.5193531862659
 30
0.0
 10
674.2775905509202
 20
305.5194809027961
 30
0.0
 10
674.2648036403989
 20
305.5196045299075
 30
0.0
 10
674.2521297772776
 20
305.5197209574657
 30
0.0
 10
674.2399950373032
 20
305.5198270753359
 30
0.0
 10
674.2288254962225
 20
305.5199197733835
 30
0.0
  0
SPLINE
  5
CB
330
1F
100
AcDbEntity
  8
Make2D$Visibile$Curve
370
    -3
100
AcDbSpline
210
0.0
220
0.0
230
1.0
 70
     8
 71
     5
 72
    12
 73
     6
 74
     0
 42
0.0000000001
 43
0.0000000001
 40
0.045653838292757
 40
0.045653838292757
 40
0.045653838292757
 40
0.045653838292757
 40
0.045653838292757
 40
0.045653838292757
 40
0.2034963989471103
 40
0.2034963989471103
 40
0.2034963989471103
 40
0.2034963989471103
 40
0.2034963989471103
 40
0.2034963989471103
 10
674.0761897665866
 20
305.5202311078539
 30
0.0
 10
674.109453759695
 20
305.5202349270002
 30
0.0
 10
674.1395560671119
 20
305.5202797255861
 30
0.0
 10
674.168290607683
 20
305.5203706148774
 30
0.0
 10
674.1974513002551
 20
305.5205127061399
 30
0.0
 10
674.228832063674
 20
305.5207111106395
 30
0.0
  0
SPLINE
  5
CC
330
1F
100
AcDbEntity
  8
Make2D$Visibile$Curve
370
    -3
100
AcDbSpline
210
0.0
220
0.0
230
1.0
 70
     8
 71
     5
 72
    12
 73
     6
 74
     0
 42
0.0000000001
 43
0.0000000001
 40
0.514213733565397
 40
0.514213733565397
 40
0.514213733565397
 40
0.514213733565397
 40
0.514213733565397
 40
0.514213733565397
 40
0.7355774644516746
 40
0.7355774644516746
 40
0.7355774644516746
 40
0.7355774644516746
 40
0.7355774644516746
 40
0.7355774644516746
 10
674.5266744016421
 20
305.5113714915154
 30
0.0
 10
674.5681844544599
 20
305.5069518745589
 30
0.0
 10
674.6098551871005
 20
305.5004998849007
 30
0.0
 10
674.6493093535826
 20
305.4928235722584
 30
0.0
 10
674.6841697079254
 20
305.4847309863499
 30
0.0
 10
674.7120590041482
 20
305.4770301768923
 30
0.0
  0
SPLINE
  5
CD
330
1F
100
AcDbEntity
  8
Make2D$Visibile$Curve
370
    -3
100
AcDbSpline
210
0.0
220
0.0
230
1.0
 70
     8
 71
     5
 72
    12
 73
     6
 74
     0
 42
0.0000000001
 43
0.0000000001
 40
0.2959490970658695
 40
0.2959490970658695
 40
0.2959490970658695
 40
0.2959490970658695
 40
0.2959490970658695
 40
0.2959490970658695
 40
0.4153491390672162
 40
0.4153491390672162
 40
0.4153491390672162
 40
0.4153491390672162
 40
0.4153491390672162
 40
0.4153491390672162
 10
658.9394156848304
 20
304.6674030367391
 30
0.0
 10
658.9394718195725
 20
304.691000493406
 30
0.0
 10
658.9396413007536
 20
304.713294319611
 30
0.0
 10
658.9400266179711
 20
304.7353149638897
 30
0.0
 10
658.9407302608226
 20
304.7580928747778
 30
0.0
 10
658.9418547189057
 20
304.7826585008112
 30
0.0
  0
SPLINE
  5
CE
330
1F
100
AcDbEntity
  8
Make2D$Visibile$Curve
370
    -3
100
AcDbSpline
210
0.0
220
0.0
230
1.0
 70
     8
 71
     5
 72
    12
 73
     6
 74
     0
 42
0.0000000001
 43
0.0000000001
 40
0.9414213562373122
 40
0.9414213562373122
 40
0.9414213562373122
 40
0.9414213562373122
 40
0.9414213562373122
 40
0.9414213562373122
 40
1.882842712474624
 40
1.882842712474624
 40
1.882842712474624
 40
1.882842712474624
 40
1.882842712474624
 40
1.882842712474624
 10
674.9799830128501
 20
287.218373012407
 30
0.0
 10
674.8799830128501
 20
287.1183730124071
 30
0.0
 10
674.74248301285
 20
287.0558730124071
 30
0.0
 10
674.5674830128501
 20
287.030873012407
 30
0.0
 10
674.36748301285
 20
287.030873012407
 30
0.0
 10
674.1674830128501
 20
287.030873012407
 30
0.0
  0
SPLINE
  5
CF
330
1F
100
AcDbEntity
  8
Make2D$Visibile$Curve
370
    -3
100
AcDbSpline
210
0.0
220
0.0
230
1.0
 70
     8
 71
     5
 72
    12
 73
     6
 74
     0
 42
0.0000000001
 43
0.0000000001
 40
-0.9414213562373145
 40
-0.9414213562373145
 40
-0.9414213562373145
 40
-0.9414213562373145
 40
-0.9414213562373145
 40
-0.9414213562373145
 40
0.0
 40
0.0
 40
0.0
 40
0.0
 40
0.0
 40
0.0
 10
659.1277017398306
 20
305.3327300093391
 30
0.0
 10
659.2277017398306
 20
305.432730009339
 30
0.0
 10
659.3652017398307
 20
305.495230009339
 30
0.0
 10
659.5402017398306
 20
305.5202300093391
 30
0.0
 10
659.7402017398307
 20
305.5202300093391
 30
0.0
 10
659.9402017398306
 20
305.5202300093391
 30
0.0
  0
SPLINE
  5
D0
330
1F
100
AcDbEntity
  8
Make2D$Visibile$Curve
370
    -3
100
AcDbSpline
210
0.0
220
0.0
230
1.0
 70
    24
 71
     5
 72
    14
 73
     8
 74
     0
 42
0.0000000001
 43
0.0000000001
 40
0.4
 40
0.4
 40
0.4
 40
0.4
 40
0.4
 40
0.4
 40
0.6
 40
0.8
 40
1.0
 40
1.0
 40
1.0
 40
1.0
 40
1.0
 40
1.0
 10
658.9402017398307
 20
288.3773553351886
 30
0.0
 10
658.9402017398307
 20
288.3971543250617
 30
0.0
 10
658.9402017398307
 20
288.4381665183706
 30
0.0
 10
658.9402017398307
 20
288.5039274490209
 30
0.0
 10
658.9402017398306
 20
288.5760523407019
 30
0.0
 10
658.9402017398306
 20
288.6545411934136
 30
0.0
 10
658.9402017398306
 20
288.7096955223461
 30
0.0
 10
658.9402017398306
 20
288.7379797935936
 30
0.0
  0
SPLINE
  5
D1
330
1F
100
AcDbEntity
  8
Make2D$Visibile$Curve
370
    -3
100
AcDbSpline
210
0.0
220
0.0
230
1.0
 70
    24
 71
     5
 72
    14
 73
     8
 74
     0
 42
0.0000000001
 43
0.0000000001
 40
0.4
 40
0.4
 40
0.4
 40
0.4
 40
0.4
 40
0.4
 40
0.6
 40
0.8
 40
1.0
 40
1.0
 40
1.0
 40
1.0
 40
1.0
 40
1.0
 10
658.9402017398307
 20
304.1737476865576
 30
0.0
 10
658.9402017398307
 20
304.1539486966843
 30
0.0
 10
658.9402017398307
 20
304.1129365033755
 30
0.0
 10
658.9402017398307
 20
304.0471755727251
 30
0.0
 10
658.9402017398306
 20
303.9750506810442
 30
0.0
 10
658.9402017398306
 20
303.8965618283326
 30
0.0
 10
658.9402017398306
 20
303.8414074994
 30
0.0
 10
658.9402017398306
 20
303.8131232281526
 30
0.0
  0
SPLINE
  5
D2
330
1F
100
AcDbEntity
  8
Make2D$Visibile$Curve
370
    -3
100
AcDbSpline
210
0.0
220
0.0
230
1.0
 70
    24
 71
     2
 72
     6
 73
     3
 74
     0
 42
0.0000000001
 43
0.0000000001
 40
-16.78225021574545
 40
-16.78225021574545
 40
-16.78225021574545
 40
-1.707106781186551
 40
-1.707106781186551
 40
-1.707106781186551
 10
658.9402017398306
 20
288.7379797935936
 30
0.0
 10
658.9402017398306
 20
296.2755515108731
 30
0.0
 10
658.9402017398306
 20
303.8131232281526
 30
0.0
  0
SPLINE
  5
D3
330
1F
100
AcDbEntity
  8
Make2D$Visibile$Curve
370
    -3
100
AcDbSpline
210
0.0
220
0.0
230
1.0
 70
    24
 71
     5
 72
    14
 73
     8
 74
     0
 42
0.0000000001
 43
0.0000000001
 40
0.4
 40
0.4
 40
0.4
 40
0.4
 40
0.4
 40
0.4
 40
0.6
 40
0.8
 40
1.0
 40
1.0
 40
1.0
 40
1.0
 40
1.0
 40
1.0
 10
673.8210006900687
 20
287.030873012407
 30
0.0
 10
673.8012017001954
 20
287.030873012407
 30
0.0
 10
673.7601895068866
 20
287.030873012407
 30
0.0
 10
673.6944285762363
 20
287.030873012407
 30
0.0
 10
673.6223036845552
 20
287.030873012407
 30
0.0
 10
673.5438148318435
 20
287.030873012407
 30
0.0
 10
673.488660502911
 20
287.030873012407
 30
0.0
 10
673.4603762316635
 20
287.030873012407
 30
0.0
  0
SPLINE
  5
D4
330
1F
100
AcDbEntity
  8
Make2D$Visibile$Curve
370
    -3
100
AcDbSpline
210
0.0
220
0.0
230
1.0
 70
    24
 71
     5
 72
    14
 73
     8
 74
     0
 42
0.0000000001
 43
0.0000000001
 40
-1.0
 40
-1.0
 40
-1.0
 40
-1.0
 40
-1.0
 40
-1.0
 40
-0.8
 40
-0.6
 40
-0.4
 40
-0.4
 40
-0.4
 40
-0.4
 40
-0.4
 40
-0.4
 10
660.6473085210173
 20
287.030873012407
 30
0.0
 10
660.6190242497698
 20
287.030873012407
 30
0.0
 10
660.5638699208372
 20
287.030873012407
 30
0.0
 10
660.4853810681255
 20
287.030873012407
 30
0.0
 10
660.4132561764445
 20
287.0308730124069
 30
0.0
 10
660.3474952457941
 20
287.0308730124069
 30
0.0
 10
660.3064830524853
 20
287.0308730124069
 30
0.0
 10
660.286684062612
 20
287.0308730124069
 30
0.0
  0
SPLINE
  5
D5
330
1F
100
AcDbEntity
  8
Make2D$Visibile$Curve
370
    -3
100
AcDbSpline
210
0.0
220
0.0
230
1.0
 70
    24
 71
     2
 72
     6
 73
     3
 74
     0
 42
0.0000000001
 43
0.0000000001
 40
-33.00953148876484
 40
-33.00953148876484
 40
-33.00953148876484
 40
-20.19646377811858
 40
-20.19646377811858
 40
-20.19646377811858
 10
673.4603762316635
 20
287.030873012407
 30
0.0
 10
667.0538423763404
 20
287.030873012407
 30
0.0
 10
660.6473085210173
 20
287.030873012407
 30
0.0
  0
SPLINE
  5
D6
330
1F
100
AcDbEntity
  8
Make2D$Visibile$Curve
370
    -3
100
AcDbSpline
210
0.0
220
0.0
230
1.0
 70
    24
 71
     5
 72
    14
 73
     8
 74
     0
 42
0.0000000001
 43
0.0000000001
 40
0.4
 40
0.4
 40
0.4
 40
0.4
 40
0.4
 40
0.4
 40
0.6
 40
0.8
 40
1.0
 40
1.0
 40
1.0
 40
1.0
 40
1.0
 40
1.0
 10
675.1674830128501
 20
304.1737476865576
 30
0.0
 10
675.1674830128501
 20
304.1539486966843
 30
0.0
 10
675.1674830128501
 20
304.1129365033755
 30
0.0
 10
675.1674830128501
 20
304.0471755727251
 30
0.0
 10
675.1674830128501
 20
303.9750506810441
 30
0.0
 10
675.1674830128501
 20
303.8965618283326
 30
0.0
 10
675.1674830128501
 20
303.8414074994
 30
0.0
 10
675.1674830128501
 20
303.8131232281526
 30
0.0
  0
SPLINE
  5
D7
330
1F
100
AcDbEntity
  8
Make2D$Visibile$Curve
370
    -3
100
AcDbSpline
210
0.0
220
0.0
230
1.0
 70
    24
 71
     5
 72
    14
 73
     8
 74
     0
 42
0.0000000001
 43
0.0000000001
 40
-1.0
 40
-1.0
 40
-1.0
 40
-1.0
 40
-1.0
 40
-1.0
 40
-0.8
 40
-0.6
 40
-0.4
 40
-0.4
 40
-0.4
 40
-0.4
 40
-0.4
 40
-0.4
 10
675.1674830128501
 20
288.7379797935937
 30
0.0
 10
675.1674830128501
 20
288.7096955223462
 30
0.0
 10
675.1674830128501
 20
288.6545411934137
 30
0.0
 10
675.1674830128501
 20
288.5760523407019
 30
0.0
 10
675.1674830128501
 20
288.5039274490209
 30
0.0
 10
675.1674830128501
 20
288.4381665183705
 30
0.0
 10
675.1674830128501
 20
288.3971543250617
 30
0.0
 10
675.1674830128501
 20
288.3773553351884
 30
0.0
  0
SPLINE
  5
D8
330
1F
100
AcDbEntity
  8
Make2D$Visibile$Curve
370
    -3
100
AcDbSpline
210
0.0
220
0.0
230
1.0
 70
    24
 71
     2
 72
     6
 73
     3
 74
     0
 42
0.0000000001
 43
0.0000000001
 40
-51.49888848569691
 40
-51.49888848569691
 40
-51.49888848569691
 40
-36.42374505113801
 40
-36.42374505113801
 40
-36.42374505113801
 10
675.1674830128501
 20
303.8131232281526
 30
0.0
 10
675.1674830128501
 20
296.2755515108731
 30
0.0
 10
675.1674830128501
 20
288.7379797935937
 30
0.0
  0
SPLINE
  5
D9
330
1F
100
AcDbEntity
  8
Make2D$Visibile$Curve
370
    -3
100
AcDbSpline
210
0.0
220
0.0
230
1.0
 70
    24
 71
     5
 72
    14
 73
     8
 74
     0
 42
0.0000000001
 43
0.0000000001
 40
-1.0
 40
-1.0
 40
-1.0
 40
-1.0
 40
-1.0
 40
-1.0
 40
-0.8
 40
-0.6
 40
-0.4
 40
-0.4
 40
-0.4
 40
-0.4
 40
-0.4
 40
-0.4
 10
660.6473085210172
 20
305.5202300093391
 30
0.0
 10
660.6190242497697
 20
305.5202300093391
 30
0.0
 10
660.5638699208372
 20
305.5202300093391
 30
0.0
 10
660.4853810681254
 20
305.520230009339
 30
0.0
 10
660.4132561764445
 20
305.520230009339
 30
0.0
 10
660.3474952457941
 20
305.520230009339
 30
0.0
 10
660.3064830524853
 20
305.520230009339
 30
0.0
 10
660.286684062612
 20
305.520230009339
 30
0.0
  0
SPLINE
  5
DA
330
1F
100
AcDbEntity
  8
Make2D$Visibile$Curve
370
    -3
100
AcDbSpline
210
0.0
220
0.0
230
1.0
 70
    24
 71
     5
 72
    14
 73
     8
 74
     0
 42
0.0000000001
 43
0.0000000001
 40
-1.0
 40
-1.0
 40
-1.0
 40
-1.0
 40
-1.0
 40
-1.0
 40
-0.8
 40
-0.6
 40
-0.4
 40
-0.4
 40
-0.4
 40
-0.4
 40
-0.4
 40
-0.4
 10
673.4603762316635
 20
305.5202300093391
 30
0.0
 10
673.488660502911
 20
305.5202300093391
 30
0.0
 10
673.5438148318435
 20
305.5202300093391
 30
0.0
 10
673.6223036845552
 20
305.520230009339
 30
0.0
 10
673.6944285762363
 20
305.520230009339
 30
0.0
 10
673.7601895068866
 20
305.520230009339
 30
0.0
 10
673.8012017001954
 20
305.520230009339
 30
0.0
 10
673.8210006900687
 20
305.520230009339
 30
0.0
  0
SPLINE
  5
DB
330
1F
100
AcDbEntity
  8
Make2D$Visibile$Curve
370
    -3
100
AcDbSpline
210
0.0
220
0.0
230
1.0
 70
    24
 71
     2
 72
     6
 73
     3
 74
     0
 42
0.0000000001
 43
0.0000000001
 40
-67.7261697587163
 40
-67.7261697587163
 40
-67.7261697587163
 40
-54.91310204806999
 40
-54.91310204806999
 40
-54.91310204806999
 10
660.6473085210172
 20
305.5202300093391
 30
0.0
 10
667.0538423763403
 20
305.5202300093391
 30
0.0
 10
673.4603762316635
 20
305.5202300093391
 30
0.0
  0
SPLINE
  5
DC
330
1F
100
AcDbEntity
  8
Make2D$Visibile$Curve
370
    -3
100
AcDbSpline
210
0.0
220
0.0
230
1.0
 70
     8
 71
     5
 72
    12
 73
     6
 74
     0
 42
0.0000000001
 43
0.0000000001
 40
0.9414213562373092
 40
0.9414213562373092
 40
0.9414213562373092
 40
0.9414213562373092
 40
0.9414213562373092
 40
0.9414213562373092
 40
1.320255598238981
 40
1.320255598238981
 40
1.320255598238981
 40
1.320255598238981
 40
1.320255598238981
 40
1.320255598238981
 10
674.9799830128501
 20
305.332730009339
 30
0.0
 10
674.9397423448971
 20
305.372970677292
 30
0.0
 10
674.8934292593542
 20
305.4071389276551
 30
0.0
 10
674.8410437562216
 20
305.4352347604283
 30
0.0
 10
674.782913606658
 20
305.4575859467706
 30
0.0
 10
674.7196943529814
 20
305.474848029
 30
0.0
  0
SPLINE
  5
DD
330
1F
100
AcDbEntity
  8
Make2D$Visibile$Curve
370
    -3
100
AcDbSpline
210
0.0
220
0.0
230
1.0
 70
    28
 71
     2
 72
     8
 73
     5
 74
     0
 42
0.0000000001
 43
0.0000000001
 40
-22.93362637120549
 40
-22.93362637120549
 40
-22.93362637120549
 40
-17.20021977840412
 40
-17.20021977840412
 40
-11.46681318560274
 40
-11.46681318560274
 40
-11.46681318560274
 10
492.0457445588075
 20
263.4941897969688
 30
0.0
 41
1.0
 10
492.0457445588075
 20
263.4941897969688
 30
0.0
 41
0.7071067811865476
 10
488.3957445588075
 20
263.4941897969688
 30
0.0
 41
1.0
 10
484.7457445588075
 20
263.4941897969688
 30
0.0
 41
0.7071067811865476
 10
484.7457445588075
 20
263.4941897969688
 30
0.0
 41
1.0
  0
SPLINE
  5
DE
330
1F
100
AcDbEntity
  8
Make2D$Visibile$Curve
370
    -3
100
AcDbSpline
210
0.0
220
0.0
230
1.0
 70
    12
 71
     2
 72
     8
 73
     5
 74
     0
 42
0.0000000001
 43
0.0000000001
 40
0.6241973297329414
 40
0.6241973297329414
 40
0.6241973297329414
 40
0.8485281374238556
 40
0.8485281374238556
 40
1.097056274847712
 40
1.097056274847712
 40
1.097056274847712
 10
505.9999490785823
 20
90.23799457602267
 30
0.0
 41
0.9728714087090562
 10
506.0077733416305
 20
90.12610240146357
 30
0.0
 41
0.8535533905932737
 10
506.0870862593042
 20
90.04678948378994
 30
0.0
 41
0.8535533905932737
 10
506.1749542249482
 20
89.9589215181459
 30
0.0
 41
0.8535533905932737
 10
506.2992182936602
 20
89.9589215181459
 30
0.0
 41
1.0
  0
SPLINE
  5
DF
330
1F
100
AcDbEntity
  8
Make2D$Visibile$Curve
370
    -3
100
AcDbSpline
210
0.0
220
0.0
230
1.0
 70
    28
 71
     2
 72
    10
 73
     7
 74
     0
 42
0.0000000001
 43
0.0000000001
 40
43.14569156476617
 40
43.14569156476617
 40
43.14569156476617
 40
64.74617770140112
 40
64.74617770140112
 40
86.34666383803608
 40
86.34666383803608
 40
129.4923554028023
 40
129.4923554028023
 40
129.4923554028023
 10
515.9534188963007
 20
114.3269029063732
 30
0.0
 41
1.0
 10
515.9534188963007
 20
114.3269029063731
 30
0.0
 41
0.9237832916811202
 10
507.8934790106576
 20
114.3187974053644
 30
0.0
 41
1.0
 10
499.8335391250146
 20
114.3106919043557
 30
0.0
 41
0.9237832916811202
 10
488.4407957203432
 20
114.2992347601997
 30
0.0
 41
1.0
 10
460.9834532156177
 20
114.2716222071874
 30
0.0
 41
0.7074622436139019
 10
460.9834532156177
 20
114.2716222071874
 30
0.0
 41
1.0
  0
SPLINE
  5
E0
330
1F
100
AcDbEntity
  8
Make2D$Visibile$Curve
370
    -3
100
AcDbSpline
210
0.0
220
0.0
230
1.0
 70
    28
 71
     2
 72
     8
 73
     5
 74
     0
 42
0.0000000001
 43
0.0000000001
 40
0.0
 40
0.0
 40
0.0
 40
15.9944093047408
 40
15.9944093047408
 40
31.96607597817501
 40
31.96607597817501
 40
31.96607597817501
 10
488.4734876471203
 20
89.9691065203052
 30
0.0
 41
1.0
 10
480.4762910826148
 20
89.96106411729225
 30
0.0
 41
0.8535533905932737
 10
474.8271059990788
 20
89.95538299856904
 30
0.0
 41
0.8535533905932737
 10
469.1859535556416
 20
89.94970995789271
 30
0.0
 41
0.8535533905932737
 10
469.1859535556415
 20
89.94970995789281
 30
0.0
 41
0.9995838279132574
  0
SPLINE
  5
E1
330
1F
100
AcDbEntity
  8
Make2D$Visibile$Curve
370
    -3
100
AcDbSpline
210
0.0
220
0.0
230
1.0
 70
    28
 71
     2
 72
     8
 73
     5
 74
     0
 42
0.0000000001
 43
0.0000000001
 40
0.0
 40
0.0
 40
0.0
 40
15.9944093047408
 40
15.9944093047408
 40
31.98881860948159
 40
31.98881860948159
 40
31.98881860948159
 10
488.4734876471203
 20
89.9691065203052
 30
0.0
 41
1.0
 10
496.4706842116256
 20
89.97714892331815
 30
0.0
 41
0.8535533905932737
 10
502.1312429705766
 20
89.98284148000991
 30
0.0
 41
0.8535533905932737
 10
507.7918017295276
 20
89.98853403670165
 30
0.0
 41
0.8535533905932737
 10
507.7998441325407
 20
89.98854212456678
 30
0.0
 41
1.0
  0
SPLINE
  5
E2
330
1F
100
AcDbEntity
  8
Make2D$Visibile$Curve
370
    -3
100
AcDbSpline
210
0.0
220
0.0
230
1.0
 70
    28
 71
     2
 72
     6
 73
     3
 74
     0
 42
0.0000000001
 43
0.0000000001
 40
85.54924398652088
 40
85.54924398652088
 40
85.54924398652088
 40
114.0413215375927
 40
114.0413215375927
 40
114.0413215375927
 10
506.532650448712
 20
199.8504844199224
 30
0.0
 41
1.0
 10
506.5326504487122
 20
199.8504844199224
 30
0.0
 41
0.7074622436139022
 10
488.4006724082943
 20
199.8322499456729
 30
0.0
 41
1.0
  0
SPLINE
  5
E3
330
1F
100
AcDbEntity
  8
Make2D$Visibile$Curve
370
    -3
100
AcDbSpline
210
0.0
220
0.0
230
1.0
 70
    28
 71
     2
 72
     8
 73
     5
 74
     0
 42
0.0000000001
 43
0.0000000001
 40
129.4923707683417
 40
129.4923707683417
 40
129.4923707683417
 40
151.0928594680863
 40
151.0928594680863
 40
172.6933481678309
 40
172.6933481678309
 40
172.6933481678309
 10
460.9820320294722
 20
115.6815768132726
 30
0.0
 41
1.0
 10
460.9820320294724
 20
115.6815768132726
 30
0.0
 41
0.9237832916811209
 10
469.0419728715063
 20
115.6896823152431
 30
0.0
 41
1.0
 10
477.1019137135405
 20
115.6977878172136
 30
0.0
 41
0.9237832916811209
 10
488.4946584700726
 20
115.7092449627291
 30
0.0
 41
1.0
  0
SPLINE
  5
E4
330
1F
100
AcDbEntity
  8
Make2D$Visibile$Curve
370
    -3
100
AcDbSpline
210
0.0
220
0.0
230
1.0
 70
    28
 71
     2
 72
     8
 73
     5
 74
     0
 42
0.0000000001
 43
0.0000000001
 40
0.0
 40
0.0
 40
0.0
 40
14.26429160886226
 40
14.26429160886226
 40
28.52858321772452
 40
28.52858321772452
 40
28.52858321772452
 10
488.4006724082943
 20
199.8322499456729
 30
0.0
 41
1.0
 10
480.8772577443273
 20
199.8246840027487
 30
0.0
 41
0.9237832916811204
 10
475.5547232350821
 20
199.8193313810858
 30
0.0
 41
1.0
 10
470.2321887258369
 20
199.8139787594229
 30
0.0
 41
0.9237832916811204
 10
470.2321887258369
 20
199.8139787594229
 30
0.0
 41
1.0
  0
SPLINE
  5
E5
330
1F
100
AcDbEntity
  8
Make2D$Visibile$Curve
370
    -3
100
AcDbSpline
210
0.0
220
0.0
230
1.0
 70
    28
 71
     2
 72
     6
 73
     3
 74
     0
 42
0.0000000001
 43
0.0000000001
 40
0.0
 40
0.0
 40
0.0
 40
43.1456966844259
 40
43.1456966844259
 40
43.1456966844259
 10
488.4946584700726
 20
115.7092449627291
 30
0.0
 41
1.0
 10
515.9520042328812
 20
115.7368575190179
 30
0.0
 41
0.7074622436139046
 10
515.9520042328813
 20
115.736857519018
 30
0.0
 41
1.0
  0
SPLINE
  5
E6
330
1F
100
AcDbEntity
  8
Make2D$Visibile$Curve
370
    -3
100
AcDbSpline
210
0.0
220
0.0
230
1.0
 70
     8
 71
     5
 72
    12
 73
     6
 74
     0
 42
0.0000000001
 43
0.0000000001
 40
0.2959492989365906
 40
0.2959492989365906
 40
0.2959492989365906
 40
0.2959492989365906
 40
0.2959492989365906
 40
0.2959492989365906
 40
0.4153492676161696
 40
0.4153492676161696
 40
0.4153492676161696
 40
0.4153492676161696
 40
0.4153492676161696
 40
0.4153492676161696
 10
582.4091667517092
 20
287.8727670520332
 30
0.0
 10
582.4091106164219
 20
287.8491696248744
 30
0.0
 10
582.4089411330774
 20
287.8268757622782
 30
0.0
 10
582.4085558133393
 20
287.8048550633539
 30
0.0
 10
582.4078521688712
 20
287.7820771272112
 30
0.0
 10
582.4067277113365
 20
287.75751155296
 30
0.0
  0
SPLINE
  5
E7
330
1F
100
AcDbEntity
  8
Make2D$Visibile$Curve
370
    -3
100
AcDbSpline
210
0.0
220
0.0
230
1.0
 70
     8
 71
     5
 72
    12
 73
     6
 74
     0
 42
0.0000000001
 43
0.0000000001
 40
0.9414213562373538
 40
0.9414213562373538
 40
0.9414213562373538
 40
0.9414213562373538
 40
0.9414213562373538
 40
0.9414213562373538
 40
1.882842712474708
 40
1.882842712474708
 40
1.882842712474708
 40
1.882842712474708
 40
1.882842712474708
 40
1.882842712474708
 10
405.3746114568511
 20
287.207440173732
 30
0.0
 10
405.2746114568512
 20
287.3074401737321
 30
0.0
 10
405.2121114568512
 20
287.4449401737321
 30
0.0
 10
405.1871114568511
 20
287.6199401737321
 30
0.0
 10
405.1871114568511
 20
287.8199401737321
 30
0.0
 10
405.1871114568511
 20
288.019940173732
 30
0.0
  0
SPLINE
  5
E8
330
1F
100
AcDbEntity
  8
Make2D$Visibile$Curve
370
    -3
100
AcDbSpline
210
0.0
220
0.0
230
1.0
 70
     8
 71
     5
 72
    12
 73
     6
 74
     0
 42
0.0000000001
 43
0.0000000001
 40
-0.3798504523647734
 40
-0.3798504523647734
 40
-0.3798504523647734
 40
-0.3798504523647734
 40
-0.3798504523647734
 40
-0.3798504523647734
 40
-0.3090481911517866
 40
-0.3090481911517866
 40
-0.3090481911517866
 40
-0.3090481911517866
 40
-0.3090481911517866
 40
-0.3090481911517866
 10
581.7971013428404
 20
305.4945316908802
 30
0.0
 10
581.7836493506992
 20
305.4961212655663
 30
0.0
 10
581.770060724574
 20
305.4975742062687
 30
0.0
 10
581.7563418082698
 20
305.4988968567918
 30
0.0
 10
581.7424993455013
 20
305.5000959608507
 30
0.0
 10
581.7285404798931
 20
305.5011786620699
 30
0.0
  0
SPLINE
  5
E9
330
1F
100
AcDbEntity
  8
Make2D$Visibile$Curve
370
    -3
100
AcDbSpline
210
0.0
220
0.0
230
1.0
 70
    28
 71
     2
 72
     6
 73
     3
 74
     0
 42
0.0000000001
 43
0.0000000001
 40
18.10712206207432
 40
18.10712206207432
 40
18.10712206207432
 40
81.7711787399284
 40
81.7711787399284
 40
81.7711787399284
 10
486.2957445588075
 20
199.8301331191147
 30
0.0
 41
1.0
 10
486.2957445588075
 20
231.6621614580418
 30
0.0
 41
1.0
 10
486.2957445588075
 20
263.4941897969688
 30
0.0
 41
1.0
  0
SPLINE
  5
EA
330
1F
100
AcDbEntity
  8
Make2D$Visibile$Curve
370
    -3
100
AcDbSpline
210
0.0
220
0.0
230
1.0
 70
    28
 71
     2
 72
     8
 73
     5
 74
     0
 42
0.0000000001
 43
0.0000000001
 40
-11.93805208364121
 40
-11.93805208364121
 40
-11.93805208364121
 40
-5.969026041820607
 40
-5.969026041820607
 40
0.0
 40
0.0
 40
0.0
 10
492.1957445588076
 20
263.8941897969668
 30
0.0
 41
1.0
 10
492.1957445588076
 20
263.8941897969668
 30
0.0
 41
0.7071067811865476
 10
488.3957445588076
 20
263.8941897969668
 30
0.0
 41
1.0
 10
484.5957445588076
 20
263.8941897969668
 30
0.0
 41
0.7071067811865476
 10
484.5957445588076
 20
263.8941897969668
 30
0.0
 41
1.0
  0
SPLINE
  5
EB
330
1F
100
AcDbEntity
  8
Make2D$Visibile$Curve
370
    -3
100
AcDbSpline
210
0.0
220
0.0
230
1.0
 70
    28
 71
     2
 72
     6
 73
     3
 74
     0
 42
0.0000000001
 43
0.0000000001
 40
40.62882126007158
 40
40.62882126007158
 40
40.62882126007158
 40
104.2886541962204
 40
104.2886541962204
 40
104.2886541962204
 10
490.4957445588075
 20
263.4941897969688
 30
0.0
 41
1.0
 10
490.4957445588075
 20
231.6642733288944
 30
0.0
 41
1.0
 10
490.4957445588075
 20
199.83435686082
 30
0.0
 41
1.0
  0
SPLINE
  5
EC
330
1F
100
AcDbEntity
  8
Make2D$Visibile$Curve
370
    -3
100
AcDbSpline
210
0.0
220
0.0
230
1.0
 70
    28
 71
     2
 72
     8
 73
     5
 74
     0
 42
0.0000000001
 43
0.0000000001
 40
23.56194490192344
 40
23.56194490192344
 40
23.56194490192344
 40
31.41592653589793
 40
31.41592653589793
 40
39.26990816987259
 40
39.26990816987259
 40
39.26990816987259
 10
493.3957445588077
 20
286.8941897969667
 30
0.0
 41
1.0
 10
493.3957445588076
 20
286.8941897969667
 30
0.0
 41
0.707106781186547
 10
488.3957445588077
 20
286.8941897969667
 30
0.0
 41
1.0
 10
483.3957445588075
 20
286.8941897969667
 30
0.0
 41
0.7071067811865357
 10
483.3957445588075
 20
286.8941897969667
 30
0.0
 41
1.0
  0
SPLINE
  5
ED
330
1F
100
AcDbEntity
  8
Make2D$Visibile$Curve
370
    -3
100
AcDbSpline
210
0.0
220
0.0
230
1.0
 70
    28
 71
     2
 72
     6
 73
     3
 74
     0
 42
0.0000000001
 43
0.0000000001
 40
1.230000000000024
 40
1.230000000000024
 40
1.230000000000024
 40
1.530000000000013
 40
1.530000000000013
 40
1.530000000000013
 10
484.7457445588075
 20
263.4941897969688
 30
0.0
 41
1.0
 10
484.7457445588075
 20
263.6441897969688
 30
0.0
 41
1.0
 10
484.7457445588075
 20
263.7941897969688
 30
0.0
 41
1.0
  0
SPLINE
  5
EE
330
1F
100
AcDbEntity
  8
Make2D$Visibile$Curve
370
    -3
100
AcDbSpline
210
0.0
220
0.0
230
1.0
 70
    28
 71
     2
 72
     6
 73
     3
 74
     0
 42
0.0000000001
 43
0.0000000001
 40
1.230000000000004
 40
1.230000000000004
 40
1.230000000000004
 40
1.530000000000001
 40
1.530000000000001
 40
1.530000000000001
 10
492.0457445588075
 20
263.7941897969688
 30
0.0
 41
1.0
 10
492.0457445588075
 20
263.6441897969688
 30
0.0
 41
1.0
 10
492.0457445588075
 20
263.4941897969688
 30
0.0
 41
1.0
  0
SPLINE
  5
EF
330
1F
100
AcDbEntity
  8
Make2D$Visibile$Curve
370
    -3
100
AcDbSpline
210
0.0
220
0.0
230
1.0
 70
    12
 71
     2
 72
     6
 73
     3
 74
     0
 42
0.0000000001
 43
0.0000000001
 40
0.0
 40
0.0
 40
0.0
 40
0.3653052284152441
 40
0.3653052284152441
 40
0.3653052284152441
 10
493.3957445588076
 20
267.5608564636335
 30
0.0
 41
1.0
 10
493.3957445588076
 20
267.3941897969669
 30
0.0
 41
0.9354225489461695
 10
493.3416905047535
 20
267.2365321393093
 30
0.0
 41
0.8993213268846255
  0
SPLINE
  5
F0
330
1F
100
AcDbEntity
  8
Make2D$Visibile$Curve
370
    -3
100
AcDbSpline
210
0.0
220
0.0
230
1.0
 70
    12
 71
     2
 72
     6
 73
     3
 74
     0
 42
0.0000000001
 43
0.0000000001
 40
0.0
 40
0.0
 40
0.0
 40
0.365305228415767
 40
0.365305228415767
 40
0.365305228415767
 10
483.3957445588076
 20
267.5608564636335
 30
0.0
 41
1.0
 10
483.3957445588076
 20
267.3941897969667
 30
0.0
 41
0.9354225489460771
 10
483.4497986128618
 20
267.2365321393088
 30
0.0
 41
0.8993213268845222
  0
SPLINE
  5
F1
330
1F
100
AcDbEntity
  8
Make2D$Visibile$Curve
370
    -3
100
AcDbSpline
210
0.0
220
0.0
230
1.0
 70
    28
 71
     2
 72
     6
 73
     3
 74
     0
 42
0.0000000001
 43
0.0000000001
 40
3.133333333333351
 40
3.133333333333351
 40
3.133333333333351
 40
22.46666666666655
 40
22.46666666666655
 40
22.46666666666655
 10
483.3957445588076
 20
267.5608564636335
 30
0.0
 41
1.0
 10
483.3957445588076
 20
277.2275231303001
 30
0.0
 41
1.0
 10
483.3957445588075
 20
286.8941897969667
 30
0.0
 41
1.0
  0
SPLINE
  5
F2
330
1F
100
AcDbEntity
  8
Make2D$Visibile$Curve
370
    -3
100
AcDbSpline
210
0.0
220
0.0
230
1.0
 70
    28
 71
     2
 72
     6
 73
     3
 74
     0
 42
0.0000000001
 43
0.0000000001
 40
3.133333333333332
 40
3.133333333333332
 40
3.133333333333332
 40
22.46666666666656
 40
22.46666666666656
 40
22.46666666666656
 10
493.3957445588075
 20
286.8941897969668
 30
0.0
 41
1.0
 10
493.3957445588076
 20
277.2275231303001
 30
0.0
 41
1.0
 10
493.3957445588076
 20
267.5608564636335
 30
0.0
 41
1.0
  0
SPLINE
  5
F3
330
1F
100
AcDbEntity
  8
Make2D$Visibile$Curve
370
    -3
100
AcDbSpline
210
0.0
220
0.0
230
1.0
 70
    28
 71
     2
 72
     6
 73
     3
 74
     0
 42
0.0000000001
 43
0.0000000001
 40
2.793571428571516
 40
2.793571428571516
 40
2.793571428571516
 40
6.326904761905005
 40
6.326904761905005
 40
6.326904761905005
 10
493.3416905047536
 20
267.2365321393092
 30
0.0
 41
1.0
 10
492.7687175317806
 20
265.565360968138
 30
0.0
 41
1.0
 10
492.1957445588076
 20
263.8941897969668
 30
0.0
 41
1.0
  0
SPLINE
  5
F4
330
1F
100
AcDbEntity
  8
Make2D$Visibile$Curve
370
    -3
100
AcDbSpline
210
0.0
220
0.0
230
1.0
 70
    28
 71
     2
 72
     6
 73
     3
 74
     0
 42
0.0000000001
 43
0.0000000001
 40
11.71666666666684
 40
11.71666666666684
 40
11.71666666666684
 40
15.2500000000003
 40
15.2500000000003
 40
15.2500000000003
 10
484.5957445588076
 20
263.8941897969668
 30
0.0
 41
1.0
 10
484.0227715858346
 20
265.565360968138
 30
0.0
 41
1.0
 10
483.4497986128616
 20
267.2365321393092
 30
0.0
 41
1.0
  0
SPLINE
  5
F5
330
1F
100
AcDbEntity
  8
Make2D$Visibile$Curve
370
    -3
100
AcDbSpline
210
0.0
220
0.0
230
1.0
 70
    12
 71
     2
 72
     6
 73
     3
 74
     0
 42
0.0000000001
 43
0.0000000001
 40
0.9435588016186511
 40
0.9435588016186511
 40
0.9435588016186511
 40
1.097056274847713
 40
1.097056274847713
 40
1.097056274847713
 10
470.6284679738766
 20
89.99161956088935
 30
0.0
 41
0.8749653159346831
 10
470.5642944516788
 20
89.9589215181459
 30
0.0
 41
0.9095507464872742
 10
470.4922708239548
 20
89.9589215181459
 30
0.0
 41
1.0
  0
SPLINE
  5
F6
330
1F
100
AcDbEntity
  8
Make2D$Visibile$Curve
370
    -3
100
AcDbSpline
210
0.0
220
0.0
230
1.0
 70
    28
 71
     3
 72
     8
 73
     4
 74
     0
 42
0.0000000001
 43
0.0000000001
 40
5.719188983889739
 40
5.719188983889739
 40
5.719188983889739
 40
5.719188983889739
 40
6.143465110402214
 40
6.143465110402214
 40
6.143465110402214
 40
6.143465110402214
 10
460.6837550806213
 20
113.9713036106481
 30
0.0
 41
0.9995838279132602
 10
460.7836544589481
 20
114.0714098094891
 30
0.0
 41
0.9995838279132602
 10
460.8835538372749
 20
114.1715160083302
 30
0.0
 41
0.9995838279132602
 10
460.9834532156017
 20
114.2716222071713
 30
0.0
 41
0.9995838279132602
  0
SPLINE
  5
F7
330
1F
100
AcDbEntity
  8
Make2D$Visibile$Curve
370
    -3
100
AcDbSpline
210
0.0
220
0.0
230
1.0
 70
    28
 71
     3
 72
     8
 73
     4
 74
     0
 42
0.0000000001
 43
0.0000000001
 40
35.11957448979484
 40
35.11957448979484
 40
35.11957448979484
 40
35.11957448979484
 40
35.54385061630729
 40
35.54385061630729
 40
35.54385061630729
 40
35.54385061630729
 10
515.9534188963169
 20
114.3269029063571
 30
0.0
 41
0.9995838279132591
 10
516.0535194165319
 20
114.2269978379714
 30
0.0
 41
0.9995838279132592
 10
516.1536199367471
 20
114.1270927695857
 30
0.0
 41
0.9995838279132593
 10
516.253720456962
 20
114.0271877011999
 30
0.0
 41
0.9995838279132594
  0
SPLINE
  5
F8
330
1F
100
AcDbEntity
  8
Make2D$Visibile$Curve
370
    -3
100
AcDbSpline
210
0.0
220
0.0
230
1.0
 70
     8
 71
     3
 72
     8
 73
     4
 74
     0
 42
0.0000000001
 43
0.0000000001
 40
0.0
 40
0.0
 40
0.0
 40
0.0
 40
0.3590286603471754
 40
0.3590286603471754
 40
0.3590286603471754
 40
0.3590286603471754
 10
469.1859535556416
 20
89.94970995789282
 30
0.0
 10
469.1791371764352
 20
89.94970310298207
 30
0.0
 10
469.0753663889051
 20
89.9960958767099
 30
0.0
 10
468.9751867266827
 20
90.07083068583552
 30
0.0
  0
SPLINE
  5
F9
330
1F
100
AcDbEntity
  8
Make2D$Visibile$Curve
370
    -3
100
AcDbSpline
210
0.0
220
0.0
230
1.0
 70
     8
 71
     3
 72
     8
 73
     4
 74
     0
 42
0.0000000001
 43
0.0000000001
 40
0.3259403256216629
 40
0.3259403256216629
 40
0.3259403256216629
 40
0.3259403256216629
 40
0.6717913959633637
 40
0.6717913959633637
 40
0.6717913959633637
 40
0.6717913959633637
 10
508.008902184539
 20
90.11241820863333
 30
0.0
 10
507.9062116728037
 20
90.03611387337511
 30
0.0
 10
507.8002558736438
 20
89.98854253863536
 30
0.0
 10
507.7998538954549
 20
89.98854213438487
 30
0.0
  0
SPLINE
  5
FA
330
1F
100
AcDbEntity
  8
Make2D$Visibile$Curve
370
    -3
100
AcDbSpline
210
0.0
220
0.0
230
1.0
 70
    28
 71
     2
 72
     6
 73
     3
 74
     0
 42
0.0000000001
 43
0.0000000001
 40
43.67251286628099
 40
43.67251286628099
 40
43.67251286628099
 40
87.2891416325906
 40
87.2891416325906
 40
87.2891416325906
 10
460.6837550806353
 20
113.9713036106621
 30
0.0
 41
1.0
 10
460.6837550806353
 20
113.9713036106621
 30
0.0
 41
0.7074622436139011
 10
488.4407957376452
 20
113.9992175559566
 30
0.0
 41
1.0
  0
SPLINE
  5
FB
330
1F
100
AcDbEntity
  8
Make2D$Visibile$Curve
370
    -3
100
AcDbSpline
210
0.0
220
0.0
230
1.0
 70
    12
 71
     3
 72
    17
 73
    13
 74
     0
 42
0.0000000001
 43
0.0000000001
 40
0.0
 40
0.0
 40
0.0
 40
0.0
 40
6.358453577613439
 40
6.358453577613439
 40
6.358453577613439
 40
13.1336665427942
 40
13.1336665427942
 40
13.1336665427942
 40
19.90748914453183
 40
19.90748914453183
 40
19.90748914453183
 40
26.3785448860712
 40
26.3785448860712
 40
26.3785448860712
 40
26.3785448860712
 10
468.9448767287932
 20
90.03021679277474
 30
0.0
 41
0.5000001264171269
 10
467.294169355708
 20
91.2736973281888
 30
0.0
 41
0.5000001264171269
 10
465.8526102928998
 20
92.81904860655352
 30
0.0
 41
0.5000001264171269
 10
464.7057360078196
 20
94.6712920197812
 30
0.0
 41
0.5000001264171269
 10
463.5588617227394
 20
96.52353543300885
 30
0.0
 41
0.5000001264171269
 10
462.6841460553578
 20
98.65358340489247
 30
0.0
 41
0.5000001264171269
 10
462.0559999940416
 20
100.8595253254698
 30
0.0
 41
0.5000001264171269
 10
461.4278539327254
 20
103.0654672460471
 30
0.0
 41
0.5000001264171269
 10
461.0544489756785
 20
105.3282047860873
 30
0.0
 41
0.5000001264171269
 10
460.873876193865
 20
107.5076983600275
 30
0.0
 41
0.5000001264171269
 10
460.6933034120514
 20
109.6871919339677
 30
0.0
 41
0.5000001264171269
 10
460.6860373837795
 20
111.8232428482738
 30
0.0
 41
0.5000001264171269
 10
460.6837550806353
 20
113.9713036106622
 30
0.0
 41
0.5000001264171269
  0
SPLINE
  5
FC
330
1F
100
AcDbEntity
  8
Make2D$Visibile$Curve
370
    -3
100
AcDbSpline
210
0.0
220
0.0
230
1.0
 70
    12
 71
     3
 72
    17
 73
    13
 74
     0
 42
0.0000000001
 43
0.0000000001
 40
0.0
 40
0.0
 40
0.0
 40
0.0
 40
6.471055741539343
 40
6.471055741539343
 40
6.471055741539343
 40
13.24487834327701
 40
13.24487834327701
 40
13.24487834327701
 40
20.0200913084578
 40
20.0200913084578
 40
20.0200913084578
 40
26.37854488607119
 40
26.37854488607119
 40
26.37854488607119
 40
26.37854488607119
 10
516.2537204569481
 20
114.027187701214
 30
0.0
 41
0.5000001264171269
 10
516.2557585606353
 20
111.8791266932458
 30
0.0
 41
0.5000001264171269
 10
516.2527887938254
 20
109.7430654852838
 30
0.0
 41
0.5000001264171269
 10
516.0766000003919
 20
107.5632131330712
 30
0.0
 41
0.5000001264171269
 10
515.9004112069583
 20
105.3833607808587
 30
0.0
 41
0.5000001264171269
 10
515.5315580572113
 20
103.1198767868847
 30
0.0
 41
0.5000001264171269
 10
514.9078500852228
 20
100.9126759358099
 30
0.0
 41
0.5000001264171269
 10
514.2841421132342
 20
98.70547508473504
 30
0.0
 41
0.5000001264171269
 10
513.413712388142
 20
96.57367210252382
 30
0.0
 41
0.5000001264171269
 10
512.2705658465471
 20
94.71912572346965
 30
0.0
 41
0.5000001264171269
 10
511.1274193049523
 20
92.86457934441549
 30
0.0
 41
0.5000001264171269
 10
509.6889713284431
 20
91.31633177894523
 30
0.0
 41
0.5000001264171269
 10
508.0407683110017
 20
90.06953368510301
 30
0.0
 41
0.5000001264171269
  0
SPLINE
  5
FD
330
1F
100
AcDbEntity
  8
Make2D$Visibile$Curve
370
    -3
100
AcDbSpline
210
0.0
220
0.0
230
1.0
 70
    28
 71
     2
 72
     6
 73
     3
 74
     0
 42
0.0000000001
 43
0.0000000001
 40
2.605878592348547
 40
2.605878592348547
 40
2.605878592348547
 40
4.015833914683345
 40
4.015833914683345
 40
4.015833914683345
 10
461.7184495825884
 20
114.2723613583323
 30
0.0
 41
0.9995838279132596
 10
461.7177406201972
 20
114.9773386630148
 30
0.0
 41
0.9995838279132596
 10
461.717031657806
 20
115.6823159676973
 30
0.0
 41
0.9995838279132596
  0
SPLINE
  5
FE
330
1F
100
AcDbEntity
  8
Make2D$Visibile$Curve
370
    -3
100
AcDbSpline
210
0.0
220
0.0
230
1.0
 70
    28
 71
     2
 72
     6
 73
     3
 74
     0
 42
0.0000000001
 43
0.0000000001
 40
1.515833914683431
 40
1.515833914683431
 40
1.515833914683431
 40
2.925789237018222
 40
2.925789237018222
 40
2.925789237018222
 10
515.2170046045476
 20
115.7361183645933
 30
0.0
 41
0.9995838279132598
 10
515.2177135669388
 20
115.0311410599109
 30
0.0
 41
0.9995838279132598
 10
515.2184225293299
 20
114.3261637552284
 30
0.0
 41
0.9995838279132598
  0
SPLINE
  5
FF
330
1F
100
AcDbEntity
  8
Make2D$Visibile$Curve
370
    -3
100
AcDbSpline
210
0.0
220
0.0
230
1.0
 70
    12
 71
     3
 72
    23
 73
    19
 74
     0
 42
0.0000000001
 43
0.0000000001
 40
0.0
 40
0.0
 40
0.0
 40
0.0
 40
43.56027058338567
 40
43.56027058338567
 40
43.56027058338567
 40
54.45033822923212
 40
54.45033822923212
 40
54.45033822923212
 40
59.89438592690357
 40
59.89438592690357
 40
59.89438592690357
 40
65.36574011168253
 40
65.36574011168253
 40
65.36574011168253
 40
76.61106393681696
 40
76.61106393681696
 40
76.61106393681696
 40
87.00804138172518
 40
87.00804138172518
 40
87.00804138172518
 40
87.00804138172518
 10
460.6817304854893
 20
115.9812749658886
 30
0.0
 41
0.5000001264171268
 10
460.6671283237021
 20
130.501357818
 30
0.0
 41
0.5000001264171268
 10
460.6525261619151
 20
145.0214406701114
 30
0.0
 41
0.5000001264171269
 10
460.637924000128
 20
159.5415235222228
 30
0.0
 41
0.5000001264171269
 10
460.6342734596813
 20
163.1715442352506
 30
0.0
 41
0.5000001264171269
 10
460.6306229192345
 20
166.8015649482785
 30
0.0
 41
0.5000001264171269
 10
460.6269723787877
 20
170.4315856613064
 30
0.0
 41
0.5000001264171269
 10
460.6251471085643
 20
172.2465960178203
 30
0.0
 41
0.5000001264171269
 10
460.6194628331691
 20
174.0631720888151
 30
0.0
 41
0.5000001264171269
 10
460.6225577499405
 20
175.8756208778031
 30
0.0
 41
0.5000001264171269
 10
460.625652666712
 20
177.688069666791
 30
0.0
 41
0.5000001264171269
 10
460.6517568059195
 20
179.4979573784441
 30
0.0
 41
0.5000001264171269
 10
460.8049134869669
 20
181.3404546452255
 30
0.0
 41
0.5000001264171268
 10
461.1112268490619
 20
185.0254491787884
 30
0.0
 41
0.5000001264171268
 10
462.0001003389883
 20
188.9636318495463
 30
0.0
 41
0.5000001264171268
 10
463.5672640953206
 20
192.1029184041205
 30
0.0
 41
0.5000001264171268
 10
465.1344278516529
 20
195.2422049586947
 30
0.0
 41
0.5000001264171268
 10
467.3584754169592
 20
197.7376121499862
 30
0.0
 41
0.5000001264171268
 10
470.2321887258368
 20
199.8139787594229
 30
0.0
 41
0.5000001264171268
  0
SPLINE
  5
100
330
1F
100
AcDbEntity
  8
Make2D$Visibile$Curve
370
    -3
100
AcDbSpline
210
0.0
220
0.0
230
1.0
 70
    12
 71
     3
 72
    23
 73
    19
 74
     0
 42
0.0000000001
 43
0.0000000001
 40
0.0
 40
0.0
 40
0.0
 40
0.0
 40
10.39697744490822
 40
10.39697744490822
 40
10.39697744490822
 40
21.64230127004265
 40
21.64230127004265
 40
21.64230127004265
 40
27.11365545482159
 40
27.11365545482159
 40
27.11365545482159
 40
32.55770315243669
 40
32.55770315243669
 40
32.55770315243669
 40
43.44777079828312
 40
43.44777079828312
 40
43.44777079828312
 40
87.00804138166882
 40
87.00804138166882
 40
87.00804138166882
 40
87.00804138166882
 10
506.5326504487121
 20
199.8504844199224
 30
0.0
 41
0.500000126417127
 10
509.4105341485189
 20
197.7799019200469
 30
0.0
 41
0.500000126417127
 10
511.6395962366212
 20
195.2889730108891
 30
0.0
 41
0.5000001264171269
 10
513.2130708812535
 20
192.1528448480756
 30
0.0
 41
0.5000001264171269
 10
514.7865455258857
 20
189.0167166852621
 30
0.0
 41
0.5000001264171269
 10
515.6833380986577
 20
185.0803297745568
 30
0.0
 41
0.5000001264171269
 10
515.9970624837305
 20
181.3959587836823
 30
0.0
 41
0.5000001264171269
 10
516.1539246762667
 20
179.5537732882451
 30
0.0
 41
0.500000126417127
 10
516.1836689962353
 20
177.7439417407507
 30
0.0
 41
0.500000126417127
 10
516.1904092914117
 20
175.931502842571
 30
0.0
 41
0.500000126417127
 10
516.1971495865882
 20
174.1190639443914
 30
0.0
 41
0.500000126417127
 10
516.1951190085723
 20
172.3024801149327
 30
0.0
 41
0.500000126417127
 10
516.1969442787957
 20
170.4874697584188
 30
0.0
 41
0.500000126417127
 10
516.2005948192425
 20
166.8574490453909
 30
0.0
 41
0.500000126417127
 10
516.2042453596893
 20
163.2274283323631
 30
0.0
 41
0.500000126417127
 10
516.2078959001361
 20
159.5974076193352
 30
0.0
 41
0.500000126417127
 10
516.2224980619231
 20
145.0773247672238
 30
0.0
 41
0.500000126417127
 10
516.2371002237103
 20
130.5572419151125
 30
0.0
 41
0.5000001264171269
 10
516.2517023854973
 20
116.037159063001
 30
0.0
 41
0.5000001264171269
  0
SPLINE
  5
101
330
1F
100
AcDbEntity
  8
Make2D$Visibile$Curve
370
    -3
100
AcDbSpline
210
0.0
220
0.0
230
1.0
 70
    28
 71
     2
 72
     6
 73
     3
 74
     0
 42
0.0000000001
 43
0.0000000001
 40
130.9616698732548
 40
130.9616698732548
 40
130.9616698732548
 40
174.5783037599848
 40
174.5783037599848
 40
174.5783037599848
 10
516.2517023854973
 20
116.037159063001
 30
0.0
 41
1.0
 10
516.2517023854972
 20
116.037159063001
 30
0.0
 41
0.7074622436139042
 10
488.4946584699201
 20
116.0092451144295
 30
0.0
 41
1.0
  0
SPLINE
  5
102
330
1F
100
AcDbEntity
  8
Make2D$Visibile$Curve
370
    -3
100
AcDbSpline
210
0.0
220
0.0
230
1.0
 70
    28
 71
     3
 72
     8
 73
     4
 74
     0
 42
0.0000000001
 43
0.0000000001
 40
5.719128638180835
 40
5.719128638180835
 40
5.719128638180835
 40
5.719128638180835
 40
6.14339270688997
 40
6.14339270688997
 40
6.14339270688997
 40
6.14339270688997
 10
516.2517023855115
 20
116.0371590630151
 30
0.0
 41
0.999583827913257
 10
516.1518030013068
 20
115.9370585483548
 30
0.0
 41
0.999583827913257
 10
516.0519036171021
 20
115.8369580336944
 30
0.0
 41
0.999583827913257
 10
515.9520042328974
 20
115.7368575190341
 30
0.0
 41
0.999583827913257
  0
SPLINE
  5
103
330
1F
100
AcDbEntity
  8
Make2D$Visibile$Curve
370
    -3
100
AcDbSpline
210
0.0
220
0.0
230
1.0
 70
    28
 71
     3
 72
     8
 73
     4
 74
     0
 42
0.0000000001
 43
0.0000000001
 40
35.11857205611838
 40
35.11857205611838
 40
35.11857205611838
 40
35.11857205611838
 40
35.5428361248275
 40
35.5428361248275
 40
35.5428361248275
 40
35.5428361248275
 10
460.9820320294561
 20
115.6815768132886
 30
0.0
 41
0.9995838279132627
 10
460.8819315147958
 20
115.7814761974933
 30
0.0
 41
0.9995838279132627
 10
460.7818310001354
 20
115.8813755816979
 30
0.0
 41
0.9995838279132627
 10
460.6817304854751
 20
115.9812749659026
 30
0.0
 41
0.9995838279132627
  0
SPLINE
  5
104
330
1F
100
AcDbEntity
  8
Make2D$Visibile$Curve
370
    -3
100
AcDbSpline
210
0.0
220
0.0
230
1.0
 70
    28
 71
     2
 72
     8
 73
     5
 74
     0
 42
0.0000000001
 43
0.0000000001
 40
87.2891416325906
 40
87.2891416325906
 40
87.2891416325906
 40
109.1253980657311
 40
109.1253980657311
 40
130.9616544988716
 40
130.9616544988716
 40
130.9616544988716
 10
488.4407957376451
 20
113.9992175559566
 30
0.0
 41
1.0
 10
499.9578914589052
 20
114.0107997553663
 30
0.0
 41
0.9237832916811203
 10
508.1058059579266
 20
114.0189937282902
 30
0.0
 41
1.0
 10
516.253720456948
 20
114.027187701214
 30
0.0
 41
0.9237832916811203
 10
516.253720456948
 20
114.027187701214
 30
0.0
 41
1.0
  0
SPLINE
  5
105
330
1F
100
AcDbEntity
  8
Make2D$Visibile$Curve
370
    -3
100
AcDbSpline
210
0.0
220
0.0
230
1.0
 70
    28
 71
     2
 72
     8
 73
     5
 74
     0
 42
0.0000000001
 43
0.0000000001
 40
0.0
 40
0.0
 40
0.0
 40
21.83625899663101
 40
21.83625899663101
 40
43.67251799326202
 40
43.67251799326202
 40
43.67251799326202
 10
488.4946584699201
 20
116.0092451144295
 30
0.0
 41
1.0
 10
476.9775613965984
 20
115.9976629136601
 30
0.0
 41
0.9237832916811209
 10
468.8296459410439
 20
115.9894689397743
 30
0.0
 41
1.0
 10
460.6817304854894
 20
115.9812749658886
 30
0.0
 41
0.9237832916811209
 10
460.6817304854893
 20
115.9812749658886
 30
0.0
 41
1.0
  0
SPLINE
  5
106
330
1F
100
AcDbEntity
  8
Make2D$Visibile$Curve
370
    -3
100
AcDbSpline
210
0.0
220
0.0
230
1.0
 70
     8
 71
     5
 72
    12
 73
     6
 74
     0
 42
0.0000000001
 43
0.0000000001
 40
0.0456538383849937
 40
0.0456538383849937
 40
0.0456538383849937
 40
0.0456538383849937
 40
0.0456538383849937
 40
0.0456538383849937
 40
0.2034963989979609
 40
0.2034963989979609
 40
0.2034963989979609
 40
0.2034963989979609
 40
0.2034963989979609
 40
0.2034963989979609
 10
406.278404703079
 20
287.0199390752173
 30
0.0
 10
406.2451407091025
 20
287.0199352560709
 30
0.0
 10
406.2150384021468
 20
287.0198904574878
 30
0.0
 10
406.1863038624729
 20
287.0197995681993
 30
0.0
 10
406.1571431703416
 20
287.0196574769368
 30
0.0
 10
406.1257624060137
 20
287.0194590724315
 30
0.0
  0
SPLINE
  5
107
330
1F
100
AcDbEntity
  8
Make2D$Visibile$Curve
370
    -3
100
AcDbSpline
210
0.0
220
0.0
230
1.0
 70
     8
 71
     5
 72
    12
 73
     6
 74
     0
 42
0.0000000001
 43
0.0000000001
 40
0.0456538382126136
 40
0.0456538382126136
 40
0.0456538382126136
 40
0.0456538382126136
 40
0.0456538382126136
 40
0.0456538382126136
 40
0.2034963990471565
 40
0.2034963990471565
 40
0.2034963990471565
 40
0.2034963990471565
 40
0.2034963990471565
 40
0.2034963990471565
 10
582.40838179896
 20
288.1112334202014
 30
0.0
 10
582.4083856181063
 20
288.0779694267645
 30
0.0
 10
582.4084304166912
 20
288.0478671194421
 30
0.0
 10
582.4085213059815
 20
288.0191325791102
 30
0.0
 10
582.408663397244
 20
287.9899718866448
 30
0.0
 10
582.4088618017456
 20
287.958591122922
 30
0.0
  0
SPLINE
  5
108
330
1F
100
AcDbEntity
  8
Make2D$Visibile$Curve
370
    -3
100
AcDbSpline
210
0.0
220
0.0
230
1.0
 70
     8
 71
     5
 72
    12
 73
     6
 74
     0
 42
0.0000000001
 43
0.0000000001
 40
0.0456539400533754
 40
0.0456539400533754
 40
0.0456539400533754
 40
0.0456539400533754
 40
0.0456539400533754
 40
0.0456539400533754
 40
0.2034967631247014
 40
0.2034967631247014
 40
0.2034967631247014
 40
0.2034967631247014
 40
0.2034967631247014
 40
0.2034967631247014
 10
581.3170876429095
 20
305.5092982692184
 30
0.0
 10
581.3503514587941
 20
305.5093020884607
 30
0.0
 10
581.3804539438115
 20
305.509346888928
 30
0.0
 10
581.4091887800591
 20
305.5094377806006
 30
0.0
 10
581.4383496496343
 20
305.5095798734586
 30
0.0
 10
581.4697302346344
 20
305.5097782774822
 30
0.0
  0
SPLINE
  5
109
330
1F
100
AcDbEntity
  8
Make2D$Visibile$Curve
370
    -3
100
AcDbSpline
210
0.0
220
0.0
230
1.0
 70
     8
 71
     5
 72
    12
 73
     6
 74
     0
 42
0.0000000001
 43
0.0000000001
 40
0.5871048716678429
 40
0.5871048716678429
 40
0.5871048716678429
 40
0.5871048716678429
 40
0.5871048716678429
 40
0.5871048716678429
 40
0.9414213562373538
 40
0.9414213562373538
 40
0.9414213562373538
 40
0.9414213562373538
 40
0.9414213562373538
 40
0.9414213562373538
 10
405.6146576031947
 20
287.0711229815747
 30
0.0
 10
405.5567770920553
 20
287.0885151381354
 30
0.0
 10
405.5034560116903
 20
287.1104667254706
 30
0.0
 10
405.4551959756476
 20
287.1374793571282
 30
0.0
 10
405.4122477907013
 20
287.169803839882
 30
0.0
 10
405.3746114568511
 20
287.207440173732
 30
0.0
  0
SPLINE
  5
10A
330
1F
100
AcDbEntity
  8
Make2D$Visibile$Curve
370
    -3
100
AcDbSpline
210
0.0
220
0.0
230
1.0
 70
     8
 71
     5
 72
    12
 73
     6
 74
     0
 42
0.0000000001
 43
0.0000000001
 40
1.150973126736689
 40
1.150973126736689
 40
1.150973126736689
 40
1.150973126736689
 40
1.150973126736689
 40
1.150973126736689
 40
1.225578868646145
 40
1.225578868646145
 40
1.225578868646145
 40
1.225578868646145
 40
1.225578868646145
 40
1.225578868646145
 10
405.8281903043078
 20
287.031537751804
 30
0.0
 10
405.8427895041348
 20
287.0300973917423
 30
0.0
 10
405.8576148095234
 20
287.0287984451146
 30
0.0
 10
405.8725901063649
 20
287.0276337487692
 30
0.0
 10
405.8876392805504
 20
287.0265961395543
 30
0.0
 10
405.9026862179711
 20
287.0256784543182
 30
0.0
  0
SPLINE
  5
10B
330
1F
100
AcDbEntity
  8
Make2D$Visibile$Curve
370
    -3
100
AcDbSpline
210
0.0
220
0.0
230
1.0
 70
     8
 71
     5
 72
    12
 73
     6
 74
     0
 42
0.0000000001
 43
0.0000000001
 40
1.150973126824771
 40
1.150973126824771
 40
1.150973126824771
 40
1.150973126824771
 40
1.150973126824771
 40
1.150973126824771
 40
1.205191467075033
 40
1.205191467075033
 40
1.205191467075033
 40
1.205191467075033
 40
1.205191467075033
 40
1.205191467075033
 10
582.396783122373
 20
287.6610190211891
 30
0.0
 10
582.3978298773532
 20
287.671628719093
 30
0.0
 10
582.398801946437
 20
287.682357832078
 30
0.0
 10
582.399702078949
 20
287.6931771464104
 30
0.0
 10
582.4005330242139
 20
287.7040574483568
 30
0.0
 10
582.4012975315568
 20
287.7149695241834
 30
0.0
  0
SPLINE
  5
10C
330
1F
100
AcDbEntity
  8
Make2D$Visibile$Curve
370
    -3
100
AcDbSpline
210
0.0
220
0.0
230
1.0
 70
     8
 71
     5
 72
    12
 73
     6
 74
     0
 42
0.0000000001
 43
0.0000000001
 40
1.190072802299326
 40
1.190072802299326
 40
1.190072802299326
 40
1.190072802299326
 40
1.190072802299326
 40
1.190072802299326
 40
1.247558857136201
 40
1.247558857136201
 40
1.247558857136201
 40
1.247558857136201
 40
1.247558857136201
 40
1.247558857136201
 10
581.7285340576847
 20
305.5010958629149
 30
0.0
 10
581.7170163413998
 20
305.501986375676
 30
0.0
 10
581.7054354332249
 20
305.5027996153513
 30
0.0
 10
581.6938261537548
 20
305.5035388589286
 30
0.0
 10
581.6822233235844
 20
305.5042073833957
 30
0.0
 10
581.6706617633083
 20
305.5048084657406
 30
0.0
  0
SPLINE
  5
10D
330
1F
100
AcDbEntity
  8
Make2D$Visibile$Curve
370
    -3
100
AcDbSpline
210
0.0
220
0.0
230
1.0
 70
     8
 71
     5
 72
    12
 73
     6
 74
     0
 42
0.0000000001
 43
0.0000000001
 40
0.0734979890404783
 40
0.0734979890404783
 40
0.0734979890404783
 40
0.0734979890404783
 40
0.0734979890404783
 40
0.0734979890404783
 40
0.1158300569889061
 40
0.1158300569889061
 40
0.1158300569889061
 40
0.1158300569889061
 40
0.1158300569889061
 40
0.1158300569889061
 10
406.1091567986729
 20
287.0200568154595
 30
0.0
 10
406.1002036154631
 20
287.0200968567327
 30
0.0
 10
406.0912618093338
 20
287.0201482750863
 30
0.0
 10
406.0823334758137
 20
287.0202131660492
 30
0.0
 10
406.0734206593283
 20
287.0202935740467
 30
0.0
 10
406.0645253531991
 20
287.0203914924004
 30
0.0
  0
SPLINE
  5
10E
330
1F
100
AcDbEntity
  8
Make2D$Visibile$Curve
370
    -3
100
AcDbSpline
210
0.0
220
0.0
230
1.0
 70
     8
 71
     5
 72
    12
 73
     6
 74
     0
 42
0.0000000001
 43
0.0000000001
 40
0.7341479251367523
 40
0.7341479251367523
 40
0.7341479251367523
 40
0.7341479251367523
 40
0.7341479251367523
 40
0.7341479251367523
 40
0.9414213562373538
 40
0.9414213562373538
 40
0.9414213562373538
 40
0.9414213562373538
 40
0.9414213562373538
 40
0.9414213562373538
 10
405.2825574068353
 20
287.3355568578166
 30
0.0
 10
405.297420699441
 20
287.3063860036023
 30
0.0
 10
405.3140136912384
 20
287.2789448485796
 30
0.0
 10
405.3323951282368
 20
287.253292138758
 30
0.0
 10
405.3525943834411
 20
287.2294572471421
 30
0.0
 10
405.3746114568511
 20
287.207440173732
 30
0.0
  0
SPLINE
  5
10F
330
1F
100
AcDbEntity
  8
Make2D$Visibile$Curve
370
    -3
100
AcDbSpline
210
0.0
220
0.0
230
1.0
 70
     8
 71
     5
 72
    12
 73
     6
 74
     0
 42
0.0000000001
 43
0.0000000001
 40
1.704441290114381
 40
1.704441290114381
 40
1.704441290114381
 40
1.704441290114381
 40
1.704441290114381
 40
1.704441290114381
 40
1.76701265526927
 40
1.76701265526927
 40
1.76701265526927
 40
1.76701265526927
 40
1.76701265526927
 40
1.76701265526927
 10
405.1887321639395
 20
304.6971786680649
 30
0.0
 10
405.1883967559754
 20
304.6842211196413
 30
0.0
 10
405.1881181844297
 20
304.6712067347993
 30
0.0
 10
405.1878904999925
 20
304.6581414628487
 30
0.0
 10
405.1877075094174
 20
304.645031497036
 30
0.0
 10
405.1875627755221
 20
304.6318832745436
 30
0.0
  0
SPLINE
  5
110
330
1F
100
AcDbEntity
  8
Make2D$Visibile$Curve
370
    -3
100
AcDbSpline
210
0.0
220
0.0
230
1.0
 70
     8
 71
     5
 72
    12
 73
     6
 74
     0
 42
0.0000000001
 43
0.0000000001
 40
0.2959492988692586
 40
0.2959492988692586
 40
0.2959492988692586
 40
0.2959492988692586
 40
0.2959492988692586
 40
0.2959492988692586
 40
0.4153492675380557
 40
0.4153492675380557
 40
0.4153492675380557
 40
0.4153492675380557
 40
0.4153492675380557
 40
0.4153492675380557
 10
406.0399383351536
 20
287.019154122468
 30
0.0
 10
406.0163409080018
 20
287.0192102577553
 30
0.0
 10
405.9940470454052
 20
287.0193797410999
 30
0.0
 10
405.9720263464785
 20
287.019765060838
 30
0.0
 10
405.9492484103362
 20
287.0204687053059
 30
0.0
 10
405.9246828360932
 20
287.02159316284
 30
0.0
  0
SPLINE
  5
111
330
1F
100
AcDbEntity
  8
Make2D$Visibile$Curve
370
    -3
100
AcDbSpline
210
0.0
220
0.0
230
1.0
 70
     8
 71
     5
 72
    12
 73
     6
 74
     0
 42
0.0000000001
 43
0.0000000001
 40
0.5142137336093892
 40
0.5142137336093892
 40
0.5142137336093892
 40
0.5142137336093892
 40
0.5142137336093892
 40
0.5142137336093892
 40
0.7355774645078588
 40
0.7355774645078588
 40
0.7355774645078588
 40
0.7355774645078588
 40
0.7355774645078588
 40
0.7355774645078588
 10
405.8279200680593
 20
287.0287986915555
 30
0.0
 10
405.7864100152403
 20
287.0332183085122
 30
0.0
 10
405.7447392825978
 20
287.0396702981709
 30
0.0
 10
405.7052851161141
 20
287.0473466108137
 30
0.0
 10
405.6704247617714
 20
287.0554391967224
 30
0.0
 10
405.6425354655522
 20
287.063140006179
 30
0.0
  0
SPLINE
  5
112
330
1F
100
AcDbEntity
  8
Make2D$Visibile$Curve
370
    -3
100
AcDbSpline
210
0.0
220
0.0
230
1.0
 70
    24
 71
     5
 72
    14
 73
     8
 74
     0
 42
0.0000000001
 43
0.0000000001
 40
0.4
 40
0.4
 40
0.4
 40
0.4
 40
0.4
 40
0.4
 40
0.6
 40
0.8
 40
1.0
 40
1.0
 40
1.0
 40
1.0
 40
1.0
 40
1.0
 10
405.1871114568512
 20
288.3664224965136
 30
0.0
 10
405.1871114568511
 20
288.3862214863867
 30
0.0
 10
405.1871114568511
 20
288.4272336796956
 30
0.0
 10
405.1871114568511
 20
288.4929946103459
 30
0.0
 10
405.1871114568511
 20
288.565119502027
 30
0.0
 10
405.1871114568511
 20
288.6436083547386
 30
0.0
 10
405.1871114568511
 20
288.6987626836711
 30
0.0
 10
405.1871114568511
 20
288.7270469549186
 30
0.0
  0
SPLINE
  5
113
330
1F
100
AcDbEntity
  8
Make2D$Visibile$Curve
370
    -3
100
AcDbSpline
210
0.0
220
0.0
230
1.0
 70
     8
 71
     5
 72
    12
 73
     6
 74
     0
 42
0.0000000001
 43
0.0000000001
 40
0.5142137336736575
 40
0.5142137336736575
 40
0.5142137336736575
 40
0.5142137336736575
 40
0.5142137336736575
 40
0.5142137336736575
 40
0.7355774645619071
 40
0.7355774645619071
 40
0.7355774645619071
 40
0.7355774645619071
 40
0.7355774645619071
 40
0.7355774645619071
 10
582.3995221826217
 20
287.6607487849404
 30
0.0
 10
582.3951025656652
 20
287.619238732123
 30
0.0
 10
582.3886505760066
 20
287.5775679994813
 30
0.0
 10
582.380974263364
 20
287.5381138329975
 30
0.0
 10
582.3728816774553
 20
287.5032534786543
 30
0.0
 10
582.3651808679983
 20
287.4753641824339
 30
0.0
  0
SPLINE
  5
114
330
1F
100
AcDbEntity
  8
Make2D$Visibile$Curve
370
    -3
100
AcDbSpline
210
0.0
220
0.0
230
1.0
 70
    24
 71
     5
 72
    14
 73
     8
 74
     0
 42
0.0000000001
 43
0.0000000001
 40
0.4
 40
0.4
 40
0.4
 40
0.4
 40
0.4
 40
0.4
 40
0.6
 40
0.8
 40
1.0
 40
1.0
 40
1.0
 40
1.0
 40
1.0
 40
1.0
 10
406.5335937796326
 20
305.509297170664
 30
0.0
 10
406.5533927695058
 20
305.509297170664
 30
0.0
 10
406.5944049628146
 20
305.509297170664
 30
0.0
 10
406.660165893465
 20
305.509297170664
 30
0.0
 10
406.732290785146
 20
305.509297170664
 30
0.0
 10
406.8107796378577
 20
305.5092971706641
 30
0.0
 10
406.8659339667902
 20
305.5092971706641
 30
0.0
 10
406.8942182380377
 20
305.5092971706641
 30
0.0
  0
SPLINE
  5
115
330
1F
100
AcDbEntity
  8
Make2D$Visibile$Curve
370
    -3
100
AcDbSpline
210
0.0
220
0.0
230
1.0
 70
     8
 71
     5
 72
    12
 73
     6
 74
     0
 42
0.0000000001
 43
0.0000000001
 40
0.0456538384040266
 40
0.0456538384040266
 40
0.0456538384040266
 40
0.0456538384040266
 40
0.0456538384040266
 40
0.0456538384040266
 40
0.2034963992178658
 40
0.2034963992178658
 40
0.2034963992178658
 40
0.2034963992178658
 40
0.2034963992178658
 40
0.2034963992178658
 10
405.1871103583363
 20
304.4180039242195
 30
0.0
 10
405.1871065391901
 20
304.451267917733
 30
0.0
 10
405.1870617406054
 20
304.4813702250069
 30
0.0
 10
405.1869708513154
 20
304.5101047652502
 30
0.0
 10
405.1868287600528
 20
304.5392654576721
 30
0.0
 10
405.1866303555507
 20
304.5706462214815
 30
0.0
  0
SPLINE
  5
116
330
1F
100
AcDbEntity
  8
Make2D$Visibile$Curve
370
    -3
100
AcDbSpline
210
0.0
220
0.0
230
1.0
 70
     8
 71
     5
 72
    12
 73
     6
 74
     0
 42
0.0000000001
 43
0.0000000001
 40
0.2959492991071119
 40
0.2959492991071119
 40
0.2959492991071119
 40
0.2959492991071119
 40
0.2959492991071119
 40
0.2959492991071119
 40
0.4153492677661271
 40
0.4153492677661271
 40
0.4153492677661271
 40
0.4153492677661271
 40
0.4153492677661271
 40
0.4153492677661271
 10
405.1863254055872
 20
304.6564702923636
 30
0.0
 10
405.1863815408745
 20
304.680067719515
 30
0.0
 10
405.1865510242191
 20
304.7023615821095
 30
0.0
 10
405.1869363439571
 20
304.7243822810333
 30
0.0
 10
405.1876399884249
 20
304.747160217173
 30
0.0
 10
405.1887644459588
 20
304.7717257914152
 30
0.0
  0
SPLINE
  5
117
330
1F
100
AcDbEntity
  8
Make2D$Visibile$Curve
370
    -3
100
AcDbSpline
210
0.0
220
0.0
230
1.0
 70
     8
 71
     5
 72
    12
 73
     6
 74
     0
 42
0.0000000001
 43
0.0000000001
 40
0.5142137338436492
 40
0.5142137338436492
 40
0.5142137338436492
 40
0.5142137338436492
 40
0.5142137338436492
 40
0.5142137338436492
 40
0.7355774647380671
 40
0.7355774647380671
 40
0.7355774647380671
 40
0.7355774647380671
 40
0.7355774647380671
 40
0.7355774647380671
 10
405.1959699746749
 20
304.8684885594557
 30
0.0
 10
405.2003895916313
 20
304.9099986122723
 30
0.0
 10
405.2068415812902
 20
304.9516693449153
 30
0.0
 10
405.2145178939332
 20
304.9911235114008
 30
0.0
 10
405.222610479842
 20
305.0259838657446
 30
0.0
 10
405.2303112892982
 20
305.0538731619625
 30
0.0
  0
SPLINE
  5
118
330
1F
100
AcDbEntity
  8
Make2D$Visibile$Curve
370
    -3
100
AcDbSpline
210
0.0
220
0.0
230
1.0
 70
    24
 71
     5
 72
    14
 73
     8
 74
     0
 42
0.0000000001
 43
0.0000000001
 40
0.4
 40
0.4
 40
0.4
 40
0.4
 40
0.4
 40
0.4
 40
0.6
 40
0.8
 40
1.0
 40
1.0
 40
1.0
 40
1.0
 40
1.0
 40
1.0
 10
581.061898377664
 20
305.5092971706639
 30
0.0
 10
581.0420993877907
 20
305.5092971706639
 30
0.0
 10
581.0010871944818
 20
305.5092971706639
 30
0.0
 10
580.9353262638315
 20
305.509297170664
 30
0.0
 10
580.8632013721503
 20
305.509297170664
 30
0.0
 10
580.7847125194387
 20
305.509297170664
 30
0.0
 10
580.7295581905062
 20
305.5092971706641
 30
0.0
 10
580.7012739192587
 20
305.5092971706641
 30
0.0
  0
SPLINE
  5
119
330
1F
100
AcDbEntity
  8
Make2D$Visibile$Curve
370
    -3
100
AcDbSpline
210
0.0
220
0.0
230
1.0
 70
     8
 71
     5
 72
    12
 73
     6
 74
     0
 42
0.0000000001
 43
0.0000000001
 40
0.295949097057884
 40
0.295949097057884
 40
0.295949097057884
 40
0.295949097057884
 40
0.295949097057884
 40
0.295949097057884
 40
0.4153491390603093
 40
0.4153491390603093
 40
0.4153491390603093
 40
0.4153491390603093
 40
0.4153491390603093
 40
0.4153491390603093
 10
581.5555537278449
 20
305.5100832256644
 30
0.0
 10
581.5791511845268
 20
305.5100270909222
 30
0.0
 10
581.6014450107233
 20
305.5098576097416
 30
0.0
 10
581.6234656549861
 20
305.5094722925245
 30
0.0
 10
581.6462435658667
 20
305.508768649673
 30
0.0
 10
581.6708091919168
 20
305.5076441915892
 30
0.0
  0
SPLINE
  5
11A
330
1F
100
AcDbEntity
  8
Make2D$Visibile$Curve
370
    -3
100
AcDbSpline
210
0.0
220
0.0
230
1.0
 70
     8
 71
     5
 72
    12
 73
     6
 74
     0
 42
0.0000000001
 43
0.0000000001
 40
0.5142137744107769
 40
0.5142137744107769
 40
0.5142137744107769
 40
0.5142137744107769
 40
0.5142137744107769
 40
0.5142137744107769
 40
0.7355774986712733
 40
0.7355774986712733
 40
0.7355774986712733
 40
0.7355774986712733
 40
0.7355774986712733
 40
0.7355774986712733
 10
581.7675721120381
 20
305.5004386550964
 30
0.0
 10
581.8090821387898
 20
305.4960190403227
 30
0.0
 10
581.8507528833127
 20
305.4895670455466
 30
0.0
 10
581.8902070728327
 20
305.4818907263722
 30
0.0
 10
581.925067434576
 20
305.4737981384038
 30
0.0
 10
581.952956695769
 20
305.4660973372456
 30
0.0
  0
SPLINE
  5
11B
330
1F
100
AcDbEntity
  8
Make2D$Visibile$Curve
370
    -3
100
AcDbSpline
210
0.0
220
0.0
230
1.0
 70
     8
 71
     5
 72
    12
 73
     6
 74
     0
 42
0.0000000001
 43
0.0000000001
 40
0.0
 40
0.0
 40
0.0
 40
0.0
 40
0.0
 40
0.0
 40
0.9414213562373471
 40
0.9414213562373471
 40
0.9414213562373471
 40
0.9414213562373471
 40
0.9414213562373471
 40
0.9414213562373471
 10
581.4083807004452
 20
287.019940173732
 30
0.0
 10
581.6083807004452
 20
287.019940173732
 30
0.0
 10
581.8083807004452
 20
287.019940173732
 30
0.0
 10
581.9833807004452
 20
287.044940173732
 30
0.0
 10
582.1208807004452
 20
287.107440173732
 30
0.0
 10
582.2208807004453
 20
287.207440173732
 30
0.0
  0
SPLINE
  5
11C
330
1F
100
AcDbEntity
  8
Make2D$Visibile$Curve
370
    -3
100
AcDbSpline
210
0.0
220
0.0
230
1.0
 70
     8
 71
     5
 72
    12
 73
     6
 74
     0
 42
0.0000000001
 43
0.0000000001
 40
-0.941421356237319
 40
-0.941421356237319
 40
-0.941421356237319
 40
-0.941421356237319
 40
-0.941421356237319
 40
-0.941421356237319
 40
0.0
 40
0.0
 40
0.0
 40
0.0
 40
0.0
 40
0.0
 10
405.3746114568511
 20
305.3217971706641
 30
0.0
 10
405.4746114568511
 20
305.4217971706641
 30
0.0
 10
405.6121114568511
 20
305.4842971706641
 30
0.0
 10
405.7871114568511
 20
305.5092971706641
 30
0.0
 10
405.9871114568512
 20
305.5092971706641
 30
0.0
 10
406.1871114568511
 20
305.5092971706641
 30
0.0
  0
SPLINE
  5
11D
330
1F
100
AcDbEntity
  8
Make2D$Visibile$Curve
370
    -3
100
AcDbSpline
210
0.0
220
0.0
230
1.0
 70
     8
 71
     5
 72
    12
 73
     6
 74
     0
 42
0.0000000001
 43
0.0000000001
 40
-0.9414213562373062
 40
-0.9414213562373062
 40
-0.9414213562373062
 40
-0.9414213562373062
 40
-0.9414213562373062
 40
-0.9414213562373062
 40
-0.5534320879524569
 40
-0.5534320879524569
 40
-0.5534320879524569
 40
-0.5534320879524569
 40
-0.5534320879524569
 40
-0.5534320879524569
 10
582.2208807004453
 20
305.3217971706641
 30
0.0
 10
582.1796675639773
 20
305.3630103071321
 30
0.0
 10
582.1320849676936
 20
305.3978539837843
 30
0.0
 10
582.0781329115941
 20
305.4263282006208
 30
0.0
 10
582.0181720180642
 20
305.4487935800269
 30
0.0
 10
581.9529235318744
 20
305.465971366773
 30
0.0
  0
SPLINE
  5
11E
330
1F
100
AcDbEntity
  8
Make2D$Visibile$Curve
370
    -3
100
AcDbSpline
210
0.0
220
0.0
230
1.0
 70
     8
 71
     5
 72
    12
 73
     6
 74
     0
 42
0.0000000001
 43
0.0000000001
 40
-1.882842712474612
 40
-1.882842712474612
 40
-1.882842712474612
 40
-1.882842712474612
 40
-1.882842712474612
 40
-1.882842712474612
 40
-0.9414213562373062
 40
-0.9414213562373062
 40
-0.9414213562373062
 40
-0.9414213562373062
 40
-0.9414213562373062
 40
-0.9414213562373062
 10
582.4083807004453
 20
304.5092971706641
 30
0.0
 10
582.4083807004453
 20
304.7092971706641
 30
0.0
 10
582.4083807004453
 20
304.9092971706641
 30
0.0
 10
582.3833807004453
 20
305.0842971706641
 30
0.0
 10
582.3208807004453
 20
305.2217971706641
 30
0.0
 10
582.2208807004453
 20
305.3217971706641
 30
0.0
  0
SPLINE
  5
11F
330
1F
100
AcDbEntity
  8
Make2D$Visibile$Curve
370
    -3
100
AcDbSpline
210
0.0
220
0.0
230
1.0
 70
    24
 71
     5
 72
    14
 73
     8
 74
     0
 42
0.0000000001
 43
0.0000000001
 40
-1.0
 40
-1.0
 40
-1.0
 40
-1.0
 40
-1.0
 40
-1.0
 40
-0.8
 40
-0.6
 40
-0.4
 40
-0.4
 40
-0.4
 40
-0.4
 40
-0.4
 40
-0.4
 10
406.8942182380377
 20
287.019940173732
 30
0.0
 10
406.8659339667902
 20
287.019940173732
 30
0.0
 10
406.8107796378577
 20
287.019940173732
 30
0.0
 10
406.732290785146
 20
287.019940173732
 30
0.0
 10
406.660165893465
 20
287.019940173732
 30
0.0
 10
406.5944049628146
 20
287.019940173732
 30
0.0
 10
406.5533927695058
 20
287.019940173732
 30
0.0
 10
406.5335937796326
 20
287.019940173732
 30
0.0
  0
SPLINE
  5
120
330
1F
100
AcDbEntity
  8
Make2D$Visibile$Curve
370
    -3
100
AcDbSpline
210
0.0
220
0.0
230
1.0
 70
    24
 71
     2
 72
     6
 73
     3
 74
     0
 42
0.0000000001
 43
0.0000000001
 40
1.707106781186621
 40
1.707106781186621
 40
1.707106781186621
 40
175.5141624624076
 40
175.5141624624076
 40
175.5141624624076
 10
580.7012739192587
 20
287.019940173732
 30
0.0
 10
493.7977460786482
 20
287.019940173732
 30
0.0
 10
406.8942182380377
 20
287.019940173732
 30
0.0
  0
SPLINE
  5
121
330
1F
100
AcDbEntity
  8
Make2D$Visibile$Curve
370
    -3
100
AcDbSpline
210
0.0
220
0.0
230
1.0
 70
    24
 71
     5
 72
    14
 73
     8
 74
     0
 42
0.0000000001
 43
0.0000000001
 40
0.4
 40
0.4
 40
0.4
 40
0.4
 40
0.4
 40
0.4
 40
0.6
 40
0.8
 40
1.0
 40
1.0
 40
1.0
 40
1.0
 40
1.0
 40
1.0
 10
581.0618983776639
 20
287.019940173732
 30
0.0
 10
581.0420993877906
 20
287.019940173732
 30
0.0
 10
581.0010871944818
 20
287.019940173732
 30
0.0
 10
580.9353262638314
 20
287.019940173732
 30
0.0
 10
580.8632013721503
 20
287.019940173732
 30
0.0
 10
580.7847125194386
 20
287.019940173732
 30
0.0
 10
580.729558190506
 20
287.019940173732
 30
0.0
 10
580.7012739192586
 20
287.019940173732
 30
0.0
  0
SPLINE
  5
122
330
1F
100
AcDbEntity
  8
Make2D$Visibile$Curve
370
    -3
100
AcDbSpline
210
0.0
220
0.0
230
1.0
 70
    24
 71
     5
 72
    14
 73
     8
 74
     0
 42
0.0000000001
 43
0.0000000001
 40
-1.0
 40
-1.0
 40
-1.0
 40
-1.0
 40
-1.0
 40
-1.0
 40
-0.8
 40
-0.6
 40
-0.4
 40
-0.4
 40
-0.4
 40
-0.4
 40
-0.4
 40
-0.4
 10
582.4083807004453
 20
288.7270469549186
 30
0.0
 10
582.4083807004453
 20
288.6987626836711
 30
0.0
 10
582.4083807004453
 20
288.6436083547386
 30
0.0
 10
582.4083807004453
 20
288.565119502027
 30
0.0
 10
582.4083807004452
 20
288.4929946103459
 30
0.0
 10
582.4083807004452
 20
288.4272336796956
 30
0.0
 10
582.4083807004452
 20
288.3862214863867
 30
0.0
 10
582.4083807004452
 20
288.3664224965136
 30
0.0
  0
SPLINE
  5
123
330
1F
100
AcDbEntity
  8
Make2D$Visibile$Curve
370
    -3
100
AcDbSpline
210
0.0
220
0.0
230
1.0
 70
    24
 71
     5
 72
    14
 73
     8
 74
     0
 42
0.0000000001
 43
0.0000000001
 40
-1.0
 40
-1.0
 40
-1.0
 40
-1.0
 40
-1.0
 40
-1.0
 40
-0.8
 40
-0.6
 40
-0.4000000000000006
 40
-0.4000000000000006
 40
-0.4000000000000006
 40
-0.4000000000000006
 40
-0.4000000000000006
 40
-0.4000000000000006
 10
405.1871114568511
 20
303.8021903894776
 30
0.0
 10
405.1871114568511
 20
303.830474660725
 30
0.0
 10
405.1871114568511
 20
303.8856289896576
 30
0.0
 10
405.1871114568511
 20
303.9641178423692
 30
0.0
 10
405.1871114568511
 20
304.0362427340502
 30
0.0
 10
405.1871114568511
 20
304.1020036647005
 30
0.0
 10
405.1871114568511
 20
304.1430158580094
 30
0.0
 10
405.1871114568511
 20
304.1628148478826
 30
0.0
  0
SPLINE
  5
124
330
1F
100
AcDbEntity
  8
Make2D$Visibile$Curve
370
    -3
100
AcDbSpline
210
0.0
220
0.0
230
1.0
 70
    24
 71
     5
 72
    14
 73
     8
 74
     0
 42
0.0000000001
 43
0.0000000001
 40
-1.0
 40
-1.0
 40
-1.0
 40
-1.0
 40
-1.0
 40
-1.0
 40
-0.8
 40
-0.6
 40
-0.4
 40
-0.4
 40
-0.4
 40
-0.4
 40
-0.4
 40
-0.4
 10
582.4083807004453
 20
303.8021903894776
 30
0.0
 10
582.4083807004453
 20
303.830474660725
 30
0.0
 10
582.4083807004453
 20
303.8856289896576
 30
0.0
 10
582.4083807004453
 20
303.9641178423691
 30
0.0
 10
582.4083807004452
 20
304.0362427340501
 30
0.0
 10
582.4083807004452
 20
304.1020036647005
 30
0.0
 10
582.4083807004452
 20
304.1430158580093
 30
0.0
 10
582.4083807004452
 20
304.1628148478826
 30
0.0
  0
SPLINE
  5
125
330
1F
100
AcDbEntity
  8
Make2D$Visibile$Curve
370
    -3
100
AcDbSpline
210
0.0
220
0.0
230
1.0
 70
     8
 71
     5
 72
    12
 73
     6
 74
     0
 42
0.0000000001
 43
0.0000000001
 40
-0.9414213562373471
 40
-0.9414213562373471
 40
-0.9414213562373471
 40
-0.9414213562373471
 40
-0.9414213562373471
 40
-0.9414213562373471
 40
-0.5456555658394169
 40
-0.5456555658394169
 40
-0.5456555658394169
 40
-0.5456555658394169
 40
-0.5456555658394169
 40
-0.5456555658394169
 10
582.2208807004453
 20
287.207440173732
 30
0.0
 10
582.2629198774594
 20
287.2494793507462
 30
0.0
 10
582.2983317079585
 20
287.2981458742755
 30
0.0
 10
582.3271161919424
 20
287.3534397443199
 30
0.0
 10
582.3496637447165
 20
287.4149705455743
 30
0.0
 10
582.3667551968908
 20
287.4819574474283
 30
0.0
  0
SPLINE
  5
126
330
1F
100
AcDbEntity
  8
Make2D$Visibile$Curve
370
    -3
100
AcDbSpline
210
0.0
220
0.0
230
1.0
 70
     8
 71
     5
 72
    12
 73
     6
 74
     0
 42
0.0000000001
 43
0.0000000001
 40
0.9414213562372432
 40
0.9414213562372432
 40
0.9414213562372432
 40
0.9414213562372432
 40
0.9414213562372432
 40
0.9414213562372432
 40
1.320255598239266
 40
1.320255598239266
 40
1.320255598239266
 40
1.320255598239266
 40
1.320255598239266
 40
1.320255598239266
 10
405.3746114568512
 20
305.321797170664
 30
0.0
 10
405.3343707888982
 20
305.2815565027111
 30
0.0
 10
405.3002025385351
 20
305.2352434171682
 30
0.0
 10
405.2721067057619
 20
305.1828579140355
 30
0.0
 10
405.2497555194195
 20
305.1247277644718
 30
0.0
 10
405.2324934371902
 20
305.0615085107952
 30
0.0
  0
SPLINE
  5
127
330
1F
100
AcDbEntity
  8
Make2D$Visibile$Curve
370
    -3
100
AcDbSpline
210
0.0
220
0.0
230
1.0
 70
    24
 71
     2
 72
     6
 73
     3
 74
     0
 42
0.0000000001
 43
0.0000000001
 40
1.707106781186589
 40
1.707106781186589
 40
1.707106781186589
 40
16.7822502157455
 40
16.7822502157455
 40
16.7822502157455
 10
405.1871114568511
 20
288.7270469549186
 30
0.0
 10
405.1871114568511
 20
296.2646186721981
 30
0.0
 10
405.1871114568511
 20
303.8021903894776
 30
0.0
  0
SPLINE
  5
128
330
1F
100
AcDbEntity
  8
Make2D$Visibile$Curve
370
    -3
100
AcDbSpline
210
0.0
220
0.0
230
1.0
 70
    24
 71
     2
 72
     6
 73
     3
 74
     0
 42
0.0000000001
 43
0.0000000001
 40
1.707106781186573
 40
1.707106781186573
 40
1.707106781186573
 40
16.78225021574546
 40
16.78225021574546
 40
16.78225021574546
 10
582.4083807004453
 20
288.7270469549186
 30
0.0
 10
582.4083807004453
 20
296.2646186721981
 30
0.0
 10
582.4083807004453
 20
303.8021903894776
 30
0.0
  0
SPLINE
  5
129
330
1F
100
AcDbEntity
  8
Make2D$Visibile$Curve
370
    -3
100
AcDbSpline
210
0.0
220
0.0
230
1.0
 70
    24
 71
     2
 72
     6
 73
     3
 74
     0
 42
0.0000000001
 43
0.0000000001
 40
1.707106781186582
 40
1.707106781186582
 40
1.707106781186582
 40
175.5141624624075
 40
175.5141624624075
 40
175.5141624624075
 10
580.7012739192587
 20
305.5092971706641
 30
0.0
 10
493.7977460786482
 20
305.5092971706641
 30
0.0
 10
406.8942182380377
 20
305.5092971706641
 30
0.0
  0
ENDSEC
  0
SECTION
  2
OBJECTS
  0
DICTIONARY
  5
C
330
0
100
AcDbDictionary
281
     1
  3
ACAD_DETAILVIEWSTYLE
350
165
  3
ACAD_GROUP
350
D
  3
ACAD_LAYOUT
350
1A
  3
ACAD_MATERIAL
350
43
  3
ACAD_MLEADERSTYLE
350
5B
  3
ACAD_MLINESTYLE
350
17
  3
ACAD_PLOTSETTINGS
350
19
  3
ACAD_PLOTSTYLENAME
350
E
  3
ACAD_SCALELIST
350
47
  3
ACAD_SECTIONVIEWSTYLE
350
166
  3
ACAD_TABLESTYLE
350
59
  3
ACAD_VISUALSTYLE
350
2A
  3
AcDbVariableDictionary
350
12A
  3
ACDB_RECOMPOSE_DATA
350
162
  0
SUN
  5
5D
330
29
100
AcDbSun
 90
        1
290
     0
 63
     7
421
 16777215
 40
1.0
291
     1
 91
  2455826
 92
 54000000
292
     0
 70
     2
 71
   256
280
     1
  0
DICTIONARY
  5
165
102
{ACAD_REACTORS
330
C
102
}
330
C
100
AcDbDictionary
281
     1
  0
DICTIONARY
  5
D
102
{ACAD_REACTORS
330
C
102
}
330
C
100
AcDbDictionary
281
     1
  0
DICTIONARY
  5
1A
102
{ACAD_REACTORS
330
C
102
}
330
C
100
AcDbDictionary
281
     1
  3
Layout1
350
1E
  3
Layout2
350
26
  3
Model
350
22
  0
DICTIONARY
  5
43
102
{ACAD_REACTORS
330
C
102
}
330
C
100
AcDbDictionary
281
     1
  3
ByBlock
350
45
  3
ByLayer
350
44
  3
Global
350
46
  0
DICTIONARY
  5
5B
102
{ACAD_REACTORS
330
C
102
}
330
C
100
AcDbDictionary
281
     1
  3
Standard
350
5C
  0
DICTIONARY
  5
17
102
{ACAD_REACTORS
330
C
102
}
330
C
100
AcDbDictionary
281
     1
  3
Standard
350
18
  0
DICTIONARY
  5
19
102
{ACAD_REACTORS
330
C
102
}
330
C
100
AcDbDictionary
281
     1
  0
ACDBDICTIONARYWDFLT
  5
E
102
{ACAD_REACTORS
330
C
102
}
330
C
100
AcDbDictionary
281
     1
  3
Normal
350
F
100
AcDbDictionaryWithDefault
340
F
  0
DICTIONARY
  5
47
102
{ACAD_REACTORS
330
C
102
}
330
C
100
AcDbDictionary
281
     1
  3
A0
350
48
  3
A1
350
49
  3
A2
350
4A
  3
A3
350
4B
  3
A4
350
4C
  3
A5
350
4D
  3
A6
350
4E
  3
A7
350
4F
  3
A8
350
50
  3
A9
350
51
  3
B1
350
52
  3
B2
350
53
  3
B3
350
54
  3
B4
350
55
  3
B5
350
56
  3
B6
350
57
  3
B7
350
58
  0
DICTIONARY
  5
166
102
{ACAD_REACTORS
330
C
102
}
330
C
100
AcDbDictionary
281
     1
  0
DICTIONARY
  5
59
102
{ACAD_REACTORS
330
C
102
}
330
C
100
AcDbDictionary
281
     1
  3
Standard
350
5A
  0
DICTIONARY
  5
2A
102
{ACAD_REACTORS
330
C
102
}
330
C
100
AcDbDictionary
281
     1
  3
2dWireframe
350
2F
  3
Basic
350
32
  3
Brighten
350
36
  3
ColorChange
350
3A
  3
Conceptual
350
34
  3
Dim
350
35
  3
EdgeColorOff
350
3D
  3
Facepattern
350
39
  3
Flat
350
2B
  3
FlatWithEdges
350
2C
  3
Gouraud
350
2D
  3
GouraudWithEdges
350
2E
  3
Hidden
350
31
  3
JitterOff
350
3B
  3
Linepattern
350
38
  3
OverhangOff
350
3C
  3
Realistic
350
33
  3
Shaded
350
42
  3
Shaded with edges
350
41
  3
Shades of Gray
350
3E
  3
Sketchy
350
3F
  3
Thicken
350
37
  3
Wireframe
350
30
  3
X-Ray
350
40
  0
DICTIONARY
  5
12A
102
{ACAD_REACTORS
330
C
102
}
330
C
100
AcDbDictionary
281
     1
  3
CANNOSCALE
350
12B
  3
CMLEADERSTYLE
350
164
  3
CTABLESTYLE
350
163
  3
XCLIPFRAME
350
12C
  0
XRECORD
  5
162
102
{ACAD_REACTORS
330
C
102
}
330
C
100
AcDbXrecord
280
     1
 90
        1
330
5A
  0
LAYOUT
  5
1E
102
{ACAD_REACTORS
330
1A
102
}
330
1A
100
AcDbPlotSettings
  1

  2
none_device
  4

  6

 40
0.0
 41
0.0
 42
0.0
 43
0.0
 44
0.0
 45
0.0
 46
0.0
 47
0.0
 48
0.0
 49
0.0
140
0.0
141
0.0
142
1.0
143
1.0
 70
   688
 72
     0
 73
     0
 74
     5
  7

 75
    16
 76
     0
 77
     2
 78
   300
147
1.0
148
0.0
149
0.0
100
AcDbLayout
  1
Layout1
 70
     1
 71
     1
 10
0.0
 20
0.0
 11
12.0
 21
9.0
 12
0.0
 22
0.0
 32
0.0
 14
1.000000000000000E+20
 24
1.000000000000000E+20
 34
1.000000000000000E+20
 15
-1.000000000000000E+20
 25
-1.000000000000000E+20
 35
-1.000000000000000E+20
146
0.0
 13
0.0
 23
0.0
 33
0.0
 16
1.0
 26
0.0
 36
0.0
 17
0.0
 27
1.0
 37
0.0
 76
     0
330
1B
  0
LAYOUT
  5
26
102
{ACAD_REACTORS
330
1A
102
}
330
1A
100
AcDbPlotSettings
  1

  2
none_device
  4

  6

 40
0.0
 41
0.0
 42
0.0
 43
0.0
 44
0.0
 45
0.0
 46
0.0
 47
0.0
 48
0.0
 49
0.0
140
0.0
141
0.0
142
1.0
143
1.0
 70
   688
 72
     0
 73
     0
 74
     5
  7

 75
    16
 76
     0
 77
     2
 78
   300
147
1.0
148
0.0
149
0.0
100
AcDbLayout
  1
Layout2
 70
     1
 71
     2
 10
0.0
 20
0.0
 11
0.0
 21
0.0
 12
0.0
 22
0.0
 32
0.0
 14
0.0
 24
0.0
 34
0.0
 15
0.0
 25
0.0
 35
0.0
146
0.0
 13
0.0
 23
0.0
 33
0.0
 16
1.0
 26
0.0
 36
0.0
 17
0.0
 27
1.0
 37
0.0
 76
     0
330
23
  0
LAYOUT
  5
22
102
{ACAD_REACTORS
330
1A
102
}
330
1A
100
AcDbPlotSettings
  1

  2
none_device
  4
Letter_(8.50_x_11.00_Inches)
  6

 40
6.35
 41
6.35
 42
6.35000508
 43
6.35000508
 44
215.9
 45
279.4
 46
0.0
 47
0.0
 48
0.0
 49
0.0
140
0.0
141
0.0
142
1.0
143
1.0
 70
  1712
 72
     0
 73
     0
 74
     0
  7

 75
     0
 76
     0
 77
     2
 78
   300
147
1.0
148
0.0
149
0.0
100
AcDbLayout
  1
Model
 70
     1
 71
     0
 10
0.0
 20
0.0
 11
12.0
 21
9.0
 12
0.0
 22
0.0
 32
0.0
 14
405.186325405587
 24
89.94970995789281
 34
0.0
 15
694.8883426250325
 25
417.9906883256448
 35
0.0
146
0.0
 13
0.0
 23
0.0
 33
0.0
 16
1.0
 26
0.0
 36
0.0
 17
0.0
 27
1.0
 37
0.0
 76
     0
330
1F
331
29
  0
MATERIAL
  5
45
102
{ACAD_REACTORS
330
43
102
}
330
43
100
AcDbMaterial
  1
ByBlock
 72
     1
 94
      127
  0
MATERIAL
  5
44
102
{ACAD_REACTORS
330
43
102
}
330
43
100
AcDbMaterial
  1
ByLayer
 72
     1
 94
      127
  0
MATERIAL
  5
46
102
{ACAD_REACTORS
330
43
102
}
330
43
100
AcDbMaterial
  1
Global
 72
     1
 94
      127
  0
MLEADERSTYLE
  5
5C
102
{ACAD_REACTORS
330
5B
102
}
102
{ACAD_XDICTIONARY
360
160
102
}
330
5B
100
AcDbMLeaderStyle
170
     2
171
     1
172
     0
 90
        2
 40
0.0
 41
0.0
173
     1
 91
-1056964608
340
14
 92
       -2
290
     1
 42
0.09
291
     1
 43
0.36
  3
Standard
341
0
 44
0.18
300

342
11
174
     1
178
     6
175
     1
176
     0
 93
-1056964608
 45
0.18
292
     0
297
     0
 46
0.18
343
0
 94
-1056964608
 47
1.0
 49
1.0
140
1.0
293
     1
141
0.0
294
     1
177
     0
142
1.0
295
     0
296
     0
143
0.125
1001
ACAD_MLEADERVER
1070
     2
  0
MLINESTYLE
  5
18
102
{ACAD_REACTORS
330
17
102
}
330
17
100
AcDbMlineStyle
  2
Standard
 70
     0
  3

 62
   256
 51
90.0
 52
90.0
 71
     2
 49
0.5
 62
   256
  6
BYLAYER
 49
-0.5
 62
   256
  6
BYLAYER
  0
ACDBPLACEHOLDER
  5
F
102
{ACAD_REACTORS
330
E
102
}
330
E
  0
SCALE
  5
48
102
{ACAD_REACTORS
330
47
102
}
330
47
100
AcDbScale
 70
     0
300
1:1
140
1.0
141
1.0
290
     1
  0
SCALE
  5
49
102
{ACAD_REACTORS
330
47
102
}
330
47
100
AcDbScale
 70
     0
300
1/128" = 1'-0"
140
0.0078125
141
12.0
290
     0
  0
SCALE
  5
4A
102
{ACAD_REACTORS
330
47
102
}
330
47
100
AcDbScale
 70
     0
300
1/64" = 1'-0"
140
0.015625
141
12.0
290
     0
  0
SCALE
  5
4B
102
{ACAD_REACTORS
330
47
102
}
330
47
100
AcDbScale
 70
     0
300
1/32" = 1'-0"
140
0.03125
141
12.0
290
     0
  0
SCALE
  5
4C
102
{ACAD_REACTORS
330
47
102
}
330
47
100
AcDbScale
 70
     0
300
1/16" = 1'-0"
140
0.0625
141
12.0
290
     0
  0
SCALE
  5
4D
102
{ACAD_REACTORS
330
47
102
}
330
47
100
AcDbScale
 70
     0
300
3/32" = 1'-0"
140
0.09375
141
12.0
290
     0
  0
SCALE
  5
4E
102
{ACAD_REACTORS
330
47
102
}
330
47
100
AcDbScale
 70
     0
300
1/8" = 1'-0"
140
0.125
141
12.0
290
     0
  0
SCALE
  5
4F
102
{ACAD_REACTORS
330
47
102
}
330
47
100
AcDbScale
 70
     0
300
3/16" = 1'-0"
140
0.1875
141
12.0
290
     0
  0
SCALE
  5
50
102
{ACAD_REACTORS
330
47
102
}
330
47
100
AcDbScale
 70
     0
300
1/4" = 1'-0"
140
0.25
141
12.0
290
     0
  0
SCALE
  5
51
102
{ACAD_REACTORS
330
47
102
}
330
47
100
AcDbScale
 70
     0
300
3/8" = 1'-0"
140
0.375
141
12.0
290
     0
  0
SCALE
  5
52
102
{ACAD_REACTORS
330
47
102
}
330
47
100
AcDbScale
 70
     0
300
1/2" = 1'-0"
140
0.5
141
12.0
290
     0
  0
SCALE
  5
53
102
{ACAD_REACTORS
330
47
102
}
330
47
100
AcDbScale
 70
     0
300
3/4" = 1'-0"
140
0.75
141
12.0
290
     0
  0
SCALE
  5
54
102
{ACAD_REACTORS
330
47
102
}
330
47
100
AcDbScale
 70
     0
300
1" = 1'-0"
140
1.0
141
12.0
290
     0
  0
SCALE
  5
55
102
{ACAD_REACTORS
330
47
102
}
330
47
100
AcDbScale
 70
     0
300
1-1/2" = 1'-0"
140
1.5
141
12.0
290
     0
  0
SCALE
  5
56
102
{ACAD_REACTORS
330
47
102
}
330
47
100
AcDbScale
 70
     0
300
3" = 1'-0"
140
3.0
141
12.0
290
     0
  0
SCALE
  5
57
102
{ACAD_REACTORS
330
47
102
}
330
47
100
AcDbScale
 70
     0
300
6" = 1'-0"
140
6.0
141
12.0
290
     0
  0
SCALE
  5
58
102
{ACAD_REACTORS
330
47
102
}
330
47
100
AcDbScale
 70
     0
300
1'-0" = 1'-0"
140
12.0
141
12.0
290
     0
  0
TABLESTYLE
  5
5A
102
{ACAD_REACTORS
330
59
102
}
102
{ACAD_XDICTIONARY
360
15D
102
}
330
59
100
AcDbTableStyle
  3
Standard
 70
     0
 71
     0
 40
0.06
 41
0.06
280
     0
281
     0
  7
Standard
140
0.18
170
     2
 62
     0
 63
   257
283
     0
 90
        4
 91
        0
  1

274
    -2
284
     1
 64
     0
275
    -2
285
     1
 65
     0
276
    -2
286
     1
 66
     0
277
    -2
287
     1
 67
     0
278
    -2
288
     1
 68
     0
279
    -2
289
     1
 69
     0
  7
Standard
140
0.25
170
     5
 62
     0
 63
   257
283
     0
 90
        4
 91
        0
  1

274
    -2
284
     1
 64
     0
275
    -2
285
     1
 65
     0
276
    -2
286
     1
 66
     0
277
    -2
287
     1
 67
     0
278
    -2
288
     1
 68
     0
279
    -2
289
     1
 69
     0
  7
Standard
140
0.18
170
     5
 62
     0
 63
   257
283
     0
 90
        4
 91
        0
  1

274
    -2
284
     1
 64
     0
275
    -2
285
     1
 65
     0
276
    -2
286
     1
 66
     0
277
    -2
287
     1
 67
     0
278
    -2
288
     1
 68
     0
279
    -2
289
     1
 69
     0
  0
VISUALSTYLE
  5
2F
102
{ACAD_REACTORS
330
2A
102
}
102
{ACAD_XDICTIONARY
360
135
102
}
330
2A
100
AcDbVisualStyle
  2
2dWireframe
 70
     4
 71
     0
 72
     2
 73
     0
 90
        0
 40
0.6
 41
30.0
 62
     5
 63
     7
421
 16777215
 74
     1
 91
        4
 64
     7
 65
   257
 75
     1
175
     1
 42
1.0
 92
        0
 66
   257
 43
1.0
 76
     1
 77
     6
 78
     2
 67
     7
 79
     5
170
     0
171
     0
290
     0
174
     0
 93
        1
 44
0.0
173
     0
291
     0
 45
0.0
  0
VISUALSTYLE
  5
32
102
{ACAD_REACTORS
330
2A
102
}
102
{ACAD_XDICTIONARY
360
13B
102
}
330
2A
100
AcDbVisualStyle
  2
Basic
 70
     7
 71
     1
 72
     0
 73
     1
 90
        0
 40
0.6
 41
30.0
 62
     5
 63
     7
421
 16777215
 74
     0
 91
        4
 64
     7
 65
   257
 75
     1
175
     1
 42
1.0
 92
        8
 66
     7
 43
1.0
 76
     1
 77
     6
 78
     2
 67
     7
 79
     5
170
     0
171
     0
290
     0
174
     0
 93
        1
 44
0.0
173
     0
291
     1
 45
0.0
  0
VISUALSTYLE
  5
36
102
{ACAD_REACTORS
330
2A
102
}
102
{ACAD_XDICTIONARY
360
143
102
}
330
2A
100
AcDbVisualStyle
  2
Brighten
 70
    12
 71
     2
 72
     2
 73
     0
 90
        0
 40
0.6
 41
30.0
 62
     5
 63
     7
421
 16777215
 74
     1
 91
        4
 64
     7
 65
   257
 75
     1
175
     1
 42
1.0
 92
        8
 66
     7
 43
1.0
 76
     1
 77
     6
 78
     2
 67
     7
 79
     5
170
     0
171
     0
290
     0
174
     0
 93
        1
 44
50.0
173
     0
291
     1
 45
0.0
  0
VISUALSTYLE
  5
3A
102
{ACAD_REACTORS
330
2A
102
}
102
{ACAD_XDICTIONARY
360
14B
102
}
330
2A
100
AcDbVisualStyle
  2
ColorChange
 70
    16
 71
     2
 72
     2
 73
     3
 90
        0
 40
0.6
 41
30.0
 62
     5
 63
     8
421
  8421504
 74
     1
 91
        4
 64
     7
 65
   257
 75
     1
175
     1
 42
1.0
 92
        8
 66
     8
424
  8421504
 43
1.0
 76
     1
 77
     6
 78
     2
 67
     7
 79
     5
170
     0
171
     0
290
     0
174
     0
 93
        1
 44
0.0
173
     0
291
     1
 45
0.0
  0
VISUALSTYLE
  5
34
102
{ACAD_REACTORS
330
2A
102
}
102
{ACAD_XDICTIONARY
360
13F
102
}
330
2A
100
AcDbVisualStyle
  2
Conceptual
 70
     9
 71
     3
 72
     2
 73
     0
 90
        0
 40
0.6
 41
30.0
 62
     5
 63
     7
421
 16777215
 74
     2
 91
        2
 64
     7
 65
   257
 75
     1
175
     1
 42
179.0
 92
        8
 66
     7
 43
1.0
 76
     1
 77
     6
 78
     2
 67
     7
 79
     3
170
     0
171
     0
290
     0
174
     0
 93
        1
 44
0.0
173
     0
291
     0
 45
0.0
  0
VISUALSTYLE
  5
35
102
{ACAD_REACTORS
330
2A
102
}
102
{ACAD_XDICTIONARY
360
141
102
}
330
2A
100
AcDbVisualStyle
  2
Dim
 70
    11
 71
     2
 72
     2
 73
     0
 90
        0
 40
0.6
 41
30.0
 62
     5
 63
     7
421
 16777215
 74
     1
 91
        4
 64
     7
 65
   257
 75
     1
175
     1
 42
1.0
 92
        8
 66
     7
 43
1.0
 76
     1
 77
     6
 78
     2
 67
     7
 79
     5
170
     0
171
     0
290
     0
174
     0
 93
        1
 44
-50.0
173
     0
291
     1
 45
0.0
  0
VISUALSTYLE
  5
3D
102
{ACAD_REACTORS
330
2A
102
}
102
{ACAD_XDICTIONARY
360
151
102
}
330
2A
100
AcDbVisualStyle
  2
EdgeColorOff
 70
    22
 71
     2
 72
     2
 73
     0
 90
        0
 40
0.6
 41
30.0
 62
     5
 63
     7
421
 16777215
 74
     1
 91
        4
 64
     7
 65
   257
 75
     1
175
     1
 42
1.0
 92
        8
 66
     7
 43
1.0
 76
     1
 77
     6
 78
     2
 67
     7
 79
     5
170
     0
171
     0
290
     0
174
     0
 93
        1
 44
0.0
173
     0
291
     1
 45
0.0
  0
VISUALSTYLE
  5
39
102
{ACAD_REACTORS
330
2A
102
}
102
{ACAD_XDICTIONARY
360
149
102
}
330
2A
100
AcDbVisualStyle
  2
Facepattern
 70
    15
 71
     2
 72
     2
 73
     0
 90
        0
 40
0.6
 41
30.0
 62
     5
 63
     7
421
 16777215
 74
     1
 91
        4
 64
     7
 65
   257
 75
     1
175
     1
 42
1.0
 92
        8
 66
     7
 43
1.0
 76
     1
 77
     6
 78
     2
 67
     7
 79
     5
170
     0
171
     0
290
     0
174
     0
 93
        1
 44
0.0
173
     0
291
     1
 45
0.0
  0
VISUALSTYLE
  5
2B
102
{ACAD_REACTORS
330
2A
102
}
102
{ACAD_XDICTIONARY
360
12D
102
}
330
2A
100
AcDbVisualStyle
  2
Flat
 70
     0
 71
     2
 72
     1
 73
     1
 90
        2
 40
0.6
 41
30.0
 62
     5
 63
     7
421
 16777215
 74
     0
 91
        0
 64
     7
 65
   257
 75
     1
175
     1
 42
1.0
 92
        8
 66
     7
 43
1.0
 76
     1
 77
     6
 78
     2
 67
     7
 79
     5
170
     0
171
     0
290
     0
174
     0
 93
       13
 44
0.0
173
     0
291
     1
 45
0.0
  0
VISUALSTYLE
  5
2C
102
{ACAD_REACTORS
330
2A
102
}
102
{ACAD_XDICTIONARY
360
12F
102
}
330
2A
100
AcDbVisualStyle
  2
FlatWithEdges
 70
     1
 71
     2
 72
     1
 73
     1
 90
        2
 40
0.6
 41
30.0
 62
     5
 63
     7
421
 16777215
 74
     1
 91
        0
 64
     7
 65
   257
 75
     1
175
     1
 42
1.0
 92
        0
 66
   257
 43
1.0
 76
     1
 77
     6
 78
     2
 67
     7
 79
     5
170
     0
171
     0
290
     0
174
     0
 93
       13
 44
0.0
173
     0
291
     1
 45
0.0
  0
VISUALSTYLE
  5
2D
102
{ACAD_REACTORS
330
2A
102
}
102
{ACAD_XDICTIONARY
360
131
102
}
330
2A
100
AcDbVisualStyle
  2
Gouraud
 70
     2
 71
     2
 72
     2
 73
     1
 90
        2
 40
0.6
 41
30.0
 62
     5
 63
     7
421
 16777215
 74
     0
 91
        0
 64
     7
 65
   257
 75
     1
175
     1
 42
1.0
 92
        0
 66
     7
 43
1.0
 76
     1
 77
     6
 78
     2
 67
     7
 79
     5
170
     0
171
     0
290
     0
174
     0
 93
       13
 44
0.0
173
     0
291
     1
 45
0.0
  0
VISUALSTYLE
  5
2E
102
{ACAD_REACTORS
330
2A
102
}
102
{ACAD_XDICTIONARY
360
133
102
}
330
2A
100
AcDbVisualStyle
  2
GouraudWithEdges
 70
     3
 71
     2
 72
     2
 73
     1
 90
        2
 40
0.6
 41
30.0
 62
     5
 63
     7
421
 16777215
 74
     1
 91
        0
 64
     7
 65
   257
 75
     1
175
     1
 42
1.0
 92
        0
 66
   257
 43
1.0
 76
     1
 77
     6
 78
     2
 67
     7
 79
     5
170
     0
171
     0
290
     0
174
     0
 93
       13
 44
0.0
173
     0
291
     1
 45
0.0
  0
VISUALSTYLE
  5
31
102
{ACAD_REACTORS
330
2A
102
}
102
{ACAD_XDICTIONARY
360
139
102
}
330
2A
100
AcDbVisualStyle
  2
Hidden
 70
     6
 71
     1
 72
     2
 73
     2
 90
        0
 40
0.6
 41
30.0
 62
     5
 63
     7
421
 16777215
 74
     2
 91
        2
 64
     7
 65
   257
 75
     2
175
     1
 42
40.0
 92
        0
 66
   257
 43
1.0
 76
     1
 77
     6
 78
     2
 67
     7
 79
     3
170
     0
171
     0
290
     0
174
     0
 93
        1
 44
0.0
173
     0
291
     0
 45
0.0
  0
VISUALSTYLE
  5
3B
102
{ACAD_REACTORS
330
2A
102
}
102
{ACAD_XDICTIONARY
360
14D
102
}
330
2A
100
AcDbVisualStyle
  2
JitterOff
 70
    20
 71
     2
 72
     2
 73
     0
 90
        0
 40
0.6
 41
30.0
 62
     5
 63
     7
421
 16777215
 74
     1
 91
        4
 64
     7
 65
   257
 75
     1
175
     1
 42
1.0
 92
       10
 66
     7
 43
1.0
 76
     1
 77
     6
 78
     2
 67
     7
 79
     5
170
     0
171
     0
290
     0
174
     0
 93
        1
 44
0.0
173
     0
291
     1
 45
0.0
  0
VISUALSTYLE
  5
38
102
{ACAD_REACTORS
330
2A
102
}
102
{ACAD_XDICTIONARY
360
147
102
}
330
2A
100
AcDbVisualStyle
  2
Linepattern
 70
    14
 71
     2
 72
     2
 73
     0
 90
        0
 40
0.6
 41
30.0
 62
     5
 63
     7
421
 16777215
 74
     1
 91
        4
 64
     7
 65
   257
 75
     7
175
     7
 42
1.0
 92
        8
 66
     7
 43
1.0
 76
     1
 77
     6
 78
     2
 67
     7
 79
     5
170
     0
171
     0
290
     0
174
     0
 93
        1
 44
0.0
173
     0
291
     1
 45
0.0
  0
VISUALSTYLE
  5
3C
102
{ACAD_REACTORS
330
2A
102
}
102
{ACAD_XDICTIONARY
360
14F
102
}
330
2A
100
AcDbVisualStyle
  2
OverhangOff
 70
    21
 71
     2
 72
     2
 73
     0
 90
        0
 40
0.6
 41
30.0
 62
     5
 63
     7
421
 16777215
 74
     1
 91
        4
 64
     7
 65
   257
 75
     1
175
     1
 42
1.0
 92
        9
 66
     7
 43
1.0
 76
     1
 77
     6
 78
     2
 67
     7
 79
     5
170
     0
171
     0
290
     0
174
     0
 93
        1
 44
0.0
173
     0
291
     1
 45
0.0
  0
VISUALSTYLE
  5
33
102
{ACAD_REACTORS
330
2A
102
}
102
{ACAD_XDICTIONARY
360
13D
102
}
330
2A
100
AcDbVisualStyle
  2
Realistic
 70
     8
 71
     2
 72
     3
 73
     0
 90
        2
 40
0.6
 41
30.0
 62
     5
 63
     7
421
 16777215
 74
     0
 91
        0
 64
     7
 65
   257
 75
     1
175
     1
 42
1.0
 92
        8
 66
   257
 43
1.0
 76
     1
 77
     6
 78
     2
 67
     7
 79
     3
170
     0
171
     0
290
     0
174
     0
 93
       13
 44
0.0
173
     0
291
     0
 45
0.0
  0
VISUALSTYLE
  5
42
102
{ACAD_REACTORS
330
2A
102
}
102
{ACAD_XDICTIONARY
360
15B
102
}
330
2A
100
AcDbVisualStyle
  2
Shaded
 70
    27
 71
     2
 72
     2
 73
     1
 90
        2
 40
0.6
 41
30.0
 62
     5
 63
     7
421
 16777215
 74
     0
 91
        4
 64
     7
 65
   257
 75
     1
175
     1
 42
1.0
 92
        8
 66
   257
 43
1.0
 76
     1
 77
     6
 78
     2
 67
     8
425
  7895160
 79
     3
170
     0
171
     0
290
     0
174
     0
 93
        5
 44
0.0
173
     0
291
     0
 45
0.0
  0
VISUALSTYLE
  5
41
102
{ACAD_REACTORS
330
2A
102
}
102
{ACAD_XDICTIONARY
360
159
102
}
330
2A
100
AcDbVisualStyle
  2
Shaded with edges
 70
    26
 71
     2
 72
     2
 73
     1
 90
        2
 40
0.6
 41
30.0
 62
     5
 63
     7
421
 16777215
 74
     1
 91
       10
 64
     7
 65
   257
 75
     2
175
     1
 42
1.0
 92
        8
 66
   257
 43
1.0
 76
     1
 77
     6
 78
     2
 67
     7
 79
     3
170
     0
171
     0
290
     0
174
     0
 93
        5
 44
0.0
173
     0
291
     0
 45
0.0
  0
VISUALSTYLE
  5
3E
102
{ACAD_REACTORS
330
2A
102
}
102
{ACAD_XDICTIONARY
360
153
102
}
330
2A
100
AcDbVisualStyle
  2
Shades of Gray
 70
    23
 71
     2
 72
     2
 73
     3
 90
        0
 40
0.6
 41
30.0
 62
     5
 63
     7
421
 16777215
 74
     2
 91
        2
 64
     7
 65
     7
 75
     1
175
     1
 42
40.0
 92
        8
 66
     7
 43
1.0
 76
     1
 77
     6
 78
     2
 67
     7
 79
     3
170
     0
171
     0
290
     0
174
     0
 93
        1
 44
0.0
173
     0
291
     0
 45
0.0
  0
VISUALSTYLE
  5
3F
102
{ACAD_REACTORS
330
2A
102
}
102
{ACAD_XDICTIONARY
360
155
102
}
330
2A
100
AcDbVisualStyle
  2
Sketchy
 70
    24
 71
     1
 72
     2
 73
     2
 90
        0
 40
0.6
 41
30.0
 62
     5
 63
     7
421
 16777215
 74
     2
 91
        2
 64
     7
 65
     7
 75
     1
175
     1
 42
40.0
 92
       11
 66
     7
 43
1.0
 76
     1
 77
     6
 78
     2
 67
     7
 79
     6
170
     0
171
     0
290
     0
174
     0
 93
        1
 44
0.0
173
     0
291
     0
 45
0.0
  0
VISUALSTYLE
  5
37
102
{ACAD_REACTORS
330
2A
102
}
102
{ACAD_XDICTIONARY
360
145
102
}
330
2A
100
AcDbVisualStyle
  2
Thicken
 70
    13
 71
     2
 72
     2
 73
     0
 90
        0
 40
0.6
 41
30.0
 62
     5
 63
     7
421
 16777215
 74
     1
 91
        4
 64
     7
 65
   257
 75
     1
175
     1
 42
1.0
 92
       12
 66
     7
 43
1.0
 76
     1
 77
     6
 78
     2
 67
     7
 79
     5
170
     0
171
     0
290
     0
174
     0
 93
        1
 44
0.0
173
     0
291
     1
 45
0.0
  0
VISUALSTYLE
  5
30
102
{ACAD_REACTORS
330
2A
102
}
102
{ACAD_XDICTIONARY
360
137
102
}
330
2A
100
AcDbVisualStyle
  2
Wireframe
 70
     5
 71
     0
 72
     2
 73
     0
 90
        0
 40
0.6
 41
30.0
 62
     5
 63
     7
421
 16777215
 74
     1
 91
        4
 64
     7
 65
   257
 75
     1
175
     1
 42
1.0
 92
        0
 66
   257
 43
1.0
 76
     1
 77
     6
 78
     2
 67
     7
 79
     3
170
     0
171
     0
290
     0
174
     0
 93
        1
 44
0.0
173
     0
291
     0
 45
0.0
  0
VISUALSTYLE
  5
40
102
{ACAD_REACTORS
330
2A
102
}
102
{ACAD_XDICTIONARY
360
157
102
}
330
2A
100
AcDbVisualStyle
  2
X-Ray
 70
    25
 71
     2
 72
     2
 73
     1
 90
        1
 40
0.5
 41
30.0
 62
     5
 63
     7
421
 16777215
 74
     1
 91
        0
 64
     7
 65
   257
 75
     1
175
     1
 42
1.0
 92
        8
 66
     7
 43
1.0
 76
     1
 77
     6
 78
     2
 67
     7
 79
     3
170
     0
171
     0
290
     0
174
     0
 93
       13
 44
0.0
173
     0
291
     0
 45
0.0
  0
DICTIONARYVAR
  5
12B
102
{ACAD_REACTORS
330
12A
102
}
330
12A
100
DictionaryVariables
280
     0
  1
1:1
  0
DICTIONARYVAR
  5
164
102
{ACAD_REACTORS
330
12A
102
}
330
12A
100
DictionaryVariables
280
     0
  1
Standard
  0
DICTIONARYVAR
  5
163
102
{ACAD_REACTORS
330
12A
102
}
330
12A
100
DictionaryVariables
280
     0
  1
Standard
  0
DICTIONARYVAR
  5
12C
102
{ACAD_REACTORS
330
12A
102
}
330
12A
100
DictionaryVariables
280
     0
  1
2
  0
DICTIONARY
  5
160
330
5C
100
AcDbDictionary
280
     1
281
     1
  3
ACAD_XREC_ROUNDTRIP
360
161
  0
DICTIONARY
  5
15D
330
5A
100
AcDbDictionary
280
     1
281
     1
  3
ACAD_ROUNDTRIP_2008_TABLESTYLE_CELLSTYLEMAP
360
15E
  0
DICTIONARY
  5
135
330
2F
100
AcDbDictionary
280
     1
281
     1
  3
ACAD_XREC_ROUNDTRIP
360
136
  0
DICTIONARY
  5
13B
330
32
100
AcDbDictionary
280
     1
281
     1
  3
ACAD_XREC_ROUNDTRIP
360
13C
  0
DICTIONARY
  5
143
330
36
100
AcDbDictionary
280
     1
281
     1
  3
ACAD_XREC_ROUNDTRIP
360
144
  0
DICTIONARY
  5
14B
330
3A
100
AcDbDictionary
280
     1
281
     1
  3
ACAD_XREC_ROUNDTRIP
360
14C
  0
DICTIONARY
  5
13F
330
34
100
AcDbDictionary
280
     1
281
     1
  3
ACAD_XREC_ROUNDTRIP
360
140
  0
DICTIONARY
  5
141
330
35
100
AcDbDictionary
280
     1
281
     1
  3
ACAD_XREC_ROUNDTRIP
360
142
  0
DICTIONARY
  5
151
330
3D
100
AcDbDictionary
280
     1
281
     1
  3
ACAD_XREC_ROUNDTRIP
360
152
  0
DICTIONARY
  5
149
330
39
100
AcDbDictionary
280
     1
281
     1
  3
ACAD_XREC_ROUNDTRIP
360
14A
  0
DICTIONARY
  5
12D
330
2B
100
AcDbDictionary
280
     1
281
     1
  3
ACAD_XREC_ROUNDTRIP
360
12E
  0
DICTIONARY
  5
12F
330
2C
100
AcDbDictionary
280
     1
281
     1
  3
ACAD_XREC_ROUNDTRIP
360
130
  0
DICTIONARY
  5
131
330
2D
100
AcDbDictionary
280
     1
281
     1
  3
ACAD_XREC_ROUNDTRIP
360
132
  0
DICTIONARY
  5
133
330
2E
100
AcDbDictionary
280
     1
281
     1
  3
ACAD_XREC_ROUNDTRIP
360
134
  0
DICTIONARY
  5
139
330
31
100
AcDbDictionary
280
     1
281
     1
  3
ACAD_XREC_ROUNDTRIP
360
13A
  0
DICTIONARY
  5
14D
330
3B
100
AcDbDictionary
280
     1
281
     1
  3
ACAD_XREC_ROUNDTRIP
360
14E
  0
DICTIONARY
  5
147
330
38
100
AcDbDictionary
280
     1
281
     1
  3
ACAD_XREC_ROUNDTRIP
360
148
  0
DICTIONARY
  5
14F
330
3C
100
AcDbDictionary
280
     1
281
     1
  3
ACAD_XREC_ROUNDTRIP
360
150
  0
DICTIONARY
  5
13D
330
33
100
AcDbDictionary
280
     1
281
     1
  3
ACAD_XREC_ROUNDTRIP
360
13E
  0
DICTIONARY
  5
15B
330
42
100
AcDbDictionary
280
     1
281
     1
  3
ACAD_XREC_ROUNDTRIP
360
15C
  0
DICTIONARY
  5
159
330
41
100
AcDbDictionary
280
     1
281
     1
  3
ACAD_XREC_ROUNDTRIP
360
15A
  0
DICTIONARY
  5
153
330
3E
100
AcDbDictionary
280
     1
281
     1
  3
ACAD_XREC_ROUNDTRIP
360
154
  0
DICTIONARY
  5
155
330
3F
100
AcDbDictionary
280
     1
281
     1
  3
ACAD_XREC_ROUNDTRIP
360
156
  0
DICTIONARY
  5
145
330
37
100
AcDbDictionary
280
     1
281
     1
  3
ACAD_XREC_ROUNDTRIP
360
146
  0
DICTIONARY
  5
137
330
30
100
AcDbDictionary
280
     1
281
     1
  3
ACAD_XREC_ROUNDTRIP
360
138
  0
DICTIONARY
  5
157
330
40
100
AcDbDictionary
280
     1
281
     1
  3
ACAD_XREC_ROUNDTRIP
360
158
  0
XRECORD
  5
161
102
{ACAD_REACTORS
330
160
102
}
330
160
100
AcDbXrecord
280
     1
102
ACAD_ROUNDTRIP_2010_MLEADER_STYLE
  0
CELLSTYLEMAP
  5
15E
102
{ACAD_REACTORS
330
15D
102
}
330
15D
100
AcDbCellStyleMap
 90
        3
300
CELLSTYLE
  1
TABLEFORMAT_BEGIN
 90
        5
170
     1
 91
        0
 92
    32768
 62
   257
 93
        1
300
CONTENTFORMAT
  1
CONTENTFORMAT_BEGIN
 90
        0
 91
        0
 92
        4
 93
        0
300

 40
0.0
140
1.0
 94
        5
 62
     0
340
11
144
0.25
309
CONTENTFORMAT_END
171
     1
301
MARGIN
  1
CELLMARGIN_BEGIN
 40
0.06
 40
0.06
 40
0.06
 40
0.06
 40
0.06
 40
0.06
309
CELLMARGIN_END
 94
        6
 95
        1
302
GRIDFORMAT
  1
GRIDFORMAT_BEGIN
 90
        0
 91
        1
 62
     0
 92
       -2
340
14
 93
        0
 40
0.045
309
GRIDFORMAT_END
 95
        2
302
GRIDFORMAT
  1
GRIDFORMAT_BEGIN
 90
        0
 91
        1
 62
     0
 92
       -2
340
14
 93
        0
 40
0.045
309
GRIDFORMAT_END
 95
        4
302
GRIDFORMAT
  1
GRIDFORMAT_BEGIN
 90
        0
 91
        1
 62
     0
 92
       -2
340
14
 93
        0
 40
0.045
309
GRIDFORMAT_END
 95
        8
302
GRIDFORMAT
  1
GRIDFORMAT_BEGIN
 90
        0
 91
        1
 62
     0
 92
       -2
340
14
 93
        0
 40
0.045
309
GRIDFORMAT_END
 95
       16
302
GRIDFORMAT
  1
GRIDFORMAT_BEGIN
 90
        0
 91
        1
 62
     0
 92
       -2
340
14
 93
        0
 40
0.045
309
GRIDFORMAT_END
 95
       32
302
GRIDFORMAT
  1
GRIDFORMAT_BEGIN
 90
        0
 91
        1
 62
     0
 92
       -2
340
14
 93
        0
 40
0.045
309
GRIDFORMAT_END
309
TABLEFORMAT_END
  1
CELLSTYLE_BEGIN
 90
        1
 91
        1
300
_TITLE
309
CELLSTYLE_END
300
CELLSTYLE
  1
TABLEFORMAT_BEGIN
 90
        5
170
     1
 91
        0
 92
        0
 62
   257
 93
        1
300
CONTENTFORMAT
  1
CONTENTFORMAT_BEGIN
 90
        0
 91
        0
 92
        4
 93
        0
300

 40
0.0
140
1.0
 94
        5
 62
     0
340
11
144
0.18
309
CONTENTFORMAT_END
171
     1
301
MARGIN
  1
CELLMARGIN_BEGIN
 40
0.06
 40
0.06
 40
0.06
 40
0.06
 40
0.06
 40
0.06
309
CELLMARGIN_END
 94
        6
 95
        1
302
GRIDFORMAT
  1
GRIDFORMAT_BEGIN
 90
        0
 91
        1
 62
     0
 92
       -2
340
14
 93
        0
 40
0.045
309
GRIDFORMAT_END
 95
        2
302
GRIDFORMAT
  1
GRIDFORMAT_BEGIN
 90
        0
 91
        1
 62
     0
 92
       -2
340
14
 93
        0
 40
0.045
309
GRIDFORMAT_END
 95
        4
302
GRIDFORMAT
  1
GRIDFORMAT_BEGIN
 90
        0
 91
        1
 62
     0
 92
       -2
340
14
 93
        0
 40
0.045
309
GRIDFORMAT_END
 95
        8
302
GRIDFORMAT
  1
GRIDFORMAT_BEGIN
 90
        0
 91
        1
 62
     0
 92
       -2
340
14
 93
        0
 40
0.045
309
GRIDFORMAT_END
 95
       16
302
GRIDFORMAT
  1
GRIDFORMAT_BEGIN
 90
        0
 91
        1
 62
     0
 92
       -2
340
14
 93
        0
 40
0.045
309
GRIDFORMAT_END
 95
       32
302
GRIDFORMAT
  1
GRIDFORMAT_BEGIN
 90
        0
 91
        1
 62
     0
 92
       -2
340
14
 93
        0
 40
0.045
309
GRIDFORMAT_END
309
TABLEFORMAT_END
  1
CELLSTYLE_BEGIN
 90
        2
 91
        1
300
_HEADER
309
CELLSTYLE_END
300
CELLSTYLE
  1
TABLEFORMAT_BEGIN
 90
        5
170
     1
 91
        0
 92
        0
 62
   257
 93
        1
300
CONTENTFORMAT
  1
CONTENTFORMAT_BEGIN
 90
        0
 91
        0
 92
        4
 93
        0
300

 40
0.0
140
1.0
 94
        2
 62
     0
340
11
144
0.18
309
CONTENTFORMAT_END
171
     1
301
MARGIN
  1
CELLMARGIN_BEGIN
 40
0.06
 40
0.06
 40
0.06
 40
0.06
 40
0.06
 40
0.06
309
CELLMARGIN_END
 94
        6
 95
        1
302
GRIDFORMAT
  1
GRIDFORMAT_BEGIN
 90
        0
 91
        1
 62
     0
 92
       -2
340
14
 93
        0
 40
0.045
309
GRIDFORMAT_END
 95
        2
302
GRIDFORMAT
  1
GRIDFORMAT_BEGIN
 90
        0
 91
        1
 62
     0
 92
       -2
340
14
 93
        0
 40
0.045
309
GRIDFORMAT_END
 95
        4
302
GRIDFORMAT
  1
GRIDFORMAT_BEGIN
 90
        0
 91
        1
 62
     0
 92
       -2
340
14
 93
        0
 40
0.045
309
GRIDFORMAT_END
 95
        8
302
GRIDFORMAT
  1
GRIDFORMAT_BEGIN
 90
        0
 91
        1
 62
     0
 92
       -2
340
14
 93
        0
 40
0.045
309
GRIDFORMAT_END
 95
       16
302
GRIDFORMAT
  1
GRIDFORMAT_BEGIN
 90
        0
 91
        1
 62
     0
 92
       -2
340
14
 93
        0
 40
0.045
309
GRIDFORMAT_END
 95
       32
302
GRIDFORMAT
  1
GRIDFORMAT_BEGIN
 90
        0
 91
        1
 62
     0
 92
       -2
340
14
 93
        0
 40
0.045
309
GRIDFORMAT_END
309
TABLEFORMAT_END
  1
CELLSTYLE_BEGIN
 90
        3
 91
        2
300
_DATA
309
CELLSTYLE_END
  0
XRECORD
  5
136
102
{ACAD_REACTORS
330
135
102
}
330
135
100
AcDbXrecord
280
     1
102
RTVSPropertyOp0
 70
     1
102
RTVSPropertyOp1
 70
     1
102
RTVSPropertyOp2
 70
     1
102
RTVSPropertyOp3
 70
     1
102
RTVSPropertyOp4
 70
     1
102
RTVSPropertyOp5
 70
     1
102
RTVSPropertyOp6
 70
     1
102
RTVSPropertyOp7
 70
     1
102
RTVSPropertyOp8
 70
     1
102
RTVSPropertyOp9
 70
     1
102
RTVSPropertyOp10
 70
     1
102
RTVSPropertyOp11
 70
     1
102
RTVSPropertyOp12
 70
     1
102
RTVSPropertyOp13
 70
     1
102
RTVSPropertyOp14
 70
     1
102
RTVSPropertyOp15
 70
     1
102
RTVSPropertyOp16
 70
     1
102
RTVSPropertyOp17
 70
     1
102
RTVSPropertyOp18
 70
     1
102
RTVSPropertyOp19
 70
     1
102
RTVSPropertyOp20
 70
     1
102
RTVSPropertyOp21
 70
     1
102
RTVSPropertyOp22
 70
     1
102
RTVSPropertyOp23
 70
     1
102
RTVSPropertyOp24
 70
     1
102
RTVSPropertyOp25
 70
     1
102
RTVSPropertyOp26
 70
     1
102
RTVSPropertyOp27
 70
     1
102
RTVSPropertyOp28
 70
     1
102
RTVSPropertyOp29
 70
     1
102
RTVSPropertyOp30
 70
     1
102
RTVSPropertyOp31
 70
     1
102
RTVSPropertyOp32
 70
     1
102
RTVSPropertyOp33
 70
     1
102
RTVSPropertyOp34
 70
     1
102
RTVSPropertyOp35
 70
     1
102
RTVSPropertyOp36
 70
     1
102
RTVSPropertyOp37
 70
     1
102
RTVSPropertyOp38
 70
     1
102
RTVSPropertyOp39
 70
     1
102
RTVSPropertyOp40
 70
     1
102
RTVSPropertyOp41
 70
     1
102
RTVSPropertyOp42
 70
     1
102
RTVSPropertyOp43
 70
     1
102
RTVSPropertyOp44
 70
     1
102
RTVSPropertyOp45
 70
     1
102
RTVSPropertyOp46
 70
     1
102
RTVSPropertyOp47
 70
     1
102
RTVSPropertyOp48
 70
     1
102
RTVSPropertyOp49
 70
     1
102
RTVSPropertyOp50
 70
     1
102
RTVSPropertyOp51
 70
     0
102
RTVSPropertyOp52
 70
     0
102
RTVSPropertyOp53
 70
     1
102
RTVSPropertyOp54
 70
     1
102
RTVSPropertyOp55
 70
     1
102
RTVSPropertyOp56
 70
     1
102
RTVSPropertyOp57
 70
     1
102
RTVSPost2010Prop28
280
     1
102
RTVSPost2010PropOp28
 70
     1
102
RTVSPost2010Prop29
280
     1
102
RTVSPost2010PropOp29
 70
     1
102
RTVSPost2010Prop30
280
     0
102
RTVSPost2010PropOp30
 70
     1
102
RTVSPost2010Prop31
280
     0
102
RTVSPost2010PropOp31
 70
     1
102
RTVSPost2010Prop32
280
     0
102
RTVSPost2010PropOp32
 70
     1
102
RTVSPost2010Prop33
280
     0
102
RTVSPost2010PropOp33
 70
     1
102
RTVSPost2010Prop34
280
     0
102
RTVSPost2010PropOp34
 70
     1
102
RTVSPost2010Prop35
280
     0
102
RTVSPost2010PropOp35
 70
     1
102
RTVSPost2010Prop36
280
     0
102
RTVSPost2010PropOp36
 70
     1
102
RTVSPost2010Prop37
 90
       50
102
RTVSPost2010PropOp37
 70
     1
102
RTVSPost2010Prop38
140
0.0
102
RTVSPost2010PropOp38
 70
     1
102
RTVSPost2010Prop39
140
1.0
102
RTVSPost2010PropOp39
 70
     1
102
RTVSPost2010Prop40
 90
        0
102
RTVSPost2010PropOp40
 70
     1
102
RTVSPost2010Prop41ColorIndex
 90
       18
102
RTVSPost2010Prop41ColorRGB
 90
        0
102
RTVSPost2010PropOp41
 70
     1
102
RTVSPost2010Prop42
 90
       50
102
RTVSPost2010PropOp42
 70
     1
102
RTVSPost2010Prop43
 90
        3
102
RTVSPost2010PropOp43
 70
     1
102
RTVSPost2010Prop44ColorIndex
 90
        5
102
RTVSPost2010Prop44ColorRGB
 90
      255
102
RTVSPost2010PropOp44
 70
     1
102
RTVSPost2010Prop45
280
     0
102
RTVSPost2010PropOp45
 70
     1
102
RTVSPost2010Prop46
 90
       50
102
RTVSPost2010PropOp46
 70
     1
102
RTVSPost2010Prop47
 90
       50
102
RTVSPost2010PropOp47
 70
     1
102
RTVSPost2010Prop48
 90
       50
102
RTVSPost2010PropOp48
 70
     1
102
RTVSPost2010Prop49
280
     0
102
RTVSPost2010PropOp49
 70
     1
102
RTVSPost2010Prop50
 90
       50
102
RTVSPost2010PropOp50
 70
     1
102
RTVSPost2010Prop51ColorIndex
 90
      256
102
RTVSPost2010Prop51ColorRGB
 90
-16777216
102
RTVSPost2010PropOp51
 70
     0
102
RTVSPost2010Prop52
140
1.0
102
RTVSPost2010PropOp52
 70
     0
102
RTVSPost2010Prop53
 90
        2
102
RTVSPost2010PropOp53
 70
     1
102
RTVSPost2010Prop54
  1
strokes_ogs.tif
102
RTVSPost2010PropOp54
 70
     1
102
RTVSPost2010Prop55
280
     0
102
RTVSPost2010PropOp55
 70
     1
102
RTVSPost2010Prop56
140
1.0
102
RTVSPost2010PropOp56
 70
     1
102
RTVSPost2010Prop57
140
1.0
102
RTVSPost2010PropOp57
 70
     1
  0
XRECORD
  5
13C
102
{ACAD_REACTORS
330
13B
102
}
330
13B
100
AcDbXrecord
280
     1
102
RTVSPropertyOp0
 70
     1
102
RTVSPropertyOp1
 70
     1
102
RTVSPropertyOp2
 70
     1
102
RTVSPropertyOp3
 70
     1
102
RTVSPropertyOp4
 70
     1
102
RTVSPropertyOp5
 70
     1
102
RTVSPropertyOp6
 70
     1
102
RTVSPropertyOp7
 70
     1
102
RTVSPropertyOp8
 70
     1
102
RTVSPropertyOp9
 70
     1
102
RTVSPropertyOp10
 70
     1
102
RTVSPropertyOp11
 70
     1
102
RTVSPropertyOp12
 70
     1
102
RTVSPropertyOp13
 70
     1
102
RTVSPropertyOp14
 70
     1
102
RTVSPropertyOp15
 70
     1
102
RTVSPropertyOp16
 70
     1
102
RTVSPropertyOp17
 70
     1
102
RTVSPropertyOp18
 70
     1
102
RTVSPropertyOp19
 70
     1
102
RTVSPropertyOp20
 70
     1
102
RTVSPropertyOp21
 70
     1
102
RTVSPropertyOp22
 70
     1
102
RTVSPropertyOp23
 70
     1
102
RTVSPropertyOp24
 70
     1
102
RTVSPropertyOp25
 70
     1
102
RTVSPropertyOp26
 70
     1
102
RTVSPropertyOp27
 70
     1
102
RTVSPropertyOp28
 70
     1
102
RTVSPropertyOp29
 70
     1
102
RTVSPropertyOp30
 70
     1
102
RTVSPropertyOp31
 70
     1
102
RTVSPropertyOp32
 70
     1
102
RTVSPropertyOp33
 70
     1
102
RTVSPropertyOp34
 70
     1
102
RTVSPropertyOp35
 70
     1
102
RTVSPropertyOp36
 70
     1
102
RTVSPropertyOp37
 70
     1
102
RTVSPropertyOp38
 70
     1
102
RTVSPropertyOp39
 70
     1
102
RTVSPropertyOp40
 70
     1
102
RTVSPropertyOp41
 70
     1
102
RTVSPropertyOp42
 70
     1
102
RTVSPropertyOp43
 70
     1
102
RTVSPropertyOp44
 70
     1
102
RTVSPropertyOp45
 70
     1
102
RTVSPropertyOp46
 70
     1
102
RTVSPropertyOp47
 70
     1
102
RTVSPropertyOp48
 70
     1
102
RTVSPropertyOp49
 70
     1
102
RTVSPropertyOp50
 70
     1
102
RTVSPropertyOp51
 70
     0
102
RTVSPropertyOp52
 70
     0
102
RTVSPropertyOp53
 70
     1
102
RTVSPropertyOp54
 70
     1
102
RTVSPropertyOp55
 70
     1
102
RTVSPropertyOp56
 70
     1
102
RTVSPropertyOp57
 70
     1
102
RTVSPost2010Prop28
280
     0
102
RTVSPost2010PropOp28
 70
     1
102
RTVSPost2010Prop29
280
     1
102
RTVSPost2010PropOp29
 70
     1
102
RTVSPost2010Prop30
280
     1
102
RTVSPost2010PropOp30
 70
     1
102
RTVSPost2010Prop31
280
     0
102
RTVSPost2010PropOp31
 70
     1
102
RTVSPost2010Prop32
280
     0
102
RTVSPost2010PropOp32
 70
     1
102
RTVSPost2010Prop33
280
     0
102
RTVSPost2010PropOp33
 70
     1
102
RTVSPost2010Prop34
280
     0
102
RTVSPost2010PropOp34
 70
     1
102
RTVSPost2010Prop35
280
     0
102
RTVSPost2010PropOp35
 70
     1
102
RTVSPost2010Prop36
280
     0
102
RTVSPost2010PropOp36
 70
     1
102
RTVSPost2010Prop37
 90
       50
102
RTVSPost2010PropOp37
 70
     1
102
RTVSPost2010Prop38
140
0.0
102
RTVSPost2010PropOp38
 70
     1
102
RTVSPost2010Prop39
140
1.0
102
RTVSPost2010PropOp39
 70
     1
102
RTVSPost2010Prop40
 90
        0
102
RTVSPost2010PropOp40
 70
     1
102
RTVSPost2010Prop41ColorIndex
 90
       18
102
RTVSPost2010Prop41ColorRGB
 90
        0
102
RTVSPost2010PropOp41
 70
     1
102
RTVSPost2010Prop42
 90
       50
102
RTVSPost2010PropOp42
 70
     1
102
RTVSPost2010Prop43
 90
        3
102
RTVSPost2010PropOp43
 70
     1
102
RTVSPost2010Prop44ColorIndex
 90
        5
102
RTVSPost2010Prop44ColorRGB
 90
      255
102
RTVSPost2010PropOp44
 70
     1
102
RTVSPost2010Prop45
280
     0
102
RTVSPost2010PropOp45
 70
     1
102
RTVSPost2010Prop46
 90
       50
102
RTVSPost2010PropOp46
 70
     1
102
RTVSPost2010Prop47
 90
       50
102
RTVSPost2010PropOp47
 70
     1
102
RTVSPost2010Prop48
 90
       50
102
RTVSPost2010PropOp48
 70
     1
102
RTVSPost2010Prop49
280
     0
102
RTVSPost2010PropOp49
 70
     1
102
RTVSPost2010Prop50
 90
       50
102
RTVSPost2010PropOp50
 70
     1
102
RTVSPost2010Prop51ColorIndex
 90
      256
102
RTVSPost2010Prop51ColorRGB
 90
-16777216
102
RTVSPost2010PropOp51
 70
     0
102
RTVSPost2010Prop52
140
1.0
102
RTVSPost2010PropOp52
 70
     0
102
RTVSPost2010Prop53
 90
        2
102
RTVSPost2010PropOp53
 70
     1
102
RTVSPost2010Prop54
  1
strokes_ogs.tif
102
RTVSPost2010PropOp54
 70
     1
102
RTVSPost2010Prop55
280
     0
102
RTVSPost2010PropOp55
 70
     1
102
RTVSPost2010Prop56
140
1.0
102
RTVSPost2010PropOp56
 70
     1
102
RTVSPost2010Prop57
140
1.0
102
RTVSPost2010PropOp57
 70
     1
  0
XRECORD
  5
144
102
{ACAD_REACTORS
330
143
102
}
330
143
100
AcDbXrecord
280
     1
102
RTVSPropertyOp0
 70
     1
102
RTVSPropertyOp1
 70
     1
102
RTVSPropertyOp2
 70
     1
102
RTVSPropertyOp3
 70
     1
102
RTVSPropertyOp4
 70
     1
102
RTVSPropertyOp5
 70
     1
102
RTVSPropertyOp6
 70
     1
102
RTVSPropertyOp7
 70
     1
102
RTVSPropertyOp8
 70
     1
102
RTVSPropertyOp9
 70
     1
102
RTVSPropertyOp10
 70
     1
102
RTVSPropertyOp11
 70
     1
102
RTVSPropertyOp12
 70
     1
102
RTVSPropertyOp13
 70
     1
102
RTVSPropertyOp14
 70
     1
102
RTVSPropertyOp15
 70
     1
102
RTVSPropertyOp16
 70
     1
102
RTVSPropertyOp17
 70
     1
102
RTVSPropertyOp18
 70
     1
102
RTVSPropertyOp19
 70
     1
102
RTVSPropertyOp20
 70
     1
102
RTVSPropertyOp21
 70
     1
102
RTVSPropertyOp22
 70
     1
102
RTVSPropertyOp23
 70
     1
102
RTVSPropertyOp24
 70
     1
102
RTVSPropertyOp25
 70
     1
102
RTVSPropertyOp26
 70
     1
102
RTVSPropertyOp27
 70
     1
102
RTVSPropertyOp28
 70
     1
102
RTVSPropertyOp29
 70
     1
102
RTVSPropertyOp30
 70
     1
102
RTVSPropertyOp31
 70
     1
102
RTVSPropertyOp32
 70
     1
102
RTVSPropertyOp33
 70
     1
102
RTVSPropertyOp34
 70
     1
102
RTVSPropertyOp35
 70
     1
102
RTVSPropertyOp36
 70
     1
102
RTVSPropertyOp37
 70
     1
102
RTVSPropertyOp38
 70
     1
102
RTVSPropertyOp39
 70
     1
102
RTVSPropertyOp40
 70
     1
102
RTVSPropertyOp41
 70
     1
102
RTVSPropertyOp42
 70
     1
102
RTVSPropertyOp43
 70
     1
102
RTVSPropertyOp44
 70
     1
102
RTVSPropertyOp45
 70
     1
102
RTVSPropertyOp46
 70
     1
102
RTVSPropertyOp47
 70
     1
102
RTVSPropertyOp48
 70
     1
102
RTVSPropertyOp49
 70
     1
102
RTVSPropertyOp50
 70
     1
102
RTVSPropertyOp51
 70
     0
102
RTVSPropertyOp52
 70
     0
102
RTVSPropertyOp53
 70
     1
102
RTVSPropertyOp54
 70
     1
102
RTVSPropertyOp55
 70
     1
102
RTVSPropertyOp56
 70
     1
102
RTVSPropertyOp57
 70
     1
102
RTVSPost2010Prop28
280
     0
102
RTVSPost2010PropOp28
 70
     1
102
RTVSPost2010Prop29
280
     1
102
RTVSPost2010PropOp29
 70
     1
102
RTVSPost2010Prop30
280
     1
102
RTVSPost2010PropOp30
 70
     1
102
RTVSPost2010Prop31
280
     0
102
RTVSPost2010PropOp31
 70
     1
102
RTVSPost2010Prop32
280
     0
102
RTVSPost2010PropOp32
 70
     1
102
RTVSPost2010Prop33
280
     0
102
RTVSPost2010PropOp33
 70
     1
102
RTVSPost2010Prop34
280
     0
102
RTVSPost2010PropOp34
 70
     1
102
RTVSPost2010Prop35
280
     0
102
RTVSPost2010PropOp35
 70
     1
102
RTVSPost2010Prop36
280
     0
102
RTVSPost2010PropOp36
 70
     1
102
RTVSPost2010Prop37
 90
       50
102
RTVSPost2010PropOp37
 70
     1
102
RTVSPost2010Prop38
140
0.0
102
RTVSPost2010PropOp38
 70
     1
102
RTVSPost2010Prop39
140
1.0
102
RTVSPost2010PropOp39
 70
     1
102
RTVSPost2010Prop40
 90
        0
102
RTVSPost2010PropOp40
 70
     1
102
RTVSPost2010Prop41ColorIndex
 90
       18
102
RTVSPost2010Prop41ColorRGB
 90
        0
102
RTVSPost2010PropOp41
 70
     1
102
RTVSPost2010Prop42
 90
       50
102
RTVSPost2010PropOp42
 70
     1
102
RTVSPost2010Prop43
 90
        3
102
RTVSPost2010PropOp43
 70
     1
102
RTVSPost2010Prop44ColorIndex
 90
        5
102
RTVSPost2010Prop44ColorRGB
 90
      255
102
RTVSPost2010PropOp44
 70
     1
102
RTVSPost2010Prop45
280
     0
102
RTVSPost2010PropOp45
 70
     1
102
RTVSPost2010Prop46
 90
       50
102
RTVSPost2010PropOp46
 70
     1
102
RTVSPost2010Prop47
 90
       50
102
RTVSPost2010PropOp47
 70
     1
102
RTVSPost2010Prop48
 90
       50
102
RTVSPost2010PropOp48
 70
     1
102
RTVSPost2010Prop49
280
     0
102
RTVSPost2010PropOp49
 70
     1
102
RTVSPost2010Prop50
 90
       50
102
RTVSPost2010PropOp50
 70
     1
102
RTVSPost2010Prop51ColorIndex
 90
      256
102
RTVSPost2010Prop51ColorRGB
 90
-16777216
102
RTVSPost2010PropOp51
 70
     0
102
RTVSPost2010Prop52
140
1.0
102
RTVSPost2010PropOp52
 70
     0
102
RTVSPost2010Prop53
 90
        2
102
RTVSPost2010PropOp53
 70
     1
102
RTVSPost2010Prop54
  1
strokes_ogs.tif
102
RTVSPost2010PropOp54
 70
     1
102
RTVSPost2010Prop55
280
     0
102
RTVSPost2010PropOp55
 70
     1
102
RTVSPost2010Prop56
140
1.0
102
RTVSPost2010PropOp56
 70
     1
102
RTVSPost2010Prop57
140
1.0
102
RTVSPost2010PropOp57
 70
     1
  0
XRECORD
  5
14C
102
{ACAD_REACTORS
330
14B
102
}
330
14B
100
AcDbXrecord
280
     1
102
RTVSPropertyOp0
 70
     1
102
RTVSPropertyOp1
 70
     1
102
RTVSPropertyOp2
 70
     1
102
RTVSPropertyOp3
 70
     1
102
RTVSPropertyOp4
 70
     1
102
RTVSPropertyOp5
 70
     1
102
RTVSPropertyOp6
 70
     1
102
RTVSPropertyOp7
 70
     1
102
RTVSPropertyOp8
 70
     1
102
RTVSPropertyOp9
 70
     1
102
RTVSPropertyOp10
 70
     1
102
RTVSPropertyOp11
 70
     1
102
RTVSPropertyOp12
 70
     1
102
RTVSPropertyOp13
 70
     1
102
RTVSPropertyOp14
 70
     1
102
RTVSPropertyOp15
 70
     1
102
RTVSPropertyOp16
 70
     1
102
RTVSPropertyOp17
 70
     1
102
RTVSPropertyOp18
 70
     1
102
RTVSPropertyOp19
 70
     1
102
RTVSPropertyOp20
 70
     1
102
RTVSPropertyOp21
 70
     1
102
RTVSPropertyOp22
 70
     1
102
RTVSPropertyOp23
 70
     1
102
RTVSPropertyOp24
 70
     1
102
RTVSPropertyOp25
 70
     1
102
RTVSPropertyOp26
 70
     1
102
RTVSPropertyOp27
 70
     1
102
RTVSPropertyOp28
 70
     1
102
RTVSPropertyOp29
 70
     1
102
RTVSPropertyOp30
 70
     1
102
RTVSPropertyOp31
 70
     1
102
RTVSPropertyOp32
 70
     1
102
RTVSPropertyOp33
 70
     1
102
RTVSPropertyOp34
 70
     1
102
RTVSPropertyOp35
 70
     1
102
RTVSPropertyOp36
 70
     1
102
RTVSPropertyOp37
 70
     1
102
RTVSPropertyOp38
 70
     1
102
RTVSPropertyOp39
 70
     1
102
RTVSPropertyOp40
 70
     1
102
RTVSPropertyOp41
 70
     1
102
RTVSPropertyOp42
 70
     1
102
RTVSPropertyOp43
 70
     1
102
RTVSPropertyOp44
 70
     1
102
RTVSPropertyOp45
 70
     1
102
RTVSPropertyOp46
 70
     1
102
RTVSPropertyOp47
 70
     1
102
RTVSPropertyOp48
 70
     1
102
RTVSPropertyOp49
 70
     1
102
RTVSPropertyOp50
 70
     1
102
RTVSPropertyOp51
 70
     0
102
RTVSPropertyOp52
 70
     0
102
RTVSPropertyOp53
 70
     1
102
RTVSPropertyOp54
 70
     1
102
RTVSPropertyOp55
 70
     1
102
RTVSPropertyOp56
 70
     1
102
RTVSPropertyOp57
 70
     1
102
RTVSPost2010Prop28
280
     0
102
RTVSPost2010PropOp28
 70
     1
102
RTVSPost2010Prop29
280
     1
102
RTVSPost2010PropOp29
 70
     1
102
RTVSPost2010Prop30
280
     1
102
RTVSPost2010PropOp30
 70
     1
102
RTVSPost2010Prop31
280
     0
102
RTVSPost2010PropOp31
 70
     1
102
RTVSPost2010Prop32
280
     0
102
RTVSPost2010PropOp32
 70
     1
102
RTVSPost2010Prop33
280
     0
102
RTVSPost2010PropOp33
 70
     1
102
RTVSPost2010Prop34
280
     0
102
RTVSPost2010PropOp34
 70
     1
102
RTVSPost2010Prop35
280
     0
102
RTVSPost2010PropOp35
 70
     1
102
RTVSPost2010Prop36
280
     0
102
RTVSPost2010PropOp36
 70
     1
102
RTVSPost2010Prop37
 90
       50
102
RTVSPost2010PropOp37
 70
     1
102
RTVSPost2010Prop38
140
0.0
102
RTVSPost2010PropOp38
 70
     1
102
RTVSPost2010Prop39
140
1.0
102
RTVSPost2010PropOp39
 70
     1
102
RTVSPost2010Prop40
 90
        0
102
RTVSPost2010PropOp40
 70
     1
102
RTVSPost2010Prop41ColorIndex
 90
       18
102
RTVSPost2010Prop41ColorRGB
 90
        0
102
RTVSPost2010PropOp41
 70
     1
102
RTVSPost2010Prop42
 90
       50
102
RTVSPost2010PropOp42
 70
     1
102
RTVSPost2010Prop43
 90
        3
102
RTVSPost2010PropOp43
 70
     1
102
RTVSPost2010Prop44ColorIndex
 90
        5
102
RTVSPost2010Prop44ColorRGB
 90
      255
102
RTVSPost2010PropOp44
 70
     1
102
RTVSPost2010Prop45
280
     0
102
RTVSPost2010PropOp45
 70
     1
102
RTVSPost2010Prop46
 90
       50
102
RTVSPost2010PropOp46
 70
     1
102
RTVSPost2010Prop47
 90
       50
102
RTVSPost2010PropOp47
 70
     1
102
RTVSPost2010Prop48
 90
       50
102
RTVSPost2010PropOp48
 70
     1
102
RTVSPost2010Prop49
280
     0
102
RTVSPost2010PropOp49
 70
     1
102
RTVSPost2010Prop50
 90
       50
102
RTVSPost2010PropOp50
 70
     1
102
RTVSPost2010Prop51ColorIndex
 90
      256
102
RTVSPost2010Prop51ColorRGB
 90
-16777216
102
RTVSPost2010PropOp51
 70
     0
102
RTVSPost2010Prop52
140
1.0
102
RTVSPost2010PropOp52
 70
     0
102
RTVSPost2010Prop53
 90
        2
102
RTVSPost2010PropOp53
 70
     1
102
RTVSPost2010Prop54
  1
strokes_ogs.tif
102
RTVSPost2010PropOp54
 70
     1
102
RTVSPost2010Prop55
280
     0
102
RTVSPost2010PropOp55
 70
     1
102
RTVSPost2010Prop56
140
1.0
102
RTVSPost2010PropOp56
 70
     1
102
RTVSPost2010Prop57
140
1.0
102
RTVSPost2010PropOp57
 70
     1
  0
XRECORD
  5
140
102
{ACAD_REACTORS
330
13F
102
}
330
13F
100
AcDbXrecord
280
     1
102
RTVSPropertyOp0
 70
     1
102
RTVSPropertyOp1
 70
     1
102
RTVSPropertyOp2
 70
     1
102
RTVSPropertyOp3
 70
     1
102
RTVSPropertyOp4
 70
     1
102
RTVSPropertyOp5
 70
     1
102
RTVSPropertyOp6
 70
     1
102
RTVSPropertyOp7
 70
     1
102
RTVSPropertyOp8
 70
     1
102
RTVSPropertyOp9
 70
     1
102
RTVSPropertyOp10
 70
     1
102
RTVSPropertyOp11
 70
     1
102
RTVSPropertyOp12
 70
     1
102
RTVSPropertyOp13
 70
     1
102
RTVSPropertyOp14
 70
     1
102
RTVSPropertyOp15
 70
     1
102
RTVSPropertyOp16
 70
     1
102
RTVSPropertyOp17
 70
     1
102
RTVSPropertyOp18
 70
     1
102
RTVSPropertyOp19
 70
     1
102
RTVSPropertyOp20
 70
     1
102
RTVSPropertyOp21
 70
     1
102
RTVSPropertyOp22
 70
     1
102
RTVSPropertyOp23
 70
     1
102
RTVSPropertyOp24
 70
     1
102
RTVSPropertyOp25
 70
     1
102
RTVSPropertyOp26
 70
     1
102
RTVSPropertyOp27
 70
     1
102
RTVSPropertyOp28
 70
     1
102
RTVSPropertyOp29
 70
     1
102
RTVSPropertyOp30
 70
     1
102
RTVSPropertyOp31
 70
     1
102
RTVSPropertyOp32
 70
     1
102
RTVSPropertyOp33
 70
     1
102
RTVSPropertyOp34
 70
     1
102
RTVSPropertyOp35
 70
     1
102
RTVSPropertyOp36
 70
     1
102
RTVSPropertyOp37
 70
     1
102
RTVSPropertyOp38
 70
     1
102
RTVSPropertyOp39
 70
     1
102
RTVSPropertyOp40
 70
     1
102
RTVSPropertyOp41
 70
     1
102
RTVSPropertyOp42
 70
     1
102
RTVSPropertyOp43
 70
     1
102
RTVSPropertyOp44
 70
     1
102
RTVSPropertyOp45
 70
     1
102
RTVSPropertyOp46
 70
     1
102
RTVSPropertyOp47
 70
     1
102
RTVSPropertyOp48
 70
     1
102
RTVSPropertyOp49
 70
     1
102
RTVSPropertyOp50
 70
     1
102
RTVSPropertyOp51
 70
     0
102
RTVSPropertyOp52
 70
     0
102
RTVSPropertyOp53
 70
     1
102
RTVSPropertyOp54
 70
     1
102
RTVSPropertyOp55
 70
     1
102
RTVSPropertyOp56
 70
     1
102
RTVSPropertyOp57
 70
     1
102
RTVSPost2010Prop28
280
     0
102
RTVSPost2010PropOp28
 70
     1
102
RTVSPost2010Prop29
280
     1
102
RTVSPost2010PropOp29
 70
     1
102
RTVSPost2010Prop30
280
     1
102
RTVSPost2010PropOp30
 70
     1
102
RTVSPost2010Prop31
280
     0
102
RTVSPost2010PropOp31
 70
     1
102
RTVSPost2010Prop32
280
     0
102
RTVSPost2010PropOp32
 70
     1
102
RTVSPost2010Prop33
280
     0
102
RTVSPost2010PropOp33
 70
     1
102
RTVSPost2010Prop34
280
     0
102
RTVSPost2010PropOp34
 70
     1
102
RTVSPost2010Prop35
280
     0
102
RTVSPost2010PropOp35
 70
     1
102
RTVSPost2010Prop36
280
     0
102
RTVSPost2010PropOp36
 70
     1
102
RTVSPost2010Prop37
 90
       50
102
RTVSPost2010PropOp37
 70
     1
102
RTVSPost2010Prop38
140
0.0
102
RTVSPost2010PropOp38
 70
     1
102
RTVSPost2010Prop39
140
1.0
102
RTVSPost2010PropOp39
 70
     1
102
RTVSPost2010Prop40
 90
        0
102
RTVSPost2010PropOp40
 70
     1
102
RTVSPost2010Prop41ColorIndex
 90
       18
102
RTVSPost2010Prop41ColorRGB
 90
        0
102
RTVSPost2010PropOp41
 70
     1
102
RTVSPost2010Prop42
 90
       50
102
RTVSPost2010PropOp42
 70
     1
102
RTVSPost2010Prop43
 90
        3
102
RTVSPost2010PropOp43
 70
     1
102
RTVSPost2010Prop44ColorIndex
 90
        5
102
RTVSPost2010Prop44ColorRGB
 90
      255
102
RTVSPost2010PropOp44
 70
     1
102
RTVSPost2010Prop45
280
     0
102
RTVSPost2010PropOp45
 70
     1
102
RTVSPost2010Prop46
 90
       50
102
RTVSPost2010PropOp46
 70
     1
102
RTVSPost2010Prop47
 90
       50
102
RTVSPost2010PropOp47
 70
     1
102
RTVSPost2010Prop48
 90
       50
102
RTVSPost2010PropOp48
 70
     1
102
RTVSPost2010Prop49
280
     0
102
RTVSPost2010PropOp49
 70
     1
102
RTVSPost2010Prop50
 90
       50
102
RTVSPost2010PropOp50
 70
     1
102
RTVSPost2010Prop51ColorIndex
 90
      256
102
RTVSPost2010Prop51ColorRGB
 90
-16777216
102
RTVSPost2010PropOp51
 70
     0
102
RTVSPost2010Prop52
140
1.0
102
RTVSPost2010PropOp52
 70
     0
102
RTVSPost2010Prop53
 90
        2
102
RTVSPost2010PropOp53
 70
     1
102
RTVSPost2010Prop54
  1
strokes_ogs.tif
102
RTVSPost2010PropOp54
 70
     1
102
RTVSPost2010Prop55
280
     0
102
RTVSPost2010PropOp55
 70
     1
102
RTVSPost2010Prop56
140
1.0
102
RTVSPost2010PropOp56
 70
     1
102
RTVSPost2010Prop57
140
1.0
102
RTVSPost2010PropOp57
 70
     1
  0
XRECORD
  5
142
102
{ACAD_REACTORS
330
141
102
}
330
141
100
AcDbXrecord
280
     1
102
RTVSPropertyOp0
 70
     1
102
RTVSPropertyOp1
 70
     1
102
RTVSPropertyOp2
 70
     1
102
RTVSPropertyOp3
 70
     1
102
RTVSPropertyOp4
 70
     1
102
RTVSPropertyOp5
 70
     1
102
RTVSPropertyOp6
 70
     1
102
RTVSPropertyOp7
 70
     1
102
RTVSPropertyOp8
 70
     1
102
RTVSPropertyOp9
 70
     1
102
RTVSPropertyOp10
 70
     1
102
RTVSPropertyOp11
 70
     1
102
RTVSPropertyOp12
 70
     1
102
RTVSPropertyOp13
 70
     1
102
RTVSPropertyOp14
 70
     1
102
RTVSPropertyOp15
 70
     1
102
RTVSPropertyOp16
 70
     1
102
RTVSPropertyOp17
 70
     1
102
RTVSPropertyOp18
 70
     1
102
RTVSPropertyOp19
 70
     1
102
RTVSPropertyOp20
 70
     1
102
RTVSPropertyOp21
 70
     1
102
RTVSPropertyOp22
 70
     1
102
RTVSPropertyOp23
 70
     1
102
RTVSPropertyOp24
 70
     1
102
RTVSPropertyOp25
 70
     1
102
RTVSPropertyOp26
 70
     1
102
RTVSPropertyOp27
 70
     1
102
RTVSPropertyOp28
 70
     1
102
RTVSPropertyOp29
 70
     1
102
RTVSPropertyOp30
 70
     1
102
RTVSPropertyOp31
 70
     1
102
RTVSPropertyOp32
 70
     1
102
RTVSPropertyOp33
 70
     1
102
RTVSPropertyOp34
 70
     1
102
RTVSPropertyOp35
 70
     1
102
RTVSPropertyOp36
 70
     1
102
RTVSPropertyOp37
 70
     1
102
RTVSPropertyOp38
 70
     1
102
RTVSPropertyOp39
 70
     1
102
RTVSPropertyOp40
 70
     1
102
RTVSPropertyOp41
 70
     1
102
RTVSPropertyOp42
 70
     1
102
RTVSPropertyOp43
 70
     1
102
RTVSPropertyOp44
 70
     1
102
RTVSPropertyOp45
 70
     1
102
RTVSPropertyOp46
 70
     1
102
RTVSPropertyOp47
 70
     1
102
RTVSPropertyOp48
 70
     1
102
RTVSPropertyOp49
 70
     1
102
RTVSPropertyOp50
 70
     1
102
RTVSPropertyOp51
 70
     0
102
RTVSPropertyOp52
 70
     0
102
RTVSPropertyOp53
 70
     1
102
RTVSPropertyOp54
 70
     1
102
RTVSPropertyOp55
 70
     1
102
RTVSPropertyOp56
 70
     1
102
RTVSPropertyOp57
 70
     1
102
RTVSPost2010Prop28
280
     0
102
RTVSPost2010PropOp28
 70
     1
102
RTVSPost2010Prop29
280
     1
102
RTVSPost2010PropOp29
 70
     1
102
RTVSPost2010Prop30
280
     1
102
RTVSPost2010PropOp30
 70
     1
102
RTVSPost2010Prop31
280
     0
102
RTVSPost2010PropOp31
 70
     1
102
RTVSPost2010Prop32
280
     0
102
RTVSPost2010PropOp32
 70
     1
102
RTVSPost2010Prop33
280
     0
102
RTVSPost2010PropOp33
 70
     1
102
RTVSPost2010Prop34
280
     0
102
RTVSPost2010PropOp34
 70
     1
102
RTVSPost2010Prop35
280
     0
102
RTVSPost2010PropOp35
 70
     1
102
RTVSPost2010Prop36
280
     0
102
RTVSPost2010PropOp36
 70
     1
102
RTVSPost2010Prop37
 90
       50
102
RTVSPost2010PropOp37
 70
     1
102
RTVSPost2010Prop38
140
0.0
102
RTVSPost2010PropOp38
 70
     1
102
RTVSPost2010Prop39
140
1.0
102
RTVSPost2010PropOp39
 70
     1
102
RTVSPost2010Prop40
 90
        0
102
RTVSPost2010PropOp40
 70
     1
102
RTVSPost2010Prop41ColorIndex
 90
       18
102
RTVSPost2010Prop41ColorRGB
 90
        0
102
RTVSPost2010PropOp41
 70
     1
102
RTVSPost2010Prop42
 90
       50
102
RTVSPost2010PropOp42
 70
     1
102
RTVSPost2010Prop43
 90
        3
102
RTVSPost2010PropOp43
 70
     1
102
RTVSPost2010Prop44ColorIndex
 90
        5
102
RTVSPost2010Prop44ColorRGB
 90
      255
102
RTVSPost2010PropOp44
 70
     1
102
RTVSPost2010Prop45
280
     0
102
RTVSPost2010PropOp45
 70
     1
102
RTVSPost2010Prop46
 90
       50
102
RTVSPost2010PropOp46
 70
     1
102
RTVSPost2010Prop47
 90
       50
102
RTVSPost2010PropOp47
 70
     1
102
RTVSPost2010Prop48
 90
       50
102
RTVSPost2010PropOp48
 70
     1
102
RTVSPost2010Prop49
280
     0
102
RTVSPost2010PropOp49
 70
     1
102
RTVSPost2010Prop50
 90
       50
102
RTVSPost2010PropOp50
 70
     1
102
RTVSPost2010Prop51ColorIndex
 90
      256
102
RTVSPost2010Prop51ColorRGB
 90
-16777216
102
RTVSPost2010PropOp51
 70
     0
102
RTVSPost2010Prop52
140
1.0
102
RTVSPost2010PropOp52
 70
     0
102
RTVSPost2010Prop53
 90
        2
102
RTVSPost2010PropOp53
 70
     1
102
RTVSPost2010Prop54
  1
strokes_ogs.tif
102
RTVSPost2010PropOp54
 70
     1
102
RTVSPost2010Prop55
280
     0
102
RTVSPost2010PropOp55
 70
     1
102
RTVSPost2010Prop56
140
1.0
102
RTVSPost2010PropOp56
 70
     1
102
RTVSPost2010Prop57
140
1.0
102
RTVSPost2010PropOp57
 70
     1
  0
XRECORD
  5
152
102
{ACAD_REACTORS
330
151
102
}
330
151
100
AcDbXrecord
280
     1
102
RTVSPropertyOp0
 70
     0
102
RTVSPropertyOp1
 70
     0
102
RTVSPropertyOp2
 70
     0
102
RTVSPropertyOp3
 70
     0
102
RTVSPropertyOp4
 70
     0
102
RTVSPropertyOp5
 70
     0
102
RTVSPropertyOp6
 70
     0
102
RTVSPropertyOp7
 70
     0
102
RTVSPropertyOp8
 70
     0
102
RTVSPropertyOp9
 70
     0
102
RTVSPropertyOp10
 70
     0
102
RTVSPropertyOp11
 70
     0
102
RTVSPropertyOp12
 70
     0
102
RTVSPropertyOp13
 70
     0
102
RTVSPropertyOp14
 70
     2
102
RTVSPropertyOp15
 70
     0
102
RTVSPropertyOp16
 70
     0
102
RTVSPropertyOp17
 70
     0
102
RTVSPropertyOp18
 70
     0
102
RTVSPropertyOp19
 70
     0
102
RTVSPropertyOp20
 70
     0
102
RTVSPropertyOp21
 70
     0
102
RTVSPropertyOp22
 70
     0
102
RTVSPropertyOp23
 70
     0
102
RTVSPropertyOp24
 70
     0
102
RTVSPropertyOp25
 70
     0
102
RTVSPropertyOp26
 70
     0
102
RTVSPropertyOp27
 70
     0
102
RTVSPropertyOp28
 70
     0
102
RTVSPropertyOp29
 70
     0
102
RTVSPropertyOp30
 70
     0
102
RTVSPropertyOp31
 70
     0
102
RTVSPropertyOp32
 70
     0
102
RTVSPropertyOp33
 70
     0
102
RTVSPropertyOp34
 70
     0
102
RTVSPropertyOp35
 70
     0
102
RTVSPropertyOp36
 70
     0
102
RTVSPropertyOp37
 70
     0
102
RTVSPropertyOp38
 70
     0
102
RTVSPropertyOp39
 70
     0
102
RTVSPropertyOp40
 70
     0
102
RTVSPropertyOp41
 70
     0
102
RTVSPropertyOp42
 70
     0
102
RTVSPropertyOp43
 70
     0
102
RTVSPropertyOp44
 70
     0
102
RTVSPropertyOp45
 70
     0
102
RTVSPropertyOp46
 70
     0
102
RTVSPropertyOp47
 70
     0
102
RTVSPropertyOp48
 70
     0
102
RTVSPropertyOp49
 70
     0
102
RTVSPropertyOp50
 70
     0
102
RTVSPropertyOp51
 70
     0
102
RTVSPropertyOp52
 70
     0
102
RTVSPropertyOp53
 70
     0
102
RTVSPropertyOp54
 70
     0
102
RTVSPropertyOp55
 70
     0
102
RTVSPropertyOp56
 70
     0
102
RTVSPropertyOp57
 70
     0
102
RTVSPost2010Prop28
280
     0
102
RTVSPost2010PropOp28
 70
     0
102
RTVSPost2010Prop29
280
     1
102
RTVSPost2010PropOp29
 70
     0
102
RTVSPost2010Prop30
280
     1
102
RTVSPost2010PropOp30
 70
     0
102
RTVSPost2010Prop31
280
     0
102
RTVSPost2010PropOp31
 70
     0
102
RTVSPost2010Prop32
280
     0
102
RTVSPost2010PropOp32
 70
     0
102
RTVSPost2010Prop33
280
     0
102
RTVSPost2010PropOp33
 70
     0
102
RTVSPost2010Prop34
280
     0
102
RTVSPost2010PropOp34
 70
     0
102
RTVSPost2010Prop35
280
     0
102
RTVSPost2010PropOp35
 70
     0
102
RTVSPost2010Prop36
280
     0
102
RTVSPost2010PropOp36
 70
     0
102
RTVSPost2010Prop37
 90
       50
102
RTVSPost2010PropOp37
 70
     0
102
RTVSPost2010Prop38
140
0.0
102
RTVSPost2010PropOp38
 70
     0
102
RTVSPost2010Prop39
140
1.0
102
RTVSPost2010PropOp39
 70
     0
102
RTVSPost2010Prop40
 90
        0
102
RTVSPost2010PropOp40
 70
     0
102
RTVSPost2010Prop41ColorIndex
 90
       18
102
RTVSPost2010Prop41ColorRGB
 90
        0
102
RTVSPost2010PropOp41
 70
     0
102
RTVSPost2010Prop42
 90
       50
102
RTVSPost2010PropOp42
 70
     0
102
RTVSPost2010Prop43
 90
        3
102
RTVSPost2010PropOp43
 70
     0
102
RTVSPost2010Prop44ColorIndex
 90
        5
102
RTVSPost2010Prop44ColorRGB
 90
      255
102
RTVSPost2010PropOp44
 70
     0
102
RTVSPost2010Prop45
280
     0
102
RTVSPost2010PropOp45
 70
     0
102
RTVSPost2010Prop46
 90
       50
102
RTVSPost2010PropOp46
 70
     0
102
RTVSPost2010Prop47
 90
       50
102
RTVSPost2010PropOp47
 70
     0
102
RTVSPost2010Prop48
 90
       50
102
RTVSPost2010PropOp48
 70
     0
102
RTVSPost2010Prop49
280
     0
102
RTVSPost2010PropOp49
 70
     0
102
RTVSPost2010Prop50
 90
       50
102
RTVSPost2010PropOp50
 70
     0
102
RTVSPost2010Prop51ColorIndex
 90
      256
102
RTVSPost2010Prop51ColorRGB
 90
-16777216
102
RTVSPost2010PropOp51
 70
     0
102
RTVSPost2010Prop52
140
1.0
102
RTVSPost2010PropOp52
 70
     0
102
RTVSPost2010Prop53
 90
        2
102
RTVSPost2010PropOp53
 70
     0
102
RTVSPost2010Prop54
  1
strokes_ogs.tif
102
RTVSPost2010PropOp54
 70
     0
102
RTVSPost2010Prop55
280
     0
102
RTVSPost2010PropOp55
 70
     0
102
RTVSPost2010Prop56
140
1.0
102
RTVSPost2010PropOp56
 70
     0
102
RTVSPost2010Prop57
140
1.0
102
RTVSPost2010PropOp57
 70
     0
  0
XRECORD
  5
14A
102
{ACAD_REACTORS
330
149
102
}
330
149
100
AcDbXrecord
280
     1
102
RTVSPropertyOp0
 70
     1
102
RTVSPropertyOp1
 70
     1
102
RTVSPropertyOp2
 70
     1
102
RTVSPropertyOp3
 70
     1
102
RTVSPropertyOp4
 70
     1
102
RTVSPropertyOp5
 70
     1
102
RTVSPropertyOp6
 70
     1
102
RTVSPropertyOp7
 70
     1
102
RTVSPropertyOp8
 70
     1
102
RTVSPropertyOp9
 70
     1
102
RTVSPropertyOp10
 70
     1
102
RTVSPropertyOp11
 70
     1
102
RTVSPropertyOp12
 70
     1
102
RTVSPropertyOp13
 70
     1
102
RTVSPropertyOp14
 70
     1
102
RTVSPropertyOp15
 70
     1
102
RTVSPropertyOp16
 70
     1
102
RTVSPropertyOp17
 70
     1
102
RTVSPropertyOp18
 70
     1
102
RTVSPropertyOp19
 70
     1
102
RTVSPropertyOp20
 70
     1
102
RTVSPropertyOp21
 70
     1
102
RTVSPropertyOp22
 70
     1
102
RTVSPropertyOp23
 70
     1
102
RTVSPropertyOp24
 70
     1
102
RTVSPropertyOp25
 70
     1
102
RTVSPropertyOp26
 70
     1
102
RTVSPropertyOp27
 70
     1
102
RTVSPropertyOp28
 70
     1
102
RTVSPropertyOp29
 70
     1
102
RTVSPropertyOp30
 70
     1
102
RTVSPropertyOp31
 70
     1
102
RTVSPropertyOp32
 70
     1
102
RTVSPropertyOp33
 70
     1
102
RTVSPropertyOp34
 70
     1
102
RTVSPropertyOp35
 70
     1
102
RTVSPropertyOp36
 70
     1
102
RTVSPropertyOp37
 70
     1
102
RTVSPropertyOp38
 70
     1
102
RTVSPropertyOp39
 70
     1
102
RTVSPropertyOp40
 70
     1
102
RTVSPropertyOp41
 70
     1
102
RTVSPropertyOp42
 70
     1
102
RTVSPropertyOp43
 70
     1
102
RTVSPropertyOp44
 70
     1
102
RTVSPropertyOp45
 70
     1
102
RTVSPropertyOp46
 70
     1
102
RTVSPropertyOp47
 70
     1
102
RTVSPropertyOp48
 70
     1
102
RTVSPropertyOp49
 70
     1
102
RTVSPropertyOp50
 70
     1
102
RTVSPropertyOp51
 70
     0
102
RTVSPropertyOp52
 70
     0
102
RTVSPropertyOp53
 70
     1
102
RTVSPropertyOp54
 70
     1
102
RTVSPropertyOp55
 70
     1
102
RTVSPropertyOp56
 70
     1
102
RTVSPropertyOp57
 70
     1
102
RTVSPost2010Prop28
280
     0
102
RTVSPost2010PropOp28
 70
     1
102
RTVSPost2010Prop29
280
     1
102
RTVSPost2010PropOp29
 70
     1
102
RTVSPost2010Prop30
280
     1
102
RTVSPost2010PropOp30
 70
     1
102
RTVSPost2010Prop31
280
     0
102
RTVSPost2010PropOp31
 70
     1
102
RTVSPost2010Prop32
280
     0
102
RTVSPost2010PropOp32
 70
     1
102
RTVSPost2010Prop33
280
     0
102
RTVSPost2010PropOp33
 70
     1
102
RTVSPost2010Prop34
280
     0
102
RTVSPost2010PropOp34
 70
     1
102
RTVSPost2010Prop35
280
     0
102
RTVSPost2010PropOp35
 70
     1
102
RTVSPost2010Prop36
280
     0
102
RTVSPost2010PropOp36
 70
     1
102
RTVSPost2010Prop37
 90
       50
102
RTVSPost2010PropOp37
 70
     1
102
RTVSPost2010Prop38
140
0.0
102
RTVSPost2010PropOp38
 70
     1
102
RTVSPost2010Prop39
140
1.0
102
RTVSPost2010PropOp39
 70
     1
102
RTVSPost2010Prop40
 90
        0
102
RTVSPost2010PropOp40
 70
     1
102
RTVSPost2010Prop41ColorIndex
 90
       18
102
RTVSPost2010Prop41ColorRGB
 90
        0
102
RTVSPost2010PropOp41
 70
     1
102
RTVSPost2010Prop42
 90
       50
102
RTVSPost2010PropOp42
 70
     1
102
RTVSPost2010Prop43
 90
        3
102
RTVSPost2010PropOp43
 70
     1
102
RTVSPost2010Prop44ColorIndex
 90
        5
102
RTVSPost2010Prop44ColorRGB
 90
      255
102
RTVSPost2010PropOp44
 70
     1
102
RTVSPost2010Prop45
280
     0
102
RTVSPost2010PropOp45
 70
     1
102
RTVSPost2010Prop46
 90
       50
102
RTVSPost2010PropOp46
 70
     1
102
RTVSPost2010Prop47
 90
       50
102
RTVSPost2010PropOp47
 70
     1
102
RTVSPost2010Prop48
 90
       50
102
RTVSPost2010PropOp48
 70
     1
102
RTVSPost2010Prop49
280
     0
102
RTVSPost2010PropOp49
 70
     1
102
RTVSPost2010Prop50
 90
       50
102
RTVSPost2010PropOp50
 70
     1
102
RTVSPost2010Prop51ColorIndex
 90
      256
102
RTVSPost2010Prop51ColorRGB
 90
-16777216
102
RTVSPost2010PropOp51
 70
     0
102
RTVSPost2010Prop52
140
1.0
102
RTVSPost2010PropOp52
 70
     0
102
RTVSPost2010Prop53
 90
        2
102
RTVSPost2010PropOp53
 70
     1
102
RTVSPost2010Prop54
  1
strokes_ogs.tif
102
RTVSPost2010PropOp54
 70
     1
102
RTVSPost2010Prop55
280
     0
102
RTVSPost2010PropOp55
 70
     1
102
RTVSPost2010Prop56
140
1.0
102
RTVSPost2010PropOp56
 70
     1
102
RTVSPost2010Prop57
140
1.0
102
RTVSPost2010PropOp57
 70
     1
  0
XRECORD
  5
12E
102
{ACAD_REACTORS
330
12D
102
}
330
12D
100
AcDbXrecord
280
     1
102
RTVSPropertyOp0
 70
     1
102
RTVSPropertyOp1
 70
     1
102
RTVSPropertyOp2
 70
     1
102
RTVSPropertyOp3
 70
     1
102
RTVSPropertyOp4
 70
     1
102
RTVSPropertyOp5
 70
     1
102
RTVSPropertyOp6
 70
     1
102
RTVSPropertyOp7
 70
     1
102
RTVSPropertyOp8
 70
     1
102
RTVSPropertyOp9
 70
     1
102
RTVSPropertyOp10
 70
     1
102
RTVSPropertyOp11
 70
     1
102
RTVSPropertyOp12
 70
     1
102
RTVSPropertyOp13
 70
     1
102
RTVSPropertyOp14
 70
     1
102
RTVSPropertyOp15
 70
     1
102
RTVSPropertyOp16
 70
     1
102
RTVSPropertyOp17
 70
     1
102
RTVSPropertyOp18
 70
     1
102
RTVSPropertyOp19
 70
     1
102
RTVSPropertyOp20
 70
     1
102
RTVSPropertyOp21
 70
     1
102
RTVSPropertyOp22
 70
     1
102
RTVSPropertyOp23
 70
     1
102
RTVSPropertyOp24
 70
     1
102
RTVSPropertyOp25
 70
     1
102
RTVSPropertyOp26
 70
     1
102
RTVSPropertyOp27
 70
     1
102
RTVSPropertyOp28
 70
     1
102
RTVSPropertyOp29
 70
     1
102
RTVSPropertyOp30
 70
     1
102
RTVSPropertyOp31
 70
     1
102
RTVSPropertyOp32
 70
     1
102
RTVSPropertyOp33
 70
     1
102
RTVSPropertyOp34
 70
     1
102
RTVSPropertyOp35
 70
     1
102
RTVSPropertyOp36
 70
     1
102
RTVSPropertyOp37
 70
     1
102
RTVSPropertyOp38
 70
     1
102
RTVSPropertyOp39
 70
     1
102
RTVSPropertyOp40
 70
     1
102
RTVSPropertyOp41
 70
     1
102
RTVSPropertyOp42
 70
     1
102
RTVSPropertyOp43
 70
     1
102
RTVSPropertyOp44
 70
     1
102
RTVSPropertyOp45
 70
     1
102
RTVSPropertyOp46
 70
     1
102
RTVSPropertyOp47
 70
     1
102
RTVSPropertyOp48
 70
     1
102
RTVSPropertyOp49
 70
     1
102
RTVSPropertyOp50
 70
     1
102
RTVSPropertyOp51
 70
     0
102
RTVSPropertyOp52
 70
     0
102
RTVSPropertyOp53
 70
     1
102
RTVSPropertyOp54
 70
     1
102
RTVSPropertyOp55
 70
     1
102
RTVSPropertyOp56
 70
     1
102
RTVSPropertyOp57
 70
     1
102
RTVSPost2010Prop28
280
     0
102
RTVSPost2010PropOp28
 70
     1
102
RTVSPost2010Prop29
280
     1
102
RTVSPost2010PropOp29
 70
     1
102
RTVSPost2010Prop30
280
     1
102
RTVSPost2010PropOp30
 70
     1
102
RTVSPost2010Prop31
280
     0
102
RTVSPost2010PropOp31
 70
     1
102
RTVSPost2010Prop32
280
     0
102
RTVSPost2010PropOp32
 70
     1
102
RTVSPost2010Prop33
280
     0
102
RTVSPost2010PropOp33
 70
     1
102
RTVSPost2010Prop34
280
     0
102
RTVSPost2010PropOp34
 70
     1
102
RTVSPost2010Prop35
280
     0
102
RTVSPost2010PropOp35
 70
     1
102
RTVSPost2010Prop36
280
     0
102
RTVSPost2010PropOp36
 70
     1
102
RTVSPost2010Prop37
 90
       50
102
RTVSPost2010PropOp37
 70
     1
102
RTVSPost2010Prop38
140
0.0
102
RTVSPost2010PropOp38
 70
     1
102
RTVSPost2010Prop39
140
1.0
102
RTVSPost2010PropOp39
 70
     1
102
RTVSPost2010Prop40
 90
        0
102
RTVSPost2010PropOp40
 70
     1
102
RTVSPost2010Prop41ColorIndex
 90
       18
102
RTVSPost2010Prop41ColorRGB
 90
        0
102
RTVSPost2010PropOp41
 70
     1
102
RTVSPost2010Prop42
 90
       50
102
RTVSPost2010PropOp42
 70
     1
102
RTVSPost2010Prop43
 90
        3
102
RTVSPost2010PropOp43
 70
     1
102
RTVSPost2010Prop44ColorIndex
 90
        5
102
RTVSPost2010Prop44ColorRGB
 90
      255
102
RTVSPost2010PropOp44
 70
     1
102
RTVSPost2010Prop45
280
     0
102
RTVSPost2010PropOp45
 70
     1
102
RTVSPost2010Prop46
 90
       50
102
RTVSPost2010PropOp46
 70
     1
102
RTVSPost2010Prop47
 90
       50
102
RTVSPost2010PropOp47
 70
     1
102
RTVSPost2010Prop48
 90
       50
102
RTVSPost2010PropOp48
 70
     1
102
RTVSPost2010Prop49
280
     0
102
RTVSPost2010PropOp49
 70
     1
102
RTVSPost2010Prop50
 90
       50
102
RTVSPost2010PropOp50
 70
     1
102
RTVSPost2010Prop51ColorIndex
 90
      256
102
RTVSPost2010Prop51ColorRGB
 90
-16777216
102
RTVSPost2010PropOp51
 70
     0
102
RTVSPost2010Prop52
140
1.0
102
RTVSPost2010PropOp52
 70
     0
102
RTVSPost2010Prop53
 90
        2
102
RTVSPost2010PropOp53
 70
     1
102
RTVSPost2010Prop54
  1
strokes_ogs.tif
102
RTVSPost2010PropOp54
 70
     1
102
RTVSPost2010Prop55
280
     0
102
RTVSPost2010PropOp55
 70
     1
102
RTVSPost2010Prop56
140
1.0
102
RTVSPost2010PropOp56
 70
     1
102
RTVSPost2010Prop57
140
1.0
102
RTVSPost2010PropOp57
 70
     1
  0
XRECORD
  5
130
102
{ACAD_REACTORS
330
12F
102
}
330
12F
100
AcDbXrecord
280
     1
102
RTVSPropertyOp0
 70
     1
102
RTVSPropertyOp1
 70
     1
102
RTVSPropertyOp2
 70
     1
102
RTVSPropertyOp3
 70
     1
102
RTVSPropertyOp4
 70
     1
102
RTVSPropertyOp5
 70
     1
102
RTVSPropertyOp6
 70
     1
102
RTVSPropertyOp7
 70
     1
102
RTVSPropertyOp8
 70
     1
102
RTVSPropertyOp9
 70
     1
102
RTVSPropertyOp10
 70
     1
102
RTVSPropertyOp11
 70
     1
102
RTVSPropertyOp12
 70
     1
102
RTVSPropertyOp13
 70
     1
102
RTVSPropertyOp14
 70
     1
102
RTVSPropertyOp15
 70
     1
102
RTVSPropertyOp16
 70
     1
102
RTVSPropertyOp17
 70
     1
102
RTVSPropertyOp18
 70
     1
102
RTVSPropertyOp19
 70
     1
102
RTVSPropertyOp20
 70
     1
102
RTVSPropertyOp21
 70
     1
102
RTVSPropertyOp22
 70
     1
102
RTVSPropertyOp23
 70
     1
102
RTVSPropertyOp24
 70
     1
102
RTVSPropertyOp25
 70
     1
102
RTVSPropertyOp26
 70
     1
102
RTVSPropertyOp27
 70
     1
102
RTVSPropertyOp28
 70
     1
102
RTVSPropertyOp29
 70
     1
102
RTVSPropertyOp30
 70
     1
102
RTVSPropertyOp31
 70
     1
102
RTVSPropertyOp32
 70
     1
102
RTVSPropertyOp33
 70
     1
102
RTVSPropertyOp34
 70
     1
102
RTVSPropertyOp35
 70
     1
102
RTVSPropertyOp36
 70
     1
102
RTVSPropertyOp37
 70
     1
102
RTVSPropertyOp38
 70
     1
102
RTVSPropertyOp39
 70
     1
102
RTVSPropertyOp40
 70
     1
102
RTVSPropertyOp41
 70
     1
102
RTVSPropertyOp42
 70
     1
102
RTVSPropertyOp43
 70
     1
102
RTVSPropertyOp44
 70
     1
102
RTVSPropertyOp45
 70
     1
102
RTVSPropertyOp46
 70
     1
102
RTVSPropertyOp47
 70
     1
102
RTVSPropertyOp48
 70
     1
102
RTVSPropertyOp49
 70
     1
102
RTVSPropertyOp50
 70
     1
102
RTVSPropertyOp51
 70
     0
102
RTVSPropertyOp52
 70
     0
102
RTVSPropertyOp53
 70
     1
102
RTVSPropertyOp54
 70
     1
102
RTVSPropertyOp55
 70
     1
102
RTVSPropertyOp56
 70
     1
102
RTVSPropertyOp57
 70
     1
102
RTVSPost2010Prop28
280
     0
102
RTVSPost2010PropOp28
 70
     1
102
RTVSPost2010Prop29
280
     1
102
RTVSPost2010PropOp29
 70
     1
102
RTVSPost2010Prop30
280
     1
102
RTVSPost2010PropOp30
 70
     1
102
RTVSPost2010Prop31
280
     0
102
RTVSPost2010PropOp31
 70
     1
102
RTVSPost2010Prop32
280
     0
102
RTVSPost2010PropOp32
 70
     1
102
RTVSPost2010Prop33
280
     0
102
RTVSPost2010PropOp33
 70
     1
102
RTVSPost2010Prop34
280
     0
102
RTVSPost2010PropOp34
 70
     1
102
RTVSPost2010Prop35
280
     0
102
RTVSPost2010PropOp35
 70
     1
102
RTVSPost2010Prop36
280
     0
102
RTVSPost2010PropOp36
 70
     1
102
RTVSPost2010Prop37
 90
       50
102
RTVSPost2010PropOp37
 70
     1
102
RTVSPost2010Prop38
140
0.0
102
RTVSPost2010PropOp38
 70
     1
102
RTVSPost2010Prop39
140
1.0
102
RTVSPost2010PropOp39
 70
     1
102
RTVSPost2010Prop40
 90
        0
102
RTVSPost2010PropOp40
 70
     1
102
RTVSPost2010Prop41ColorIndex
 90
       18
102
RTVSPost2010Prop41ColorRGB
 90
        0
102
RTVSPost2010PropOp41
 70
     1
102
RTVSPost2010Prop42
 90
       50
102
RTVSPost2010PropOp42
 70
     1
102
RTVSPost2010Prop43
 90
        3
102
RTVSPost2010PropOp43
 70
     1
102
RTVSPost2010Prop44ColorIndex
 90
        5
102
RTVSPost2010Prop44ColorRGB
 90
      255
102
RTVSPost2010PropOp44
 70
     1
102
RTVSPost2010Prop45
280
     0
102
RTVSPost2010PropOp45
 70
     1
102
RTVSPost2010Prop46
 90
       50
102
RTVSPost2010PropOp46
 70
     1
102
RTVSPost2010Prop47
 90
       50
102
RTVSPost2010PropOp47
 70
     1
102
RTVSPost2010Prop48
 90
       50
102
RTVSPost2010PropOp48
 70
     1
102
RTVSPost2010Prop49
280
     0
102
RTVSPost2010PropOp49
 70
     1
102
RTVSPost2010Prop50
 90
       50
102
RTVSPost2010PropOp50
 70
     1
102
RTVSPost2010Prop51ColorIndex
 90
      256
102
RTVSPost2010Prop51ColorRGB
 90
-16777216
102
RTVSPost2010PropOp51
 70
     0
102
RTVSPost2010Prop52
140
1.0
102
RTVSPost2010PropOp52
 70
     0
102
RTVSPost2010Prop53
 90
        2
102
RTVSPost2010PropOp53
 70
     1
102
RTVSPost2010Prop54
  1
strokes_ogs.tif
102
RTVSPost2010PropOp54
 70
     1
102
RTVSPost2010Prop55
280
     0
102
RTVSPost2010PropOp55
 70
     1
102
RTVSPost2010Prop56
140
1.0
102
RTVSPost2010PropOp56
 70
     1
102
RTVSPost2010Prop57
140
1.0
102
RTVSPost2010PropOp57
 70
     1
  0
XRECORD
  5
132
102
{ACAD_REACTORS
330
131
102
}
330
131
100
AcDbXrecord
280
     1
102
RTVSPropertyOp0
 70
     1
102
RTVSPropertyOp1
 70
     1
102
RTVSPropertyOp2
 70
     1
102
RTVSPropertyOp3
 70
     1
102
RTVSPropertyOp4
 70
     1
102
RTVSPropertyOp5
 70
     1
102
RTVSPropertyOp6
 70
     1
102
RTVSPropertyOp7
 70
     1
102
RTVSPropertyOp8
 70
     1
102
RTVSPropertyOp9
 70
     1
102
RTVSPropertyOp10
 70
     1
102
RTVSPropertyOp11
 70
     1
102
RTVSPropertyOp12
 70
     1
102
RTVSPropertyOp13
 70
     1
102
RTVSPropertyOp14
 70
     1
102
RTVSPropertyOp15
 70
     1
102
RTVSPropertyOp16
 70
     1
102
RTVSPropertyOp17
 70
     1
102
RTVSPropertyOp18
 70
     1
102
RTVSPropertyOp19
 70
     1
102
RTVSPropertyOp20
 70
     1
102
RTVSPropertyOp21
 70
     1
102
RTVSPropertyOp22
 70
     1
102
RTVSPropertyOp23
 70
     1
102
RTVSPropertyOp24
 70
     1
102
RTVSPropertyOp25
 70
     1
102
RTVSPropertyOp26
 70
     1
102
RTVSPropertyOp27
 70
     1
102
RTVSPropertyOp28
 70
     1
102
RTVSPropertyOp29
 70
     1
102
RTVSPropertyOp30
 70
     1
102
RTVSPropertyOp31
 70
     1
102
RTVSPropertyOp32
 70
     1
102
RTVSPropertyOp33
 70
     1
102
RTVSPropertyOp34
 70
     1
102
RTVSPropertyOp35
 70
     1
102
RTVSPropertyOp36
 70
     1
102
RTVSPropertyOp37
 70
     1
102
RTVSPropertyOp38
 70
     1
102
RTVSPropertyOp39
 70
     1
102
RTVSPropertyOp40
 70
     1
102
RTVSPropertyOp41
 70
     1
102
RTVSPropertyOp42
 70
     1
102
RTVSPropertyOp43
 70
     1
102
RTVSPropertyOp44
 70
     1
102
RTVSPropertyOp45
 70
     1
102
RTVSPropertyOp46
 70
     1
102
RTVSPropertyOp47
 70
     1
102
RTVSPropertyOp48
 70
     1
102
RTVSPropertyOp49
 70
     1
102
RTVSPropertyOp50
 70
     1
102
RTVSPropertyOp51
 70
     0
102
RTVSPropertyOp52
 70
     0
102
RTVSPropertyOp53
 70
     1
102
RTVSPropertyOp54
 70
     1
102
RTVSPropertyOp55
 70
     1
102
RTVSPropertyOp56
 70
     1
102
RTVSPropertyOp57
 70
     1
102
RTVSPost2010Prop28
280
     0
102
RTVSPost2010PropOp28
 70
     1
102
RTVSPost2010Prop29
280
     1
102
RTVSPost2010PropOp29
 70
     1
102
RTVSPost2010Prop30
280
     1
102
RTVSPost2010PropOp30
 70
     1
102
RTVSPost2010Prop31
280
     0
102
RTVSPost2010PropOp31
 70
     1
102
RTVSPost2010Prop32
280
     0
102
RTVSPost2010PropOp32
 70
     1
102
RTVSPost2010Prop33
280
     0
102
RTVSPost2010PropOp33
 70
     1
102
RTVSPost2010Prop34
280
     0
102
RTVSPost2010PropOp34
 70
     1
102
RTVSPost2010Prop35
280
     0
102
RTVSPost2010PropOp35
 70
     1
102
RTVSPost2010Prop36
280
     0
102
RTVSPost2010PropOp36
 70
     1
102
RTVSPost2010Prop37
 90
       50
102
RTVSPost2010PropOp37
 70
     1
102
RTVSPost2010Prop38
140
0.0
102
RTVSPost2010PropOp38
 70
     1
102
RTVSPost2010Prop39
140
1.0
102
RTVSPost2010PropOp39
 70
     1
102
RTVSPost2010Prop40
 90
        0
102
RTVSPost2010PropOp40
 70
     1
102
RTVSPost2010Prop41ColorIndex
 90
       18
102
RTVSPost2010Prop41ColorRGB
 90
        0
102
RTVSPost2010PropOp41
 70
     1
102
RTVSPost2010Prop42
 90
       50
102
RTVSPost2010PropOp42
 70
     1
102
RTVSPost2010Prop43
 90
        3
102
RTVSPost2010PropOp43
 70
     1
102
RTVSPost2010Prop44ColorIndex
 90
        5
102
RTVSPost2010Prop44ColorRGB
 90
      255
102
RTVSPost2010PropOp44
 70
     1
102
RTVSPost2010Prop45
280
     0
102
RTVSPost2010PropOp45
 70
     1
102
RTVSPost2010Prop46
 90
       50
102
RTVSPost2010PropOp46
 70
     1
102
RTVSPost2010Prop47
 90
       50
102
RTVSPost2010PropOp47
 70
     1
102
RTVSPost2010Prop48
 90
       50
102
RTVSPost2010PropOp48
 70
     1
102
RTVSPost2010Prop49
280
     0
102
RTVSPost2010PropOp49
 70
     1
102
RTVSPost2010Prop50
 90
       50
102
RTVSPost2010PropOp50
 70
     1
102
RTVSPost2010Prop51ColorIndex
 90
      256
102
RTVSPost2010Prop51ColorRGB
 90
-16777216
102
RTVSPost2010PropOp51
 70
     0
102
RTVSPost2010Prop52
140
1.0
102
RTVSPost2010PropOp52
 70
     0
102
RTVSPost2010Prop53
 90
        2
102
RTVSPost2010PropOp53
 70
     1
102
RTVSPost2010Prop54
  1
strokes_ogs.tif
102
RTVSPost2010PropOp54
 70
     1
102
RTVSPost2010Prop55
280
     0
102
RTVSPost2010PropOp55
 70
     1
102
RTVSPost2010Prop56
140
1.0
102
RTVSPost2010PropOp56
 70
     1
102
RTVSPost2010Prop57
140
1.0
102
RTVSPost2010PropOp57
 70
     1
  0
XRECORD
  5
134
102
{ACAD_REACTORS
330
133
102
}
330
133
100
AcDbXrecord
280
     1
102
RTVSPropertyOp0
 70
     1
102
RTVSPropertyOp1
 70
     1
102
RTVSPropertyOp2
 70
     1
102
RTVSPropertyOp3
 70
     1
102
RTVSPropertyOp4
 70
     1
102
RTVSPropertyOp5
 70
     1
102
RTVSPropertyOp6
 70
     1
102
RTVSPropertyOp7
 70
     1
102
RTVSPropertyOp8
 70
     1
102
RTVSPropertyOp9
 70
     1
102
RTVSPropertyOp10
 70
     1
102
RTVSPropertyOp11
 70
     1
102
RTVSPropertyOp12
 70
     1
102
RTVSPropertyOp13
 70
     1
102
RTVSPropertyOp14
 70
     1
102
RTVSPropertyOp15
 70
     1
102
RTVSPropertyOp16
 70
     1
102
RTVSPropertyOp17
 70
     1
102
RTVSPropertyOp18
 70
     1
102
RTVSPropertyOp19
 70
     1
102
RTVSPropertyOp20
 70
     1
102
RTVSPropertyOp21
 70
     1
102
RTVSPropertyOp22
 70
     1
102
RTVSPropertyOp23
 70
     1
102
RTVSPropertyOp24
 70
     1
102
RTVSPropertyOp25
 70
     1
102
RTVSPropertyOp26
 70
     1
102
RTVSPropertyOp27
 70
     1
102
RTVSPropertyOp28
 70
     1
102
RTVSPropertyOp29
 70
     1
102
RTVSPropertyOp30
 70
     1
102
RTVSPropertyOp31
 70
     1
102
RTVSPropertyOp32
 70
     1
102
RTVSPropertyOp33
 70
     1
102
RTVSPropertyOp34
 70
     1
102
RTVSPropertyOp35
 70
     1
102
RTVSPropertyOp36
 70
     1
102
RTVSPropertyOp37
 70
     1
102
RTVSPropertyOp38
 70
     1
102
RTVSPropertyOp39
 70
     1
102
RTVSPropertyOp40
 70
     1
102
RTVSPropertyOp41
 70
     1
102
RTVSPropertyOp42
 70
     1
102
RTVSPropertyOp43
 70
     1
102
RTVSPropertyOp44
 70
     1
102
RTVSPropertyOp45
 70
     1
102
RTVSPropertyOp46
 70
     1
102
RTVSPropertyOp47
 70
     1
102
RTVSPropertyOp48
 70
     1
102
RTVSPropertyOp49
 70
     1
102
RTVSPropertyOp50
 70
     1
102
RTVSPropertyOp51
 70
     0
102
RTVSPropertyOp52
 70
     0
102
RTVSPropertyOp53
 70
     1
102
RTVSPropertyOp54
 70
     1
102
RTVSPropertyOp55
 70
     1
102
RTVSPropertyOp56
 70
     1
102
RTVSPropertyOp57
 70
     1
102
RTVSPost2010Prop28
280
     0
102
RTVSPost2010PropOp28
 70
     1
102
RTVSPost2010Prop29
280
     1
102
RTVSPost2010PropOp29
 70
     1
102
RTVSPost2010Prop30
280
     1
102
RTVSPost2010PropOp30
 70
     1
102
RTVSPost2010Prop31
280
     0
102
RTVSPost2010PropOp31
 70
     1
102
RTVSPost2010Prop32
280
     0
102
RTVSPost2010PropOp32
 70
     1
102
RTVSPost2010Prop33
280
     0
102
RTVSPost2010PropOp33
 70
     1
102
RTVSPost2010Prop34
280
     0
102
RTVSPost2010PropOp34
 70
     1
102
RTVSPost2010Prop35
280
     0
102
RTVSPost2010PropOp35
 70
     1
102
RTVSPost2010Prop36
280
     0
102
RTVSPost2010PropOp36
 70
     1
102
RTVSPost2010Prop37
 90
       50
102
RTVSPost2010PropOp37
 70
     1
102
RTVSPost2010Prop38
140
0.0
102
RTVSPost2010PropOp38
 70
     1
102
RTVSPost2010Prop39
140
1.0
102
RTVSPost2010PropOp39
 70
     1
102
RTVSPost2010Prop40
 90
        0
102
RTVSPost2010PropOp40
 70
     1
102
RTVSPost2010Prop41ColorIndex
 90
       18
102
RTVSPost2010Prop41ColorRGB
 90
        0
102
RTVSPost2010PropOp41
 70
     1
102
RTVSPost2010Prop42
 90
       50
102
RTVSPost2010PropOp42
 70
     1
102
RTVSPost2010Prop43
 90
        3
102
RTVSPost2010PropOp43
 70
     1
102
RTVSPost2010Prop44ColorIndex
 90
        5
102
RTVSPost2010Prop44ColorRGB
 90
      255
102
RTVSPost2010PropOp44
 70
     1
102
RTVSPost2010Prop45
280
     0
102
RTVSPost2010PropOp45
 70
     1
102
RTVSPost2010Prop46
 90
       50
102
RTVSPost2010PropOp46
 70
     1
102
RTVSPost2010Prop47
 90
       50
102
RTVSPost2010PropOp47
 70
     1
102
RTVSPost2010Prop48
 90
       50
102
RTVSPost2010PropOp48
 70
     1
102
RTVSPost2010Prop49
280
     0
102
RTVSPost2010PropOp49
 70
     1
102
RTVSPost2010Prop50
 90
       50
102
RTVSPost2010PropOp50
 70
     1
102
RTVSPost2010Prop51ColorIndex
 90
      256
102
RTVSPost2010Prop51ColorRGB
 90
-16777216
102
RTVSPost2010PropOp51
 70
     0
102
RTVSPost2010Prop52
140
1.0
102
RTVSPost2010PropOp52
 70
     0
102
RTVSPost2010Prop53
 90
        2
102
RTVSPost2010PropOp53
 70
     1
102
RTVSPost2010Prop54
  1
strokes_ogs.tif
102
RTVSPost2010PropOp54
 70
     1
102
RTVSPost2010Prop55
280
     0
102
RTVSPost2010PropOp55
 70
     1
102
RTVSPost2010Prop56
140
1.0
102
RTVSPost2010PropOp56
 70
     1
102
RTVSPost2010Prop57
140
1.0
102
RTVSPost2010PropOp57
 70
     1
  0
XRECORD
  5
13A
102
{ACAD_REACTORS
330
139
102
}
330
139
100
AcDbXrecord
280
     1
102
RTVSPropertyOp0
 70
     1
102
RTVSPropertyOp1
 70
     1
102
RTVSPropertyOp2
 70
     1
102
RTVSPropertyOp3
 70
     1
102
RTVSPropertyOp4
 70
     1
102
RTVSPropertyOp5
 70
     1
102
RTVSPropertyOp6
 70
     1
102
RTVSPropertyOp7
 70
     1
102
RTVSPropertyOp8
 70
     1
102
RTVSPropertyOp9
 70
     1
102
RTVSPropertyOp10
 70
     1
102
RTVSPropertyOp11
 70
     1
102
RTVSPropertyOp12
 70
     1
102
RTVSPropertyOp13
 70
     1
102
RTVSPropertyOp14
 70
     1
102
RTVSPropertyOp15
 70
     1
102
RTVSPropertyOp16
 70
     1
102
RTVSPropertyOp17
 70
     1
102
RTVSPropertyOp18
 70
     1
102
RTVSPropertyOp19
 70
     1
102
RTVSPropertyOp20
 70
     1
102
RTVSPropertyOp21
 70
     1
102
RTVSPropertyOp22
 70
     1
102
RTVSPropertyOp23
 70
     1
102
RTVSPropertyOp24
 70
     1
102
RTVSPropertyOp25
 70
     1
102
RTVSPropertyOp26
 70
     1
102
RTVSPropertyOp27
 70
     1
102
RTVSPropertyOp28
 70
     1
102
RTVSPropertyOp29
 70
     1
102
RTVSPropertyOp30
 70
     1
102
RTVSPropertyOp31
 70
     1
102
RTVSPropertyOp32
 70
     1
102
RTVSPropertyOp33
 70
     1
102
RTVSPropertyOp34
 70
     1
102
RTVSPropertyOp35
 70
     1
102
RTVSPropertyOp36
 70
     1
102
RTVSPropertyOp37
 70
     1
102
RTVSPropertyOp38
 70
     1
102
RTVSPropertyOp39
 70
     1
102
RTVSPropertyOp40
 70
     1
102
RTVSPropertyOp41
 70
     1
102
RTVSPropertyOp42
 70
     1
102
RTVSPropertyOp43
 70
     1
102
RTVSPropertyOp44
 70
     1
102
RTVSPropertyOp45
 70
     1
102
RTVSPropertyOp46
 70
     1
102
RTVSPropertyOp47
 70
     1
102
RTVSPropertyOp48
 70
     1
102
RTVSPropertyOp49
 70
     1
102
RTVSPropertyOp50
 70
     1
102
RTVSPropertyOp51
 70
     0
102
RTVSPropertyOp52
 70
     0
102
RTVSPropertyOp53
 70
     1
102
RTVSPropertyOp54
 70
     1
102
RTVSPropertyOp55
 70
     1
102
RTVSPropertyOp56
 70
     1
102
RTVSPropertyOp57
 70
     1
102
RTVSPost2010Prop28
280
     0
102
RTVSPost2010PropOp28
 70
     1
102
RTVSPost2010Prop29
280
     1
102
RTVSPost2010PropOp29
 70
     1
102
RTVSPost2010Prop30
280
     1
102
RTVSPost2010PropOp30
 70
     1
102
RTVSPost2010Prop31
280
     0
102
RTVSPost2010PropOp31
 70
     1
102
RTVSPost2010Prop32
280
     0
102
RTVSPost2010PropOp32
 70
     1
102
RTVSPost2010Prop33
280
     0
102
RTVSPost2010PropOp33
 70
     1
102
RTVSPost2010Prop34
280
     0
102
RTVSPost2010PropOp34
 70
     1
102
RTVSPost2010Prop35
280
     0
102
RTVSPost2010PropOp35
 70
     1
102
RTVSPost2010Prop36
280
     0
102
RTVSPost2010PropOp36
 70
     1
102
RTVSPost2010Prop37
 90
       50
102
RTVSPost2010PropOp37
 70
     1
102
RTVSPost2010Prop38
140
0.0
102
RTVSPost2010PropOp38
 70
     1
102
RTVSPost2010Prop39
140
1.0
102
RTVSPost2010PropOp39
 70
     1
102
RTVSPost2010Prop40
 90
        0
102
RTVSPost2010PropOp40
 70
     1
102
RTVSPost2010Prop41ColorIndex
 90
       18
102
RTVSPost2010Prop41ColorRGB
 90
        0
102
RTVSPost2010PropOp41
 70
     1
102
RTVSPost2010Prop42
 90
       50
102
RTVSPost2010PropOp42
 70
     1
102
RTVSPost2010Prop43
 90
        3
102
RTVSPost2010PropOp43
 70
     1
102
RTVSPost2010Prop44ColorIndex
 90
        5
102
RTVSPost2010Prop44ColorRGB
 90
      255
102
RTVSPost2010PropOp44
 70
     1
102
RTVSPost2010Prop45
280
     0
102
RTVSPost2010PropOp45
 70
     1
102
RTVSPost2010Prop46
 90
       50
102
RTVSPost2010PropOp46
 70
     1
102
RTVSPost2010Prop47
 90
       50
102
RTVSPost2010PropOp47
 70
     1
102
RTVSPost2010Prop48
 90
       50
102
RTVSPost2010PropOp48
 70
     1
102
RTVSPost2010Prop49
280
     0
102
RTVSPost2010PropOp49
 70
     1
102
RTVSPost2010Prop50
 90
       50
102
RTVSPost2010PropOp50
 70
     1
102
RTVSPost2010Prop51ColorIndex
 90
      256
102
RTVSPost2010Prop51ColorRGB
 90
-16777216
102
RTVSPost2010PropOp51
 70
     0
102
RTVSPost2010Prop52
140
1.0
102
RTVSPost2010PropOp52
 70
     0
102
RTVSPost2010Prop53
 90
        2
102
RTVSPost2010PropOp53
 70
     1
102
RTVSPost2010Prop54
  1
strokes_ogs.tif
102
RTVSPost2010PropOp54
 70
     1
102
RTVSPost2010Prop55
280
     0
102
RTVSPost2010PropOp55
 70
     1
102
RTVSPost2010Prop56
140
1.0
102
RTVSPost2010PropOp56
 70
     1
102
RTVSPost2010Prop57
140
1.0
102
RTVSPost2010PropOp57
 70
     1
  0
XRECORD
  5
14E
102
{ACAD_REACTORS
330
14D
102
}
330
14D
100
AcDbXrecord
280
     1
102
RTVSPropertyOp0
 70
     0
102
RTVSPropertyOp1
 70
     0
102
RTVSPropertyOp2
 70
     0
102
RTVSPropertyOp3
 70
     0
102
RTVSPropertyOp4
 70
     0
102
RTVSPropertyOp5
 70
     0
102
RTVSPropertyOp6
 70
     0
102
RTVSPropertyOp7
 70
     0
102
RTVSPropertyOp8
 70
     0
102
RTVSPropertyOp9
 70
     0
102
RTVSPropertyOp10
 70
     0
102
RTVSPropertyOp11
 70
     0
102
RTVSPropertyOp12
 70
     0
102
RTVSPropertyOp13
 70
     0
102
RTVSPropertyOp14
 70
     2
102
RTVSPropertyOp15
 70
     0
102
RTVSPropertyOp16
 70
     0
102
RTVSPropertyOp17
 70
     0
102
RTVSPropertyOp18
 70
     0
102
RTVSPropertyOp19
 70
     0
102
RTVSPropertyOp20
 70
     0
102
RTVSPropertyOp21
 70
     0
102
RTVSPropertyOp22
 70
     0
102
RTVSPropertyOp23
 70
     0
102
RTVSPropertyOp24
 70
     0
102
RTVSPropertyOp25
 70
     0
102
RTVSPropertyOp26
 70
     0
102
RTVSPropertyOp27
 70
     0
102
RTVSPropertyOp28
 70
     0
102
RTVSPropertyOp29
 70
     0
102
RTVSPropertyOp30
 70
     0
102
RTVSPropertyOp31
 70
     0
102
RTVSPropertyOp32
 70
     0
102
RTVSPropertyOp33
 70
     0
102
RTVSPropertyOp34
 70
     0
102
RTVSPropertyOp35
 70
     0
102
RTVSPropertyOp36
 70
     0
102
RTVSPropertyOp37
 70
     0
102
RTVSPropertyOp38
 70
     0
102
RTVSPropertyOp39
 70
     0
102
RTVSPropertyOp40
 70
     0
102
RTVSPropertyOp41
 70
     0
102
RTVSPropertyOp42
 70
     0
102
RTVSPropertyOp43
 70
     0
102
RTVSPropertyOp44
 70
     0
102
RTVSPropertyOp45
 70
     0
102
RTVSPropertyOp46
 70
     0
102
RTVSPropertyOp47
 70
     0
102
RTVSPropertyOp48
 70
     0
102
RTVSPropertyOp49
 70
     0
102
RTVSPropertyOp50
 70
     0
102
RTVSPropertyOp51
 70
     0
102
RTVSPropertyOp52
 70
     0
102
RTVSPropertyOp53
 70
     0
102
RTVSPropertyOp54
 70
     0
102
RTVSPropertyOp55
 70
     0
102
RTVSPropertyOp56
 70
     0
102
RTVSPropertyOp57
 70
     0
102
RTVSPost2010Prop28
280
     0
102
RTVSPost2010PropOp28
 70
     0
102
RTVSPost2010Prop29
280
     1
102
RTVSPost2010PropOp29
 70
     0
102
RTVSPost2010Prop30
280
     1
102
RTVSPost2010PropOp30
 70
     0
102
RTVSPost2010Prop31
280
     0
102
RTVSPost2010PropOp31
 70
     0
102
RTVSPost2010Prop32
280
     0
102
RTVSPost2010PropOp32
 70
     0
102
RTVSPost2010Prop33
280
     0
102
RTVSPost2010PropOp33
 70
     0
102
RTVSPost2010Prop34
280
     0
102
RTVSPost2010PropOp34
 70
     0
102
RTVSPost2010Prop35
280
     0
102
RTVSPost2010PropOp35
 70
     0
102
RTVSPost2010Prop36
280
     0
102
RTVSPost2010PropOp36
 70
     0
102
RTVSPost2010Prop37
 90
       50
102
RTVSPost2010PropOp37
 70
     0
102
RTVSPost2010Prop38
140
0.0
102
RTVSPost2010PropOp38
 70
     0
102
RTVSPost2010Prop39
140
1.0
102
RTVSPost2010PropOp39
 70
     0
102
RTVSPost2010Prop40
 90
        0
102
RTVSPost2010PropOp40
 70
     0
102
RTVSPost2010Prop41ColorIndex
 90
       18
102
RTVSPost2010Prop41ColorRGB
 90
        0
102
RTVSPost2010PropOp41
 70
     0
102
RTVSPost2010Prop42
 90
       50
102
RTVSPost2010PropOp42
 70
     0
102
RTVSPost2010Prop43
 90
        3
102
RTVSPost2010PropOp43
 70
     0
102
RTVSPost2010Prop44ColorIndex
 90
        5
102
RTVSPost2010Prop44ColorRGB
 90
      255
102
RTVSPost2010PropOp44
 70
     0
102
RTVSPost2010Prop45
280
     0
102
RTVSPost2010PropOp45
 70
     0
102
RTVSPost2010Prop46
 90
       50
102
RTVSPost2010PropOp46
 70
     0
102
RTVSPost2010Prop47
 90
       50
102
RTVSPost2010PropOp47
 70
     0
102
RTVSPost2010Prop48
 90
       50
102
RTVSPost2010PropOp48
 70
     0
102
RTVSPost2010Prop49
280
     0
102
RTVSPost2010PropOp49
 70
     0
102
RTVSPost2010Prop50
 90
       50
102
RTVSPost2010PropOp50
 70
     0
102
RTVSPost2010Prop51ColorIndex
 90
      256
102
RTVSPost2010Prop51ColorRGB
 90
-16777216
102
RTVSPost2010PropOp51
 70
     0
102
RTVSPost2010Prop52
140
1.0
102
RTVSPost2010PropOp52
 70
     0
102
RTVSPost2010Prop53
 90
        2
102
RTVSPost2010PropOp53
 70
     0
102
RTVSPost2010Prop54
  1
strokes_ogs.tif
102
RTVSPost2010PropOp54
 70
     0
102
RTVSPost2010Prop55
280
     0
102
RTVSPost2010PropOp55
 70
     0
102
RTVSPost2010Prop56
140
1.0
102
RTVSPost2010PropOp56
 70
     0
102
RTVSPost2010Prop57
140
1.0
102
RTVSPost2010PropOp57
 70
     0
  0
XRECORD
  5
148
102
{ACAD_REACTORS
330
147
102
}
330
147
100
AcDbXrecord
280
     1
102
RTVSPropertyOp0
 70
     1
102
RTVSPropertyOp1
 70
     1
102
RTVSPropertyOp2
 70
     1
102
RTVSPropertyOp3
 70
     1
102
RTVSPropertyOp4
 70
     1
102
RTVSPropertyOp5
 70
     1
102
RTVSPropertyOp6
 70
     1
102
RTVSPropertyOp7
 70
     1
102
RTVSPropertyOp8
 70
     1
102
RTVSPropertyOp9
 70
     1
102
RTVSPropertyOp10
 70
     1
102
RTVSPropertyOp11
 70
     1
102
RTVSPropertyOp12
 70
     1
102
RTVSPropertyOp13
 70
     1
102
RTVSPropertyOp14
 70
     1
102
RTVSPropertyOp15
 70
     1
102
RTVSPropertyOp16
 70
     1
102
RTVSPropertyOp17
 70
     1
102
RTVSPropertyOp18
 70
     1
102
RTVSPropertyOp19
 70
     1
102
RTVSPropertyOp20
 70
     1
102
RTVSPropertyOp21
 70
     1
102
RTVSPropertyOp22
 70
     1
102
RTVSPropertyOp23
 70
     1
102
RTVSPropertyOp24
 70
     1
102
RTVSPropertyOp25
 70
     1
102
RTVSPropertyOp26
 70
     1
102
RTVSPropertyOp27
 70
     1
102
RTVSPropertyOp28
 70
     1
102
RTVSPropertyOp29
 70
     1
102
RTVSPropertyOp30
 70
     1
102
RTVSPropertyOp31
 70
     1
102
RTVSPropertyOp32
 70
     1
102
RTVSPropertyOp33
 70
     1
102
RTVSPropertyOp34
 70
     1
102
RTVSPropertyOp35
 70
     1
102
RTVSPropertyOp36
 70
     1
102
RTVSPropertyOp37
 70
     1
102
RTVSPropertyOp38
 70
     1
102
RTVSPropertyOp39
 70
     1
102
RTVSPropertyOp40
 70
     1
102
RTVSPropertyOp41
 70
     1
102
RTVSPropertyOp42
 70
     1
102
RTVSPropertyOp43
 70
     1
102
RTVSPropertyOp44
 70
     1
102
RTVSPropertyOp45
 70
     1
102
RTVSPropertyOp46
 70
     1
102
RTVSPropertyOp47
 70
     1
102
RTVSPropertyOp48
 70
     1
102
RTVSPropertyOp49
 70
     1
102
RTVSPropertyOp50
 70
     1
102
RTVSPropertyOp51
 70
     0
102
RTVSPropertyOp52
 70
     0
102
RTVSPropertyOp53
 70
     1
102
RTVSPropertyOp54
 70
     1
102
RTVSPropertyOp55
 70
     1
102
RTVSPropertyOp56
 70
     1
102
RTVSPropertyOp57
 70
     1
102
RTVSPost2010Prop28
280
     0
102
RTVSPost2010PropOp28
 70
     1
102
RTVSPost2010Prop29
280
     1
102
RTVSPost2010PropOp29
 70
     1
102
RTVSPost2010Prop30
280
     1
102
RTVSPost2010PropOp30
 70
     1
102
RTVSPost2010Prop31
280
     0
102
RTVSPost2010PropOp31
 70
     1
102
RTVSPost2010Prop32
280
     0
102
RTVSPost2010PropOp32
 70
     1
102
RTVSPost2010Prop33
280
     0
102
RTVSPost2010PropOp33
 70
     1
102
RTVSPost2010Prop34
280
     0
102
RTVSPost2010PropOp34
 70
     1
102
RTVSPost2010Prop35
280
     0
102
RTVSPost2010PropOp35
 70
     1
102
RTVSPost2010Prop36
280
     0
102
RTVSPost2010PropOp36
 70
     1
102
RTVSPost2010Prop37
 90
       50
102
RTVSPost2010PropOp37
 70
     1
102
RTVSPost2010Prop38
140
0.0
102
RTVSPost2010PropOp38
 70
     1
102
RTVSPost2010Prop39
140
1.0
102
RTVSPost2010PropOp39
 70
     1
102
RTVSPost2010Prop40
 90
        0
102
RTVSPost2010PropOp40
 70
     1
102
RTVSPost2010Prop41ColorIndex
 90
       18
102
RTVSPost2010Prop41ColorRGB
 90
        0
102
RTVSPost2010PropOp41
 70
     1
102
RTVSPost2010Prop42
 90
       50
102
RTVSPost2010PropOp42
 70
     1
102
RTVSPost2010Prop43
 90
        3
102
RTVSPost2010PropOp43
 70
     1
102
RTVSPost2010Prop44ColorIndex
 90
        5
102
RTVSPost2010Prop44ColorRGB
 90
      255
102
RTVSPost2010PropOp44
 70
     1
102
RTVSPost2010Prop45
280
     0
102
RTVSPost2010PropOp45
 70
     1
102
RTVSPost2010Prop46
 90
       50
102
RTVSPost2010PropOp46
 70
     1
102
RTVSPost2010Prop47
 90
       50
102
RTVSPost2010PropOp47
 70
     1
102
RTVSPost2010Prop48
 90
       50
102
RTVSPost2010PropOp48
 70
     1
102
RTVSPost2010Prop49
280
     0
102
RTVSPost2010PropOp49
 70
     1
102
RTVSPost2010Prop50
 90
       50
102
RTVSPost2010PropOp50
 70
     1
102
RTVSPost2010Prop51ColorIndex
 90
      256
102
RTVSPost2010Prop51ColorRGB
 90
-16777216
102
RTVSPost2010PropOp51
 70
     0
102
RTVSPost2010Prop52
140
1.0
102
RTVSPost2010PropOp52
 70
     0
102
RTVSPost2010Prop53
 90
        2
102
RTVSPost2010PropOp53
 70
     1
102
RTVSPost2010Prop54
  1
strokes_ogs.tif
102
RTVSPost2010PropOp54
 70
     1
102
RTVSPost2010Prop55
280
     0
102
RTVSPost2010PropOp55
 70
     1
102
RTVSPost2010Prop56
140
1.0
102
RTVSPost2010PropOp56
 70
     1
102
RTVSPost2010Prop57
140
1.0
102
RTVSPost2010PropOp57
 70
     1
  0
XRECORD
  5
150
102
{ACAD_REACTORS
330
14F
102
}
330
14F
100
AcDbXrecord
280
     1
102
RTVSPropertyOp0
 70
     0
102
RTVSPropertyOp1
 70
     0
102
RTVSPropertyOp2
 70
     0
102
RTVSPropertyOp3
 70
     0
102
RTVSPropertyOp4
 70
     0
102
RTVSPropertyOp5
 70
     0
102
RTVSPropertyOp6
 70
     0
102
RTVSPropertyOp7
 70
     0
102
RTVSPropertyOp8
 70
     0
102
RTVSPropertyOp9
 70
     0
102
RTVSPropertyOp10
 70
     0
102
RTVSPropertyOp11
 70
     0
102
RTVSPropertyOp12
 70
     0
102
RTVSPropertyOp13
 70
     0
102
RTVSPropertyOp14
 70
     2
102
RTVSPropertyOp15
 70
     0
102
RTVSPropertyOp16
 70
     0
102
RTVSPropertyOp17
 70
     0
102
RTVSPropertyOp18
 70
     0
102
RTVSPropertyOp19
 70
     0
102
RTVSPropertyOp20
 70
     0
102
RTVSPropertyOp21
 70
     0
102
RTVSPropertyOp22
 70
     0
102
RTVSPropertyOp23
 70
     0
102
RTVSPropertyOp24
 70
     0
102
RTVSPropertyOp25
 70
     0
102
RTVSPropertyOp26
 70
     0
102
RTVSPropertyOp27
 70
     0
102
RTVSPropertyOp28
 70
     0
102
RTVSPropertyOp29
 70
     0
102
RTVSPropertyOp30
 70
     0
102
RTVSPropertyOp31
 70
     0
102
RTVSPropertyOp32
 70
     0
102
RTVSPropertyOp33
 70
     0
102
RTVSPropertyOp34
 70
     0
102
RTVSPropertyOp35
 70
     0
102
RTVSPropertyOp36
 70
     0
102
RTVSPropertyOp37
 70
     0
102
RTVSPropertyOp38
 70
     0
102
RTVSPropertyOp39
 70
     0
102
RTVSPropertyOp40
 70
     0
102
RTVSPropertyOp41
 70
     0
102
RTVSPropertyOp42
 70
     0
102
RTVSPropertyOp43
 70
     0
102
RTVSPropertyOp44
 70
     0
102
RTVSPropertyOp45
 70
     0
102
RTVSPropertyOp46
 70
     0
102
RTVSPropertyOp47
 70
     0
102
RTVSPropertyOp48
 70
     0
102
RTVSPropertyOp49
 70
     0
102
RTVSPropertyOp50
 70
     0
102
RTVSPropertyOp51
 70
     0
102
RTVSPropertyOp52
 70
     0
102
RTVSPropertyOp53
 70
     0
102
RTVSPropertyOp54
 70
     0
102
RTVSPropertyOp55
 70
     0
102
RTVSPropertyOp56
 70
     0
102
RTVSPropertyOp57
 70
     0
102
RTVSPost2010Prop28
280
     0
102
RTVSPost2010PropOp28
 70
     0
102
RTVSPost2010Prop29
280
     1
102
RTVSPost2010PropOp29
 70
     0
102
RTVSPost2010Prop30
280
     1
102
RTVSPost2010PropOp30
 70
     0
102
RTVSPost2010Prop31
280
     0
102
RTVSPost2010PropOp31
 70
     0
102
RTVSPost2010Prop32
280
     0
102
RTVSPost2010PropOp32
 70
     0
102
RTVSPost2010Prop33
280
     0
102
RTVSPost2010PropOp33
 70
     0
102
RTVSPost2010Prop34
280
     0
102
RTVSPost2010PropOp34
 70
     0
102
RTVSPost2010Prop35
280
     0
102
RTVSPost2010PropOp35
 70
     0
102
RTVSPost2010Prop36
280
     0
102
RTVSPost2010PropOp36
 70
     0
102
RTVSPost2010Prop37
 90
       50
102
RTVSPost2010PropOp37
 70
     0
102
RTVSPost2010Prop38
140
0.0
102
RTVSPost2010PropOp38
 70
     0
102
RTVSPost2010Prop39
140
1.0
102
RTVSPost2010PropOp39
 70
     0
102
RTVSPost2010Prop40
 90
        0
102
RTVSPost2010PropOp40
 70
     0
102
RTVSPost2010Prop41ColorIndex
 90
       18
102
RTVSPost2010Prop41ColorRGB
 90
        0
102
RTVSPost2010PropOp41
 70
     0
102
RTVSPost2010Prop42
 90
       50
102
RTVSPost2010PropOp42
 70
     0
102
RTVSPost2010Prop43
 90
        3
102
RTVSPost2010PropOp43
 70
     0
102
RTVSPost2010Prop44ColorIndex
 90
        5
102
RTVSPost2010Prop44ColorRGB
 90
      255
102
RTVSPost2010PropOp44
 70
     0
102
RTVSPost2010Prop45
280
     0
102
RTVSPost2010PropOp45
 70
     0
102
RTVSPost2010Prop46
 90
       50
102
RTVSPost2010PropOp46
 70
     0
102
RTVSPost2010Prop47
 90
       50
102
RTVSPost2010PropOp47
 70
     0
102
RTVSPost2010Prop48
 90
       50
102
RTVSPost2010PropOp48
 70
     0
102
RTVSPost2010Prop49
280
     0
102
RTVSPost2010PropOp49
 70
     0
102
RTVSPost2010Prop50
 90
       50
102
RTVSPost2010PropOp50
 70
     0
102
RTVSPost2010Prop51ColorIndex
 90
      256
102
RTVSPost2010Prop51ColorRGB
 90
-16777216
102
RTVSPost2010PropOp51
 70
     0
102
RTVSPost2010Prop52
140
1.0
102
RTVSPost2010PropOp52
 70
     0
102
RTVSPost2010Prop53
 90
        2
102
RTVSPost2010PropOp53
 70
     0
102
RTVSPost2010Prop54
  1
strokes_ogs.tif
102
RTVSPost2010PropOp54
 70
     0
102
RTVSPost2010Prop55
280
     0
102
RTVSPost2010PropOp55
 70
     0
102
RTVSPost2010Prop56
140
1.0
102
RTVSPost2010PropOp56
 70
     0
102
RTVSPost2010Prop57
140
1.0
102
RTVSPost2010PropOp57
 70
     0
  0
XRECORD
  5
13E
102
{ACAD_REACTORS
330
13D
102
}
330
13D
100
AcDbXrecord
280
     1
102
RTVSPropertyOp0
 70
     1
102
RTVSPropertyOp1
 70
     1
102
RTVSPropertyOp2
 70
     1
102
RTVSPropertyOp3
 70
     1
102
RTVSPropertyOp4
 70
     1
102
RTVSPropertyOp5
 70
     1
102
RTVSPropertyOp6
 70
     1
102
RTVSPropertyOp7
 70
     1
102
RTVSPropertyOp8
 70
     1
102
RTVSPropertyOp9
 70
     1
102
RTVSPropertyOp10
 70
     1
102
RTVSPropertyOp11
 70
     1
102
RTVSPropertyOp12
 70
     1
102
RTVSPropertyOp13
 70
     1
102
RTVSPropertyOp14
 70
     1
102
RTVSPropertyOp15
 70
     1
102
RTVSPropertyOp16
 70
     1
102
RTVSPropertyOp17
 70
     1
102
RTVSPropertyOp18
 70
     1
102
RTVSPropertyOp19
 70
     1
102
RTVSPropertyOp20
 70
     1
102
RTVSPropertyOp21
 70
     1
102
RTVSPropertyOp22
 70
     1
102
RTVSPropertyOp23
 70
     1
102
RTVSPropertyOp24
 70
     1
102
RTVSPropertyOp25
 70
     1
102
RTVSPropertyOp26
 70
     1
102
RTVSPropertyOp27
 70
     1
102
RTVSPropertyOp28
 70
     1
102
RTVSPropertyOp29
 70
     1
102
RTVSPropertyOp30
 70
     1
102
RTVSPropertyOp31
 70
     1
102
RTVSPropertyOp32
 70
     1
102
RTVSPropertyOp33
 70
     1
102
RTVSPropertyOp34
 70
     1
102
RTVSPropertyOp35
 70
     1
102
RTVSPropertyOp36
 70
     1
102
RTVSPropertyOp37
 70
     1
102
RTVSPropertyOp38
 70
     1
102
RTVSPropertyOp39
 70
     1
102
RTVSPropertyOp40
 70
     1
102
RTVSPropertyOp41
 70
     1
102
RTVSPropertyOp42
 70
     1
102
RTVSPropertyOp43
 70
     1
102
RTVSPropertyOp44
 70
     1
102
RTVSPropertyOp45
 70
     1
102
RTVSPropertyOp46
 70
     1
102
RTVSPropertyOp47
 70
     1
102
RTVSPropertyOp48
 70
     1
102
RTVSPropertyOp49
 70
     1
102
RTVSPropertyOp50
 70
     1
102
RTVSPropertyOp51
 70
     0
102
RTVSPropertyOp52
 70
     0
102
RTVSPropertyOp53
 70
     1
102
RTVSPropertyOp54
 70
     1
102
RTVSPropertyOp55
 70
     1
102
RTVSPropertyOp56
 70
     1
102
RTVSPropertyOp57
 70
     1
102
RTVSPost2010Prop28
280
     0
102
RTVSPost2010PropOp28
 70
     1
102
RTVSPost2010Prop29
280
     1
102
RTVSPost2010PropOp29
 70
     1
102
RTVSPost2010Prop30
280
     1
102
RTVSPost2010PropOp30
 70
     1
102
RTVSPost2010Prop31
280
     0
102
RTVSPost2010PropOp31
 70
     1
102
RTVSPost2010Prop32
280
     0
102
RTVSPost2010PropOp32
 70
     1
102
RTVSPost2010Prop33
280
     0
102
RTVSPost2010PropOp33
 70
     1
102
RTVSPost2010Prop34
280
     0
102
RTVSPost2010PropOp34
 70
     1
102
RTVSPost2010Prop35
280
     0
102
RTVSPost2010PropOp35
 70
     1
102
RTVSPost2010Prop36
280
     0
102
RTVSPost2010PropOp36
 70
     1
102
RTVSPost2010Prop37
 90
       50
102
RTVSPost2010PropOp37
 70
     1
102
RTVSPost2010Prop38
140
0.0
102
RTVSPost2010PropOp38
 70
     1
102
RTVSPost2010Prop39
140
1.0
102
RTVSPost2010PropOp39
 70
     1
102
RTVSPost2010Prop40
 90
        0
102
RTVSPost2010PropOp40
 70
     1
102
RTVSPost2010Prop41ColorIndex
 90
       18
102
RTVSPost2010Prop41ColorRGB
 90
        0
102
RTVSPost2010PropOp41
 70
     1
102
RTVSPost2010Prop42
 90
       50
102
RTVSPost2010PropOp42
 70
     1
102
RTVSPost2010Prop43
 90
        3
102
RTVSPost2010PropOp43
 70
     1
102
RTVSPost2010Prop44ColorIndex
 90
        5
102
RTVSPost2010Prop44ColorRGB
 90
      255
102
RTVSPost2010PropOp44
 70
     1
102
RTVSPost2010Prop45
280
     0
102
RTVSPost2010PropOp45
 70
     1
102
RTVSPost2010Prop46
 90
       50
102
RTVSPost2010PropOp46
 70
     1
102
RTVSPost2010Prop47
 90
       50
102
RTVSPost2010PropOp47
 70
     1
102
RTVSPost2010Prop48
 90
       50
102
RTVSPost2010PropOp48
 70
     1
102
RTVSPost2010Prop49
280
     0
102
RTVSPost2010PropOp49
 70
     1
102
RTVSPost2010Prop50
 90
       50
102
RTVSPost2010PropOp50
 70
     1
102
RTVSPost2010Prop51ColorIndex
 90
      256
102
RTVSPost2010Prop51ColorRGB
 90
-16777216
102
RTVSPost2010PropOp51
 70
     0
102
RTVSPost2010Prop52
140
1.0
102
RTVSPost2010PropOp52
 70
     0
102
RTVSPost2010Prop53
 90
        2
102
RTVSPost2010PropOp53
 70
     1
102
RTVSPost2010Prop54
  1
strokes_ogs.tif
102
RTVSPost2010PropOp54
 70
     1
102
RTVSPost2010Prop55
280
     0
102
RTVSPost2010PropOp55
 70
     1
102
RTVSPost2010Prop56
140
1.0
102
RTVSPost2010PropOp56
 70
     1
102
RTVSPost2010Prop57
140
1.0
102
RTVSPost2010PropOp57
 70
     1
  0
XRECORD
  5
15C
102
{ACAD_REACTORS
330
15B
102
}
330
15B
100
AcDbXrecord
280
     1
102
RTVSPropertyOp0
 70
     1
102
RTVSPropertyOp1
 70
     1
102
RTVSPropertyOp2
 70
     1
102
RTVSPropertyOp3
 70
     1
102
RTVSPropertyOp4
 70
     1
102
RTVSPropertyOp5
 70
     1
102
RTVSPropertyOp6
 70
     1
102
RTVSPropertyOp7
 70
     1
102
RTVSPropertyOp8
 70
     1
102
RTVSPropertyOp9
 70
     1
102
RTVSPropertyOp10
 70
     1
102
RTVSPropertyOp11
 70
     1
102
RTVSPropertyOp12
 70
     1
102
RTVSPropertyOp13
 70
     1
102
RTVSPropertyOp14
 70
     1
102
RTVSPropertyOp15
 70
     1
102
RTVSPropertyOp16
 70
     1
102
RTVSPropertyOp17
 70
     1
102
RTVSPropertyOp18
 70
     1
102
RTVSPropertyOp19
 70
     1
102
RTVSPropertyOp20
 70
     1
102
RTVSPropertyOp21
 70
     1
102
RTVSPropertyOp22
 70
     1
102
RTVSPropertyOp23
 70
     1
102
RTVSPropertyOp24
 70
     1
102
RTVSPropertyOp25
 70
     1
102
RTVSPropertyOp26
 70
     1
102
RTVSPropertyOp27
 70
     1
102
RTVSPropertyOp28
 70
     1
102
RTVSPropertyOp29
 70
     1
102
RTVSPropertyOp30
 70
     1
102
RTVSPropertyOp31
 70
     1
102
RTVSPropertyOp32
 70
     1
102
RTVSPropertyOp33
 70
     1
102
RTVSPropertyOp34
 70
     1
102
RTVSPropertyOp35
 70
     1
102
RTVSPropertyOp36
 70
     1
102
RTVSPropertyOp37
 70
     1
102
RTVSPropertyOp38
 70
     1
102
RTVSPropertyOp39
 70
     1
102
RTVSPropertyOp40
 70
     1
102
RTVSPropertyOp41
 70
     1
102
RTVSPropertyOp42
 70
     1
102
RTVSPropertyOp43
 70
     1
102
RTVSPropertyOp44
 70
     1
102
RTVSPropertyOp45
 70
     1
102
RTVSPropertyOp46
 70
     1
102
RTVSPropertyOp47
 70
     1
102
RTVSPropertyOp48
 70
     1
102
RTVSPropertyOp49
 70
     1
102
RTVSPropertyOp50
 70
     1
102
RTVSPropertyOp51
 70
     0
102
RTVSPropertyOp52
 70
     0
102
RTVSPropertyOp53
 70
     1
102
RTVSPropertyOp54
 70
     1
102
RTVSPropertyOp55
 70
     1
102
RTVSPropertyOp56
 70
     1
102
RTVSPropertyOp57
 70
     1
102
RTVSPost2010Prop28
280
     0
102
RTVSPost2010PropOp28
 70
     1
102
RTVSPost2010Prop29
280
     1
102
RTVSPost2010PropOp29
 70
     1
102
RTVSPost2010Prop30
280
     1
102
RTVSPost2010PropOp30
 70
     1
102
RTVSPost2010Prop31
280
     0
102
RTVSPost2010PropOp31
 70
     1
102
RTVSPost2010Prop32
280
     0
102
RTVSPost2010PropOp32
 70
     1
102
RTVSPost2010Prop33
280
     0
102
RTVSPost2010PropOp33
 70
     1
102
RTVSPost2010Prop34
280
     0
102
RTVSPost2010PropOp34
 70
     1
102
RTVSPost2010Prop35
280
     0
102
RTVSPost2010PropOp35
 70
     1
102
RTVSPost2010Prop36
280
     0
102
RTVSPost2010PropOp36
 70
     1
102
RTVSPost2010Prop37
 90
       50
102
RTVSPost2010PropOp37
 70
     1
102
RTVSPost2010Prop38
140
0.0
102
RTVSPost2010PropOp38
 70
     1
102
RTVSPost2010Prop39
140
1.0
102
RTVSPost2010PropOp39
 70
     1
102
RTVSPost2010Prop40
 90
        0
102
RTVSPost2010PropOp40
 70
     1
102
RTVSPost2010Prop41ColorIndex
 90
       18
102
RTVSPost2010Prop41ColorRGB
 90
        0
102
RTVSPost2010PropOp41
 70
     1
102
RTVSPost2010Prop42
 90
       50
102
RTVSPost2010PropOp42
 70
     1
102
RTVSPost2010Prop43
 90
        3
102
RTVSPost2010PropOp43
 70
     1
102
RTVSPost2010Prop44ColorIndex
 90
        5
102
RTVSPost2010Prop44ColorRGB
 90
      255
102
RTVSPost2010PropOp44
 70
     1
102
RTVSPost2010Prop45
280
     0
102
RTVSPost2010PropOp45
 70
     1
102
RTVSPost2010Prop46
 90
       50
102
RTVSPost2010PropOp46
 70
     1
102
RTVSPost2010Prop47
 90
       50
102
RTVSPost2010PropOp47
 70
     1
102
RTVSPost2010Prop48
 90
       50
102
RTVSPost2010PropOp48
 70
     1
102
RTVSPost2010Prop49
280
     0
102
RTVSPost2010PropOp49
 70
     1
102
RTVSPost2010Prop50
 90
       50
102
RTVSPost2010PropOp50
 70
     1
102
RTVSPost2010Prop51ColorIndex
 90
      256
102
RTVSPost2010Prop51ColorRGB
 90
-16777216
102
RTVSPost2010PropOp51
 70
     0
102
RTVSPost2010Prop52
140
1.0
102
RTVSPost2010PropOp52
 70
     0
102
RTVSPost2010Prop53
 90
        2
102
RTVSPost2010PropOp53
 70
     1
102
RTVSPost2010Prop54
  1
strokes_ogs.tif
102
RTVSPost2010PropOp54
 70
     1
102
RTVSPost2010Prop55
280
     0
102
RTVSPost2010PropOp55
 70
     1
102
RTVSPost2010Prop56
140
1.0
102
RTVSPost2010PropOp56
 70
     1
102
RTVSPost2010Prop57
140
1.0
102
RTVSPost2010PropOp57
 70
     1
  0
XRECORD
  5
15A
102
{ACAD_REACTORS
330
159
102
}
330
159
100
AcDbXrecord
280
     1
102
RTVSPropertyOp0
 70
     1
102
RTVSPropertyOp1
 70
     1
102
RTVSPropertyOp2
 70
     1
102
RTVSPropertyOp3
 70
     1
102
RTVSPropertyOp4
 70
     1
102
RTVSPropertyOp5
 70
     1
102
RTVSPropertyOp6
 70
     1
102
RTVSPropertyOp7
 70
     1
102
RTVSPropertyOp8
 70
     1
102
RTVSPropertyOp9
 70
     1
102
RTVSPropertyOp10
 70
     1
102
RTVSPropertyOp11
 70
     1
102
RTVSPropertyOp12
 70
     1
102
RTVSPropertyOp13
 70
     1
102
RTVSPropertyOp14
 70
     1
102
RTVSPropertyOp15
 70
     1
102
RTVSPropertyOp16
 70
     1
102
RTVSPropertyOp17
 70
     1
102
RTVSPropertyOp18
 70
     1
102
RTVSPropertyOp19
 70
     1
102
RTVSPropertyOp20
 70
     1
102
RTVSPropertyOp21
 70
     1
102
RTVSPropertyOp22
 70
     1
102
RTVSPropertyOp23
 70
     1
102
RTVSPropertyOp24
 70
     1
102
RTVSPropertyOp25
 70
     1
102
RTVSPropertyOp26
 70
     1
102
RTVSPropertyOp27
 70
     1
102
RTVSPropertyOp28
 70
     1
102
RTVSPropertyOp29
 70
     1
102
RTVSPropertyOp30
 70
     1
102
RTVSPropertyOp31
 70
     1
102
RTVSPropertyOp32
 70
     1
102
RTVSPropertyOp33
 70
     1
102
RTVSPropertyOp34
 70
     1
102
RTVSPropertyOp35
 70
     1
102
RTVSPropertyOp36
 70
     1
102
RTVSPropertyOp37
 70
     1
102
RTVSPropertyOp38
 70
     1
102
RTVSPropertyOp39
 70
     1
102
RTVSPropertyOp40
 70
     1
102
RTVSPropertyOp41
 70
     1
102
RTVSPropertyOp42
 70
     1
102
RTVSPropertyOp43
 70
     1
102
RTVSPropertyOp44
 70
     1
102
RTVSPropertyOp45
 70
     1
102
RTVSPropertyOp46
 70
     1
102
RTVSPropertyOp47
 70
     1
102
RTVSPropertyOp48
 70
     1
102
RTVSPropertyOp49
 70
     1
102
RTVSPropertyOp50
 70
     1
102
RTVSPropertyOp51
 70
     0
102
RTVSPropertyOp52
 70
     0
102
RTVSPropertyOp53
 70
     1
102
RTVSPropertyOp54
 70
     1
102
RTVSPropertyOp55
 70
     1
102
RTVSPropertyOp56
 70
     1
102
RTVSPropertyOp57
 70
     1
102
RTVSPost2010Prop28
280
     0
102
RTVSPost2010PropOp28
 70
     1
102
RTVSPost2010Prop29
280
     1
102
RTVSPost2010PropOp29
 70
     1
102
RTVSPost2010Prop30
280
     1
102
RTVSPost2010PropOp30
 70
     1
102
RTVSPost2010Prop31
280
     0
102
RTVSPost2010PropOp31
 70
     1
102
RTVSPost2010Prop32
280
     0
102
RTVSPost2010PropOp32
 70
     1
102
RTVSPost2010Prop33
280
     0
102
RTVSPost2010PropOp33
 70
     1
102
RTVSPost2010Prop34
280
     0
102
RTVSPost2010PropOp34
 70
     1
102
RTVSPost2010Prop35
280
     0
102
RTVSPost2010PropOp35
 70
     1
102
RTVSPost2010Prop36
280
     0
102
RTVSPost2010PropOp36
 70
     1
102
RTVSPost2010Prop37
 90
       50
102
RTVSPost2010PropOp37
 70
     1
102
RTVSPost2010Prop38
140
0.0
102
RTVSPost2010PropOp38
 70
     1
102
RTVSPost2010Prop39
140
1.0
102
RTVSPost2010PropOp39
 70
     1
102
RTVSPost2010Prop40
 90
        0
102
RTVSPost2010PropOp40
 70
     1
102
RTVSPost2010Prop41ColorIndex
 90
       18
102
RTVSPost2010Prop41ColorRGB
 90
        0
102
RTVSPost2010PropOp41
 70
     1
102
RTVSPost2010Prop42
 90
       50
102
RTVSPost2010PropOp42
 70
     1
102
RTVSPost2010Prop43
 90
        3
102
RTVSPost2010PropOp43
 70
     1
102
RTVSPost2010Prop44ColorIndex
 90
        5
102
RTVSPost2010Prop44ColorRGB
 90
      255
102
RTVSPost2010PropOp44
 70
     1
102
RTVSPost2010Prop45
280
     0
102
RTVSPost2010PropOp45
 70
     1
102
RTVSPost2010Prop46
 90
       50
102
RTVSPost2010PropOp46
 70
     1
102
RTVSPost2010Prop47
 90
       50
102
RTVSPost2010PropOp47
 70
     1
102
RTVSPost2010Prop48
 90
       50
102
RTVSPost2010PropOp48
 70
     1
102
RTVSPost2010Prop49
280
     0
102
RTVSPost2010PropOp49
 70
     1
102
RTVSPost2010Prop50
 90
       50
102
RTVSPost2010PropOp50
 70
     1
102
RTVSPost2010Prop51ColorIndex
 90
      256
102
RTVSPost2010Prop51ColorRGB
 90
-16777216
102
RTVSPost2010PropOp51
 70
     0
102
RTVSPost2010Prop52
140
1.0
102
RTVSPost2010PropOp52
 70
     0
102
RTVSPost2010Prop53
 90
        2
102
RTVSPost2010PropOp53
 70
     1
102
RTVSPost2010Prop54
  1
strokes_ogs.tif
102
RTVSPost2010PropOp54
 70
     1
102
RTVSPost2010Prop55
280
     0
102
RTVSPost2010PropOp55
 70
     1
102
RTVSPost2010Prop56
140
1.0
102
RTVSPost2010PropOp56
 70
     1
102
RTVSPost2010Prop57
140
1.0
102
RTVSPost2010PropOp57
 70
     1
  0
XRECORD
  5
154
102
{ACAD_REACTORS
330
153
102
}
330
153
100
AcDbXrecord
280
     1
102
RTVSPropertyOp0
 70
     1
102
RTVSPropertyOp1
 70
     1
102
RTVSPropertyOp2
 70
     1
102
RTVSPropertyOp3
 70
     1
102
RTVSPropertyOp4
 70
     1
102
RTVSPropertyOp5
 70
     1
102
RTVSPropertyOp6
 70
     1
102
RTVSPropertyOp7
 70
     1
102
RTVSPropertyOp8
 70
     1
102
RTVSPropertyOp9
 70
     1
102
RTVSPropertyOp10
 70
     1
102
RTVSPropertyOp11
 70
     1
102
RTVSPropertyOp12
 70
     1
102
RTVSPropertyOp13
 70
     1
102
RTVSPropertyOp14
 70
     1
102
RTVSPropertyOp15
 70
     1
102
RTVSPropertyOp16
 70
     1
102
RTVSPropertyOp17
 70
     1
102
RTVSPropertyOp18
 70
     1
102
RTVSPropertyOp19
 70
     1
102
RTVSPropertyOp20
 70
     1
102
RTVSPropertyOp21
 70
     1
102
RTVSPropertyOp22
 70
     1
102
RTVSPropertyOp23
 70
     1
102
RTVSPropertyOp24
 70
     1
102
RTVSPropertyOp25
 70
     1
102
RTVSPropertyOp26
 70
     1
102
RTVSPropertyOp27
 70
     1
102
RTVSPropertyOp28
 70
     1
102
RTVSPropertyOp29
 70
     1
102
RTVSPropertyOp30
 70
     1
102
RTVSPropertyOp31
 70
     1
102
RTVSPropertyOp32
 70
     1
102
RTVSPropertyOp33
 70
     1
102
RTVSPropertyOp34
 70
     1
102
RTVSPropertyOp35
 70
     1
102
RTVSPropertyOp36
 70
     1
102
RTVSPropertyOp37
 70
     1
102
RTVSPropertyOp38
 70
     1
102
RTVSPropertyOp39
 70
     1
102
RTVSPropertyOp40
 70
     1
102
RTVSPropertyOp41
 70
     1
102
RTVSPropertyOp42
 70
     1
102
RTVSPropertyOp43
 70
     1
102
RTVSPropertyOp44
 70
     1
102
RTVSPropertyOp45
 70
     1
102
RTVSPropertyOp46
 70
     1
102
RTVSPropertyOp47
 70
     1
102
RTVSPropertyOp48
 70
     1
102
RTVSPropertyOp49
 70
     1
102
RTVSPropertyOp50
 70
     1
102
RTVSPropertyOp51
 70
     0
102
RTVSPropertyOp52
 70
     0
102
RTVSPropertyOp53
 70
     1
102
RTVSPropertyOp54
 70
     1
102
RTVSPropertyOp55
 70
     1
102
RTVSPropertyOp56
 70
     1
102
RTVSPropertyOp57
 70
     1
102
RTVSPost2010Prop28
280
     0
102
RTVSPost2010PropOp28
 70
     1
102
RTVSPost2010Prop29
280
     1
102
RTVSPost2010PropOp29
 70
     1
102
RTVSPost2010Prop30
280
     1
102
RTVSPost2010PropOp30
 70
     1
102
RTVSPost2010Prop31
280
     0
102
RTVSPost2010PropOp31
 70
     1
102
RTVSPost2010Prop32
280
     0
102
RTVSPost2010PropOp32
 70
     1
102
RTVSPost2010Prop33
280
     0
102
RTVSPost2010PropOp33
 70
     1
102
RTVSPost2010Prop34
280
     0
102
RTVSPost2010PropOp34
 70
     1
102
RTVSPost2010Prop35
280
     0
102
RTVSPost2010PropOp35
 70
     1
102
RTVSPost2010Prop36
280
     0
102
RTVSPost2010PropOp36
 70
     1
102
RTVSPost2010Prop37
 90
       50
102
RTVSPost2010PropOp37
 70
     1
102
RTVSPost2010Prop38
140
0.0
102
RTVSPost2010PropOp38
 70
     1
102
RTVSPost2010Prop39
140
1.0
102
RTVSPost2010PropOp39
 70
     1
102
RTVSPost2010Prop40
 90
        0
102
RTVSPost2010PropOp40
 70
     1
102
RTVSPost2010Prop41ColorIndex
 90
       18
102
RTVSPost2010Prop41ColorRGB
 90
        0
102
RTVSPost2010PropOp41
 70
     1
102
RTVSPost2010Prop42
 90
       50
102
RTVSPost2010PropOp42
 70
     1
102
RTVSPost2010Prop43
 90
        3
102
RTVSPost2010PropOp43
 70
     1
102
RTVSPost2010Prop44ColorIndex
 90
        5
102
RTVSPost2010Prop44ColorRGB
 90
      255
102
RTVSPost2010PropOp44
 70
     1
102
RTVSPost2010Prop45
280
     0
102
RTVSPost2010PropOp45
 70
     1
102
RTVSPost2010Prop46
 90
       50
102
RTVSPost2010PropOp46
 70
     1
102
RTVSPost2010Prop47
 90
       50
102
RTVSPost2010PropOp47
 70
     1
102
RTVSPost2010Prop48
 90
       50
102
RTVSPost2010PropOp48
 70
     1
102
RTVSPost2010Prop49
280
     0
102
RTVSPost2010PropOp49
 70
     1
102
RTVSPost2010Prop50
 90
       50
102
RTVSPost2010PropOp50
 70
     1
102
RTVSPost2010Prop51ColorIndex
 90
      256
102
RTVSPost2010Prop51ColorRGB
 90
-16777216
102
RTVSPost2010PropOp51
 70
     0
102
RTVSPost2010Prop52
140
1.0
102
RTVSPost2010PropOp52
 70
     0
102
RTVSPost2010Prop53
 90
        2
102
RTVSPost2010PropOp53
 70
     1
102
RTVSPost2010Prop54
  1
strokes_ogs.tif
102
RTVSPost2010PropOp54
 70
     1
102
RTVSPost2010Prop55
280
     0
102
RTVSPost2010PropOp55
 70
     1
102
RTVSPost2010Prop56
140
1.0
102
RTVSPost2010PropOp56
 70
     1
102
RTVSPost2010Prop57
140
1.0
102
RTVSPost2010PropOp57
 70
     1
  0
XRECORD
  5
156
102
{ACAD_REACTORS
330
155
102
}
330
155
100
AcDbXrecord
280
     1
102
RTVSPropertyOp0
 70
     1
102
RTVSPropertyOp1
 70
     1
102
RTVSPropertyOp2
 70
     1
102
RTVSPropertyOp3
 70
     1
102
RTVSPropertyOp4
 70
     1
102
RTVSPropertyOp5
 70
     1
102
RTVSPropertyOp6
 70
     1
102
RTVSPropertyOp7
 70
     1
102
RTVSPropertyOp8
 70
     1
102
RTVSPropertyOp9
 70
     1
102
RTVSPropertyOp10
 70
     1
102
RTVSPropertyOp11
 70
     1
102
RTVSPropertyOp12
 70
     1
102
RTVSPropertyOp13
 70
     1
102
RTVSPropertyOp14
 70
     1
102
RTVSPropertyOp15
 70
     1
102
RTVSPropertyOp16
 70
     1
102
RTVSPropertyOp17
 70
     1
102
RTVSPropertyOp18
 70
     1
102
RTVSPropertyOp19
 70
     1
102
RTVSPropertyOp20
 70
     1
102
RTVSPropertyOp21
 70
     1
102
RTVSPropertyOp22
 70
     1
102
RTVSPropertyOp23
 70
     1
102
RTVSPropertyOp24
 70
     1
102
RTVSPropertyOp25
 70
     1
102
RTVSPropertyOp26
 70
     1
102
RTVSPropertyOp27
 70
     1
102
RTVSPropertyOp28
 70
     1
102
RTVSPropertyOp29
 70
     1
102
RTVSPropertyOp30
 70
     1
102
RTVSPropertyOp31
 70
     1
102
RTVSPropertyOp32
 70
     1
102
RTVSPropertyOp33
 70
     1
102
RTVSPropertyOp34
 70
     1
102
RTVSPropertyOp35
 70
     1
102
RTVSPropertyOp36
 70
     1
102
RTVSPropertyOp37
 70
     1
102
RTVSPropertyOp38
 70
     1
102
RTVSPropertyOp39
 70
     1
102
RTVSPropertyOp40
 70
     1
102
RTVSPropertyOp41
 70
     1
102
RTVSPropertyOp42
 70
     1
102
RTVSPropertyOp43
 70
     1
102
RTVSPropertyOp44
 70
     1
102
RTVSPropertyOp45
 70
     1
102
RTVSPropertyOp46
 70
     1
102
RTVSPropertyOp47
 70
     1
102
RTVSPropertyOp48
 70
     1
102
RTVSPropertyOp49
 70
     1
102
RTVSPropertyOp50
 70
     1
102
RTVSPropertyOp51
 70
     0
102
RTVSPropertyOp52
 70
     0
102
RTVSPropertyOp53
 70
     1
102
RTVSPropertyOp54
 70
     1
102
RTVSPropertyOp55
 70
     1
102
RTVSPropertyOp56
 70
     1
102
RTVSPropertyOp57
 70
     1
102
RTVSPost2010Prop28
280
     0
102
RTVSPost2010PropOp28
 70
     1
102
RTVSPost2010Prop29
280
     1
102
RTVSPost2010PropOp29
 70
     1
102
RTVSPost2010Prop30
280
     1
102
RTVSPost2010PropOp30
 70
     1
102
RTVSPost2010Prop31
280
     0
102
RTVSPost2010PropOp31
 70
     1
102
RTVSPost2010Prop32
280
     0
102
RTVSPost2010PropOp32
 70
     1
102
RTVSPost2010Prop33
280
     0
102
RTVSPost2010PropOp33
 70
     1
102
RTVSPost2010Prop34
280
     0
102
RTVSPost2010PropOp34
 70
     1
102
RTVSPost2010Prop35
280
     0
102
RTVSPost2010PropOp35
 70
     1
102
RTVSPost2010Prop36
280
     0
102
RTVSPost2010PropOp36
 70
     1
102
RTVSPost2010Prop37
 90
       50
102
RTVSPost2010PropOp37
 70
     1
102
RTVSPost2010Prop38
140
0.0
102
RTVSPost2010PropOp38
 70
     1
102
RTVSPost2010Prop39
140
1.0
102
RTVSPost2010PropOp39
 70
     1
102
RTVSPost2010Prop40
 90
        0
102
RTVSPost2010PropOp40
 70
     1
102
RTVSPost2010Prop41ColorIndex
 90
       18
102
RTVSPost2010Prop41ColorRGB
 90
        0
102
RTVSPost2010PropOp41
 70
     1
102
RTVSPost2010Prop42
 90
       50
102
RTVSPost2010PropOp42
 70
     1
102
RTVSPost2010Prop43
 90
        3
102
RTVSPost2010PropOp43
 70
     1
102
RTVSPost2010Prop44ColorIndex
 90
        5
102
RTVSPost2010Prop44ColorRGB
 90
      255
102
RTVSPost2010PropOp44
 70
     1
102
RTVSPost2010Prop45
280
     0
102
RTVSPost2010PropOp45
 70
     1
102
RTVSPost2010Prop46
 90
       50
102
RTVSPost2010PropOp46
 70
     1
102
RTVSPost2010Prop47
 90
       50
102
RTVSPost2010PropOp47
 70
     1
102
RTVSPost2010Prop48
 90
       50
102
RTVSPost2010PropOp48
 70
     1
102
RTVSPost2010Prop49
280
     0
102
RTVSPost2010PropOp49
 70
     1
102
RTVSPost2010Prop50
 90
       50
102
RTVSPost2010PropOp50
 70
     1
102
RTVSPost2010Prop51ColorIndex
 90
      256
102
RTVSPost2010Prop51ColorRGB
 90
-16777216
102
RTVSPost2010PropOp51
 70
     0
102
RTVSPost2010Prop52
140
1.0
102
RTVSPost2010PropOp52
 70
     0
102
RTVSPost2010Prop53
 90
        2
102
RTVSPost2010PropOp53
 70
     1
102
RTVSPost2010Prop54
  1
strokes_ogs.tif
102
RTVSPost2010PropOp54
 70
     1
102
RTVSPost2010Prop55
280
     0
102
RTVSPost2010PropOp55
 70
     1
102
RTVSPost2010Prop56
140
1.0
102
RTVSPost2010PropOp56
 70
     1
102
RTVSPost2010Prop57
140
1.0
102
RTVSPost2010PropOp57
 70
     1
  0
XRECORD
  5
146
102
{ACAD_REACTORS
330
145
102
}
330
145
100
AcDbXrecord
280
     1
102
RTVSPropertyOp0
 70
     1
102
RTVSPropertyOp1
 70
     1
102
RTVSPropertyOp2
 70
     1
102
RTVSPropertyOp3
 70
     1
102
RTVSPropertyOp4
 70
     1
102
RTVSPropertyOp5
 70
     1
102
RTVSPropertyOp6
 70
     1
102
RTVSPropertyOp7
 70
     1
102
RTVSPropertyOp8
 70
     1
102
RTVSPropertyOp9
 70
     1
102
RTVSPropertyOp10
 70
     1
102
RTVSPropertyOp11
 70
     1
102
RTVSPropertyOp12
 70
     1
102
RTVSPropertyOp13
 70
     1
102
RTVSPropertyOp14
 70
     1
102
RTVSPropertyOp15
 70
     1
102
RTVSPropertyOp16
 70
     1
102
RTVSPropertyOp17
 70
     1
102
RTVSPropertyOp18
 70
     1
102
RTVSPropertyOp19
 70
     1
102
RTVSPropertyOp20
 70
     1
102
RTVSPropertyOp21
 70
     1
102
RTVSPropertyOp22
 70
     1
102
RTVSPropertyOp23
 70
     1
102
RTVSPropertyOp24
 70
     1
102
RTVSPropertyOp25
 70
     1
102
RTVSPropertyOp26
 70
     1
102
RTVSPropertyOp27
 70
     1
102
RTVSPropertyOp28
 70
     1
102
RTVSPropertyOp29
 70
     1
102
RTVSPropertyOp30
 70
     1
102
RTVSPropertyOp31
 70
     1
102
RTVSPropertyOp32
 70
     1
102
RTVSPropertyOp33
 70
     1
102
RTVSPropertyOp34
 70
     1
102
RTVSPropertyOp35
 70
     1
102
RTVSPropertyOp36
 70
     1
102
RTVSPropertyOp37
 70
     1
102
RTVSPropertyOp38
 70
     1
102
RTVSPropertyOp39
 70
     1
102
RTVSPropertyOp40
 70
     1
102
RTVSPropertyOp41
 70
     1
102
RTVSPropertyOp42
 70
     1
102
RTVSPropertyOp43
 70
     1
102
RTVSPropertyOp44
 70
     1
102
RTVSPropertyOp45
 70
     1
102
RTVSPropertyOp46
 70
     1
102
RTVSPropertyOp47
 70
     1
102
RTVSPropertyOp48
 70
     1
102
RTVSPropertyOp49
 70
     1
102
RTVSPropertyOp50
 70
     1
102
RTVSPropertyOp51
 70
     0
102
RTVSPropertyOp52
 70
     0
102
RTVSPropertyOp53
 70
     1
102
RTVSPropertyOp54
 70
     1
102
RTVSPropertyOp55
 70
     1
102
RTVSPropertyOp56
 70
     1
102
RTVSPropertyOp57
 70
     1
102
RTVSPost2010Prop28
280
     0
102
RTVSPost2010PropOp28
 70
     1
102
RTVSPost2010Prop29
280
     1
102
RTVSPost2010PropOp29
 70
     1
102
RTVSPost2010Prop30
280
     1
102
RTVSPost2010PropOp30
 70
     1
102
RTVSPost2010Prop31
280
     0
102
RTVSPost2010PropOp31
 70
     1
102
RTVSPost2010Prop32
280
     0
102
RTVSPost2010PropOp32
 70
     1
102
RTVSPost2010Prop33
280
     0
102
RTVSPost2010PropOp33
 70
     1
102
RTVSPost2010Prop34
280
     0
102
RTVSPost2010PropOp34
 70
     1
102
RTVSPost2010Prop35
280
     0
102
RTVSPost2010PropOp35
 70
     1
102
RTVSPost2010Prop36
280
     0
102
RTVSPost2010PropOp36
 70
     1
102
RTVSPost2010Prop37
 90
       50
102
RTVSPost2010PropOp37
 70
     1
102
RTVSPost2010Prop38
140
0.0
102
RTVSPost2010PropOp38
 70
     1
102
RTVSPost2010Prop39
140
1.0
102
RTVSPost2010PropOp39
 70
     1
102
RTVSPost2010Prop40
 90
        0
102
RTVSPost2010PropOp40
 70
     1
102
RTVSPost2010Prop41ColorIndex
 90
       18
102
RTVSPost2010Prop41ColorRGB
 90
        0
102
RTVSPost2010PropOp41
 70
     1
102
RTVSPost2010Prop42
 90
       50
102
RTVSPost2010PropOp42
 70
     1
102
RTVSPost2010Prop43
 90
        3
102
RTVSPost2010PropOp43
 70
     1
102
RTVSPost2010Prop44ColorIndex
 90
        5
102
RTVSPost2010Prop44ColorRGB
 90
      255
102
RTVSPost2010PropOp44
 70
     1
102
RTVSPost2010Prop45
280
     0
102
RTVSPost2010PropOp45
 70
     1
102
RTVSPost2010Prop46
 90
       50
102
RTVSPost2010PropOp46
 70
     1
102
RTVSPost2010Prop47
 90
       50
102
RTVSPost2010PropOp47
 70
     1
102
RTVSPost2010Prop48
 90
       50
102
RTVSPost2010PropOp48
 70
     1
102
RTVSPost2010Prop49
280
     0
102
RTVSPost2010PropOp49
 70
     1
102
RTVSPost2010Prop50
 90
       50
102
RTVSPost2010PropOp50
 70
     1
102
RTVSPost2010Prop51ColorIndex
 90
      256
102
RTVSPost2010Prop51ColorRGB
 90
-16777216
102
RTVSPost2010PropOp51
 70
     0
102
RTVSPost2010Prop52
140
1.0
102
RTVSPost2010PropOp52
 70
     0
102
RTVSPost2010Prop53
 90
        2
102
RTVSPost2010PropOp53
 70
     1
102
RTVSPost2010Prop54
  1
strokes_ogs.tif
102
RTVSPost2010PropOp54
 70
     1
102
RTVSPost2010Prop55
280
     0
102
RTVSPost2010PropOp55
 70
     1
102
RTVSPost2010Prop56
140
1.0
102
RTVSPost2010PropOp56
 70
     1
102
RTVSPost2010Prop57
140
1.0
102
RTVSPost2010PropOp57
 70
     1
  0
XRECORD
  5
138
102
{ACAD_REACTORS
330
137
102
}
330
137
100
AcDbXrecord
280
     1
102
RTVSPropertyOp0
 70
     1
102
RTVSPropertyOp1
 70
     1
102
RTVSPropertyOp2
 70
     1
102
RTVSPropertyOp3
 70
     1
102
RTVSPropertyOp4
 70
     1
102
RTVSPropertyOp5
 70
     1
102
RTVSPropertyOp6
 70
     1
102
RTVSPropertyOp7
 70
     1
102
RTVSPropertyOp8
 70
     1
102
RTVSPropertyOp9
 70
     1
102
RTVSPropertyOp10
 70
     1
102
RTVSPropertyOp11
 70
     1
102
RTVSPropertyOp12
 70
     1
102
RTVSPropertyOp13
 70
     1
102
RTVSPropertyOp14
 70
     1
102
RTVSPropertyOp15
 70
     1
102
RTVSPropertyOp16
 70
     1
102
RTVSPropertyOp17
 70
     1
102
RTVSPropertyOp18
 70
     1
102
RTVSPropertyOp19
 70
     1
102
RTVSPropertyOp20
 70
     1
102
RTVSPropertyOp21
 70
     1
102
RTVSPropertyOp22
 70
     1
102
RTVSPropertyOp23
 70
     1
102
RTVSPropertyOp24
 70
     1
102
RTVSPropertyOp25
 70
     1
102
RTVSPropertyOp26
 70
     1
102
RTVSPropertyOp27
 70
     1
102
RTVSPropertyOp28
 70
     1
102
RTVSPropertyOp29
 70
     1
102
RTVSPropertyOp30
 70
     1
102
RTVSPropertyOp31
 70
     1
102
RTVSPropertyOp32
 70
     1
102
RTVSPropertyOp33
 70
     1
102
RTVSPropertyOp34
 70
     1
102
RTVSPropertyOp35
 70
     1
102
RTVSPropertyOp36
 70
     1
102
RTVSPropertyOp37
 70
     1
102
RTVSPropertyOp38
 70
     1
102
RTVSPropertyOp39
 70
     1
102
RTVSPropertyOp40
 70
     1
102
RTVSPropertyOp41
 70
     1
102
RTVSPropertyOp42
 70
     1
102
RTVSPropertyOp43
 70
     1
102
RTVSPropertyOp44
 70
     1
102
RTVSPropertyOp45
 70
     1
102
RTVSPropertyOp46
 70
     1
102
RTVSPropertyOp47
 70
     1
102
RTVSPropertyOp48
 70
     1
102
RTVSPropertyOp49
 70
     1
102
RTVSPropertyOp50
 70
     1
102
RTVSPropertyOp51
 70
     0
102
RTVSPropertyOp52
 70
     0
102
RTVSPropertyOp53
 70
     1
102
RTVSPropertyOp54
 70
     1
102
RTVSPropertyOp55
 70
     1
102
RTVSPropertyOp56
 70
     1
102
RTVSPropertyOp57
 70
     1
102
RTVSPost2010Prop28
280
     0
102
RTVSPost2010PropOp28
 70
     1
102
RTVSPost2010Prop29
280
     1
102
RTVSPost2010PropOp29
 70
     1
102
RTVSPost2010Prop30
280
     1
102
RTVSPost2010PropOp30
 70
     1
102
RTVSPost2010Prop31
280
     0
102
RTVSPost2010PropOp31
 70
     1
102
RTVSPost2010Prop32
280
     0
102
RTVSPost2010PropOp32
 70
     1
102
RTVSPost2010Prop33
280
     0
102
RTVSPost2010PropOp33
 70
     1
102
RTVSPost2010Prop34
280
     0
102
RTVSPost2010PropOp34
 70
     1
102
RTVSPost2010Prop35
280
     0
102
RTVSPost2010PropOp35
 70
     1
102
RTVSPost2010Prop36
280
     0
102
RTVSPost2010PropOp36
 70
     1
102
RTVSPost2010Prop37
 90
       50
102
RTVSPost2010PropOp37
 70
     1
102
RTVSPost2010Prop38
140
0.0
102
RTVSPost2010PropOp38
 70
     1
102
RTVSPost2010Prop39
140
1.0
102
RTVSPost2010PropOp39
 70
     1
102
RTVSPost2010Prop40
 90
        0
102
RTVSPost2010PropOp40
 70
     1
102
RTVSPost2010Prop41ColorIndex
 90
       18
102
RTVSPost2010Prop41ColorRGB
 90
        0
102
RTVSPost2010PropOp41
 70
     1
102
RTVSPost2010Prop42
 90
       50
102
RTVSPost2010PropOp42
 70
     1
102
RTVSPost2010Prop43
 90
        3
102
RTVSPost2010PropOp43
 70
     1
102
RTVSPost2010Prop44ColorIndex
 90
        5
102
RTVSPost2010Prop44ColorRGB
 90
      255
102
RTVSPost2010PropOp44
 70
     1
102
RTVSPost2010Prop45
280
     0
102
RTVSPost2010PropOp45
 70
     1
102
RTVSPost2010Prop46
 90
       50
102
RTVSPost2010PropOp46
 70
     1
102
RTVSPost2010Prop47
 90
       50
102
RTVSPost2010PropOp47
 70
     1
102
RTVSPost2010Prop48
 90
       50
102
RTVSPost2010PropOp48
 70
     1
102
RTVSPost2010Prop49
280
     0
102
RTVSPost2010PropOp49
 70
     1
102
RTVSPost2010Prop50
 90
       50
102
RTVSPost2010PropOp50
 70
     1
102
RTVSPost2010Prop51ColorIndex
 90
      256
102
RTVSPost2010Prop51ColorRGB
 90
-16777216
102
RTVSPost2010PropOp51
 70
     0
102
RTVSPost2010Prop52
140
1.0
102
RTVSPost2010PropOp52
 70
     0
102
RTVSPost2010Prop53
 90
        2
102
RTVSPost2010PropOp53
 70
     1
102
RTVSPost2010Prop54
  1
strokes_ogs.tif
102
RTVSPost2010PropOp54
 70
     1
102
RTVSPost2010Prop55
280
     0
102
RTVSPost2010PropOp55
 70
     1
102
RTVSPost2010Prop56
140
1.0
102
RTVSPost2010PropOp56
 70
     1
102
RTVSPost2010Prop57
140
1.0
102
RTVSPost2010PropOp57
 70
     1
  0
XRECORD
  5
158
102
{ACAD_REACTORS
330
157
102
}
330
157
100
AcDbXrecord
280
     1
102
RTVSPropertyOp0
 70
     1
102
RTVSPropertyOp1
 70
     1
102
RTVSPropertyOp2
 70
     1
102
RTVSPropertyOp3
 70
     1
102
RTVSPropertyOp4
 70
     1
102
RTVSPropertyOp5
 70
     1
102
RTVSPropertyOp6
 70
     1
102
RTVSPropertyOp7
 70
     1
102
RTVSPropertyOp8
 70
     1
102
RTVSPropertyOp9
 70
     1
102
RTVSPropertyOp10
 70
     1
102
RTVSPropertyOp11
 70
     1
102
RTVSPropertyOp12
 70
     1
102
RTVSPropertyOp13
 70
     1
102
RTVSPropertyOp14
 70
     1
102
RTVSPropertyOp15
 70
     1
102
RTVSPropertyOp16
 70
     1
102
RTVSPropertyOp17
 70
     1
102
RTVSPropertyOp18
 70
     1
102
RTVSPropertyOp19
 70
     1
102
RTVSPropertyOp20
 70
     1
102
RTVSPropertyOp21
 70
     1
102
RTVSPropertyOp22
 70
     1
102
RTVSPropertyOp23
 70
     1
102
RTVSPropertyOp24
 70
     1
102
RTVSPropertyOp25
 70
     1
102
RTVSPropertyOp26
 70
     1
102
RTVSPropertyOp27
 70
     1
102
RTVSPropertyOp28
 70
     1
102
RTVSPropertyOp29
 70
     1
102
RTVSPropertyOp30
 70
     1
102
RTVSPropertyOp31
 70
     1
102
RTVSPropertyOp32
 70
     1
102
RTVSPropertyOp33
 70
     1
102
RTVSPropertyOp34
 70
     1
102
RTVSPropertyOp35
 70
     1
102
RTVSPropertyOp36
 70
     1
102
RTVSPropertyOp37
 70
     1
102
RTVSPropertyOp38
 70
     1
102
RTVSPropertyOp39
 70
     1
102
RTVSPropertyOp40
 70
     1
102
RTVSPropertyOp41
 70
     1
102
RTVSPropertyOp42
 70
     1
102
RTVSPropertyOp43
 70
     1
102
RTVSPropertyOp44
 70
     1
102
RTVSPropertyOp45
 70
     1
102
RTVSPropertyOp46
 70
     1
102
RTVSPropertyOp47
 70
     1
102
RTVSPropertyOp48
 70
     1
102
RTVSPropertyOp49
 70
     1
102
RTVSPropertyOp50
 70
     1
102
RTVSPropertyOp51
 70
     0
102
RTVSPropertyOp52
 70
     0
102
RTVSPropertyOp53
 70
     1
102
RTVSPropertyOp54
 70
     1
102
RTVSPropertyOp55
 70
     1
102
RTVSPropertyOp56
 70
     1
102
RTVSPropertyOp57
 70
     1
102
RTVSPost2010Prop28
280
     0
102
RTVSPost2010PropOp28
 70
     1
102
RTVSPost2010Prop29
280
     1
102
RTVSPost2010PropOp29
 70
     1
102
RTVSPost2010Prop30
280
     1
102
RTVSPost2010PropOp30
 70
     1
102
RTVSPost2010Prop31
280
     0
102
RTVSPost2010PropOp31
 70
     1
102
RTVSPost2010Prop32
280
     0
102
RTVSPost2010PropOp32
 70
     1
102
RTVSPost2010Prop33
280
     0
102
RTVSPost2010PropOp33
 70
     1
102
RTVSPost2010Prop34
280
     0
102
RTVSPost2010PropOp34
 70
     1
102
RTVSPost2010Prop35
280
     0
102
RTVSPost2010PropOp35
 70
     1
102
RTVSPost2010Prop36
280
     0
102
RTVSPost2010PropOp36
 70
     1
102
RTVSPost2010Prop37
 90
       50
102
RTVSPost2010PropOp37
 70
     1
102
RTVSPost2010Prop38
140
0.0
102
RTVSPost2010PropOp38
 70
     1
102
RTVSPost2010Prop39
140
1.0
102
RTVSPost2010PropOp39
 70
     1
102
RTVSPost2010Prop40
 90
        0
102
RTVSPost2010PropOp40
 70
     1
102
RTVSPost2010Prop41ColorIndex
 90
       18
102
RTVSPost2010Prop41ColorRGB
 90
        0
102
RTVSPost2010PropOp41
 70
     1
102
RTVSPost2010Prop42
 90
       50
102
RTVSPost2010PropOp42
 70
     1
102
RTVSPost2010Prop43
 90
        3
102
RTVSPost2010PropOp43
 70
     1
102
RTVSPost2010Prop44ColorIndex
 90
        5
102
RTVSPost2010Prop44ColorRGB
 90
      255
102
RTVSPost2010PropOp44
 70
     1
102
RTVSPost2010Prop45
280
     0
102
RTVSPost2010PropOp45
 70
     1
102
RTVSPost2010Prop46
 90
       50
102
RTVSPost2010PropOp46
 70
     1
102
RTVSPost2010Prop47
 90
       50
102
RTVSPost2010PropOp47
 70
     1
102
RTVSPost2010Prop48
 90
       50
102
RTVSPost2010PropOp48
 70
     1
102
RTVSPost2010Prop49
280
     0
102
RTVSPost2010PropOp49
 70
     1
102
RTVSPost2010Prop50
 90
       50
102
RTVSPost2010PropOp50
 70
     1
102
RTVSPost2010Prop51ColorIndex
 90
      256
102
RTVSPost2010Prop51ColorRGB
 90
-16777216
102
RTVSPost2010PropOp51
 70
     0
102
RTVSPost2010Prop52
140
1.0
102
RTVSPost2010PropOp52
 70
     0
102
RTVSPost2010Prop53
 90
        2
102
RTVSPost2010PropOp53
 70
     1
102
RTVSPost2010Prop54
  1
strokes_ogs.tif
102
RTVSPost2010PropOp54
 70
     1
102
RTVSPost2010Prop55
280
     0
102
RTVSPost2010PropOp55
 70
     1
102
RTVSPost2010Prop56
140
1.0
102
RTVSPost2010PropOp56
 70
     1
102
RTVSPost2010Prop57
140
1.0
102
RTVSPost2010PropOp57
 70
     1
  0
ENDSEC
  0
EOF
