  0
SECTION
  2
HEADER
  9
$ACADVER
  1
AC1021
  9
$ACADMAINTVER
 70
    25
  9
$DWGCODEPAGE
  3
ANSI_1252
  9
$LASTSAVEDBY
  1
noseda_d
  9
$INSBASE
 10
0.0
 20
0.0
 30
0.0
  9
$EXTMIN
 10
301.8605255562234
 20
101.6963209801513
 30
0.0
  9
$EXTMAX
 10
641.7938049094091
 20
646.8383380559012
 30
0.0
  9
$LIMMIN
 10
0.0
 20
0.0
  9
$LIMMAX
 10
12.0
 20
9.0
  9
$ORTHOMODE
 70
     0
  9
$REGENMODE
 70
     1
  9
$FILLMODE
 70
     1
  9
$QTEXTMODE
 70
     0
  9
$MIRRTEXT
 70
     1
  9
$LTSCALE
 40
1.0
  9
$ATTMODE
 70
     1
  9
$TEXTSIZE
 40
0.2
  9
$TRACEWID
 40
0.05
  9
$TEXTSTYLE
  7
Standard
  9
$CLAYER
  8
0
  9
$CELTYPE
  6
ByLayer
  9
$CECOLOR
 62
   256
  9
$CELTSCALE
 40
1.0
  9
$DISPSILH
 70
     0
  9
$DIMSCALE
 40
1.0
  9
$DIMASZ
 40
0.18
  9
$DIMEXO
 40
0.0625
  9
$DIMDLI
 40
0.38
  9
$DIMRND
 40
0.0
  9
$DIMDLE
 40
0.0
  9
$DIMEXE
 40
0.18
  9
$DIMTP
 40
0.0
  9
$DIMTM
 40
0.0
  9
$DIMTXT
 40
0.18
  9
$DIMCEN
 40
0.09
  9
$DIMTSZ
 40
0.0
  9
$DIMTOL
 70
     0
  9
$DIMLIM
 70
     0
  9
$DIMTIH
 70
     1
  9
$DIMTOH
 70
     1
  9
$DIMSE1
 70
     0
  9
$DIMSE2
 70
     0
  9
$DIMTAD
 70
     0
  9
$DIMZIN
 70
     0
  9
$DIMBLK
  1

  9
$DIMASO
 70
     1
  9
$DIMSHO
 70
     1
  9
$DIMPOST
  1

  9
$DIMAPOST
  1

  9
$DIMALT
 70
     0
  9
$DIMALTD
 70
     2
  9
$DIMALTF
 40
25.4
  9
$DIMLFAC
 40
1.0
  9
$DIMTOFL
 70
     0
  9
$DIMTVP
 40
0.0
  9
$DIMTIX
 70
     0
  9
$DIMSOXD
 70
     0
  9
$DIMSAH
 70
     0
  9
$DIMBLK1
  1

  9
$DIMBLK2
  1

  9
$DIMSTYLE
  2
STANDARD_ACAD
  9
$DIMCLRD
 70
     0
  9
$DIMCLRE
 70
     0
  9
$DIMCLRT
 70
     0
  9
$DIMTFAC
 40
1.0
  9
$DIMGAP
 40
0.09
  9
$DIMJUST
 70
     0
  9
$DIMSD1
 70
     0
  9
$DIMSD2
 70
     0
  9
$DIMTOLJ
 70
     1
  9
$DIMTZIN
 70
     0
  9
$DIMALTZ
 70
     0
  9
$DIMALTTZ
 70
     0
  9
$DIMUPT
 70
     0
  9
$DIMDEC
 70
     4
  9
$DIMTDEC
 70
     4
  9
$DIMALTU
 70
     2
  9
$DIMALTTD
 70
     2
  9
$DIMTXSTY
  7
Standard
  9
$DIMAUNIT
 70
     0
  9
$DIMADEC
 70
     0
  9
$DIMALTRND
 40
0.0
  9
$DIMAZIN
 70
     0
  9
$DIMDSEP
 70
    46
  9
$DIMATFIT
 70
     3
  9
$DIMFRAC
 70
     0
  9
$DIMLDRBLK
  1

  9
$DIMLUNIT
 70
     2
  9
$DIMLWD
 70
    -2
  9
$DIMLWE
 70
    -2
  9
$DIMTMOVE
 70
     2
  9
$DIMFXL
 40
1.0
  9
$DIMFXLON
 70
     0
  9
$DIMJOGANG
 40
0.7853981633974483
  9
$DIMTFILL
 70
     0
  9
$DIMTFILLCLR
 70
     0
  9
$DIMARCSYM
 70
     0
  9
$DIMLTYPE
  6

  9
$DIMLTEX1
  6

  9
$DIMLTEX2
  6

  9
$LUNITS
 70
     2
  9
$LUPREC
 70
     3
  9
$SKETCHINC
 40
0.1
  9
$FILLETRAD
 40
0.0
  9
$AUNITS
 70
     0
  9
$AUPREC
 70
     0
  9
$MENU
  1
.
  9
$ELEVATION
 40
0.0
  9
$PELEVATION
 40
0.0
  9
$THICKNESS
 40
0.0
  9
$LIMCHECK
 70
     0
  9
$CHAMFERA
 40
0.0
  9
$CHAMFERB
 40
0.0
  9
$CHAMFERC
 40
0.0
  9
$CHAMFERD
 40
0.0
  9
$SKPOLY
 70
     0
  9
$TDCREATE
 40
2460017.608150232
  9
$TDUCREATE
 40
2460017.566483565
  9
$TDUPDATE
 40
2460017.608163878
  9
$TDUUPDATE
 40
2460017.566497211
  9
$TDINDWG
 40
0.0000000116
  9
$TDUSRTIMER
 40
0.0000000116
  9
$USRTIMER
 70
     1
  9
$ANGBASE
 50
0.0
  9
$ANGDIR
 70
     0
  9
$PDMODE
 70
     0
  9
$PDSIZE
 40
0.0
  9
$PLINEWID
 40
0.0
  9
$SPLFRAME
 70
     0
  9
$SPLINETYPE
 70
     6
  9
$SPLINESEGS
 70
     8
  9
$HANDSEED
  5
167
  9
$SURFTAB1
 70
     6
  9
$SURFTAB2
 70
     6
  9
$SURFTYPE
 70
     6
  9
$SURFU
 70
     6
  9
$SURFV
 70
     6
  9
$UCSBASE
  2

  9
$UCSNAME
  2

  9
$UCSORG
 10
0.0
 20
0.0
 30
0.0
  9
$UCSXDIR
 10
1.0
 20
0.0
 30
0.0
  9
$UCSYDIR
 10
0.0
 20
1.0
 30
0.0
  9
$UCSORTHOREF
  2

  9
$UCSORTHOVIEW
 70
     0
  9
$UCSORGTOP
 10
0.0
 20
0.0
 30
0.0
  9
$UCSORGBOTTOM
 10
0.0
 20
0.0
 30
0.0
  9
$UCSORGLEFT
 10
0.0
 20
0.0
 30
0.0
  9
$UCSORGRIGHT
 10
0.0
 20
0.0
 30
0.0
  9
$UCSORGFRONT
 10
0.0
 20
0.0
 30
0.0
  9
$UCSORGBACK
 10
0.0
 20
0.0
 30
0.0
  9
$PUCSBASE
  2

  9
$PUCSNAME
  2

  9
$PUCSORG
 10
0.0
 20
0.0
 30
0.0
  9
$PUCSXDIR
 10
1.0
 20
0.0
 30
0.0
  9
$PUCSYDIR
 10
0.0
 20
1.0
 30
0.0
  9
$PUCSORTHOREF
  2

  9
$PUCSORTHOVIEW
 70
     0
  9
$PUCSORGTOP
 10
0.0
 20
0.0
 30
0.0
  9
$PUCSORGBOTTOM
 10
0.0
 20
0.0
 30
0.0
  9
$PUCSORGLEFT
 10
0.0
 20
0.0
 30
0.0
  9
$PUCSORGRIGHT
 10
0.0
 20
0.0
 30
0.0
  9
$PUCSORGFRONT
 10
0.0
 20
0.0
 30
0.0
  9
$PUCSORGBACK
 10
0.0
 20
0.0
 30
0.0
  9
$USERI1
 70
     0
  9
$USERI2
 70
     0
  9
$USERI3
 70
     0
  9
$USERI4
 70
     0
  9
$USERI5
 70
     0
  9
$USERR1
 40
0.0
  9
$USERR2
 40
0.0
  9
$USERR3
 40
0.0
  9
$USERR4
 40
0.0
  9
$USERR5
 40
0.0
  9
$WORLDVIEW
 70
     1
  9
$SHADEDGE
 70
     3
  9
$SHADEDIF
 70
    70
  9
$TILEMODE
 70
     1
  9
$MAXACTVP
 70
    64
  9
$PINSBASE
 10
0.0
 20
0.0
 30
0.0
  9
$PLIMCHECK
 70
     0
  9
$PEXTMIN
 10
1.000000000000000E+20
 20
1.000000000000000E+20
 30
1.000000000000000E+20
  9
$PEXTMAX
 10
-1.000000000000000E+20
 20
-1.000000000000000E+20
 30
-1.000000000000000E+20
  9
$PLIMMIN
 10
0.0
 20
0.0
  9
$PLIMMAX
 10
12.0
 20
9.0
  9
$UNITMODE
 70
     0
  9
$VISRETAIN
 70
     1
  9
$PLINEGEN
 70
     0
  9
$PSLTSCALE
 70
     1
  9
$TREEDEPTH
 70
  3020
  9
$CMLSTYLE
  2
Standard
  9
$CMLJUST
 70
     0
  9
$CMLSCALE
 40
1.0
  9
$PROXYGRAPHICS
 70
     1
  9
$MEASUREMENT
 70
     1
  9
$CELWEIGHT
370
    -1
  9
$ENDCAPS
280
     0
  9
$JOINSTYLE
280
     0
  9
$LWDISPLAY
290
     0
  9
$INSUNITS
 70
     4
  9
$HYPERLINKBASE
  1

  9
$STYLESHEET
  1

  9
$XEDIT
290
     1
  9
$CEPSNTYPE
380
     0
  9
$PSTYLEMODE
290
     1
  9
$FINGERPRINTGUID
  2
{706ae014-3fbd-be4f-9aa0-50f1d089f4ea}
  9
$VERSIONGUID
  2
{FAEB1C32-E019-11D5-929B-00C0DF256EC4}
  9
$EXTNAMES
290
     1
  9
$PSVPSCALE
 40
0.0
  9
$OLESTARTUP
290
     0
  9
$SORTENTS
280
   127
  9
$INDEXCTL
280
     0
  9
$HIDETEXT
280
     1
  9
$XCLIPFRAME
290
     0
  9
$HALOGAP
280
     0
  9
$OBSCOLOR
 70
   257
  9
$OBSLTYPE
280
     0
  9
$INTERSECTIONDISPLAY
280
     0
  9
$INTERSECTIONCOLOR
 70
   257
  9
$DIMASSOC
280
     2
  9
$PROJECTNAME
  1

  9
$CAMERADISPLAY
290
     0
  9
$LENSLENGTH
 40
50.0
  9
$CAMERAHEIGHT
 40
0.0
  9
$STEPSPERSEC
 40
2.0
  9
$STEPSIZE
 40
6.0
  9
$3DDWFPREC
 40
2.0
  9
$PSOLWIDTH
 40
0.25
  9
$PSOLHEIGHT
 40
4.0
  9
$LOFTANG1
 40
1.570796326794897
  9
$LOFTANG2
 40
1.570796326794897
  9
$LOFTMAG1
 40
0.0
  9
$LOFTMAG2
 40
0.0
  9
$LOFTPARAM
 70
     7
  9
$LOFTNORMALS
280
     1
  9
$LATITUDE
 40
37.795
  9
$LONGITUDE
 40
-122.394
  9
$NORTHDIRECTION
 40
0.0
  9
$TIMEZONE
 70
 -8000
  9
$LIGHTGLYPHDISPLAY
280
     1
  9
$TILEMODELIGHTSYNCH
280
     1
  9
$CMATERIAL
347
44
  9
$SOLIDHIST
280
     0
  9
$SHOWHIST
280
     1
  9
$DWFFRAME
280
     2
  9
$DGNFRAME
280
     2
  9
$REALWORLDSCALE
290
     1
  9
$INTERFERECOLOR
 62
   256
  9
$CSHADOW
280
     0
  9
$SHADOWPLANELOCATION
 40
0.0
  0
ENDSEC
  0
SECTION
  2
CLASSES
  0
CLASS
  1
ACDBDICTIONARYWDFLT
  2
AcDbDictionaryWithDefault
  3
ObjectDBX Classes
 90
        0
 91
        3
280
     0
281
     0
  0
CLASS
  1
VISUALSTYLE
  2
AcDbVisualStyle
  3
ObjectDBX Classes
 90
     4095
 91
        3
280
     0
281
     0
  0
CLASS
  1
MATERIAL
  2
AcDbMaterial
  3
ObjectDBX Classes
 90
     1153
 91
        3
280
     0
281
     0
  0
CLASS
  1
SCALE
  2
AcDbScale
  3
ObjectDBX Classes
 90
     1153
 91
        3
280
     0
281
     0
  0
CLASS
  1
TABLESTYLE
  2
AcDbTableStyle
  3
ObjectDBX Classes
 90
     4095
 91
        3
280
     0
281
     0
  0
CLASS
  1
MLEADERSTYLE
  2
AcDbMLeaderStyle
  3
ACDB_MLEADERSTYLE_CLASS
 90
     4095
 91
        3
280
     0
281
     0
  0
CLASS
  1
SUN
  2
AcDbSun
  3
SCENEOE
 90
     1153
 91
        3
280
     0
281
     0
  0
CLASS
  1
DICTIONARYVAR
  2
AcDbDictionaryVar
  3
ObjectDBX Classes
 90
        0
 91
        3
280
     0
281
     0
  0
CLASS
  1
CELLSTYLEMAP
  2
AcDbCellStyleMap
  3
ObjectDBX Classes
 90
     1152
 91
        3
280
     0
281
     0
  0
ENDSEC
  0
SECTION
  2
TABLES
  0
TABLE
  2
VPORT
  5
8
330
0
100
AcDbSymbolTable
 70
     1
  0
VPORT
  5
29
330
8
100
AcDbSymbolTableRecord
100
AcDbViewportTableRecord
  2
*Active
 70
     0
 10
0.0
 20
0.0
 11
1.0
 21
1.0
 12
10.42990654205607
 22
4.5
 13
0.0
 23
0.0
 14
0.5
 24
0.5
 15
0.5
 25
0.5
 16
0.0
 26
0.0
 36
1.0
 17
0.0
 27
0.0
 37
0.0
 40
9.0
 41
1.972972972850329
 42
50.0
 43
0.0
 44
0.0
 50
0.0
 51
0.0
 71
     0
 72
   100
 73
     1
 74
     3
 75
     0
 76
     0
 77
     0
 78
     0
281
     0
 65
     1
110
0.0
120
0.0
130
0.0
111
1.0
121
0.0
131
0.0
112
0.0
122
1.0
132
0.0
 79
     0
146
0.0
348
2F
 60
     3
 61
     5
292
     1
282
     1
141
0.0
142
0.0
 63
   250
361
5D
  0
ENDTAB
  0
TABLE
  2
LTYPE
  5
5
330
0
100
AcDbSymbolTable
 70
     1
  0
LTYPE
  5
14
330
5
100
AcDbSymbolTableRecord
100
AcDbLinetypeTableRecord
  2
ByBlock
 70
     0
  3

 72
    65
 73
     0
 40
0.0
  0
LTYPE
  5
15
330
5
100
AcDbSymbolTableRecord
100
AcDbLinetypeTableRecord
  2
ByLayer
 70
     0
  3

 72
    65
 73
     0
 40
0.0
  0
LTYPE
  5
16
330
5
100
AcDbSymbolTableRecord
100
AcDbLinetypeTableRecord
  2
Continuous
 70
     0
  3
Solid line
 72
    65
 73
     0
 40
0.0
  0
ENDTAB
  0
TABLE
  2
LAYER
  5
2
330
0
100
AcDbSymbolTable
 70
     2
  0
LAYER
  5
10
330
2
100
AcDbSymbolTableRecord
100
AcDbLayerTableRecord
  2
0
 70
     0
 62
     7
  6
Continuous
370
    -3
390
F
347
46
  0
LAYER
  5
5F
330
2
100
AcDbSymbolTableRecord
100
AcDbLayerTableRecord
  2
Make2D$Visibile$Curve
 70
     0
 62
    18
420
        0
  6
Continuous
370
    -3
390
F
347
46
  0
ENDTAB
  0
TABLE
  2
STYLE
  5
3
330
0
100
AcDbSymbolTable
 70
     1
  0
STYLE
  5
11
330
3
100
AcDbSymbolTableRecord
100
AcDbTextStyleTableRecord
  2
Standard
 70
     0
 40
0.0
 41
1.0
 50
0.0
 71
     0
 42
0.2
  3
txt
  4

  0
ENDTAB
  0
TABLE
  2
VIEW
  5
6
330
0
100
AcDbSymbolTable
 70
     0
  0
ENDTAB
  0
TABLE
  2
UCS
  5
7
330
0
100
AcDbSymbolTable
 70
     0
  0
ENDTAB
  0
TABLE
  2
APPID
  5
9
330
0
100
AcDbSymbolTable
 70
     3
  0
APPID
  5
12
330
9
100
AcDbSymbolTableRecord
100
AcDbRegAppTableRecord
  2
ACAD
 70
     0
  0
APPID
  5
5E
330
9
100
AcDbSymbolTableRecord
100
AcDbRegAppTableRecord
  2
Rhino
 70
     0
  0
APPID
  5
15F
330
9
100
AcDbSymbolTableRecord
100
AcDbRegAppTableRecord
  2
ACAD_MLEADERVER
 70
     0
  0
ENDTAB
  0
TABLE
  2
DIMSTYLE
  5
A
330
0
100
AcDbSymbolTable
 70
     1
100
AcDbDimStyleTable
  0
DIMSTYLE
105
27
330
A
100
AcDbSymbolTableRecord
100
AcDbDimStyleTableRecord
  2
STANDARD_ACAD
 70
     0
178
     0
340
11
  0
ENDTAB
  0
TABLE
  2
BLOCK_RECORD
  5
1
330
0
100
AcDbSymbolTable
 70
     1
  0
BLOCK_RECORD
  5
1F
330
1
100
AcDbSymbolTableRecord
100
AcDbBlockTableRecord
  2
*Model_Space
340
22
 70
     0
280
     1
281
     0
  0
BLOCK_RECORD
  5
1B
330
1
100
AcDbSymbolTableRecord
100
AcDbBlockTableRecord
  2
*Paper_Space
340
1E
 70
     0
280
     1
281
     0
  0
BLOCK_RECORD
  5
23
330
1
100
AcDbSymbolTableRecord
100
AcDbBlockTableRecord
  2
*Paper_Space0
340
26
 70
     0
280
     1
281
     0
  0
ENDTAB
  0
ENDSEC
  0
SECTION
  2
BLOCKS
  0
BLOCK
  5
20
330
1F
100
AcDbEntity
  8
0
100
AcDbBlockBegin
  2
*Model_Space
 70
     0
 10
0.0
 20
0.0
 30
0.0
  3
*Model_Space
  1

  0
ENDBLK
  5
21
330
1F
100
AcDbEntity
  8
0
100
AcDbBlockEnd
  0
BLOCK
  5
1C
330
1B
100
AcDbEntity
 67
     1
  8
0
100
AcDbBlockBegin
  2
*Paper_Space
 70
     0
 10
0.0
 20
0.0
 30
0.0
  3
*Paper_Space
  1

  0
ENDBLK
  5
1D
330
1B
100
AcDbEntity
 67
     1
  8
0
100
AcDbBlockEnd
  0
BLOCK
  5
24
330
23
100
AcDbEntity
  8
0
100
AcDbBlockBegin
  2
*Paper_Space0
 70
     0
 10
0.0
 20
0.0
 30
0.0
  3
*Paper_Space0
  1

  0
ENDBLK
  5
25
330
23
100
AcDbEntity
  8
0
100
AcDbBlockEnd
  0
ENDSEC
  0
SECTION
  2
ENTITIES
  0
SPLINE
  5
60
330
1F
100
AcDbEntity
  8
Make2D$Visibile$Curve
370
    -3
100
AcDbSpline
210
0.0
220
0.0
230
1.0
 70
    24
 71
     2
 72
     6
 73
     3
 74
     0
 42
0.0000000001
 43
0.0000000001
 40
1.707106781186573
 40
1.707106781186573
 40
1.707106781186573
 40
16.78225021574546
 40
16.78225021574546
 40
16.78225021574546
 10
479.0825808510814
 20
467.3691371752442
 30
0.0
 10
479.0825808510814
 20
474.9067088925236
 30
0.0
 10
479.0825808510814
 20
482.4442806098031
 30
0.0
  0
SPLINE
  5
61
330
1F
100
AcDbEntity
  8
Make2D$Visibile$Curve
370
    -3
100
AcDbSpline
210
0.0
220
0.0
230
1.0
 70
    24
 71
     2
 72
     6
 73
     3
 74
     0
 42
0.0000000001
 43
0.0000000001
 40
1.707106781186589
 40
1.707106781186589
 40
1.707106781186589
 40
16.7822502157455
 40
16.7822502157455
 40
16.7822502157455
 10
301.8613116074874
 20
467.3691371752442
 30
0.0
 10
301.8613116074874
 20
474.9067088925236
 30
0.0
 10
301.8613116074874
 20
482.4442806098031
 30
0.0
  0
SPLINE
  5
62
330
1F
100
AcDbEntity
  8
Make2D$Visibile$Curve
370
    -3
100
AcDbSpline
210
0.0
220
0.0
230
1.0
 70
     8
 71
     5
 72
    12
 73
     6
 74
     0
 42
0.0000000001
 43
0.0000000001
 40
0.9414213562372432
 40
0.9414213562372432
 40
0.9414213562372432
 40
0.9414213562372432
 40
0.9414213562372432
 40
0.9414213562372432
 40
1.320255598239339
 40
1.320255598239339
 40
1.320255598239339
 40
1.320255598239339
 40
1.320255598239339
 40
1.320255598239339
 10
302.0488116074874
 20
483.9638873909896
 30
0.0
 10
302.0085709395344
 20
483.9236467230366
 30
0.0
 10
301.9744026891713
 20
483.8773336374937
 30
0.0
 10
301.9463068563981
 20
483.8249481343609
 30
0.0
 10
301.9239556700558
 20
483.7668179847972
 30
0.0
 10
301.9066935878263
 20
483.7035987311206
 30
0.0
  0
SPLINE
  5
63
330
1F
100
AcDbEntity
  8
Make2D$Visibile$Curve
370
    -3
100
AcDbSpline
210
0.0
220
0.0
230
1.0
 70
    24
 71
     5
 72
    14
 73
     8
 74
     0
 42
0.0000000001
 43
0.0000000001
 40
-1.0
 40
-1.0
 40
-1.0
 40
-1.0
 40
-1.0
 40
-1.0
 40
-0.8
 40
-0.6
 40
-0.4
 40
-0.4
 40
-0.4
 40
-0.4
 40
-0.4
 40
-0.4
 10
479.0825808510814
 20
482.4442806098031
 30
0.0
 10
479.0825808510814
 20
482.4725648810505
 30
0.0
 10
479.0825808510814
 20
482.527719209983
 30
0.0
 10
479.0825808510814
 20
482.6062080626947
 30
0.0
 10
479.0825808510814
 20
482.6783329543757
 30
0.0
 10
479.0825808510814
 20
482.7440938850261
 30
0.0
 10
479.0825808510814
 20
482.7851060783349
 30
0.0
 10
479.0825808510814
 20
482.8049050682081
 30
0.0
  0
SPLINE
  5
64
330
1F
100
AcDbEntity
  8
Make2D$Visibile$Curve
370
    -3
100
AcDbSpline
210
0.0
220
0.0
230
1.0
 70
    24
 71
     5
 72
    14
 73
     8
 74
     0
 42
0.0000000001
 43
0.0000000001
 40
-1.0
 40
-1.0
 40
-1.0
 40
-1.0
 40
-1.0
 40
-1.0
 40
-0.8
 40
-0.6
 40
-0.4
 40
-0.4
 40
-0.4
 40
-0.4
 40
-0.4
 40
-0.4
 10
301.8613116074874
 20
482.4442806098031
 30
0.0
 10
301.8613116074874
 20
482.4725648810506
 30
0.0
 10
301.8613116074874
 20
482.5277192099831
 30
0.0
 10
301.8613116074874
 20
482.6062080626947
 30
0.0
 10
301.8613116074874
 20
482.6783329543758
 30
0.0
 10
301.8613116074874
 20
482.7440938850261
 30
0.0
 10
301.8613116074874
 20
482.785106078335
 30
0.0
 10
301.8613116074874
 20
482.8049050682081
 30
0.0
  0
SPLINE
  5
65
330
1F
100
AcDbEntity
  8
Make2D$Visibile$Curve
370
    -3
100
AcDbSpline
210
0.0
220
0.0
230
1.0
 70
    24
 71
     5
 72
    14
 73
     8
 74
     0
 42
0.0000000001
 43
0.0000000001
 40
-1.0
 40
-1.0
 40
-1.0
 40
-1.0
 40
-1.0
 40
-1.0
 40
-0.8
 40
-0.6
 40
-0.4
 40
-0.4
 40
-0.4
 40
-0.4
 40
-0.4
 40
-0.4
 10
479.0825808510814
 20
467.3691371752442
 30
0.0
 10
479.0825808510814
 20
467.3408529039967
 30
0.0
 10
479.0825808510814
 20
467.2856985750641
 30
0.0
 10
479.0825808510814
 20
467.2072097223525
 30
0.0
 10
479.0825808510814
 20
467.1350848306715
 30
0.0
 10
479.0825808510814
 20
467.0693239000211
 30
0.0
 10
479.0825808510814
 20
467.0283117067123
 30
0.0
 10
479.0825808510814
 20
467.008512716839
 30
0.0
  0
SPLINE
  5
66
330
1F
100
AcDbEntity
  8
Make2D$Visibile$Curve
370
    -3
100
AcDbSpline
210
0.0
220
0.0
230
1.0
 70
    24
 71
     5
 72
    14
 73
     8
 74
     0
 42
0.0000000001
 43
0.0000000001
 40
0.4
 40
0.4
 40
0.4
 40
0.4
 40
0.4
 40
0.4
 40
0.6
 40
0.8
 40
1.0
 40
1.0
 40
1.0
 40
1.0
 40
1.0
 40
1.0
 10
303.2077939302687
 20
484.1513873909896
 30
0.0
 10
303.227592920142
 20
484.1513873909896
 30
0.0
 10
303.2686051134508
 20
484.1513873909896
 30
0.0
 10
303.3343660441012
 20
484.1513873909896
 30
0.0
 10
303.4064909357822
 20
484.1513873909896
 30
0.0
 10
303.4849797884939
 20
484.1513873909896
 30
0.0
 10
303.5401341174264
 20
484.1513873909896
 30
0.0
 10
303.5684183886739
 20
484.1513873909896
 30
0.0
  0
SPLINE
  5
67
330
1F
100
AcDbEntity
  8
Make2D$Visibile$Curve
370
    -3
100
AcDbSpline
210
0.0
220
0.0
230
1.0
 70
    24
 71
     2
 72
     6
 73
     3
 74
     0
 42
0.0000000001
 43
0.0000000001
 40
-175.5141624624075
 40
-175.5141624624075
 40
-175.5141624624075
 40
-1.707106781186564
 40
-1.707106781186564
 40
-1.707106781186564
 10
303.5684183886739
 20
484.1513873909896
 30
0.0
 10
390.4719462292844
 20
484.1513873909896
 30
0.0
 10
477.3754740698949
 20
484.1513873909896
 30
0.0
  0
SPLINE
  5
68
330
1F
100
AcDbEntity
  8
Make2D$Visibile$Curve
370
    -3
100
AcDbSpline
210
0.0
220
0.0
230
1.0
 70
    24
 71
     5
 72
    14
 73
     8
 74
     0
 42
0.0000000001
 43
0.0000000001
 40
0.4
 40
0.4
 40
0.4
 40
0.4
 40
0.4
 40
0.4
 40
0.6
 40
0.8
 40
1.0
 40
1.0
 40
1.0
 40
1.0
 40
1.0
 40
1.0
 10
477.7360985283001
 20
484.1513873909895
 30
0.0
 10
477.7162995384269
 20
484.1513873909895
 30
0.0
 10
477.675287345118
 20
484.1513873909895
 30
0.0
 10
477.6095264144676
 20
484.1513873909895
 30
0.0
 10
477.5374015227866
 20
484.1513873909896
 30
0.0
 10
477.4589126700749
 20
484.1513873909896
 30
0.0
 10
477.4037583411423
 20
484.1513873909896
 30
0.0
 10
477.3754740698949
 20
484.1513873909897
 30
0.0
  0
SPLINE
  5
69
330
1F
100
AcDbEntity
  8
Make2D$Visibile$Curve
370
    -3
100
AcDbSpline
210
0.0
220
0.0
230
1.0
 70
    24
 71
     5
 72
    14
 73
     8
 74
     0
 42
0.0000000001
 43
0.0000000001
 40
0.4
 40
0.4
 40
0.4
 40
0.4
 40
0.4
 40
0.4
 40
0.6
 40
0.8
 40
1.0
 40
1.0
 40
1.0
 40
1.0
 40
1.0
 40
1.0
 10
477.7360985283
 20
465.6620303940575
 30
0.0
 10
477.7162995384268
 20
465.6620303940575
 30
0.0
 10
477.675287345118
 20
465.6620303940575
 30
0.0
 10
477.6095264144676
 20
465.6620303940576
 30
0.0
 10
477.5374015227865
 20
465.6620303940576
 30
0.0
 10
477.4589126700748
 20
465.6620303940576
 30
0.0
 10
477.4037583411423
 20
465.6620303940576
 30
0.0
 10
477.3754740698948
 20
465.6620303940576
 30
0.0
  0
SPLINE
  5
6A
330
1F
100
AcDbEntity
  8
Make2D$Visibile$Curve
370
    -3
100
AcDbSpline
210
0.0
220
0.0
230
1.0
 70
    24
 71
     2
 72
     6
 73
     3
 74
     0
 42
0.0000000001
 43
0.0000000001
 40
1.707106781186621
 40
1.707106781186621
 40
1.707106781186621
 40
175.5141624624076
 40
175.5141624624076
 40
175.5141624624076
 10
477.3754740698948
 20
465.6620303940576
 30
0.0
 10
390.4719462292844
 20
465.6620303940576
 30
0.0
 10
303.5684183886739
 20
465.6620303940576
 30
0.0
  0
SPLINE
  5
6B
330
1F
100
AcDbEntity
  8
Make2D$Visibile$Curve
370
    -3
100
AcDbSpline
210
0.0
220
0.0
230
1.0
 70
    24
 71
     5
 72
    14
 73
     8
 74
     0
 42
0.0000000001
 43
0.0000000001
 40
-1.0
 40
-1.0
 40
-1.0
 40
-1.0
 40
-1.0
 40
-1.0
 40
-0.8
 40
-0.6
 40
-0.4
 40
-0.4
 40
-0.4
 40
-0.4
 40
-0.4
 40
-0.4
 10
303.5684183886739
 20
465.6620303940576
 30
0.0
 10
303.5401341174264
 20
465.6620303940576
 30
0.0
 10
303.4849797884939
 20
465.6620303940576
 30
0.0
 10
303.4064909357822
 20
465.6620303940576
 30
0.0
 10
303.3343660441012
 20
465.6620303940576
 30
0.0
 10
303.2686051134508
 20
465.6620303940576
 30
0.0
 10
303.227592920142
 20
465.6620303940576
 30
0.0
 10
303.2077939302688
 20
465.6620303940576
 30
0.0
  0
SPLINE
  5
6C
330
1F
100
AcDbEntity
  8
Make2D$Visibile$Curve
370
    -3
100
AcDbSpline
210
0.0
220
0.0
230
1.0
 70
     8
 71
     5
 72
    12
 73
     6
 74
     0
 42
0.0000000001
 43
0.0000000001
 40
-1.882842712474612
 40
-1.882842712474612
 40
-1.882842712474612
 40
-1.882842712474612
 40
-1.882842712474612
 40
-1.882842712474612
 40
-0.9414213562373062
 40
-0.9414213562373062
 40
-0.9414213562373062
 40
-0.9414213562373062
 40
-0.9414213562373062
 40
-0.9414213562373062
 10
479.0825808510814
 20
483.1513873909897
 30
0.0
 10
479.0825808510814
 20
483.3513873909896
 30
0.0
 10
479.0825808510814
 20
483.5513873909896
 30
0.0
 10
479.0575808510815
 20
483.7263873909897
 30
0.0
 10
478.9950808510815
 20
483.8638873909896
 30
0.0
 10
478.8950808510814
 20
483.9638873909897
 30
0.0
  0
SPLINE
  5
6D
330
1F
100
AcDbEntity
  8
Make2D$Visibile$Curve
370
    -3
100
AcDbSpline
210
0.0
220
0.0
230
1.0
 70
     8
 71
     5
 72
    12
 73
     6
 74
     0
 42
0.0000000001
 43
0.0000000001
 40
-0.9414213562373062
 40
-0.9414213562373062
 40
-0.9414213562373062
 40
-0.9414213562373062
 40
-0.9414213562373062
 40
-0.9414213562373062
 40
-0.5534320879525119
 40
-0.5534320879525119
 40
-0.5534320879525119
 40
-0.5534320879525119
 40
-0.5534320879525119
 40
-0.5534320879525119
 10
478.8950808510814
 20
483.9638873909897
 30
0.0
 10
478.8538677146135
 20
484.0051005274576
 30
0.0
 10
478.8062851183298
 20
484.0399442041099
 30
0.0
 10
478.7523330622304
 20
484.0684184209464
 30
0.0
 10
478.6923721687004
 20
484.0908838003525
 30
0.0
 10
478.6271236825107
 20
484.1080615870987
 30
0.0
  0
SPLINE
  5
6E
330
1F
100
AcDbEntity
  8
Make2D$Visibile$Curve
370
    -3
100
AcDbSpline
210
0.0
220
0.0
230
1.0
 70
     8
 71
     5
 72
    12
 73
     6
 74
     0
 42
0.0000000001
 43
0.0000000001
 40
-0.9414213562373086
 40
-0.9414213562373086
 40
-0.9414213562373086
 40
-0.9414213562373086
 40
-0.9414213562373086
 40
-0.9414213562373086
 40
0.0
 40
0.0
 40
0.0
 40
0.0
 40
0.0
 40
0.0
 10
302.0488116074873
 20
483.9638873909897
 30
0.0
 10
302.1488116074873
 20
484.0638873909896
 30
0.0
 10
302.2863116074873
 20
484.1263873909896
 30
0.0
 10
302.4613116074873
 20
484.1513873909897
 30
0.0
 10
302.6613116074873
 20
484.1513873909897
 30
0.0
 10
302.8613116074873
 20
484.1513873909897
 30
0.0
  0
SPLINE
  5
6F
330
1F
100
AcDbEntity
  8
Make2D$Visibile$Curve
370
    -3
100
AcDbSpline
210
0.0
220
0.0
230
1.0
 70
     8
 71
     5
 72
    12
 73
     6
 74
     0
 42
0.0000000001
 43
0.0000000001
 40
0.0
 40
0.0
 40
0.0
 40
0.0
 40
0.0
 40
0.0
 40
0.9414213562373471
 40
0.9414213562373471
 40
0.9414213562373471
 40
0.9414213562373471
 40
0.9414213562373471
 40
0.9414213562373471
 10
478.0825808510814
 20
465.6620303940576
 30
0.0
 10
478.2825808510814
 20
465.6620303940576
 30
0.0
 10
478.4825808510814
 20
465.6620303940576
 30
0.0
 10
478.6575808510814
 20
465.6870303940576
 30
0.0
 10
478.7950808510814
 20
465.7495303940576
 30
0.0
 10
478.8950808510814
 20
465.8495303940576
 30
0.0
  0
SPLINE
  5
70
330
1F
100
AcDbEntity
  8
Make2D$Visibile$Curve
370
    -3
100
AcDbSpline
210
0.0
220
0.0
230
1.0
 70
     8
 71
     5
 72
    12
 73
     6
 74
     0
 42
0.0000000001
 43
0.0000000001
 40
0.514213774440927
 40
0.514213774440927
 40
0.514213774440927
 40
0.514213774440927
 40
0.514213774440927
 40
0.514213774440927
 40
0.7355774986960313
 40
0.7355774986960313
 40
0.7355774986960313
 40
0.7355774986960313
 40
0.7355774986960313
 40
0.7355774986960313
 10
478.4417722626745
 20
484.142528875422
 30
0.0
 10
478.4832822894288
 20
484.1381092606479
 30
0.0
 10
478.5249530339496
 20
484.1316572658723
 30
0.0
 10
478.5644072234664
 20
484.1239809466986
 30
0.0
 10
478.5992675852085
 20
484.1158883587304
 30
0.0
 10
478.6271568464051
 20
484.1081875575712
 30
0.0
  0
SPLINE
  5
71
330
1F
100
AcDbEntity
  8
Make2D$Visibile$Curve
370
    -3
100
AcDbSpline
210
0.0
220
0.0
230
1.0
 70
     8
 71
     5
 72
    12
 73
     6
 74
     0
 42
0.0000000001
 43
0.0000000001
 40
0.5142137337654373
 40
0.5142137337654373
 40
0.5142137337654373
 40
0.5142137337654373
 40
0.5142137337654373
 40
0.5142137337654373
 40
0.7355774646606915
 40
0.7355774646606915
 40
0.7355774646606915
 40
0.7355774646606915
 40
0.7355774646606915
 40
0.7355774646606915
 10
301.8701701253111
 20
483.5105787797813
 30
0.0
 10
301.8745897422691
 20
483.5520888326128
 30
0.0
 10
301.881041731926
 20
483.5937595652487
 30
0.0
 10
301.8887180445663
 20
483.6332137317197
 30
0.0
 10
301.8968106304743
 20
483.668074086056
 30
0.0
 10
301.9045114399345
 20
483.6959633822884
 30
0.0
  0
SPLINE
  5
72
330
1F
100
AcDbEntity
  8
Make2D$Visibile$Curve
370
    -3
100
AcDbSpline
210
0.0
220
0.0
230
1.0
 70
     8
 71
     5
 72
    12
 73
     6
 74
     0
 42
0.0000000001
 43
0.0000000001
 40
0.0456538383223392
 40
0.0456538383223392
 40
0.0456538383223392
 40
0.0456538383223392
 40
0.0456538383223392
 40
0.0456538383223392
 40
0.2034963991404814
 40
0.2034963991404814
 40
0.2034963991404814
 40
0.2034963991404814
 40
0.2034963991404814
 40
0.2034963991404814
 10
301.8613105089726
 20
483.0600941445403
 30
0.0
 10
301.8613066898263
 20
483.0933581379895
 30
0.0
 10
301.8612618912414
 20
483.1234604452981
 30
0.0
 10
301.8611710019511
 20
483.1521949856086
 30
0.0
 10
301.8610289106886
 20
483.1813556780637
 30
0.0
 10
301.8608305061869
 20
483.212736441806
 30
0.0
  0
SPLINE
  5
73
330
1F
100
AcDbEntity
  8
Make2D$Visibile$Curve
370
    -3
100
AcDbSpline
210
0.0
220
0.0
230
1.0
 70
     8
 71
     5
 72
    12
 73
     6
 74
     0
 42
0.0000000001
 43
0.0000000001
 40
0.5142137335691537
 40
0.5142137335691537
 40
0.5142137335691537
 40
0.5142137335691537
 40
0.5142137335691537
 40
0.5142137335691537
 40
0.735577464457718
 40
0.735577464457718
 40
0.735577464457718
 40
0.735577464457718
 40
0.735577464457718
 40
0.735577464457718
 10
479.0737223332578
 20
466.3028390052659
 30
0.0
 10
479.0693027163015
 20
466.2613289524502
 30
0.0
 10
479.0628507266429
 20
466.2196582198081
 30
0.0
 10
479.0551744140001
 20
466.1802040533232
 30
0.0
 10
479.0470818280913
 20
466.1453436989792
 30
0.0
 10
479.0393810186347
 20
466.1174544027597
 30
0.0
  0
SPLINE
  5
74
330
1F
100
AcDbEntity
  8
Make2D$Visibile$Curve
370
    -3
100
AcDbSpline
210
0.0
220
0.0
230
1.0
 70
    24
 71
     5
 72
    14
 73
     8
 74
     0
 42
0.0000000001
 43
0.0000000001
 40
0.4
 40
0.4
 40
0.4
 40
0.4
 40
0.4
 40
0.4
 40
0.6
 40
0.8
 40
1.0
 40
1.0
 40
1.0
 40
1.0
 40
1.0
 40
1.0
 10
301.8613116074874
 20
467.0085127168391
 30
0.0
 10
301.8613116074874
 20
467.0283117067123
 30
0.0
 10
301.8613116074874
 20
467.0693239000211
 30
0.0
 10
301.8613116074874
 20
467.1350848306715
 30
0.0
 10
301.8613116074874
 20
467.2072097223525
 30
0.0
 10
301.8613116074874
 20
467.2856985750642
 30
0.0
 10
301.8613116074874
 20
467.3408529039967
 30
0.0
 10
301.8613116074874
 20
467.3691371752442
 30
0.0
  0
SPLINE
  5
75
330
1F
100
AcDbEntity
  8
Make2D$Visibile$Curve
370
    -3
100
AcDbSpline
210
0.0
220
0.0
230
1.0
 70
     8
 71
     5
 72
    12
 73
     6
 74
     0
 42
0.0000000001
 43
0.0000000001
 40
0.9414213562373471
 40
0.9414213562373471
 40
0.9414213562373471
 40
0.9414213562373471
 40
0.9414213562373471
 40
0.9414213562373471
 40
1.337187146636829
 40
1.337187146636829
 40
1.337187146636829
 40
1.337187146636829
 40
1.337187146636829
 40
1.337187146636829
 10
478.8950808510814
 20
465.8495303940576
 30
0.0
 10
478.9371200280958
 20
465.891569571072
 30
0.0
 10
478.9725318585949
 20
465.9402360946015
 30
0.0
 10
479.001316342579
 20
465.9955299646461
 30
0.0
 10
479.023863895353
 20
466.0570607659008
 30
0.0
 10
479.0409553475274
 20
466.1240476677551
 30
0.0
  0
SPLINE
  5
76
330
1F
100
AcDbEntity
  8
Make2D$Visibile$Curve
370
    -3
100
AcDbSpline
210
0.0
220
0.0
230
1.0
 70
     8
 71
     5
 72
    12
 73
     6
 74
     0
 42
0.0000000001
 43
0.0000000001
 40
0.5142137337145535
 40
0.5142137337145535
 40
0.5142137337145535
 40
0.5142137337145535
 40
0.5142137337145535
 40
0.5142137337145535
 40
0.7355774645996365
 40
0.7355774645996365
 40
0.7355774645996365
 40
0.7355774645996365
 40
0.7355774645996365
 40
0.7355774645996365
 10
302.5021202186956
 20
465.6708889118811
 30
0.0
 10
302.4606101658784
 20
465.6753085288375
 30
0.0
 10
302.4189394332378
 20
465.6817605184958
 30
0.0
 10
302.379485266755
 20
465.6894368311381
 30
0.0
 10
302.3446249124116
 20
465.6975294170468
 30
0.0
 10
302.3167356161891
 20
465.7052302265043
 30
0.0
  0
SPLINE
  5
77
330
1F
100
AcDbEntity
  8
Make2D$Visibile$Curve
370
    -3
100
AcDbSpline
210
0.0
220
0.0
230
1.0
 70
     8
 71
     5
 72
    12
 73
     6
 74
     0
 42
0.0000000001
 43
0.0000000001
 40
0.2959492989752879
 40
0.2959492989752879
 40
0.2959492989752879
 40
0.2959492989752879
 40
0.2959492989752879
 40
0.2959492989752879
 40
0.4153492676554037
 40
0.4153492676554037
 40
0.4153492676554037
 40
0.4153492676554037
 40
0.4153492676554037
 40
0.4153492676554037
 10
302.7141384857896
 20
465.6612443427935
 30
0.0
 10
302.6905410586265
 20
465.6613004780808
 30
0.0
 10
302.6682471960326
 20
465.6614699614252
 30
0.0
 10
302.6462264971129
 20
465.6618552811631
 30
0.0
 10
302.6234485609725
 20
465.6625589256312
 30
0.0
 10
302.5988829867167
 20
465.663683383166
 30
0.0
  0
SPLINE
  5
78
330
1F
100
AcDbEntity
  8
Make2D$Visibile$Curve
370
    -3
100
AcDbSpline
210
0.0
220
0.0
230
1.0
 70
     8
 71
     5
 72
    12
 73
     6
 74
     0
 42
0.0000000001
 43
0.0000000001
 40
0.7341479251368004
 40
0.7341479251368004
 40
0.7341479251368004
 40
0.7341479251368004
 40
0.7341479251368004
 40
0.7341479251368004
 40
0.9414213562373538
 40
0.9414213562373538
 40
0.9414213562373538
 40
0.9414213562373538
 40
0.9414213562373538
 40
0.9414213562373538
 10
301.9567575574715
 20
465.9776470781422
 30
0.0
 10
301.9716208500772
 20
465.9484762239278
 30
0.0
 10
301.9882138418746
 20
465.9210350689052
 30
0.0
 10
302.0065952788731
 20
465.8953823590835
 30
0.0
 10
302.0267945340773
 20
465.8715474674677
 30
0.0
 10
302.0488116074874
 20
465.8495303940576
 30
0.0
  0
SPLINE
  5
79
330
1F
100
AcDbEntity
  8
Make2D$Visibile$Curve
370
    -3
100
AcDbSpline
210
0.0
220
0.0
230
1.0
 70
     8
 71
     5
 72
    12
 73
     6
 74
     0
 42
0.0000000001
 43
0.0000000001
 40
0.0734979890410497
 40
0.0734979890410497
 40
0.0734979890410497
 40
0.0734979890410497
 40
0.0734979890410497
 40
0.0734979890410497
 40
0.1158300572339981
 40
0.1158300572339981
 40
0.1158300572339981
 40
0.1158300572339981
 40
0.1158300572339981
 40
0.1158300572339981
 10
302.7833569493085
 20
465.662147035785
 30
0.0
 10
302.774403766047
 20
465.6621870770584
 30
0.0
 10
302.7654619598661
 20
465.6622384954124
 30
0.0
 10
302.7565336262946
 20
465.6623033863758
 30
0.0
 10
302.747620809758
 20
465.6623837943741
 30
0.0
 10
302.7387255035778
 20
465.6624817127288
 30
0.0
  0
SPLINE
  5
7A
330
1F
100
AcDbEntity
  8
Make2D$Visibile$Curve
370
    -3
100
AcDbSpline
210
0.0
220
0.0
230
1.0
 70
     8
 71
     5
 72
    12
 73
     6
 74
     0
 42
0.0000000001
 43
0.0000000001
 40
1.534084281875131
 40
1.534084281875131
 40
1.534084281875131
 40
1.534084281875131
 40
1.534084281875131
 40
1.534084281875131
 40
1.615907120424207
 40
1.615907120424207
 40
1.615907120424207
 40
1.615907120424207
 40
1.615907120424207
 40
1.615907120424207
 10
479.0710475487459
 20
466.3031042540948
 30
0.0
 10
479.0726158219094
 20
466.3189188112668
 30
0.0
 10
479.0740130864139
 20
466.334904377098
 30
0.0
 10
479.0752496754682
 20
466.3510506183794
 30
0.0
 10
479.0763366355808
 20
466.3673464886023
 30
0.0
 10
479.0772857265599
 20
466.3837802279588
 30
0.0
  0
SPLINE
  5
7B
330
1F
100
AcDbEntity
  8
Make2D$Visibile$Curve
370
    -3
100
AcDbSpline
210
0.0
220
0.0
230
1.0
 70
     8
 71
     5
 72
    12
 73
     6
 74
     0
 42
0.0000000001
 43
0.0000000001
 40
1.150973126831112
 40
1.150973126831112
 40
1.150973126831112
 40
1.150973126831112
 40
1.150973126831112
 40
1.150973126831112
 40
1.313059134507107
 40
1.313059134507107
 40
1.313059134507107
 40
1.313059134507107
 40
1.313059134507107
 40
1.313059134507107
 10
302.5023904549456
 20
465.6736279721289
 30
0.0
 10
302.534108201529
 20
465.6704986927181
 30
0.0
 10
302.5668931775156
 20
465.6680368917025
 30
0.0
 10
302.599964861218
 20
465.6661691136407
 30
0.0
 10
302.632542730949
 20
465.6648219030919
 30
0.0
 10
302.6638462650212
 20
465.663921804615
 30
0.0
  0
SPLINE
  5
7C
330
1F
100
AcDbEntity
  8
Make2D$Visibile$Curve
370
    -3
100
AcDbSpline
210
0.0
220
0.0
230
1.0
 70
     8
 71
     5
 72
    12
 73
     6
 74
     0
 42
0.0000000001
 43
0.0000000001
 40
0.5871048716680456
 40
0.5871048716680456
 40
0.5871048716680456
 40
0.5871048716680456
 40
0.5871048716680456
 40
0.5871048716680456
 40
0.9414213562373538
 40
0.9414213562373538
 40
0.9414213562373538
 40
0.9414213562373538
 40
0.9414213562373538
 40
0.9414213562373538
 10
302.2888577538307
 20
465.7132132019003
 30
0.0
 10
302.2309772426913
 20
465.730605358461
 30
0.0
 10
302.1776561623264
 20
465.7525569457962
 30
0.0
 10
302.1293961262838
 20
465.7795695774537
 30
0.0
 10
302.0864479413374
 20
465.8118940602075
 30
0.0
 10
302.0488116074874
 20
465.8495303940576
 30
0.0
  0
SPLINE
  5
7D
330
1F
100
AcDbEntity
  8
Make2D$Visibile$Curve
370
    -3
100
AcDbSpline
210
0.0
220
0.0
230
1.0
 70
     8
 71
     5
 72
    12
 73
     6
 74
     0
 42
0.0000000001
 43
0.0000000001
 40
0.0456539398745206
 40
0.0456539398745206
 40
0.0456539398745206
 40
0.0456539398745206
 40
0.0456539398745206
 40
0.0456539398745206
 40
0.2034967631585796
 40
0.2034967631585796
 40
0.2034967631585796
 40
0.2034967631585796
 40
0.2034967631585796
 40
0.2034967631585796
 10
477.9912877933513
 20
484.151388489544
 30
0.0
 10
478.0245516080001
 20
484.151392308786
 30
0.0
 10
478.0546540937357
 20
484.1514371092575
 30
0.0
 10
478.0833889313385
 20
484.1515280009344
 30
0.0
 10
478.1125498015891
 20
484.1516700937925
 30
0.0
 10
478.1439303852681
 20
484.1518684978077
 30
0.0
  0
SPLINE
  5
7E
330
1F
100
AcDbEntity
  8
Make2D$Visibile$Curve
370
    -3
100
AcDbSpline
210
0.0
220
0.0
230
1.0
 70
     8
 71
     5
 72
    12
 73
     6
 74
     0
 42
0.0000000001
 43
0.0000000001
 40
0.045653838146907
 40
0.045653838146907
 40
0.045653838146907
 40
0.045653838146907
 40
0.045653838146907
 40
0.045653838146907
 40
0.2034963989386532
 40
0.2034963989386532
 40
0.2034963989386532
 40
0.2034963989386532
 40
0.2034963989386532
 40
0.2034963989386532
 10
479.0825819495963
 20
466.7533236404907
 30
0.0
 10
479.0825857687425
 20
466.7200596466258
 30
0.0
 10
479.082630567326
 20
466.6899573395395
 30
0.0
 10
479.0827214566149
 20
466.6612227996613
 30
0.0
 10
479.0828635478774
 20
466.6320621074204
 30
0.0
 10
479.0830619523819
 20
466.6006813432461
 30
0.0
  0
SPLINE
  5
7F
330
1F
100
AcDbEntity
  8
Make2D$Visibile$Curve
370
    -3
100
AcDbSpline
210
0.0
220
0.0
230
1.0
 70
     8
 71
     5
 72
    12
 73
     6
 74
     0
 42
0.0000000001
 43
0.0000000001
 40
0.295949298831424
 40
0.295949298831424
 40
0.295949298831424
 40
0.295949298831424
 40
0.295949298831424
 40
0.295949298831424
 40
0.4153492675095539
 40
0.4153492675095539
 40
0.4153492675095539
 40
0.4153492675095539
 40
0.4153492675095539
 40
0.4153492675095539
 10
479.0833669023454
 20
466.5148572723589
 30
0.0
 10
479.0833107670581
 20
466.4912598451947
 30
0.0
 10
479.0831412837138
 20
466.4689659826015
 30
0.0
 10
479.0827559639758
 20
466.4469452836832
 30
0.0
 10
479.0820523195077
 20
466.4241673475438
 30
0.0
 10
479.0809278619729
 20
466.3996017732874
 30
0.0
  0
SPLINE
  5
80
330
1F
100
AcDbEntity
  8
Make2D$Visibile$Curve
370
    -3
100
AcDbSpline
210
0.0
220
0.0
230
1.0
 70
     8
 71
     5
 72
    12
 73
     6
 74
     0
 42
0.0000000001
 43
0.0000000001
 40
0.0456538383077426
 40
0.0456538383077426
 40
0.0456538383077426
 40
0.0456538383077426
 40
0.0456538383077426
 40
0.0456538383077426
 40
0.2034963991146366
 40
0.2034963991146366
 40
0.2034963991146366
 40
0.2034963991146366
 40
0.2034963991146366
 40
0.2034963991146366
 10
302.9526048539068
 20
465.6620292955428
 30
0.0
 10
302.9193408603313
 20
465.6620254763965
 30
0.0
 10
302.8892385530924
 20
465.661980677812
 30
0.0
 10
302.8605040129155
 20
465.6618897885221
 30
0.0
 10
302.8313433205259
 20
465.6617476972595
 30
0.0
 10
302.799962556649
 20
465.661549292757
 30
0.0
  0
SPLINE
  5
81
330
1F
100
AcDbEntity
  8
Make2D$Visibile$Curve
370
    -3
100
AcDbSpline
210
0.0
220
0.0
230
1.0
 70
    12
 71
     2
 72
     6
 73
     3
 74
     0
 42
0.0000000001
 43
0.0000000001
 40
120.9391199297295
 40
120.9391199297295
 40
120.9391199297295
 40
181.4086798945942
 40
181.4086798945942
 40
181.4086798945942
 10
385.0699447094437
 20
135.236343122448
 30
0.0
 41
1.0
 10
423.5660622094437
 20
135.236343122448
 30
0.0
 41
0.7071067811865477
 10
423.5660622094437
 20
135.2363442441151
 30
0.0
 41
1.0
  0
SPLINE
  5
82
330
1F
100
AcDbEntity
  8
Make2D$Visibile$Curve
370
    -3
100
AcDbSpline
210
0.0
220
0.0
230
1.0
 70
    12
 71
     2
 72
     6
 73
     3
 74
     0
 42
0.0000000001
 43
0.0000000001
 40
-241.8782613213642
 40
-241.8782613213642
 40
-241.8782613213642
 40
-181.4086959910231
 40
-181.4086959910231
 40
-181.4086959910231
 10
385.0199447060127
 20
137.3646309950873
 30
0.0
 41
1.0
 10
423.516065621781
 20
137.3646309950873
 30
0.0
 41
0.7071067811865476
 10
423.516065621781
 20
137.3646321167545
 30
0.0
 41
1.0
  0
SPLINE
  5
83
330
1F
100
AcDbEntity
  8
Make2D$Visibile$Curve
370
    -3
100
AcDbSpline
210
0.0
220
0.0
230
1.0
 70
    12
 71
     2
 72
     6
 73
     3
 74
     0
 42
0.0000000001
 43
0.0000000001
 40
-40.84070449672918
 40
-40.84070449672918
 40
-40.84070449672918
 40
-0.000000000061867
 40
-0.000000000061867
 40
-0.000000000061867
 10
385.0699447093818
 20
101.6969238203991
 30
0.0
 41
1.0
 10
411.069944709366
 20
101.696923820399
 30
0.0
 41
0.7071067811865475
 10
411.0699447094252
 20
101.6969230628332
 30
0.0
 41
1.0
  0
SPLINE
  5
84
330
1F
100
AcDbEntity
  8
Make2D$Visibile$Curve
370
    -3
100
AcDbSpline
210
0.0
220
0.0
230
1.0
 70
    12
 71
     2
 72
     6
 73
     3
 74
     0
 42
0.0000000001
 43
0.0000000001
 40
-0.000000000061867
 40
-0.000000000061867
 40
-0.000000000061867
 40
40.84070449660543
 40
40.84070449660543
 40
40.84070449660543
 10
411.0699447094252
 20
101.6969230628332
 30
0.0
 41
1.0
 10
411.069944709472
 20
101.6969223052673
 30
0.0
 41
0.7071067811865475
 10
385.0699447094878
 20
101.6969223052674
 30
0.0
 41
1.0
  0
SPLINE
  5
85
330
1F
100
AcDbEntity
  8
Make2D$Visibile$Curve
370
    -3
100
AcDbSpline
210
0.0
220
0.0
230
1.0
 70
    12
 71
     3
 72
    20
 73
    16
 74
     0
 42
0.0000000001
 43
0.0000000001
 40
0.0
 40
0.0
 40
0.0
 40
0.0
 40
2.994183292424555
 40
2.994183292424555
 40
2.994183292424555
 40
9.02147089057043
 40
9.02147089057043
 40
9.02147089057043
 40
18.4630085811533
 40
18.4630085811533
 40
18.4630085811533
 40
27.91929766100114
 40
27.91929766100114
 40
27.91929766100114
 40
36.79217713755259
 40
36.79217713755259
 40
36.79217713755259
 40
36.79217713755259
 10
423.5660622094437
 20
135.2363442441152
 30
0.0
 41
0.4999999999999998
 10
423.5660622094437
 20
134.2371688310545
 30
0.0
 41
0.4999999999999999
 10
423.5660148206076
 20
133.2400888710123
 30
0.0
 41
0.4999999999999999
 10
423.5571001520265
 20
132.2422007717756
 30
0.0
 41
0.4999999999999999
 10
423.5390771714376
 20
130.2247485604325
 30
0.0
 41
0.4999999999999999
 10
423.4849260014819
 20
128.2341138089121
 30
0.0
 41
0.4999999999999999
 10
423.3266456563295
 20
126.2219457683197
 30
0.0
 41
0.4999999999999999
 10
423.0813639906733
 20
123.1037574164959
 30
0.0
 41
0.4999999999999999
 10
422.5636357762486
 20
119.962626221035
 30
0.0
 41
0.4999999999999999
 10
421.7186771837988
 20
116.9486206062587
 30
0.0
 41
0.4999999999999999
 10
420.880424708424
 20
113.9585360151844
 30
0.0
 41
0.4999999999999999
 10
419.6845096436356
 20
110.9526145447457
 30
0.0
 41
0.4999999999999999
 10
418.0531774770542
 20
108.2979534364752
 30
0.0
 41
0.4999999999999999
 10
416.5016993797819
 20
105.7732385748826
 30
0.0
 41
0.4999999999999999
 10
414.5176865307457
 20
103.5933725708218
 30
0.0
 41
0.4999999999999999
 10
412.1536372983857
 20
101.8088011260312
 30
0.0
 41
0.4999999999999999
  0
SPLINE
  5
86
330
1F
100
AcDbEntity
  8
Make2D$Visibile$Curve
370
    -3
100
AcDbSpline
210
0.0
220
0.0
230
1.0
 70
    12
 71
     3
 72
    20
 73
    16
 74
     0
 42
0.0000000001
 43
0.0000000001
 40
0.0
 40
0.0
 40
0.0
 40
0.0
 40
8.872879476551464
 40
8.872879476551464
 40
8.872879476551464
 40
18.32916855639928
 40
18.32916855639928
 40
18.32916855639928
 40
27.77070624698216
 40
27.77070624698216
 40
27.77070624698216
 40
34.54676771245602
 40
34.54676771245602
 40
34.54676771245602
 40
36.79261078688433
 40
36.79261078688433
 40
36.79261078688433
 40
36.79261078688433
 10
357.9862521205018
 20
101.8088011260311
 30
0.0
 41
1.0
 10
355.6222028881417
 20
103.5933725708219
 30
0.0
 41
1.0
 10
353.6381900391057
 20
105.7732385748825
 30
0.0
 41
1.0
 10
352.0867119418334
 20
108.2979534364752
 30
0.0
 41
1.0
 10
350.455379775252
 20
110.9526145447456
 30
0.0
 41
1.0
 10
349.2594647104634
 20
113.9585360151846
 30
0.0
 41
1.0
 10
348.4212122350887
 20
116.9486206062587
 30
0.0
 41
1.0
 10
347.5762536426388
 20
119.9626262210352
 30
0.0
 41
1.0
 10
347.0585254282142
 20
123.1037574164956
 30
0.0
 41
1.0
 10
346.813243762558
 20
126.2219457683197
 30
0.0
 41
1.0
 10
346.6352088305547
 20
128.4852476327496
 30
0.0
 41
1.0
 10
346.5890881782824
 20
130.718504053707
 30
0.0
 41
1.0
 10
346.5776280695819
 20
132.9905106887324
 30
0.0
 41
1.0
 10
346.5738538656641
 20
133.738759816847
 30
0.0
 41
1.0
 10
346.5738272094438
 20
134.4869626843196
 30
0.0
 41
1.0
 10
346.5738272094437
 20
135.2363442441151
 30
0.0
 41
1.0
  0
SPLINE
  5
87
330
1F
100
AcDbEntity
  8
Make2D$Visibile$Curve
370
    -3
100
AcDbSpline
210
0.0
220
0.0
230
1.0
 70
    12
 71
     2
 72
     6
 73
     3
 74
     0
 42
0.0000000001
 43
0.0000000001
 40
60.46955996486473
 40
60.46955996486473
 40
60.46955996486473
 40
120.9391199297295
 40
120.9391199297295
 40
120.9391199297295
 10
346.5738272094437
 20
135.2363442441151
 30
0.0
 41
1.0
 10
346.5738272094437
 20
135.236343122448
 30
0.0
 41
0.7071067811865476
 10
385.0699447094437
 20
135.236343122448
 30
0.0
 41
1.0
  0
SPLINE
  5
88
330
1F
100
AcDbEntity
  8
Make2D$Visibile$Curve
370
    -3
100
AcDbSpline
210
0.0
220
0.0
230
1.0
 70
    12
 71
     3
 72
    10
 73
     6
 74
     0
 42
0.0000000001
 43
0.0000000001
 40
44.99921521043741
 40
44.99921521043741
 40
44.99921521043741
 40
44.99921521043741
 40
48.49195265558878
 40
48.49195265558878
 40
50.03141983816936
 40
50.03141983816936
 40
50.03141983816936
 40
50.03141983816936
 10
411.772184513484
 20
101.6969231092868
 30
0.0
 41
0.8535533833089881
 10
411.7066140230835
 20
101.6969231412855
 30
0.0
 41
0.8535533833089881
 10
411.5733538198234
 20
101.6969231731364
 30
0.0
 41
0.8535533833089881
 10
411.2849216253969
 20
101.6969232185511
 30
0.0
 41
0.8535533833089881
 10
411.1837952987742
 20
101.6969232323623
 30
0.0
 41
0.8535533833089881
 10
411.0699447094251
 20
101.6969232460767
 30
0.0
 41
0.8535533833089881
  0
SPLINE
  5
89
330
1F
100
AcDbEntity
  8
Make2D$Visibile$Curve
370
    -3
100
AcDbSpline
210
0.0
220
0.0
230
1.0
 70
    12
 71
     3
 72
     8
 73
     4
 74
     0
 42
0.0000000001
 43
0.0000000001
 40
43.51613175912091
 40
43.51613175912091
 40
43.51613175912091
 40
43.51613175912091
 40
43.54032298455744
 40
43.54032298455744
 40
43.54032298455744
 40
43.54032298455744
 10
358.2534479405862
 20
101.7009519571974
 30
0.0
 41
0.853553383308993
 10
358.1538759168907
 20
101.7130242570451
 30
0.0
 41
0.853553383308993
 10
358.0624102172105
 20
101.7513378026309
 30
0.0
 41
0.853553383308993
 10
357.9862666101001
 20
101.8088203195231
 30
0.0
 41
0.853553383308993
  0
SPLINE
  5
8A
330
1F
100
AcDbEntity
  8
Make2D$Visibile$Curve
370
    -3
100
AcDbSpline
210
0.0
220
0.0
230
1.0
 70
    12
 71
     3
 72
     8
 73
     4
 74
     0
 42
0.0000000001
 43
0.0000000001
 40
0.0425153620083314
 40
0.0425153620083314
 40
0.0425153620083314
 40
0.0425153620083314
 40
0.0667065874424324
 40
0.0667065874424324
 40
0.0667065874424324
 40
0.0667065874424324
 10
412.1536228087873
 20
101.808820319523
 30
0.0
 41
1.0
 10
412.0774792016769
 20
101.7513378026309
 30
0.0
 41
1.0
 10
411.9860135019967
 20
101.713024257045
 30
0.0
 41
1.0
 10
411.8864414783012
 20
101.7009519571974
 30
0.0
 41
1.0
  0
SPLINE
  5
8B
330
1F
100
AcDbEntity
  8
Make2D$Visibile$Curve
370
    -3
100
AcDbSpline
210
0.0
220
0.0
230
1.0
 70
    24
 71
     3
 72
     8
 73
     4
 74
     0
 42
0.0000000001
 43
0.0000000001
 40
49.10168084226365
 40
49.10168084226365
 40
49.10168084226365
 40
49.10168084226365
 40
49.51549455572763
 40
49.51549455572763
 40
49.51549455572763
 40
49.51549455572763
 10
423.2660622094437
 20
135.5363442441152
 30
0.0
 10
423.3660380361429
 20
135.4363684174161
 30
0.0
 10
423.4660380361429
 20
135.3363684174161
 30
0.0
 10
423.5660622094438
 20
135.2363442441151
 30
0.0
  0
SPLINE
  5
8C
330
1F
100
AcDbEntity
  8
Make2D$Visibile$Curve
370
    -3
100
AcDbSpline
210
0.0
220
0.0
230
1.0
 70
    28
 71
     3
 72
     8
 73
     4
 74
     0
 42
0.0000000001
 43
0.0000000001
 40
7.141229421568349
 40
7.141229421568349
 40
7.141229421568349
 40
7.141229421568349
 40
7.565493490280311
 40
7.565493490280311
 40
7.565493490280311
 40
7.565493490280311
 10
346.5738272094437
 20
135.2363442441152
 30
0.0
 41
0.9999999879310015
 10
346.6738272094437
 20
135.3363442441152
 30
0.0
 41
0.9999999879310015
 10
346.7738272094437
 20
135.4363442441152
 30
0.0
 41
0.9999999879310015
 10
346.8738272094437
 20
135.5363442441152
 30
0.0
 41
0.9999999879310015
  0
SPLINE
  5
8D
330
1F
100
AcDbEntity
  8
Make2D$Visibile$Curve
370
    -3
100
AcDbSpline
210
0.0
220
0.0
230
1.0
 70
    12
 71
     3
 72
    29
 73
    25
 74
     0
 42
0.0000000001
 43
0.0000000001
 40
0.0
 40
0.0
 40
0.0
 40
0.0
 40
14.31993938360377
 40
14.31993938360377
 40
14.31993938360377
 40
21.99367664502914
 40
21.99367664502914
 40
21.99367664502914
 40
29.77940576848695
 40
29.77940576848695
 40
29.77940576848695
 40
35.4264447772505
 40
35.4264447772505
 40
35.4264447772505
 40
37.29887792362937
 40
37.29887792362937
 40
37.29887792362937
 40
44.79839895824663
 40
44.79839895824663
 40
44.79839895824663
 40
59.79818252916191
 40
59.79818252916191
 40
59.79818252916191
 40
119.7973168128227
 40
119.7973168128227
 40
119.7973168128227
 40
119.7973168128227
 10
411.0001527300915
 20
253.2435064633617
 30
0.0
 41
1.0
 10
414.8513518867419
 20
250.2903305644501
 30
0.0
 41
1.0
 10
417.7880033815009
 20
246.7511586427093
 30
0.0
 41
1.0
 10
419.824560187383
 20
242.3297222213229
 30
0.0
 41
1.0
 10
420.8816170734696
 20
240.0348145604508
 30
0.0
 41
1.0
 10
421.6652243556616
 20
237.5288380078865
 30
0.0
 41
1.0
 10
422.2209191568778
 20
235.0693838220191
 30
0.0
 41
1.0
 10
422.7900315126357
 20
232.5505447712777
 30
0.0
 41
1.0
 10
423.1459204520567
 20
229.9526390500009
 30
0.0
 41
1.0
 10
423.3233540643311
 20
227.3775167881793
 30
0.0
 41
1.0
 10
423.4532158528075
 20
225.4928119784244
 30
0.0
 41
1.0
 10
423.4959687392047
 20
223.6257578597226
 30
0.0
 41
1.0
 10
423.5096520173742
 20
221.7354853648632
 30
0.0
 41
1.0
 10
423.5141696600814
 20
221.1113969230812
 30
0.0
 41
1.0
 10
423.515512826314
 20
220.4875046669527
 30
0.0
 41
1.0
 10
423.5159010828817
 20
219.8630701359357
 30
0.0
 41
1.0
 10
423.5174541091521
 20
217.3653320118673
 30
0.0
 41
1.0
 10
423.5160622060127
 20
214.8635138998164
 30
0.0
 41
1.0
 10
423.5160622060127
 20
212.3635499713306
 30
0.0
 41
0.9999999999999998
 10
423.5160622060127
 20
207.3636221143589
 30
0.0
 41
0.9999999999999998
 10
423.5160622060127
 20
202.3636942573871
 30
0.0
 41
0.9999999999999998
 10
423.5160622060127
 20
197.3637664004153
 30
0.0
 41
0.9999999999999998
 10
423.5160622060127
 20
177.3640549725282
 30
0.0
 41
0.9999999999999998
 10
423.5160622060127
 20
157.3643435446413
 30
0.0
 41
0.9999999999999998
 10
423.5160622060127
 20
137.3646321167546
 30
0.0
 41
0.9999999999999998
  0
SPLINE
  5
8E
330
1F
100
AcDbEntity
  8
Make2D$Visibile$Curve
370
    -3
100
AcDbSpline
210
0.0
220
0.0
230
1.0
 70
    12
 71
     3
 72
    29
 73
    25
 74
     0
 42
0.0000000001
 43
0.0000000001
 40
0.0
 40
0.0
 40
0.0
 40
0.0
 40
59.99913428366077
 40
59.99913428366077
 40
59.99913428366077
 40
74.99891785457605
 40
74.99891785457605
 40
74.99891785457605
 40
82.49843888919327
 40
82.49843888919327
 40
82.49843888919327
 40
84.99508897054613
 40
84.99508897054613
 40
84.99508897054613
 40
90.01766907170308
 40
90.01766907170308
 40
90.01766907170308
 40
97.80339819516088
 40
97.80339819516088
 40
97.80339819516088
 40
105.4771354565863
 40
105.4771354565863
 40
105.4771354565863
 40
119.7970748401901
 40
119.7970748401901
 40
119.7970748401901
 40
119.7970748401901
 10
346.5238272060128
 20
137.3646321167546
 30
0.0
 41
0.4999999999999998
 10
346.5238272060128
 20
157.3643435446412
 30
0.0
 41
0.4999999999999998
 10
346.5238272060128
 20
177.3640549725283
 30
0.0
 41
0.4999999999999998
 10
346.5238272060128
 20
197.3637664004154
 30
0.0
 41
0.4999999999999998
 10
346.5238272060128
 20
202.3636942573871
 30
0.0
 41
0.4999999999999998
 10
346.5238272060128
 20
207.3636221143589
 30
0.0
 41
0.4999999999999998
 10
346.5238272060128
 20
212.3635499713306
 30
0.0
 41
0.4999999999999998
 10
346.5238272060128
 20
214.8635138998164
 30
0.0
 41
0.4999999999999999
 10
346.5224353028733
 20
217.3653320118674
 30
0.0
 41
0.4999999999999999
 10
346.5239883291437
 20
219.8630701359357
 30
0.0
 41
0.4999999999999999
 10
346.5245060045672
 20
220.6956495106251
 30
0.0
 41
0.4999999999999999
 10
346.5267212971729
 20
221.5272648410682
 30
0.0
 41
0.4999999999999999
 10
346.5358954023616
 20
222.3596665522534
 30
0.0
 41
0.4999999999999999
 10
346.554401534126
 20
224.038798787099
 30
0.0
 41
0.4999999999999999
 10
346.6010758036779
 20
225.7018340450665
 30
0.0
 41
0.4999999999999999
 10
346.7165353476943
 20
227.3775167881793
 30
0.0
 41
0.4999999999999999
 10
346.8939689599687
 20
229.9526390500008
 30
0.0
 41
0.4999999999999999
 10
347.2498578993897
 20
232.5505447712779
 30
0.0
 41
0.4999999999999999
 10
347.8189702551475
 20
235.0693838220191
 30
0.0
 41
0.4999999999999999
 10
348.3746650563638
 20
237.5288380078865
 30
0.0
 41
0.4999999999999999
 10
349.1582723385558
 20
240.0348145604509
 30
0.0
 41
0.4999999999999999
 10
350.2153292246423
 20
242.3297222213229
 30
0.0
 41
0.4999999999999999
 10
352.2518860305246
 20
246.7511586427094
 30
0.0
 41
0.4999999999999999
 10
355.1885375252835
 20
250.2903305644501
 30
0.0
 41
0.4999999999999999
 10
359.0397366819339
 20
253.2435064633618
 30
0.0
 41
0.4999999999999999
  0
SPLINE
  5
8F
330
1F
100
AcDbEntity
  8
Make2D$Visibile$Curve
370
    -3
100
AcDbSpline
210
0.0
220
0.0
230
1.0
 70
    12
 71
     2
 72
     6
 73
     3
 74
     0
 42
0.0000000001
 43
0.0000000001
 40
-60.46956533034097
 40
-60.46956533034097
 40
-60.46956533034097
 40
0.0
 40
0.0
 40
0.0
 10
346.5238237902444
 20
137.3646321167545
 30
0.0
 41
1.0
 10
346.5238237902445
 20
137.3646309950874
 30
0.0
 41
0.7071067811865482
 10
385.0199447060127
 20
137.3646309950873
 30
0.0
 41
1.0
  0
SPLINE
  5
90
330
1F
100
AcDbEntity
  8
Make2D$Visibile$Curve
370
    -3
100
AcDbSpline
210
0.0
220
0.0
230
1.0
 70
     8
 71
     3
 72
    10
 73
     6
 74
     0
 42
0.0000000001
 43
0.0000000001
 40
3.164347411367061
 40
3.164347411367061
 40
3.164347411367061
 40
3.164347411367061
 40
4.744868238754005
 40
4.744868238754005
 40
4.777967963406907
 40
4.777967963406907
 40
4.777967963406907
 40
4.777967963406907
 10
359.0397365627002
 20
253.2435066188531
 30
0.0
 10
359.2595928839692
 20
253.4120964153432
 30
0.0
 10
359.5022382363331
 20
253.5497961116357
 30
0.0
 10
359.7663954068187
 20
253.6543735265564
 30
0.0
 10
360.8651167291843
 20
253.8628634576382
 30
0.0
 10
360.8652609570181
 20
253.8628634575589
 30
0.0
  0
SPLINE
  5
91
330
1F
100
AcDbEntity
  8
Make2D$Visibile$Curve
370
    -3
100
AcDbSpline
210
0.0
220
0.0
230
1.0
 70
     8
 71
     3
 72
    10
 73
     6
 74
     0
 42
0.0000000001
 43
0.0000000001
 40
0.0
 40
0.0
 40
0.0
 40
0.0
 40
0.0329697855853648
 40
0.0329697855853648
 40
1.613439352619907
 40
1.613439352619907
 40
1.613439352619907
 40
1.613439352619907
 10
409.1746284550073
 20
253.8628634575589
 30
0.0
 10
409.174749658509
 20
253.8628634576316
 30
0.0
 10
410.2735151017806
 20
253.6543651746152
 30
0.0
 10
410.5376511756923
 20
253.5497961116357
 30
0.0
 10
410.7802965280562
 20
253.4120964153432
 30
0.0
 10
411.0001528493252
 20
253.2435066188532
 30
0.0
  0
SPLINE
  5
92
330
1F
100
AcDbEntity
  8
Make2D$Visibile$Curve
370
    -3
100
AcDbSpline
210
0.0
220
0.0
230
1.0
 70
    28
 71
     3
 72
     8
 73
     4
 74
     0
 42
0.0000000001
 43
0.0000000001
 40
48.70982244762948
 40
48.70982244762948
 40
48.70982244762948
 40
48.70982244762948
 40
49.30982244762949
 40
49.30982244762949
 40
49.30982244762949
 40
49.30982244762949
 10
346.9480878589563
 20
136.9403680480426
 30
0.0
 41
0.9999999879309978
 10
346.8066665027191
 20
137.0817894042799
 30
0.0
 41
0.9999999879309978
 10
346.6652451464817
 20
137.2232107605172
 30
0.0
 41
0.9999999879309978
 10
346.5238237902444
 20
137.3646321167544
 30
0.0
 41
0.9999999879309978
  0
SPLINE
  5
93
330
1F
100
AcDbEntity
  8
Make2D$Visibile$Curve
370
    -3
100
AcDbSpline
210
0.0
220
0.0
230
1.0
 70
    24
 71
     3
 72
     8
 73
     4
 74
     0
 42
0.0000000001
 43
0.0000000001
 40
6.935553394273891
 40
6.935553394273891
 40
6.935553394273891
 40
6.935553394273891
 40
7.520832983600908
 40
7.520832983600908
 40
7.520832983600908
 40
7.520832983600908
 10
423.5160656217811
 20
137.3646321167545
 30
0.0
 10
423.3745959092595
 20
137.2231624042329
 30
0.0
 10
423.2331745530222
 20
137.0817410479956
 30
0.0
 10
423.0918015530691
 20
136.9403680480425
 30
0.0
  0
SPLINE
  5
94
330
1F
100
AcDbEntity
  8
Make2D$Visibile$Curve
370
    -3
100
AcDbSpline
210
0.0
220
0.0
230
1.0
 70
    28
 71
     2
 72
     6
 73
     3
 74
     0
 42
0.0000000001
 43
0.0000000001
 40
2.543618649404431
 40
2.543618649404431
 40
2.543618649404431
 40
3.947856314859471
 40
3.947856314859471
 40
3.947856314859471
 10
347.7944520324847
 20
135.5363442435935
 30
0.0
 41
0.9999999997893347
 10
347.7821983692488
 20
136.238356140222
 30
0.0
 41
0.9999999997893347
 10
347.7699447060127
 20
136.9403680368505
 30
0.0
 41
0.9999999997893347
  0
SPLINE
  5
95
330
1F
100
AcDbEntity
  8
Make2D$Visibile$Curve
370
    -3
100
AcDbSpline
210
0.0
220
0.0
230
1.0
 70
    28
 71
     2
 72
     6
 73
     3
 74
     0
 42
0.0000000001
 43
0.0000000001
 40
1.449971295580286
 40
1.449971295580286
 40
1.449971295580286
 40
2.85420896103532
 40
2.85420896103532
 40
2.85420896103532
 10
422.2699447060127
 20
136.9403680368505
 30
0.0
 41
1.0
 10
422.2576910427767
 20
136.238356140222
 30
0.0
 41
1.0
 10
422.2454373795406
 20
135.5363442435935
 30
0.0
 41
1.0
  0
SPLINE
  5
96
330
1F
100
AcDbEntity
  8
Make2D$Visibile$Curve
370
    -3
100
AcDbSpline
210
0.0
220
0.0
230
1.0
 70
    12
 71
     3
 72
    15
 73
    11
 74
     0
 42
0.0000000001
 43
0.0000000001
 40
0.0
 40
0.0
 40
0.0
 40
0.0
 40
21.55348448777325
 40
21.55348448777325
 40
21.55348448777325
 40
33.92628076671079
 40
33.92628076671079
 40
39.78274638943517
 40
39.78274638943517
 40
43.50224749983533
 40
43.50224749983533
 40
43.50224749983533
 40
43.50224749983533
 10
385.0699447094437
 20
101.6969222834205
 30
0.0
 41
0.9999999914659342
 10
378.0827951237972
 20
101.6969222834205
 30
0.0
 41
0.9023689193613067
 10
371.3782066675617
 20
101.6969223595154
 30
0.0
 41
0.8535533833089929
 10
366.1549846849752
 20
101.6969225117052
 30
0.0
 41
0.8535533833089929
 10
363.5705058739413
 20
101.6969225870096
 30
0.0
 41
0.8535533833089929
 10
361.543388368003
 20
101.6969226769384
 30
0.0
 41
0.8535533833089929
 10
359.5616240293052
 20
101.6969228227943
 30
0.0
 41
0.8535533833089929
 10
359.0819415129079
 20
101.6969228713777
 30
0.0
 41
0.8535533833089929
 10
358.566535253513
 20
101.6969229525303
 30
0.0
 41
0.8535533833089929
 10
358.4332752692935
 20
101.696922984381
 30
0.0
 41
0.8535533833089929
 10
358.3677043644987
 20
101.6969230163799
 30
0.0
 41
0.8535533833089929
  0
SPLINE
  5
97
330
1F
100
AcDbEntity
  8
Make2D$Visibile$Curve
370
    -3
100
AcDbSpline
210
0.0
220
0.0
230
1.0
 70
    28
 71
     2
 72
     6
 73
     3
 74
     0
 42
0.0000000001
 43
0.0000000001
 40
11.71666666666682
 40
11.71666666666682
 40
11.71666666666682
 40
15.25000000000031
 40
15.25000000000031
 40
15.25000000000031
 10
381.2699447094438
 20
442.5362800172923
 30
0.0
 41
1.0
 10
380.6969717364708
 20
444.2074511884636
 30
0.0
 41
1.0
 10
380.1239987634979
 20
445.8786223596348
 30
0.0
 41
1.0
  0
SPLINE
  5
98
330
1F
100
AcDbEntity
  8
Make2D$Visibile$Curve
370
    -3
100
AcDbSpline
210
0.0
220
0.0
230
1.0
 70
    28
 71
     2
 72
     6
 73
     3
 74
     0
 42
0.0000000001
 43
0.0000000001
 40
2.793571428571493
 40
2.793571428571493
 40
2.793571428571493
 40
6.326904761904986
 40
6.326904761904986
 40
6.326904761904986
 10
390.0158906553898
 20
445.8786223596348
 30
0.0
 41
1.0
 10
389.4429176824168
 20
444.2074511884636
 30
0.0
 41
1.0
 10
388.8699447094438
 20
442.5362800172923
 30
0.0
 41
1.0
  0
SPLINE
  5
99
330
1F
100
AcDbEntity
  8
Make2D$Visibile$Curve
370
    -3
100
AcDbSpline
210
0.0
220
0.0
230
1.0
 70
    28
 71
     2
 72
     6
 73
     3
 74
     0
 42
0.0000000001
 43
0.0000000001
 40
3.133333333333352
 40
3.133333333333352
 40
3.133333333333352
 40
22.46666666666656
 40
22.46666666666656
 40
22.46666666666656
 10
390.0699447094437
 20
465.5362800172923
 30
0.0
 41
1.0
 10
390.0699447094437
 20
455.8696133506256
 30
0.0
 41
1.0
 10
390.0699447094438
 20
446.2029466839591
 30
0.0
 41
1.0
  0
SPLINE
  5
9A
330
1F
100
AcDbEntity
  8
Make2D$Visibile$Curve
370
    -3
100
AcDbSpline
210
0.0
220
0.0
230
1.0
 70
    28
 71
     2
 72
     6
 73
     3
 74
     0
 42
0.0000000001
 43
0.0000000001
 40
3.133333333333351
 40
3.133333333333351
 40
3.133333333333351
 40
22.46666666666655
 40
22.46666666666655
 40
22.46666666666655
 10
380.0699447094438
 20
446.202946683959
 30
0.0
 41
1.0
 10
380.0699447094437
 20
455.8696133506256
 30
0.0
 41
1.0
 10
380.0699447094437
 20
465.5362800172922
 30
0.0
 41
1.0
  0
SPLINE
  5
9B
330
1F
100
AcDbEntity
  8
Make2D$Visibile$Curve
370
    -3
100
AcDbSpline
210
0.0
220
0.0
230
1.0
 70
    12
 71
     2
 72
     6
 73
     3
 74
     0
 42
0.0000000001
 43
0.0000000001
 40
0.0
 40
0.0
 40
0.0
 40
0.3653052284157929
 40
0.3653052284157929
 40
0.3653052284157929
 10
380.0699447094438
 20
446.202946683959
 30
0.0
 41
1.0
 10
380.0699447094439
 20
446.0362800172921
 30
0.0
 41
0.935422548946073
 10
380.123998763498
 20
445.8786223596343
 30
0.0
 41
0.8993213268845177
  0
SPLINE
  5
9C
330
1F
100
AcDbEntity
  8
Make2D$Visibile$Curve
370
    -3
100
AcDbSpline
210
0.0
220
0.0
230
1.0
 70
    12
 71
     2
 72
     6
 73
     3
 74
     0
 42
0.0000000001
 43
0.0000000001
 40
0.0
 40
0.0
 40
0.0
 40
0.3653052284152596
 40
0.3653052284152596
 40
0.3653052284152596
 10
390.0699447094438
 20
446.2029466839591
 30
0.0
 41
1.0
 10
390.0699447094438
 20
446.0362800172924
 30
0.0
 41
0.9354225489461678
 10
390.0158906553898
 20
445.8786223596349
 30
0.0
 41
0.8993213268846236
  0
SPLINE
  5
9D
330
1F
100
AcDbEntity
  8
Make2D$Visibile$Curve
370
    -3
100
AcDbSpline
210
0.0
220
0.0
230
1.0
 70
    28
 71
     2
 72
     6
 73
     3
 74
     0
 42
0.0000000001
 43
0.0000000001
 40
1.22999999999999
 40
1.22999999999999
 40
1.22999999999999
 40
1.530000000000001
 40
1.530000000000001
 40
1.530000000000001
 10
388.7199447094437
 20
442.4362800172943
 30
0.0
 41
1.0
 10
388.7199447094437
 20
442.2862800172943
 30
0.0
 41
1.0
 10
388.7199447094437
 20
442.1362800172943
 30
0.0
 41
1.0
  0
SPLINE
  5
9E
330
1F
100
AcDbEntity
  8
Make2D$Visibile$Curve
370
    -3
100
AcDbSpline
210
0.0
220
0.0
230
1.0
 70
    28
 71
     2
 72
     6
 73
     3
 74
     0
 42
0.0000000001
 43
0.0000000001
 40
1.229999999999998
 40
1.229999999999998
 40
1.229999999999998
 40
1.529999999999997
 40
1.529999999999997
 40
1.529999999999997
 10
381.4199447094437
 20
442.1362800172944
 30
0.0
 41
1.0
 10
381.4199447094437
 20
442.2862800172944
 30
0.0
 41
1.0
 10
381.4199447094437
 20
442.4362800172943
 30
0.0
 41
1.0
  0
SPLINE
  5
9F
330
1F
100
AcDbEntity
  8
Make2D$Visibile$Curve
370
    -3
100
AcDbSpline
210
0.0
220
0.0
230
1.0
 70
    28
 71
     2
 72
     8
 73
     5
 74
     0
 42
0.0000000001
 43
0.0000000001
 40
23.56194490192344
 40
23.56194490192344
 40
23.56194490192344
 40
31.41592653589793
 40
31.41592653589793
 40
39.26990816987259
 40
39.26990816987259
 40
39.26990816987259
 10
390.0699447094439
 20
465.5362800172922
 30
0.0
 41
1.0
 10
390.0699447094439
 20
465.5362800172921
 30
0.0
 41
0.707106781186547
 10
385.0699447094439
 20
465.5362800172922
 30
0.0
 41
1.0
 10
380.0699447094437
 20
465.5362800172921
 30
0.0
 41
0.7071067811865357
 10
380.0699447094437
 20
465.5362800172922
 30
0.0
 41
1.0
  0
SPLINE
  5
A0
330
1F
100
AcDbEntity
  8
Make2D$Visibile$Curve
370
    -3
100
AcDbSpline
210
0.0
220
0.0
230
1.0
 70
    28
 71
     2
 72
     6
 73
     3
 74
     0
 42
0.0000000001
 43
0.0000000001
 40
86.34900470541096
 40
86.34900470541096
 40
86.34900470541096
 40
274.6224219661515
 40
274.6224219661515
 40
274.6224219661515
 10
387.1699447094437
 20
442.1362800172944
 30
0.0
 41
1.0
 10
387.1699447094437
 20
347.9995713869241
 30
0.0
 41
1.0
 10
387.1699447094437
 20
253.8628627565539
 30
0.0
 41
1.0
  0
SPLINE
  5
A1
330
1F
100
AcDbEntity
  8
Make2D$Visibile$Curve
370
    -3
100
AcDbSpline
210
0.0
220
0.0
230
1.0
 70
    28
 71
     2
 72
     8
 73
     5
 74
     0
 42
0.0000000001
 43
0.0000000001
 40
-11.93805208364121
 40
-11.93805208364121
 40
-11.93805208364121
 40
-5.969026041820607
 40
-5.969026041820607
 40
0.0
 40
0.0
 40
0.0
 10
388.8699447094438
 20
442.5362800172923
 30
0.0
 41
1.0
 10
388.8699447094438
 20
442.5362800172924
 30
0.0
 41
0.7071067811865476
 10
385.0699447094438
 20
442.5362800172923
 30
0.0
 41
1.0
 10
381.2699447094437
 20
442.5362800172924
 30
0.0
 41
0.7071067811865476
 10
381.2699447094438
 20
442.5362800172924
 30
0.0
 41
1.0
  0
SPLINE
  5
A2
330
1F
100
AcDbEntity
  8
Make2D$Visibile$Curve
370
    -3
100
AcDbSpline
210
0.0
220
0.0
230
1.0
 70
    28
 71
     2
 72
     6
 73
     3
 74
     0
 42
0.0000000001
 43
0.0000000001
 40
46.38513367633502
 40
46.38513367633502
 40
46.38513367633502
 40
234.6585509373298
 40
234.6585509373298
 40
234.6585509373298
 10
382.9699447094437
 20
253.8628627562995
 30
0.0
 41
1.0
 10
382.9699447094437
 20
347.999571386797
 30
0.0
 41
1.0
 10
382.9699447094437
 20
442.1362800172944
 30
0.0
 41
1.0
  0
SPLINE
  5
A3
330
1F
100
AcDbEntity
  8
Make2D$Visibile$Curve
370
    -3
100
AcDbSpline
210
0.0
220
0.0
230
1.0
 70
     8
 71
     5
 72
    12
 73
     6
 74
     0
 42
0.0000000001
 43
0.0000000001
 40
-0.4091800182147879
 40
-0.4091800182147879
 40
-0.4091800182147879
 40
-0.4091800182147879
 40
-0.4091800182147879
 40
-0.4091800182147879
 40
-0.2510900109754249
 40
-0.2510900109754249
 40
-0.2510900109754249
 40
-0.2510900109754249
 40
-0.2510900109754249
 40
-0.2510900109754249
 10
478.4989247605344
 20
484.1330906206834
 30
0.0
 10
478.469408481614
 20
484.1371597296856
 30
0.0
 10
478.4391727264991
 20
484.1405093624933
 30
0.0
 10
478.4082844259386
 20
484.1432064498555
 30
0.0
 10
478.3768204507988
 20
484.1453278626383
 30
0.0
 10
478.344867612063
 20
484.1469604118251
 30
0.0
  0
SPLINE
  5
A4
330
1F
100
AcDbEntity
  8
Make2D$Visibile$Curve
370
    -3
100
AcDbSpline
210
0.0
220
0.0
230
1.0
 70
     8
 71
     5
 72
    12
 73
     6
 74
     0
 42
0.0000000001
 43
0.0000000001
 40
1.736855489981279
 40
1.736855489981279
 40
1.736855489981279
 40
1.736855489981279
 40
1.736855489981279
 40
1.736855489981279
 40
1.767012655002005
 40
1.767012655002005
 40
1.767012655002005
 40
1.767012655002005
 40
1.767012655002005
 40
1.767012655002005
 10
301.8622077162678
 20
483.3055623580096
 30
0.0
 10
301.8620981417695
 20
483.2992652019147
 30
0.0
 10
301.8619995764427
 20
483.2929570366483
 30
0.0
 10
301.8619113259357
 20
483.2866385565621
 30
0.0
 10
301.8618326827341
 20
483.2803104691704
 30
0.0
 10
301.8617629261614
 20
483.27397349515
 30
0.0
  0
SPLINE
  5
A5
330
1F
100
AcDbEntity
  8
Make2D$Visibile$Curve
370
    -3
100
AcDbSpline
210
0.0
220
0.0
230
1.0
 70
     8
 71
     5
 72
    12
 73
     6
 74
     0
 42
0.0000000001
 43
0.0000000001
 40
0.9414213562373538
 40
0.9414213562373538
 40
0.9414213562373538
 40
0.9414213562373538
 40
0.9414213562373538
 40
0.9414213562373538
 40
1.882842712474708
 40
1.882842712474708
 40
1.882842712474708
 40
1.882842712474708
 40
1.882842712474708
 40
1.882842712474708
 10
302.0488116074874
 20
465.8495303940576
 30
0.0
 10
301.9488116074874
 20
465.9495303940576
 30
0.0
 10
301.8863116074874
 20
466.0870303940576
 30
0.0
 10
301.8613116074874
 20
466.2620303940576
 30
0.0
 10
301.8613116074874
 20
466.4620303940576
 30
0.0
 10
301.8613116074874
 20
466.6620303940576
 30
0.0
  0
SPLINE
  5
A6
330
1F
100
AcDbEntity
  8
Make2D$Visibile$Curve
370
    -3
100
AcDbSpline
210
0.0
220
0.0
230
1.0
 70
     8
 71
     5
 72
    12
 73
     6
 74
     0
 42
0.0000000001
 43
0.0000000001
 40
0.2959490970916449
 40
0.2959490970916449
 40
0.2959490970916449
 40
0.2959490970916449
 40
0.2959490970916449
 40
0.2959490970916449
 40
0.4153491390930046
 40
0.4153491390930046
 40
0.4153491390930046
 40
0.4153491390930046
 40
0.4153491390930046
 40
0.4153491390930046
 10
478.2297538784826
 20
484.15217344599
 30
0.0
 10
478.2533513350847
 20
484.152117311248
 30
0.0
 10
478.2756451613227
 20
484.1519478300655
 30
0.0
 10
478.2976658056669
 20
484.1515625128463
 30
0.0
 10
478.3204437165879
 20
484.1508588699947
 30
0.0
 10
478.3450093425561
 20
484.1497344119147
 30
0.0
  0
SPLINE
  5
A7
330
1F
100
AcDbEntity
  8
Make2D$Visibile$Curve
370
    -3
100
AcDbSpline
210
0.0
220
0.0
230
1.0
 70
     8
 71
     5
 72
    12
 73
     6
 74
     0
 42
0.0000000001
 43
0.0000000001
 40
0.2959492990312118
 40
0.2959492990312118
 40
0.2959492990312118
 40
0.2959492990312118
 40
0.2959492990312118
 40
0.2959492990312118
 40
0.4153492676882643
 40
0.4153492676882643
 40
0.4153492676882643
 40
0.4153492676882643
 40
0.4153492676882643
 40
0.4153492676882643
 10
301.8605255562234
 20
483.2985605126898
 30
0.0
 10
301.8605816915107
 20
483.3221579398563
 30
0.0
 10
301.860751174855
 20
483.3444518024434
 30
0.0
 10
301.8611364945926
 20
483.3664725013526
 30
0.0
 10
301.8618401390605
 20
483.3892504374846
 30
0.0
 10
301.862964596595
 20
483.4138160117409
 30
0.0
  0
SPLINE
  5
A8
330
1F
100
AcDbEntity
  8
Make2D$Visibile$Curve
370
    -3
100
AcDbSpline
210
0.0
220
0.0
230
1.0
 70
    12
 71
     2
 72
     6
 73
     3
 74
     0
 42
0.0000000001
 43
0.0000000001
 40
0.0
 40
0.0
 40
0.0
 40
59.80313286719862
 40
59.80313286719862
 40
59.80313286719862
 10
385.0199447060127
 20
136.9403669387372
 30
0.0
 41
1.0
 10
423.0918015306504
 20
136.9403669387372
 30
0.0
 41
0.7071067813947387
 10
423.0918015530691
 20
136.9403680480426
 30
0.0
 41
1.0
  0
SPLINE
  5
A9
330
1F
100
AcDbEntity
  8
Make2D$Visibile$Curve
370
    -3
100
AcDbSpline
210
0.0
220
0.0
230
1.0
 70
    12
 71
     2
 72
     6
 73
     3
 74
     0
 42
0.0000000001
 43
0.0000000001
 40
0.0
 40
0.0
 40
0.0
 40
37.9420885078131
 40
37.9420885078131
 40
37.9420885078131
 10
385.0199447060127
 20
253.8628627537603
 30
0.0
 41
1.0
 10
360.8652609570182
 20
253.8628627537603
 30
0.0
 41
0.7071067811865479
 10
360.8652609570181
 20
253.8628634575589
 30
0.0
 41
1.0
  0
SPLINE
  5
AA
330
1F
100
AcDbEntity
  8
Make2D$Visibile$Curve
370
    -3
100
AcDbSpline
210
0.0
220
0.0
230
1.0
 70
    12
 71
     2
 72
     8
 73
     5
 74
     0
 42
0.0000000001
 43
0.0000000001
 40
59.99832104534942
 40
59.99832104534942
 40
59.99832104534942
 40
119.9966426793769
 40
119.9966426793769
 40
179.9949643134044
 40
179.9949643134044
 40
179.9949643134044
 10
423.2660622094437
 20
135.5363442441151
 30
0.0
 41
1.0
 10
423.2660622309206
 20
135.5363431311891
 30
0.0
 41
0.7071067759363826
 10
385.0699441637194
 20
135.5363431311892
 30
0.0
 41
1.0
 10
346.8738260965181
 20
135.5363431311892
 30
0.0
 41
0.7071067759363826
 10
346.8738272094437
 20
135.5363442441152
 30
0.0
 41
1.0
  0
SPLINE
  5
AB
330
1F
100
AcDbEntity
  8
Make2D$Visibile$Curve
370
    -3
100
AcDbSpline
210
0.0
220
0.0
230
1.0
 70
    12
 71
     2
 72
     6
 73
     3
 74
     0
 42
0.0000000001
 43
0.0000000001
 40
113.8262655234393
 40
113.8262655234393
 40
113.8262655234393
 40
151.7683540312524
 40
151.7683540312524
 40
151.7683540312524
 10
409.1746284550073
 20
253.8628634575589
 30
0.0
 41
1.0
 10
409.1746284550073
 20
253.8628627537603
 30
0.0
 41
0.7071067811865476
 10
385.0199447060127
 20
253.8628627537603
 30
0.0
 41
1.0
  0
SPLINE
  5
AC
330
1F
100
AcDbEntity
  8
Make2D$Visibile$Curve
370
    -3
100
AcDbSpline
210
0.0
220
0.0
230
1.0
 70
    12
 71
     2
 72
     6
 73
     3
 74
     0
 42
0.0000000001
 43
0.0000000001
 40
179.4093997781574
 40
179.4093997781574
 40
179.4093997781574
 40
239.2125315584693
 40
239.2125315584693
 40
239.2125315584693
 10
346.9480878589563
 20
136.9403680480425
 30
0.0
 41
1.0
 10
346.9480889682616
 20
136.9403669387372
 30
0.0
 41
0.7071067914880853
 10
385.0199447060127
 20
136.9403669387372
 30
0.0
 41
1.0
  0
SPLINE
  5
AD
330
1F
100
AcDbEntity
  8
Make2D$Visibile$Curve
370
    -3
100
AcDbSpline
210
0.0
220
0.0
230
1.0
 70
    28
 71
     2
 72
     8
 73
     5
 74
     0
 42
0.0000000001
 43
0.0000000001
 40
-22.93362637120549
 40
-22.93362637120549
 40
-22.93362637120549
 40
-17.20021977840412
 40
-17.20021977840412
 40
-11.46681318560274
 40
-11.46681318560274
 40
-11.46681318560274
 10
388.7199447094437
 20
442.1362800172943
 30
0.0
 41
1.0
 10
388.7199447094437
 20
442.1362800172943
 30
0.0
 41
0.7071067811865476
 10
385.0699447094437
 20
442.1362800172943
 30
0.0
 41
1.0
 10
381.4199447094437
 20
442.1362800172943
 30
0.0
 41
0.7071067811865476
 10
381.4199447094437
 20
442.1362800172943
 30
0.0
 41
1.0
  0
SPLINE
  5
AE
330
1F
100
AcDbEntity
  8
Make2D$Visibile$Curve
370
    -3
100
AcDbSpline
210
0.0
220
0.0
230
1.0
 70
    24
 71
     2
 72
     6
 73
     3
 74
     0
 42
0.0000000001
 43
0.0000000001
 40
-67.72616975871631
 40
-67.72616975871631
 40
-67.72616975871631
 40
-54.91310204806999
 40
-54.91310204806999
 40
-54.91310204806999
 10
596.8340070921363
 20
484.1507860877205
 30
0.0
 10
603.2405409474594
 20
484.1507860877205
 30
0.0
 10
609.6470748027825
 20
484.1507860877205
 30
0.0
  0
SPLINE
  5
AF
330
1F
100
AcDbEntity
  8
Make2D$Visibile$Curve
370
    -3
100
AcDbSpline
210
0.0
220
0.0
230
1.0
 70
    24
 71
     5
 72
    14
 73
     8
 74
     0
 42
0.0000000001
 43
0.0000000001
 40
-1.0
 40
-1.0
 40
-1.0
 40
-1.0
 40
-1.0
 40
-1.0
 40
-0.8
 40
-0.6
 40
-0.4
 40
-0.4
 40
-0.4
 40
-0.4
 40
-0.4
 40
-0.4
 10
609.6470748027825
 20
484.1507860877205
 30
0.0
 10
609.67535907403
 20
484.1507860877205
 30
0.0
 10
609.7305134029625
 20
484.1507860877205
 30
0.0
 10
609.8090022556743
 20
484.1507860877205
 30
0.0
 10
609.8811271473553
 20
484.1507860877204
 30
0.0
 10
609.9468880780057
 20
484.1507860877204
 30
0.0
 10
609.9879002713144
 20
484.1507860877203
 30
0.0
 10
610.0076992611877
 20
484.1507860877203
 30
0.0
  0
SPLINE
  5
B0
330
1F
100
AcDbEntity
  8
Make2D$Visibile$Curve
370
    -3
100
AcDbSpline
210
0.0
220
0.0
230
1.0
 70
    24
 71
     5
 72
    14
 73
     8
 74
     0
 42
0.0000000001
 43
0.0000000001
 40
-1.0
 40
-1.0
 40
-1.0
 40
-1.0
 40
-1.0
 40
-1.0
 40
-0.8
 40
-0.6
 40
-0.4
 40
-0.4
 40
-0.4
 40
-0.4
 40
-0.4
 40
-0.4
 10
596.8340070921363
 20
484.1507860877205
 30
0.0
 10
596.8057228208888
 20
484.1507860877205
 30
0.0
 10
596.7505684919563
 20
484.1507860877205
 30
0.0
 10
596.6720796392445
 20
484.1507860877204
 30
0.0
 10
596.5999547475635
 20
484.1507860877204
 30
0.0
 10
596.5341938169131
 20
484.1507860877204
 30
0.0
 10
596.4931816236043
 20
484.1507860877204
 30
0.0
 10
596.473382633731
 20
484.1507860877203
 30
0.0
  0
SPLINE
  5
B1
330
1F
100
AcDbEntity
  8
Make2D$Visibile$Curve
370
    -3
100
AcDbSpline
210
0.0
220
0.0
230
1.0
 70
    24
 71
     2
 72
     6
 73
     3
 74
     0
 42
0.0000000001
 43
0.0000000001
 40
-51.49888848569695
 40
-51.49888848569695
 40
-51.49888848569695
 40
-36.423745051138
 40
-36.423745051138
 40
-36.423745051138
 10
611.3541815839691
 20
482.443679306534
 30
0.0
 10
611.3541815839691
 20
474.9061075892545
 30
0.0
 10
611.3541815839691
 20
467.368535871975
 30
0.0
  0
SPLINE
  5
B2
330
1F
100
AcDbEntity
  8
Make2D$Visibile$Curve
370
    -3
100
AcDbSpline
210
0.0
220
0.0
230
1.0
 70
    24
 71
     5
 72
    14
 73
     8
 74
     0
 42
0.0000000001
 43
0.0000000001
 40
-1.0
 40
-1.0
 40
-1.0
 40
-1.0
 40
-1.0
 40
-1.0
 40
-0.8
 40
-0.6
 40
-0.4
 40
-0.4
 40
-0.4
 40
-0.4
 40
-0.4
 40
-0.4
 10
611.3541815839691
 20
467.368535871975
 30
0.0
 10
611.3541815839691
 20
467.3402516007276
 30
0.0
 10
611.3541815839691
 20
467.2850972717951
 30
0.0
 10
611.3541815839691
 20
467.2066084190834
 30
0.0
 10
611.3541815839691
 20
467.1344835274023
 30
0.0
 10
611.3541815839691
 20
467.068722596752
 30
0.0
 10
611.3541815839691
 20
467.0277104034431
 30
0.0
 10
611.3541815839691
 20
467.0079114135698
 30
0.0
  0
SPLINE
  5
B3
330
1F
100
AcDbEntity
  8
Make2D$Visibile$Curve
370
    -3
100
AcDbSpline
210
0.0
220
0.0
230
1.0
 70
    24
 71
     5
 72
    14
 73
     8
 74
     0
 42
0.0000000001
 43
0.0000000001
 40
0.4
 40
0.4
 40
0.4
 40
0.4
 40
0.4
 40
0.4
 40
0.6
 40
0.8
 40
1.0
 40
1.0
 40
1.0
 40
1.0
 40
1.0
 40
1.0
 10
611.3541815839691
 20
482.804303764939
 30
0.0
 10
611.3541815839691
 20
482.7845047750658
 30
0.0
 10
611.3541815839691
 20
482.7434925817569
 30
0.0
 10
611.3541815839691
 20
482.6777316511065
 30
0.0
 10
611.3541815839691
 20
482.6056067594255
 30
0.0
 10
611.3541815839691
 20
482.527117906714
 30
0.0
 10
611.3541815839691
 20
482.4719635777814
 30
0.0
 10
611.3541815839691
 20
482.443679306534
 30
0.0
  0
SPLINE
  5
B4
330
1F
100
AcDbEntity
  8
Make2D$Visibile$Curve
370
    -3
100
AcDbSpline
210
0.0
220
0.0
230
1.0
 70
    24
 71
     2
 72
     6
 73
     3
 74
     0
 42
0.0000000001
 43
0.0000000001
 40
-33.00953148876484
 40
-33.00953148876484
 40
-33.00953148876484
 40
-20.19646377811858
 40
-20.19646377811858
 40
-20.19646377811858
 10
609.6470748027825
 20
465.6614290907885
 30
0.0
 10
603.2405409474594
 20
465.6614290907885
 30
0.0
 10
596.8340070921363
 20
465.6614290907884
 30
0.0
  0
SPLINE
  5
B5
330
1F
100
AcDbEntity
  8
Make2D$Visibile$Curve
370
    -3
100
AcDbSpline
210
0.0
220
0.0
230
1.0
 70
    24
 71
     5
 72
    14
 73
     8
 74
     0
 42
0.0000000001
 43
0.0000000001
 40
-1.0
 40
-1.0
 40
-1.0
 40
-1.0
 40
-1.0
 40
-1.0
 40
-0.8
 40
-0.6
 40
-0.4
 40
-0.4
 40
-0.4
 40
-0.4
 40
-0.4
 40
-0.4
 10
596.8340070921363
 20
465.6614290907884
 30
0.0
 10
596.8057228208888
 20
465.6614290907884
 30
0.0
 10
596.7505684919563
 20
465.6614290907884
 30
0.0
 10
596.6720796392445
 20
465.6614290907884
 30
0.0
 10
596.5999547475635
 20
465.6614290907884
 30
0.0
 10
596.5341938169131
 20
465.6614290907884
 30
0.0
 10
596.4931816236044
 20
465.6614290907884
 30
0.0
 10
596.4733826337311
 20
465.6614290907884
 30
0.0
  0
SPLINE
  5
B6
330
1F
100
AcDbEntity
  8
Make2D$Visibile$Curve
370
    -3
100
AcDbSpline
210
0.0
220
0.0
230
1.0
 70
    24
 71
     5
 72
    14
 73
     8
 74
     0
 42
0.0000000001
 43
0.0000000001
 40
0.4
 40
0.4
 40
0.4
 40
0.4
 40
0.4
 40
0.4
 40
0.6
 40
0.8
 40
1.0
 40
1.0
 40
1.0
 40
1.0
 40
1.0
 40
1.0
 10
610.0076992611877
 20
465.6614290907884
 30
0.0
 10
609.9879002713144
 20
465.6614290907884
 30
0.0
 10
609.9468880780057
 20
465.6614290907884
 30
0.0
 10
609.8811271473553
 20
465.6614290907884
 30
0.0
 10
609.8090022556743
 20
465.6614290907884
 30
0.0
 10
609.7305134029625
 20
465.6614290907884
 30
0.0
 10
609.67535907403
 20
465.6614290907884
 30
0.0
 10
609.6470748027825
 20
465.6614290907884
 30
0.0
  0
SPLINE
  5
B7
330
1F
100
AcDbEntity
  8
Make2D$Visibile$Curve
370
    -3
100
AcDbSpline
210
0.0
220
0.0
230
1.0
 70
    24
 71
     2
 72
     6
 73
     3
 74
     0
 42
0.0000000001
 43
0.0000000001
 40
-16.78225021574544
 40
-16.78225021574544
 40
-16.78225021574544
 40
-1.707106781186549
 40
-1.707106781186549
 40
-1.707106781186549
 10
595.1269003109496
 20
467.368535871975
 30
0.0
 10
595.1269003109496
 20
474.9061075892545
 30
0.0
 10
595.1269003109496
 20
482.443679306534
 30
0.0
  0
SPLINE
  5
B8
330
1F
100
AcDbEntity
  8
Make2D$Visibile$Curve
370
    -3
100
AcDbSpline
210
0.0
220
0.0
230
1.0
 70
    24
 71
     5
 72
    14
 73
     8
 74
     0
 42
0.0000000001
 43
0.0000000001
 40
0.4
 40
0.4
 40
0.4
 40
0.4
 40
0.4
 40
0.4
 40
0.6
 40
0.8
 40
1.0
 40
1.0
 40
1.0
 40
1.0
 40
1.0
 40
1.0
 10
595.1269003109497
 20
482.804303764939
 30
0.0
 10
595.1269003109497
 20
482.7845047750658
 30
0.0
 10
595.1269003109497
 20
482.7434925817569
 30
0.0
 10
595.1269003109497
 20
482.6777316511066
 30
0.0
 10
595.1269003109497
 20
482.6056067594256
 30
0.0
 10
595.1269003109496
 20
482.527117906714
 30
0.0
 10
595.1269003109496
 20
482.4719635777814
 30
0.0
 10
595.1269003109496
 20
482.443679306534
 30
0.0
  0
SPLINE
  5
B9
330
1F
100
AcDbEntity
  8
Make2D$Visibile$Curve
370
    -3
100
AcDbSpline
210
0.0
220
0.0
230
1.0
 70
    24
 71
     5
 72
    14
 73
     8
 74
     0
 42
0.0000000001
 43
0.0000000001
 40
0.4
 40
0.4
 40
0.4
 40
0.4
 40
0.4
 40
0.4
 40
0.6
 40
0.8
 40
1.0
 40
1.0
 40
1.0
 40
1.0
 40
1.0
 40
1.0
 10
595.1269003109497
 20
467.0079114135699
 30
0.0
 10
595.1269003109497
 20
467.0277104034432
 30
0.0
 10
595.1269003109497
 20
467.068722596752
 30
0.0
 10
595.1269003109497
 20
467.1344835274023
 30
0.0
 10
595.1269003109497
 20
467.2066084190834
 30
0.0
 10
595.1269003109496
 20
467.2850972717951
 30
0.0
 10
595.1269003109496
 20
467.3402516007276
 30
0.0
 10
595.1269003109496
 20
467.368535871975
 30
0.0
  0
SPLINE
  5
BA
330
1F
100
AcDbEntity
  8
Make2D$Visibile$Curve
370
    -3
100
AcDbSpline
210
0.0
220
0.0
230
1.0
 70
     8
 71
     5
 72
    12
 73
     6
 74
     0
 42
0.0000000001
 43
0.0000000001
 40
-0.9414213562373145
 40
-0.9414213562373145
 40
-0.9414213562373145
 40
-0.9414213562373145
 40
-0.9414213562373145
 40
-0.9414213562373145
 40
0.0
 40
0.0
 40
0.0
 40
0.0
 40
0.0
 40
0.0
 10
595.3144003109496
 20
483.9632860877205
 30
0.0
 10
595.4144003109498
 20
484.0632860877205
 30
0.0
 10
595.5519003109497
 20
484.1257860877205
 30
0.0
 10
595.7269003109498
 20
484.1507860877205
 30
0.0
 10
595.9269003109497
 20
484.1507860877205
 30
0.0
 10
596.1269003109496
 20
484.1507860877205
 30
0.0
  0
SPLINE
  5
BB
330
1F
100
AcDbEntity
  8
Make2D$Visibile$Curve
370
    -3
100
AcDbSpline
210
0.0
220
0.0
230
1.0
 70
     8
 71
     5
 72
    12
 73
     6
 74
     0
 42
0.0000000001
 43
0.0000000001
 40
0.9414213562373122
 40
0.9414213562373122
 40
0.9414213562373122
 40
0.9414213562373122
 40
0.9414213562373122
 40
0.9414213562373122
 40
1.882842712474624
 40
1.882842712474624
 40
1.882842712474624
 40
1.882842712474624
 40
1.882842712474624
 40
1.882842712474624
 10
611.1666815839691
 20
465.8489290907884
 30
0.0
 10
611.0666815839691
 20
465.7489290907885
 30
0.0
 10
610.9291815839691
 20
465.6864290907885
 30
0.0
 10
610.7541815839691
 20
465.6614290907884
 30
0.0
 10
610.554181583969
 20
465.6614290907884
 30
0.0
 10
610.3541815839691
 20
465.6614290907884
 30
0.0
  0
SPLINE
  5
BC
330
1F
100
AcDbEntity
  8
Make2D$Visibile$Curve
370
    -3
100
AcDbSpline
210
0.0
220
0.0
230
1.0
 70
     8
 71
     5
 72
    12
 73
     6
 74
     0
 42
0.0000000001
 43
0.0000000001
 40
0.5142137744273296
 40
0.5142137744273296
 40
0.5142137744273296
 40
0.5142137744273296
 40
0.5142137744273296
 40
0.5142137744273296
 40
0.7355774986839888
 40
0.7355774986839888
 40
0.7355774986839888
 40
0.7355774986839888
 40
0.7355774986839888
 40
0.7355774986839888
 10
595.1357588265175
 20
483.5099774993132
 30
0.0
 10
595.1401784412906
 20
483.5514875260583
 30
0.0
 10
595.1466304360674
 20
483.5931582705834
 30
0.0
 10
595.1543067552427
 20
483.632612460109
 30
0.0
 10
595.1623993432115
 20
483.6674728218555
 30
0.0
 10
595.1701001443682
 20
483.6953620830434
 30
0.0
  0
SPLINE
  5
BD
330
1F
100
AcDbEntity
  8
Make2D$Visibile$Curve
370
    -3
100
AcDbSpline
210
0.0
220
0.0
230
1.0
 70
     8
 71
     5
 72
    12
 73
     6
 74
     0
 42
0.0000000001
 43
0.0000000001
 40
0.2959490970764903
 40
0.2959490970764903
 40
0.2959490970764903
 40
0.2959490970764903
 40
0.2959490970764903
 40
0.2959490970764903
 40
0.4153491390778694
 40
0.4153491390778694
 40
0.4153491390778694
 40
0.4153491390778694
 40
0.4153491390778694
 40
0.4153491390778694
 10
595.1261142559495
 20
483.2979591151205
 30
0.0
 10
595.1261703906916
 20
483.3215565717857
 30
0.0
 10
595.1263398718727
 20
483.3438503979915
 30
0.0
 10
595.1267251890902
 20
483.3658710422719
 30
0.0
 10
595.1274288319416
 20
483.388648953161
 30
0.0
 10
595.1285532900247
 20
483.4132145791926
 30
0.0
  0
SPLINE
  5
BE
330
1F
100
AcDbEntity
  8
Make2D$Visibile$Curve
370
    -3
100
AcDbSpline
210
0.0
220
0.0
230
1.0
 70
     8
 71
     5
 72
    12
 73
     6
 74
     0
 42
0.0000000001
 43
0.0000000001
 40
0.5142137334276782
 40
0.5142137334276782
 40
0.5142137334276782
 40
0.5142137334276782
 40
0.5142137334276782
 40
0.5142137334276782
 40
0.7355774643184894
 40
0.7355774643184894
 40
0.7355774643184894
 40
0.7355774643184894
 40
0.7355774643184894
 40
0.7355774643184894
 10
610.7133729727614
 20
484.1419275698968
 30
0.0
 10
610.7548830255803
 20
484.1375079529402
 30
0.0
 10
610.7965537582215
 20
484.1310559632818
 30
0.0
 10
610.8360079247041
 20
484.1233796506394
 30
0.0
 10
610.8708682790464
 20
484.1152870647307
 30
0.0
 10
610.8987575752676
 20
484.1075862552736
 30
0.0
  0
SPLINE
  5
BF
330
1F
100
AcDbEntity
  8
Make2D$Visibile$Curve
370
    -3
100
AcDbSpline
210
0.0
220
0.0
230
1.0
 70
     8
 71
     5
 72
    12
 73
     6
 74
     0
 42
0.0000000001
 43
0.0000000001
 40
0.5142137336619865
 40
0.5142137336619865
 40
0.5142137336619865
 40
0.5142137336619865
 40
0.5142137336619865
 40
0.5142137336619865
 40
0.735577464553939
 40
0.735577464553939
 40
0.735577464553939
 40
0.735577464553939
 40
0.735577464553939
 40
0.735577464553939
 10
611.3453230661455
 20
466.3022377019964
 30
0.0
 10
611.3409034491888
 20
466.2607276491757
 30
0.0
 10
611.3344514595306
 20
466.2190569165354
 30
0.0
 10
611.3267751468886
 20
466.1796027500548
 30
0.0
 10
611.31868256098
 20
466.1447423957132
 30
0.0
 10
611.3109817515224
 20
466.1168530994898
 30
0.0
  0
SPLINE
  5
C0
330
1F
100
AcDbEntity
  8
Make2D$Visibile$Curve
370
    -3
100
AcDbSpline
210
0.0
220
0.0
230
1.0
 70
     8
 71
     5
 72
    12
 73
     6
 74
     0
 42
0.0000000001
 43
0.0000000001
 40
0.2959492989232243
 40
0.2959492989232243
 40
0.2959492989232243
 40
0.2959492989232243
 40
0.2959492989232243
 40
0.2959492989232243
 40
0.4153492675876464
 40
0.4153492675876464
 40
0.4153492675876464
 40
0.4153492675876464
 40
0.4153492675876464
 40
0.4153492675876464
 10
611.3549676352332
 20
466.51425596909
 30
0.0
 10
611.3549114999458
 20
466.4906585419365
 30
0.0
 10
611.3547420166013
 20
466.4683646793418
 30
0.0
 10
611.3543566968633
 20
466.4463439804182
 30
0.0
 10
611.3536530523954
 20
466.4235660442781
 30
0.0
 10
611.3525285948614
 20
466.3990004700335
 30
0.0
  0
SPLINE
  5
C1
330
1F
100
AcDbEntity
  8
Make2D$Visibile$Curve
370
    -3
100
AcDbSpline
210
0.0
220
0.0
230
1.0
 70
     8
 71
     5
 72
    12
 73
     6
 74
     0
 42
0.0000000001
 43
0.0000000001
 40
0.1158300571097079
 40
0.1158300571097079
 40
0.1158300571097079
 40
0.1158300571097079
 40
0.1158300571097079
 40
0.1158300571097079
 40
0.130438274349376
 40
0.130438274349376
 40
0.130438274349376
 40
0.130438274349376
 40
0.130438274349376
 40
0.130438274349376
 10
611.3537302652993
 20
466.5388429870094
 30
0.0
 10
611.3536964750156
 20
466.5357733386166
 30
0.0
 10
611.3536605995187
 20
466.5327057754368
 30
0.0
 10
611.3536225568943
 20
466.5296403793847
 30
0.0
 10
611.3535822659525
 20
466.5265772316499
 30
0.0
 10
611.3535396462282
 20
466.5235164126975
 30
0.0
  0
SPLINE
  5
C2
330
1F
100
AcDbEntity
  8
Make2D$Visibile$Curve
370
    -3
100
AcDbSpline
210
0.0
220
0.0
230
1.0
 70
     8
 71
     5
 72
    12
 73
     6
 74
     0
 42
0.0000000001
 43
0.0000000001
 40
0.5142137339590942
 40
0.5142137339590942
 40
0.5142137339590942
 40
0.5142137339590942
 40
0.5142137339590942
 40
0.5142137339590942
 40
0.7355774648433689
 40
0.7355774648433689
 40
0.7355774648433689
 40
0.7355774648433689
 40
0.7355774648433689
 40
0.7355774648433689
 10
595.7677089221579
 20
465.6702876086119
 30
0.0
 10
595.7261988693374
 20
465.6747072255687
 30
0.0
 10
595.6845281366989
 20
465.6811592152263
 30
0.0
 10
595.64507397022
 20
465.6888355278679
 30
0.0
 10
595.6102136158785
 20
465.6969281137764
 30
0.0
 10
595.5823243196519
 20
465.704628923235
 30
0.0
  0
SPLINE
  5
C3
330
1F
100
AcDbEntity
  8
Make2D$Visibile$Curve
370
    -3
100
AcDbSpline
210
0.0
220
0.0
230
1.0
 70
     8
 71
     5
 72
    12
 73
     6
 74
     0
 42
0.0000000001
 43
0.0000000001
 40
0.2959492992194716
 40
0.2959492992194716
 40
0.2959492992194716
 40
0.2959492992194716
 40
0.2959492992194716
 40
0.2959492992194716
 40
0.4153492678831913
 40
0.4153492678831913
 40
0.4153492678831913
 40
0.4153492678831913
 40
0.4153492678831913
 40
0.4153492678831913
 10
595.9797271892523
 20
465.6606430395243
 30
0.0
 10
595.9561297621017
 20
465.6606991748116
 30
0.0
 10
595.9338358995053
 20
465.6608686581562
 30
0.0
 10
595.9118152005788
 20
465.6612539778943
 30
0.0
 10
595.8890372644375
 20
465.6619576223622
 30
0.0
 10
595.864471690197
 20
465.663082079896
 30
0.0
  0
SPLINE
  5
C4
330
1F
100
AcDbEntity
  8
Make2D$Visibile$Curve
370
    -3
100
AcDbSpline
210
0.0
220
0.0
230
1.0
 70
     8
 71
     5
 72
    12
 73
     6
 74
     0
 42
0.0000000001
 43
0.0000000001
 40
0.7341479251367101
 40
0.7341479251367101
 40
0.7341479251367101
 40
0.7341479251367101
 40
0.7341479251367101
 40
0.7341479251367101
 40
0.9414213562373092
 40
0.9414213562373092
 40
0.9414213562373092
 40
0.9414213562373092
 40
0.9414213562373092
 40
0.9414213562373092
 10
611.258735633985
 20
483.8351694036359
 30
0.0
 10
611.2438723413793
 20
483.8643402578503
 30
0.0
 10
611.2272793495819
 20
483.8917814128729
 30
0.0
 10
611.2088979125833
 20
483.9174341226946
 30
0.0
 10
611.1886986573791
 20
483.9412690143104
 30
0.0
 10
611.1666815839691
 20
483.9632860877205
 30
0.0
  0
SPLINE
  5
C5
330
1F
100
AcDbEntity
  8
Make2D$Visibile$Curve
370
    -3
100
AcDbSpline
210
0.0
220
0.0
230
1.0
 70
     8
 71
     5
 72
    12
 73
     6
 74
     0
 42
0.0000000001
 43
0.0000000001
 40
-1.320255597696244
 40
-1.320255597696244
 40
-1.320255597696244
 40
-1.320255597696244
 40
-1.320255597696244
 40
-1.320255597696244
 40
-0.9414213562373145
 40
-0.9414213562373145
 40
-0.9414213562373145
 40
-0.9414213562373145
 40
-0.9414213562373145
 40
-0.9414213562373145
 10
595.1722822914123
 20
483.7029974283048
 30
0.0
 10
595.1895443736462
 20
483.7662166818616
 30
0.0
 10
595.2118955599813
 20
483.8243468313172
 30
0.0
 10
595.2399913927316
 20
483.8767323343574
 30
0.0
 10
595.2741596430544
 20
483.9230454198252
 30
0.0
 10
595.3144003109496
 20
483.9632860877205
 30
0.0
  0
SPLINE
  5
C6
330
1F
100
AcDbEntity
  8
Make2D$Visibile$Curve
370
    -3
100
AcDbSpline
210
0.0
220
0.0
230
1.0
 70
     8
 71
     5
 72
    12
 73
     6
 74
     0
 42
0.0000000001
 43
0.0000000001
 40
0.0629434808460927
 40
0.0629434808460927
 40
0.0629434808460927
 40
0.0629434808460927
 40
0.0629434808460927
 40
0.0629434808460927
 40
0.1158300570700175
 40
0.1158300570700175
 40
0.1158300570700175
 40
0.1158300570700175
 40
0.1158300570700175
 40
0.1158300570700175
 10
596.0601137305431
 20
465.6615025623968
 30
0.0
 10
596.0489150861168
 20
465.6615393920489
 30
0.0
 10
596.0377317379093
 20
465.6615915179197
 30
0.0
 10
596.0265678218299
 20
465.6616630759186
 30
0.0
 10
596.0154273492919
 20
465.661758077459
 30
0.0
 10
596.0043142072125
 20
465.6618804094579
 30
0.0
  0
SPLINE
  5
C7
330
1F
100
AcDbEntity
  8
Make2D$Visibile$Curve
370
    -3
100
AcDbSpline
210
0.0
220
0.0
230
1.0
 70
     8
 71
     5
 72
    17
 73
    11
 74
     0
 42
0.0000000001
 43
0.0000000001
 40
1.115909788458321
 40
1.115909788458321
 40
1.115909788458321
 40
1.115909788458321
 40
1.115909788458321
 40
1.115909788458321
 40
1.124482010780968
 40
1.124482010780968
 40
1.124482010780968
 40
1.124482010780968
 40
1.124482010780968
 40
1.247558857155544
 40
1.247558857155544
 40
1.247558857155544
 40
1.247558857155544
 40
1.247558857155544
 40
1.247558857155544
 10
595.1420844594167
 20
483.5423223501145
 30
0.0
 10
595.1419035091617
 20
483.5408817420111
 30
0.0
 10
595.1417281158592
 20
483.5394592154584
 30
0.0
 10
595.1415584104984
 20
483.5380554911803
 30
0.0
 10
595.1413945240683
 20
483.5366712899004
 30
0.0
 10
595.1412365875582
 20
483.5353073323426
 30
0.0
 10
595.1385201477985
 20
483.511847851461
 30
0.0
 10
595.1362093307762
 20
483.4875523670597
 30
0.0
 10
595.1342719764652
 20
483.4627626049233
 30
0.0
 10
595.1326759248398
 20
483.4378202908366
 30
0.0
 10
595.1313890158733
 20
483.4130671505842
 30
0.0
  0
SPLINE
  5
C8
330
1F
100
AcDbEntity
  8
Make2D$Visibile$Curve
370
    -3
100
AcDbSpline
210
0.0
220
0.0
230
1.0
 70
     8
 71
     5
 72
    12
 73
     6
 74
     0
 42
0.0000000001
 43
0.0000000001
 40
-1.825034702065302
 40
-1.825034702065302
 40
-1.825034702065302
 40
-1.825034702065302
 40
-1.825034702065302
 40
-1.825034702065302
 40
-1.767012686033306
 40
-1.767012686033306
 40
-1.767012686033306
 40
-1.767012686033306
 40
-1.767012686033306
 40
-1.767012686033306
 10
595.1269573054917
 20
483.2121341272011
 30
0.0
 10
595.1269914504396
 20
483.224426453423
 30
0.0
 10
595.1270425520302
 20
483.2367018230025
 30
0.0
 10
595.1271161037049
 20
483.2489547424977
 30
0.0
 10
595.1272174185438
 20
483.2611798988286
 30
0.0
 10
595.1273516292648
 20
483.2733721592776
 30
0.0
  0
SPLINE
  5
C9
330
1F
100
AcDbEntity
  8
Make2D$Visibile$Curve
370
    -3
100
AcDbSpline
210
0.0
220
0.0
230
1.0
 70
     8
 71
     5
 72
    12
 73
     6
 74
     0
 42
0.0000000001
 43
0.0000000001
 40
0.5894658990358534
 40
0.5894658990358534
 40
0.5894658990358534
 40
0.5894658990358534
 40
0.5894658990358534
 40
0.5894658990358534
 40
0.9414213562373122
 40
0.9414213562373122
 40
0.9414213562373122
 40
0.9414213562373122
 40
0.9414213562373122
 40
0.9414213562373122
 10
611.3024172772238
 20
466.0870487969993
 30
0.0
 10
611.2850201635033
 20
466.0296748308268
 30
0.0
 10
611.2631143195914
 20
465.9768095948455
 30
0.0
 10
611.2362113691231
 20
465.9289414654207
 30
0.0
 10
611.2040671239156
 20
465.886314630735
 30
0.0
 10
611.1666815839691
 20
465.8489290907884
 30
0.0
  0
SPLINE
  5
CA
330
1F
100
AcDbEntity
  8
Make2D$Visibile$Curve
370
    -3
100
AcDbSpline
210
0.0
220
0.0
230
1.0
 70
     8
 71
     5
 72
    12
 73
     6
 74
     0
 42
0.0000000001
 43
0.0000000001
 40
0.1876699021890809
 40
0.1876699021890809
 40
0.1876699021890809
 40
0.1876699021890809
 40
0.1876699021890809
 40
0.1876699021890809
 40
0.3487584305999038
 40
0.3487584305999038
 40
0.3487584305999038
 40
0.3487584305999038
 40
0.3487584305999038
 40
0.3487584305999038
 10
611.3522997992555
 20
466.4639634728266
 30
0.0
 10
611.3513475931184
 20
466.430693271039
 30
0.0
 10
611.3500012629493
 20
466.3978171932835
 30
0.0
 10
611.3481605260915
 20
466.3654355222164
 30
0.0
 10
611.3457358158787
 20
466.3336378245046
 30
0.0
 10
611.3426482816335
 20
466.3025029508252
 30
0.0
  0
SPLINE
  5
CB
330
1F
100
AcDbEntity
  8
Make2D$Visibile$Curve
370
    -3
100
AcDbSpline
210
0.0
220
0.0
230
1.0
 70
     8
 71
     5
 72
    12
 73
     6
 74
     0
 42
0.0000000001
 43
0.0000000001
 40
1.150973127107931
 40
1.150973127107931
 40
1.150973127107931
 40
1.150973127107931
 40
1.150973127107931
 40
1.150973127107931
 40
1.254899025764286
 40
1.254899025764286
 40
1.254899025764286
 40
1.254899025764286
 40
1.254899025764286
 40
1.254899025764286
 10
595.7679791584065
 20
465.6730266688607
 30
0.0
 10
595.7883158633645
 20
465.6710202453617
 30
0.0
 10
595.8090913154886
 20
465.6692882279474
 30
0.0
 10
595.8300997742831
 20
465.6678112542374
 30
0.0
 10
595.851135499252
 20
465.6665699618513
 30
0.0
 10
595.8719927498996
 20
465.6655449884088
 30
0.0
  0
SPLINE
  5
CC
330
1F
100
AcDbEntity
  8
Make2D$Visibile$Curve
370
    -3
100
AcDbSpline
210
0.0
220
0.0
230
1.0
 70
     8
 71
     5
 72
    12
 73
     6
 74
     0
 42
0.0000000001
 43
0.0000000001
 40
0.5787326286257979
 40
0.5787326286257979
 40
0.5787326286257979
 40
0.5787326286257979
 40
0.5787326286257979
 40
0.5787326286257979
 40
0.9414213562373166
 40
0.9414213562373166
 40
0.9414213562373166
 40
0.9414213562373166
 40
0.9414213562373166
 40
0.9414213562373166
 10
595.5613102216882
 20
465.7105824687231
 30
0.0
 10
595.5016226423488
 20
465.7279461959444
 30
0.0
 10
595.4466748128485
 20
465.750049673005
 30
0.0
 10
595.397017464863
 20
465.7774436315803
 30
0.0
 10
595.35292596423
 20
465.8104034375081
 30
0.0
 10
595.3144003109496
 20
465.8489290907884
 30
0.0
  0
SPLINE
  5
CD
330
1F
100
AcDbEntity
  8
Make2D$Visibile$Curve
370
    -3
100
AcDbSpline
210
0.0
220
0.0
230
1.0
 70
     8
 71
     5
 72
    12
 73
     6
 74
     0
 42
0.0000000001
 43
0.0000000001
 40
0.0456539399059598
 40
0.0456539399059598
 40
0.0456539399059598
 40
0.0456539399059598
 40
0.0456539399059598
 40
0.0456539399059598
 40
0.2034967631484261
 40
0.2034967631484261
 40
0.2034967631484261
 40
0.2034967631484261
 40
0.2034967631484261
 40
0.2034967631484261
 10
595.1268992123953
 20
483.0594930300107
 30
0.0
 10
595.1268953931532
 20
483.092756845685
 30
0.0
 10
595.1268505926851
 20
483.1228593308791
 30
0.0
 10
595.1267597010117
 20
483.151594167426
 30
0.0
 10
595.1266176081535
 20
483.1807550371585
 30
0.0
 10
595.1264192041317
 20
483.2121356219095
 30
0.0
  0
SPLINE
  5
CE
330
1F
100
AcDbEntity
  8
Make2D$Visibile$Curve
370
    -3
100
AcDbSpline
210
0.0
220
0.0
230
1.0
 70
     8
 71
     5
 72
    12
 73
     6
 74
     0
 42
0.0000000001
 43
0.0000000001
 40
0.2959492986875765
 40
0.2959492986875765
 40
0.2959492986875765
 40
0.2959492986875765
 40
0.2959492986875765
 40
0.2959492986875765
 40
0.4153492673472804
 40
0.4153492673472804
 40
0.4153492673472804
 40
0.4153492673472804
 40
0.4153492673472804
 40
0.4153492673472804
 10
610.5013547056672
 20
484.1515721389845
 30
0.0
 10
610.5249521327808
 20
484.1515160036972
 30
0.0
 10
610.5472459953944
 20
484.1513465203519
 30
0.0
 10
610.5692666943562
 20
484.1509612006129
 30
0.0
 10
610.5920446305147
 20
484.150257556145
 30
0.0
 10
610.6166102047185
 20
484.1491330986129
 30
0.0
  0
SPLINE
  5
CF
330
1F
100
AcDbEntity
  8
Make2D$Visibile$Curve
370
    -3
100
AcDbSpline
210
0.0
220
0.0
230
1.0
 70
     8
 71
     5
 72
    12
 73
     6
 74
     0
 42
0.0000000001
 43
0.0000000001
 40
0.0456538382557537
 40
0.0456538382557537
 40
0.0456538382557537
 40
0.0456538382557537
 40
0.0456538382557537
 40
0.0456538382557537
 40
0.2034963990425974
 40
0.2034963990425974
 40
0.2034963990425974
 40
0.2034963990425974
 40
0.2034963990425974
 40
0.2034963990425974
 10
611.354182682484
 20
466.7527223372053
 30
0.0
 10
611.3541865016302
 20
466.7194583436246
 30
0.0
 10
611.3542313002147
 20
466.6893560363962
 30
0.0
 10
611.3543221895045
 20
466.6606214962345
 30
0.0
 10
611.354464280767
 20
466.6314608038535
 30
0.0
 10
611.3546626852697
 20
466.6000800399679
 30
0.0
  0
SPLINE
  5
D0
330
1F
100
AcDbEntity
  8
Make2D$Visibile$Curve
370
    -3
100
AcDbSpline
210
0.0
220
0.0
230
1.0
 70
     8
 71
     5
 72
    12
 73
     6
 74
     0
 42
0.0000000001
 43
0.0000000001
 40
0.04565383860286
 40
0.04565383860286
 40
0.04565383860286
 40
0.04565383860286
 40
0.04565383860286
 40
0.04565383860286
 40
0.2034963993510346
 40
0.2034963993510346
 40
0.2034963993510346
 40
0.2034963993510346
 40
0.2034963993510346
 40
0.2034963993510346
 10
596.218193557329
 20
465.6614279922736
 30
0.0
 10
596.1849295636466
 20
465.6614241731273
 30
0.0
 10
596.1548272564874
 20
465.6613793745432
 30
0.0
 10
596.1260927164487
 20
465.6612884852537
 30
0.0
 10
596.0969320241288
 20
465.6611463939911
 30
0.0
 10
596.0655512601247
 20
465.6609479894878
 30
0.0
  0
SPLINE
  5
D1
330
1F
100
AcDbEntity
  8
Make2D$Visibile$Curve
370
    -3
100
AcDbSpline
210
0.0
220
0.0
230
1.0
 70
    28
 71
     2
 72
     8
 73
     5
 74
     0
 42
0.0000000001
 43
0.0000000001
 40
120.9391199297295
 40
120.9391199297295
 40
120.9391199297295
 40
181.4086798945942
 40
181.4086798945942
 40
241.8782398594589
 40
241.8782398594589
 40
241.8782398594589
 10
564.8015699094091
 20
135.2357418191789
 30
0.0
 41
1.0
 10
564.8015699094091
 20
135.2357418191789
 30
0.0
 41
0.7071067811865476
 10
603.297687409409
 20
135.235742940846
 30
0.0
 41
1.0
 10
641.793804909409
 20
135.2357440625131
 30
0.0
 41
0.7071067811865476
 10
641.7938049094091
 20
135.235744062513
 30
0.0
 41
1.0
  0
SPLINE
  5
D2
330
1F
100
AcDbEntity
  8
Make2D$Visibile$Curve
370
    -3
100
AcDbSpline
210
0.0
220
0.0
230
1.0
 70
    28
 71
     2
 72
     8
 73
     5
 74
     0
 42
0.0000000001
 43
0.0000000001
 40
0.0
 40
0.0
 40
0.0
 40
42.01847656639369
 40
42.01847656639369
 40
84.03695313278737
 40
84.03695313278737
 40
84.03695313278737
 10
576.547895399722
 20
101.6963209801513
 30
0.0
 41
1.0
 10
576.547895399722
 20
101.6963209801513
 30
0.0
 41
0.7071067811865476
 10
603.2976883866522
 20
101.6963217595639
 30
0.0
 41
1.0
 10
630.0474813735822
 20
101.6963225389766
 30
0.0
 41
0.7071067811865477
 10
630.0474813735823
 20
101.6963225389766
 30
0.0
 41
1.0
  0
SPLINE
  5
D3
330
1F
100
AcDbEntity
  8
Make2D$Visibile$Curve
370
    -3
100
AcDbSpline
210
0.0
220
0.0
230
1.0
 70
    28
 71
     2
 72
     8
 73
     5
 74
     0
 42
0.0000000001
 43
0.0000000001
 40
-241.8782613213642
 40
-241.8782613213642
 40
-241.8782613213642
 40
-181.4086959910231
 40
-181.4086959910231
 40
-120.9391306606821
 40
-120.9391306606821
 40
-120.9391306606821
 10
564.7836652344438
 20
137.3640296918182
 30
0.0
 41
1.0
 10
564.7836652344437
 20
137.3640296918182
 30
0.0
 41
0.7071067811865476
 10
603.279786150212
 20
137.3640308134854
 30
0.0
 41
1.0
 10
641.7759070659803
 20
137.3640319351526
 30
0.0
 41
0.7071067811865476
 10
641.7759070659804
 20
137.3640319351526
 30
0.0
 41
1.0
  0
SPLINE
  5
D4
330
1F
100
AcDbEntity
  8
Make2D$Visibile$Curve
370
    -3
100
AcDbSpline
210
0.0
220
0.0
230
1.0
 70
    12
 71
     3
 72
    17
 73
    13
 74
     0
 42
0.0000000001
 43
0.0000000001
 40
0.0
 40
0.0
 40
0.0
 40
0.0
 40
9.023783679948563
 40
9.023783679948563
 40
9.023783679948563
 40
18.46548608386917
 40
18.46548608386917
 40
18.46548608386917
 40
27.92126941013636
 40
27.92126941013636
 40
27.92126941013636
 40
36.79429176264571
 40
36.79429176264571
 40
36.79429176264571
 40
36.79429176264571
 10
641.7938049094091
 20
135.235744062513
 30
0.0
 41
1.0
 10
641.7938049967483
 20
132.2382178233311
 30
0.0
 41
1.0
 10
641.793378584013
 20
129.2595506613027
 30
0.0
 41
1.0
 10
641.5543886189487
 20
126.2213455797417
 30
0.0
 41
1.0
 10
641.3153986538844
 20
123.1831404981807
 30
0.0
 41
1.0
 10
640.8101782854978
 20
120.029084202503
 30
0.0
 41
1.0
 10
639.9464204166162
 20
116.9480203708291
 30
0.0
 41
1.0
 10
639.0826625477347
 20
113.8669565391551
 30
0.0
 41
1.0
 10
637.8730333448361
 20
110.8881921554489
 30
0.0
 41
1.0
 10
636.2809209619273
 20
108.2973530942433
 30
0.0
 41
1.0
 10
634.6888085790185
 20
105.7065140330377
 30
0.0
 41
1.0
 10
632.6824204975597
 20
103.5452074485893
 30
0.0
 41
1.0
 10
630.3813809723345
 20
101.8082006119036
 30
0.0
 41
1.0
  0
SPLINE
  5
D5
330
1F
100
AcDbEntity
  8
Make2D$Visibile$Curve
370
    -3
100
AcDbSpline
210
0.0
220
0.0
230
1.0
 70
    12
 71
     3
 72
    17
 73
    13
 74
     0
 42
0.0000000001
 43
0.0000000001
 40
0.0
 40
0.0
 40
0.0
 40
0.0
 40
8.873022352509512
 40
8.873022352509512
 40
8.873022352509512
 40
18.32880567877665
 40
18.32880567877665
 40
18.32880567877665
 40
27.77050808269722
 40
27.77050808269722
 40
27.77050808269722
 40
36.79429176264586
 40
36.79429176264586
 40
36.79429176264586
 40
36.79429176264586
 10
576.2139957944505
 20
101.8081990336204
 30
0.0
 41
1.0
 10
573.9129561680022
 20
103.5452057362147
 30
0.0
 41
1.0
 10
571.9065679605947
 20
105.7065122037422
 30
0.0
 41
1.0
 10
570.3144554267066
 20
108.2973511721686
 30
0.0
 41
1.0
 10
568.7223428928185
 20
110.888190140595
 30
0.0
 41
1.0
 10
567.5127135163345
 20
113.8669544538109
 30
0.0
 41
1.0
 10
566.6489554679061
 20
116.9480182351499
 30
0.0
 41
1.0
 10
565.7851974194778
 20
120.029082016489
 30
0.0
 41
1.0
 10
565.2799768672907
 20
123.1831382827253
 30
0.0
 41
1.0
 10
565.0409867251772
 20
126.2213433503593
 30
0.0
 41
1.0
 10
564.8019965830636
 20
129.2595484179933
 30
0.0
 41
1.0
 10
564.8015699967484
 20
132.2382155799969
 30
0.0
 41
1.0
 10
564.8015699094091
 20
135.2357418191789
 30
0.0
 41
1.0
  0
SPLINE
  5
D6
330
1F
100
AcDbEntity
  8
Make2D$Visibile$Curve
370
    -3
100
AcDbSpline
210
0.0
220
0.0
230
1.0
 70
    12
 71
     2
 72
     6
 73
     3
 74
     0
 42
0.0000000001
 43
0.0000000001
 40
0.0
 40
0.0
 40
0.0
 40
0.4612087051899659
 40
0.4612087051899659
 40
0.4612087051899659
 10
576.547895399722
 20
101.6963209801513
 30
0.0
 41
1.0
 10
576.3622023882577
 20
101.6963209747408
 30
0.0
 41
0.8781262159799057
 10
576.2139957944504
 20
101.8081990336205
 30
0.0
 41
0.857676557049145
  0
SPLINE
  5
D7
330
1F
100
AcDbEntity
  8
Make2D$Visibile$Curve
370
    -3
100
AcDbSpline
210
0.0
220
0.0
230
1.0
 70
    12
 71
     2
 72
     6
 73
     3
 74
     0
 42
0.0000000001
 43
0.0000000001
 40
0.6471912948100197
 40
0.6471912948100197
 40
0.6471912948100197
 40
1.108400000000011
 40
1.108400000000011
 40
1.108400000000011
 10
630.3813809723345
 20
101.8082006119039
 30
0.0
 41
0.8576765570491427
 10
630.2331743850466
 20
101.6963225443877
 30
0.0
 41
0.878126215979899
 10
630.0474813735823
 20
101.6963225389771
 30
0.0
 41
1.0
  0
SPLINE
  5
D8
330
1F
100
AcDbEntity
  8
Make2D$Visibile$Curve
370
    -3
100
AcDbSpline
210
0.0
220
0.0
230
1.0
 70
    28
 71
     2
 72
     6
 73
     3
 74
     0
 42
0.0000000001
 43
0.0000000001
 40
54.01746739849258
 40
54.01746739849258
 40
54.01746739849258
 40
54.44173146720449
 40
54.44173146720449
 40
54.44173146720449
 10
641.493804900668
 20
135.5357440537719
 30
0.0
 41
1.0
 10
641.6438049050386
 20
135.3857440581425
 30
0.0
 41
1.0
 10
641.7938049094091
 20
135.2357440625131
 30
0.0
 41
1.0
  0
SPLINE
  5
D9
330
1F
100
AcDbEntity
  8
Make2D$Visibile$Curve
370
    -3
100
AcDbSpline
210
0.0
220
0.0
230
1.0
 70
    28
 71
     2
 72
     6
 73
     3
 74
     0
 42
0.0000000001
 43
0.0000000001
 40
7.141229421568357
 40
7.141229421568357
 40
7.141229421568357
 40
7.5654934902803
 40
7.5654934902803
 40
7.5654934902803
 10
564.8015699094091
 20
135.2357418191789
 30
0.0
 41
1.0
 10
564.9515699050385
 20
135.3857418235494
 30
0.0
 41
1.0
 10
565.101569900668
 20
135.53574182792
 30
0.0
 41
1.0
  0
SPLINE
  5
DA
330
1F
100
AcDbEntity
  8
Make2D$Visibile$Curve
370
    -3
100
AcDbSpline
210
0.0
220
0.0
230
1.0
 70
    12
 71
     3
 72
    26
 73
    22
 74
     0
 42
0.0000000001
 43
0.0000000001
 40
0.0
 40
0.0
 40
0.0
 40
0.0
 40
14.32008721785716
 40
14.32008721785716
 40
14.32008721785716
 40
21.99354468198297
 40
21.99354468198297
 40
21.99354468198297
 40
29.7793291555519
 40
29.7793291555519
 40
29.7793291555519
 40
37.29982624968495
 40
37.29982624968495
 40
37.29982624968495
 40
44.7993472843022
 40
44.7993472843022
 40
44.7993472843022
 40
59.79913085521749
 40
59.79913085521749
 40
59.79913085521749
 40
119.7982651388782
 40
119.7982651388782
 40
119.7982651388782
 40
119.7982651388782
 10
629.2599907979109
 20
253.2429059170817
 30
0.0
 41
1.0
 10
633.0942957126871
 20
250.3026850353375
 30
0.0
 41
1.0
 10
636.0395740653071
 20
246.768507484858
 30
0.0
 41
1.0
 10
638.084398573199
 20
242.329121932161
 30
0.0
 41
1.0
 10
639.1068108271448
 20
240.1094291558124
 30
0.0
 41
1.0
 10
639.902448596062
 20
237.6283265098791
 30
0.0
 41
1.0
 10
640.4807577542392
 20
235.0687836026802
 30
0.0
 41
1.0
 10
641.0590669124167
 20
232.5092406954813
 30
0.0
 41
1.0
 10
641.4090304007937
 20
229.9045633982121
 30
0.0
 41
1.0
 10
641.5831928858116
 20
227.3769166009623
 30
0.0
 41
1.0
 10
641.7573553708296
 20
224.8492698037124
 30
0.0
 41
1.0
 10
641.7741870242644
 20
222.3602080783519
 30
0.0
 41
1.0
 10
641.7757401233117
 20
219.8624699543289
 30
0.0
 41
1.0
 10
641.777293222359
 20
217.3647318303059
 30
0.0
 41
1.0
 10
641.7759013921157
 20
214.8629137182144
 30
0.0
 41
1.0
 10
641.7759014649573
 20
212.3629497897285
 30
0.0
 41
1.0
 10
641.7759016106411
 20
207.3630219327568
 30
0.0
 41
1.0
 10
641.7759017563246
 20
202.363094075785
 30
0.0
 41
1.0
 10
641.7759019020084
 20
197.3631662188132
 30
0.0
 41
1.0
 10
641.7759024847428
 20
177.3634547909261
 30
0.0
 41
1.0
 10
641.7759030674774
 20
157.3637433630392
 30
0.0
 41
1.0
 10
641.7759036502121
 20
137.3640319351525
 30
0.0
 41
1.0
  0
SPLINE
  5
DB
330
1F
100
AcDbEntity
  8
Make2D$Visibile$Curve
370
    -3
100
AcDbSpline
210
0.0
220
0.0
230
1.0
 70
    12
 71
     3
 72
    26
 73
    22
 74
     0
 42
0.0000000001
 43
0.0000000001
 40
0.0
 40
0.0
 40
0.0
 40
0.0
 40
59.99913428366079
 40
59.99913428366079
 40
59.99913428366079
 40
74.99891785457608
 40
74.99891785457608
 40
74.99891785457608
 40
82.49843888919327
 40
82.49843888919327
 40
82.49843888919327
 40
90.01893598332636
 40
90.01893598332636
 40
90.01893598332636
 40
97.80472045689527
 40
97.80472045689527
 40
97.80472045689527
 40
105.4781779210211
 40
105.4781779210211
 40
105.4781779210211
 40
119.7982651388782
 40
119.7982651388782
 40
119.7982651388782
 40
119.7982651388782
 10
564.7836686502121
 20
137.3640296918183
 30
0.0
 41
1.0
 10
564.7836680674775
 20
157.363741119705
 30
0.0
 41
1.0
 10
564.7836674847429
 20
177.363452547592
 30
0.0
 41
1.0
 10
564.7836669020083
 20
197.3631639754791
 30
0.0
 41
1.0
 10
564.7836667563247
 20
202.3630918324508
 30
0.0
 41
1.0
 10
564.7836666106411
 20
207.3630196894226
 30
0.0
 41
1.0
 10
564.7836664649574
 20
212.3629475463943
 30
0.0
 41
1.0
 10
564.7836663921156
 20
214.8629114748802
 30
0.0
 41
1.0
 10
564.7822744160803
 20
217.3647295868905
 30
0.0
 41
1.0
 10
564.7838273695738
 20
219.8624677110041
 30
0.0
 41
1.0
 10
564.7853803230673
 20
222.3602058351177
 30
0.0
 41
1.0
 10
564.8022118314539
 20
224.849267561459
 30
0.0
 41
1.0
 10
564.9763741691748
 20
227.376914368858
 30
0.0
 41
1.0
 10
565.150536506896
 20
229.9045611762571
 30
0.0
 41
1.0
 10
565.5004998434872
 20
232.5092384939201
 30
0.0
 41
1.0
 10
566.078808852509
 20
235.0687814348196
 30
0.0
 41
1.0
 10
566.6571178615309
 20
237.6283243757191
 30
0.0
 41
1.0
 10
567.4527554858635
 20
240.1094270680176
 30
0.0
 41
1.0
 10
568.4751676104584
 20
242.3291199039464
 30
0.0
 41
1.0
 10
570.5199918596479
 20
246.7685055758042
 30
0.0
 41
1.0
 10
573.4652700063164
 20
250.3026832979178
 30
0.0
 41
1.0
 10
577.2995747497532
 20
253.2429044031034
 30
0.0
 41
1.0
  0
SPLINE
  5
DC
330
1F
100
AcDbEntity
  8
Make2D$Visibile$Curve
370
    -3
100
AcDbSpline
210
0.0
220
0.0
230
1.0
 70
    12
 71
     2
 72
     6
 73
     3
 74
     0
 42
0.0000000001
 43
0.0000000001
 40
2.879504132871932
 40
2.879504132871932
 40
2.879504132871932
 40
4.970562748477136
 40
4.970562748477136
 40
4.970562748477136
 10
577.2995747497532
 20
253.2429044031034
 30
0.0
 41
0.8572381707035364
 10
578.1072703161781
 20
253.8622614208346
 30
0.0
 41
0.876783189420584
 10
579.1250990067912
 20
253.8622614504912
 30
0.0
 41
1.0
  0
SPLINE
  5
DD
330
1F
100
AcDbEntity
  8
Make2D$Visibile$Curve
370
    -3
100
AcDbSpline
210
0.0
220
0.0
230
1.0
 70
    12
 71
     2
 72
     6
 73
     3
 74
     0
 42
0.0000000001
 43
0.0000000001
 40
2.879504132871935
 40
2.879504132871935
 40
2.879504132871935
 40
4.970562748477135
 40
4.970562748477135
 40
4.970562748477135
 10
629.259990797911
 20
253.2429059170817
 30
0.0
 41
0.8572381707035364
 10
628.4522951953935
 20
253.862262887745
 30
0.0
 41
0.8767831894205839
 10
627.4344665047804
 20
253.8622628580883
 30
0.0
 41
1.0
  0
SPLINE
  5
DE
330
1F
100
AcDbEntity
  8
Make2D$Visibile$Curve
370
    -3
100
AcDbSpline
210
0.0
220
0.0
230
1.0
 70
    28
 71
     2
 72
     6
 73
     3
 74
     0
 42
0.0000000001
 43
0.0000000001
 40
53.84173629783503
 40
53.84173629783503
 40
53.84173629783503
 40
54.44173629783508
 40
54.44173629783508
 40
54.44173629783508
 10
565.2079293155175
 20
136.9397656354681
 30
0.0
 41
1.0
 10
564.9957972749805
 20
137.1518976636431
 30
0.0
 41
1.0
 10
564.7836652344437
 20
137.3640296918182
 30
0.0
 41
1.0
  0
SPLINE
  5
DF
330
1F
100
AcDbEntity
  8
Make2D$Visibile$Curve
370
    -3
100
AcDbSpline
210
0.0
220
0.0
230
1.0
 70
    28
 71
     2
 72
     6
 73
     3
 74
     0
 42
0.0000000001
 43
0.0000000001
 40
7.141229904631267
 40
7.141229904631267
 40
7.141229904631267
 40
7.741229904631282
 40
7.741229904631282
 40
7.741229904631282
 10
641.7759070659804
 20
137.3640319351525
 30
0.0
 41
1.0
 10
641.5637750378053
 20
137.1518998946156
 30
0.0
 41
1.0
 10
641.3516430096303
 20
136.9397678540787
 30
0.0
 41
1.0
  0
SPLINE
  5
E0
330
1F
100
AcDbEntity
  8
Make2D$Visibile$Curve
370
    -3
100
AcDbSpline
210
0.0
220
0.0
230
1.0
 70
    28
 71
     2
 72
     6
 73
     3
 74
     0
 42
0.0000000001
 43
0.0000000001
 40
1.449971295580326
 40
1.449971295580326
 40
1.449971295580326
 40
2.854208961035357
 40
2.854208961035357
 40
2.854208961035357
 10
640.5297861625738
 20
136.9397678189401
 30
0.0
 41
1.0
 10
640.5175325197924
 20
136.2377559219546
 30
0.0
 41
1.0
 10
640.505278877011
 20
135.5357440249691
 30
0.0
 41
1.0
  0
SPLINE
  5
E1
330
1F
100
AcDbEntity
  8
Make2D$Visibile$Curve
370
    -3
100
AcDbSpline
210
0.0
220
0.0
230
1.0
 70
    28
 71
     2
 72
     6
 73
     3
 74
     0
 42
0.0000000001
 43
0.0000000001
 40
2.543618649404421
 40
2.543618649404421
 40
2.543618649404421
 40
3.947856314859462
 40
3.947856314859462
 40
3.947856314859462
 10
566.0542935299552
 20
135.5357418556796
 30
0.0
 41
1.0
 10
566.0420398462645
 20
136.2377537519511
 30
0.0
 41
1.0
 10
566.0297861625738
 20
136.9397656482226
 30
0.0
 41
1.0
  0
SPLINE
  5
E2
330
1F
100
AcDbEntity
  8
Make2D$Visibile$Curve
370
    -3
100
AcDbSpline
210
0.0
220
0.0
230
1.0
 70
    28
 71
     2
 72
     8
 73
     5
 74
     0
 42
0.0000000001
 43
0.0000000001
 40
15.70796326794879
 40
15.70796326794879
 40
15.70796326794879
 40
23.56194490192345
 40
23.56194490192345
 40
31.4159265358981
 40
31.4159265358981
 40
31.4159265358981
 10
608.2908765874643
 20
465.535678714023
 30
0.0
 41
1.0
 10
608.2908765874644
 20
465.535678714023
 30
0.0
 41
0.7071067811865412
 10
603.2908765874643
 20
465.535678714023
 30
0.0
 41
1.0
 10
598.2908765874641
 20
465.535678714023
 30
0.0
 41
0.7071067811865412
 10
598.2908765874643
 20
465.535678714023
 30
0.0
 41
1.0
  0
SPLINE
  5
E3
330
1F
100
AcDbEntity
  8
Make2D$Visibile$Curve
370
    -3
100
AcDbSpline
210
0.0
220
0.0
230
1.0
 70
    28
 71
     2
 72
     6
 73
     3
 74
     0
 42
0.0000000001
 43
0.0000000001
 40
11.71666666666681
 40
11.71666666666681
 40
11.71666666666681
 40
15.25000000000031
 40
15.25000000000031
 40
15.25000000000031
 10
599.4908765874642
 20
442.5356787140232
 30
0.0
 41
1.0
 10
598.9179036144913
 20
444.2068498851944
 30
0.0
 41
1.0
 10
598.3449306415182
 20
445.8780210563656
 30
0.0
 41
1.0
  0
SPLINE
  5
E4
330
1F
100
AcDbEntity
  8
Make2D$Visibile$Curve
370
    -3
100
AcDbSpline
210
0.0
220
0.0
230
1.0
 70
    28
 71
     2
 72
     6
 73
     3
 74
     0
 42
0.0000000001
 43
0.0000000001
 40
2.793571428571507
 40
2.793571428571507
 40
2.793571428571507
 40
6.326904761904994
 40
6.326904761904994
 40
6.326904761904994
 10
608.2368225334101
 20
445.8780210563656
 30
0.0
 41
1.0
 10
607.6638495604371
 20
444.2068498851944
 30
0.0
 41
1.0
 10
607.0908765874642
 20
442.5356787140232
 30
0.0
 41
1.0
  0
SPLINE
  5
E5
330
1F
100
AcDbEntity
  8
Make2D$Visibile$Curve
370
    -3
100
AcDbSpline
210
0.0
220
0.0
230
1.0
 70
    28
 71
     2
 72
     6
 73
     3
 74
     0
 42
0.0000000001
 43
0.0000000001
 40
3.133333333333354
 40
3.133333333333354
 40
3.133333333333354
 40
22.46666666666655
 40
22.46666666666655
 40
22.46666666666655
 10
608.2908765874643
 20
465.535678714023
 30
0.0
 41
1.0
 10
608.2908765874643
 20
455.8690120473565
 30
0.0
 41
1.0
 10
608.2908765874643
 20
446.2023453806899
 30
0.0
 41
1.0
  0
SPLINE
  5
E6
330
1F
100
AcDbEntity
  8
Make2D$Visibile$Curve
370
    -3
100
AcDbSpline
210
0.0
220
0.0
230
1.0
 70
    28
 71
     2
 72
     6
 73
     3
 74
     0
 42
0.0000000001
 43
0.0000000001
 40
3.133333333333351
 40
3.133333333333351
 40
3.133333333333351
 40
5.966908791589846
 40
5.966908791589846
 40
5.966908791589846
 10
598.2908765874643
 20
446.2023453806899
 30
0.0
 41
1.0
 10
598.2908765874643
 20
447.6191331098181
 30
0.0
 41
1.0
 10
598.2908765874643
 20
449.0359208389464
 30
0.0
 41
1.0
  0
SPLINE
  5
E7
330
1F
100
AcDbEntity
  8
Make2D$Visibile$Curve
370
    -3
100
AcDbSpline
210
0.0
220
0.0
230
1.0
 70
    28
 71
     2
 72
     6
 73
     3
 74
     0
 42
0.0000000001
 43
0.0000000001
 40
10.96666666666655
 40
10.96666666666655
 40
10.96666666666655
 40
22.46666666666655
 40
22.46666666666655
 40
22.46666666666655
 10
598.2908765874643
 20
454.035678714023
 30
0.0
 41
1.0
 10
598.2908765874643
 20
459.785678714023
 30
0.0
 41
1.0
 10
598.2908765874643
 20
465.535678714023
 30
0.0
 41
1.0
  0
SPLINE
  5
E8
330
1F
100
AcDbEntity
  8
Make2D$Visibile$Curve
370
    -3
100
AcDbSpline
210
0.0
220
0.0
230
1.0
 70
    28
 71
     2
 72
     6
 73
     3
 74
     0
 42
0.0000000001
 43
0.0000000001
 40
5.966908795192467
 40
5.966908795192467
 40
5.966908795192467
 40
10.96666666666655
 40
10.96666666666655
 40
10.96666666666655
 10
598.2908765874643
 20
449.035920842549
 30
0.0
 41
1.0
 10
598.2908765874643
 20
451.535799778286
 30
0.0
 41
1.0
 10
598.2908765874643
 20
454.035678714023
 30
0.0
 41
1.0
  0
SPLINE
  5
E9
330
1F
100
AcDbEntity
  8
Make2D$Visibile$Curve
370
    -3
100
AcDbSpline
210
0.0
220
0.0
230
1.0
 70
    12
 71
     2
 72
     6
 73
     3
 74
     0
 42
0.0000000001
 43
0.0000000001
 40
0.0
 40
0.0
 40
0.0
 40
0.3653052284152323
 40
0.3653052284152323
 40
0.3653052284152323
 10
608.2908765874643
 20
446.2023453806899
 30
0.0
 41
1.0
 10
608.2908765874641
 20
446.0356787140233
 30
0.0
 41
0.935422548946172
 10
608.2368225334103
 20
445.8780210563658
 30
0.0
 41
0.8993213268846283
  0
SPLINE
  5
EA
330
1F
100
AcDbEntity
  8
Make2D$Visibile$Curve
370
    -3
100
AcDbSpline
210
0.0
220
0.0
230
1.0
 70
    12
 71
     2
 72
     6
 73
     3
 74
     0
 42
0.0000000001
 43
0.0000000001
 40
0.0
 40
0.0
 40
0.0
 40
0.3653052284152361
 40
0.3653052284152361
 40
0.3653052284152361
 10
598.2908765874643
 20
446.2023453806899
 30
0.0
 41
1.0
 10
598.2908765874641
 20
446.0356787140232
 30
0.0
 41
0.9354225489461714
 10
598.3449306415182
 20
445.8780210563656
 30
0.0
 41
0.8993213268846276
  0
SPLINE
  5
EB
330
1F
100
AcDbEntity
  8
Make2D$Visibile$Curve
370
    -3
100
AcDbSpline
210
0.0
220
0.0
230
1.0
 70
    28
 71
     2
 72
     6
 73
     3
 74
     0
 42
0.0000000001
 43
0.0000000001
 40
1.229999999999998
 40
1.229999999999998
 40
1.229999999999998
 40
1.529999999999997
 40
1.529999999999997
 40
1.529999999999997
 10
599.7427730927527
 20
442.1356787140252
 30
0.0
 41
1.0
 10
599.7427730927527
 20
442.2856787140252
 30
0.0
 41
1.0
 10
599.7427730927527
 20
442.4356787140252
 30
0.0
 41
1.0
  0
SPLINE
  5
EC
330
1F
100
AcDbEntity
  8
Make2D$Visibile$Curve
370
    -3
100
AcDbSpline
210
0.0
220
0.0
230
1.0
 70
    28
 71
     2
 72
     6
 73
     3
 74
     0
 42
0.0000000001
 43
0.0000000001
 40
1.229999999999994
 40
1.229999999999994
 40
1.229999999999994
 40
1.530000000000022
 40
1.530000000000022
 40
1.530000000000022
 10
607.0427730927527
 20
442.4356787140252
 30
0.0
 41
1.0
 10
607.0427730927527
 20
442.2856787140252
 30
0.0
 41
1.0
 10
607.0427730927527
 20
442.1356787140252
 30
0.0
 41
1.0
  0
SPLINE
  5
ED
330
1F
100
AcDbEntity
  8
Make2D$Visibile$Curve
370
    -3
100
AcDbSpline
210
0.0
220
0.0
230
1.0
 70
    28
 71
     2
 72
     6
 73
     3
 74
     0
 42
0.0000000001
 43
0.0000000001
 40
86.349004705411
 40
86.349004705411
 40
86.349004705411
 40
274.6224212036361
 40
274.6224212036361
 40
274.6224212036361
 10
605.390847254063
 20
442.1356787140252
 30
0.0
 41
1.0
 10
605.390847254063
 20
347.9989704649126
 30
0.0
 41
1.0
 10
605.390847254063
 20
253.8622622158001
 30
0.0
 41
1.0
  0
SPLINE
  5
EE
330
1F
100
AcDbEntity
  8
Make2D$Visibile$Curve
370
    -3
100
AcDbSpline
210
0.0
220
0.0
230
1.0
 70
    28
 71
     2
 72
     8
 73
     5
 74
     0
 42
0.0000000001
 43
0.0000000001
 40
-17.90707812546182
 40
-17.90707812546182
 40
-17.90707812546182
 40
-11.93805208364121
 40
-11.93805208364121
 40
-5.969026041820601
 40
-5.969026041820601
 40
-5.969026041820601
 10
607.0908765874642
 20
442.5356787140232
 30
0.0
 41
1.0
 10
607.0908765874642
 20
442.5356787140232
 30
0.0
 41
0.7071067811865475
 10
603.2908765874643
 20
442.5356787140232
 30
0.0
 41
1.0
 10
599.4908765874641
 20
442.5356787140232
 30
0.0
 41
0.707106781186547
 10
599.4908765874642
 20
442.5356787140232
 30
0.0
 41
1.0
  0
SPLINE
  5
EF
330
1F
100
AcDbEntity
  8
Make2D$Visibile$Curve
370
    -3
100
AcDbSpline
210
0.0
220
0.0
230
1.0
 70
    28
 71
     2
 72
     6
 73
     3
 74
     0
 42
0.0000000001
 43
0.0000000001
 40
46.38513431672875
 40
46.38513431672875
 40
46.38513431672875
 40
234.6585509373298
 40
234.6585509373298
 40
234.6585509373298
 10
601.1908472540631
 20
253.8622620934241
 30
0.0
 41
1.0
 10
601.1908472540631
 20
347.9989704037247
 30
0.0
 41
1.0
 10
601.1908472540631
 20
442.1356787140252
 30
0.0
 41
1.0
  0
SPLINE
  5
F0
330
1F
100
AcDbEntity
  8
Make2D$Visibile$Curve
370
    -3
100
AcDbSpline
210
0.0
220
0.0
230
1.0
 70
     8
 71
     5
 72
    12
 73
     6
 74
     0
 42
0.0000000001
 43
0.0000000001
 40
0.5534320831919405
 40
0.5534320831919405
 40
0.5534320831919405
 40
0.5534320831919405
 40
0.5534320831919405
 40
0.5534320831919405
 40
0.9414213562373092
 40
0.9414213562373092
 40
0.9414213562373092
 40
0.9414213562373092
 40
0.9414213562373092
 40
0.9414213562373092
 10
610.8987244113953
 20
484.1074602848833
 30
0.0
 10
610.9639728986452
 20
484.0902824981858
 30
0.0
 10
611.0239337931321
 20
484.0678171187253
 30
0.0
 10
611.0778858500497
 20
484.0393429016958
 30
0.0
 10
611.1254684469955
 20
484.0044992246941
 30
0.0
 10
611.1666815839691
 20
483.9632860877205
 30
0.0
  0
SPLINE
  5
F1
330
1F
100
AcDbEntity
  8
Make2D$Visibile$Curve
370
    -3
100
AcDbSpline
210
0.0
220
0.0
230
1.0
 70
     8
 71
     5
 72
    12
 73
     6
 74
     0
 42
0.0000000001
 43
0.0000000001
 40
0.9414213562373092
 40
0.9414213562373092
 40
0.9414213562373092
 40
0.9414213562373092
 40
0.9414213562373092
 40
0.9414213562373092
 40
1.882842712474618
 40
1.882842712474618
 40
1.882842712474618
 40
1.882842712474618
 40
1.882842712474618
 40
1.882842712474618
 10
611.1666815839691
 20
483.9632860877205
 30
0.0
 10
611.2666815839691
 20
483.8632860877205
 30
0.0
 10
611.3291815839691
 20
483.7257860877205
 30
0.0
 10
611.3541815839691
 20
483.5507860877205
 30
0.0
 10
611.3541815839691
 20
483.3507860877205
 30
0.0
 10
611.3541815839691
 20
483.1507860877205
 30
0.0
  0
SPLINE
  5
F2
330
1F
100
AcDbEntity
  8
Make2D$Visibile$Curve
370
    -3
100
AcDbSpline
210
0.0
220
0.0
230
1.0
 70
     8
 71
     5
 72
    12
 73
     6
 74
     0
 42
0.0000000001
 43
0.0000000001
 40
0.9414213562373166
 40
0.9414213562373166
 40
0.9414213562373166
 40
0.9414213562373166
 40
0.9414213562373166
 40
0.9414213562373166
 40
1.882842712474629
 40
1.882842712474629
 40
1.882842712474629
 40
1.882842712474629
 40
1.882842712474629
 40
1.882842712474629
 10
595.3144003109496
 20
465.8489290907884
 30
0.0
 10
595.2144003109497
 20
465.9489290907885
 30
0.0
 10
595.1519003109497
 20
466.0864290907884
 30
0.0
 10
595.1269003109496
 20
466.2614290907885
 30
0.0
 10
595.1269003109496
 20
466.4614290907884
 30
0.0
 10
595.1269003109496
 20
466.6614290907884
 30
0.0
  0
SPLINE
  5
F3
330
1F
100
AcDbEntity
  8
Make2D$Visibile$Curve
370
    -3
100
AcDbSpline
210
0.0
220
0.0
230
1.0
 70
     8
 71
     5
 72
    12
 73
     6
 74
     0
 42
0.0000000001
 43
0.0000000001
 40
0.045653837986234
 40
0.045653837986234
 40
0.045653837986234
 40
0.045653837986234
 40
0.045653837986234
 40
0.045653837986234
 40
0.20349639880341
 40
0.20349639880341
 40
0.20349639880341
 40
0.20349639880341
 40
0.20349639880341
 40
0.20349639880341
 10
610.2628883375489
 20
484.1507871862353
 30
0.0
 10
610.296152330161
 20
484.1507910053815
 30
0.0
 10
610.3262546378979
 20
484.1508358039691
 30
0.0
 10
610.3549891790531
 20
484.1509266932622
 30
0.0
 10
610.3841498719196
 20
484.1510687845247
 30
0.0
 10
610.4155306347909
 20
484.151267189021
 30
0.0
  0
SPLINE
  5
F4
330
1F
100
AcDbEntity
  8
Make2D$Visibile$Curve
370
    -3
100
AcDbSpline
210
0.0
220
0.0
230
1.0
 70
    28
 71
     2
 72
     8
 73
     5
 74
     0
 42
0.0000000001
 43
0.0000000001
 40
0.0
 40
0.0
 40
0.0
 40
59.99832106682626
 40
59.99832106682626
 40
119.9966421336525
 40
119.9966421336525
 40
119.9966421336525
 10
641.493804900668
 20
135.5357440537719
 30
0.0
 41
1.0
 10
641.4938049006679
 20
135.5357440537719
 30
0.0
 41
0.7071067811865476
 10
603.2976874006679
 20
135.535742940846
 30
0.0
 41
1.0
 10
565.1015699006679
 20
135.53574182792
 30
0.0
 41
0.7071067811865476
 10
565.101569900668
 20
135.53574182792
 30
0.0
 41
1.0
  0
SPLINE
  5
F5
330
1F
100
AcDbEntity
  8
Make2D$Visibile$Curve
370
    -3
100
AcDbSpline
210
0.0
220
0.0
230
1.0
 70
    28
 71
     2
 72
     8
 73
     5
 74
     0
 42
0.0000000001
 43
0.0000000001
 40
0.0
 40
0.0
 40
0.0
 40
59.80313288961733
 40
59.80313288961733
 40
119.6062657792347
 40
119.6062657792347
 40
119.6062657792347
 10
565.2079293155175
 20
136.9397656354681
 30
0.0
 41
1.0
 10
565.2079293155174
 20
136.9397656354681
 30
0.0
 41
0.7071067811865476
 10
603.2797861625738
 20
136.9397667447734
 30
0.0
 41
1.0
 10
641.3516430096302
 20
136.9397678540788
 30
0.0
 41
0.7071067811865476
 10
641.3516430096303
 20
136.9397678540788
 30
0.0
 41
1.0
  0
SPLINE
  5
F6
330
1F
100
AcDbEntity
  8
Make2D$Visibile$Curve
370
    -3
100
AcDbSpline
210
0.0
220
0.0
230
1.0
 70
    28
 71
     2
 72
     8
 73
     5
 74
     0
 42
0.0000000001
 43
0.0000000001
 40
75.8841770156262
 40
75.8841770156262
 40
75.8841770156262
 40
113.8262655234393
 40
113.8262655234393
 40
151.7683540312524
 40
151.7683540312524
 40
151.7683540312524
 10
627.4344665047804
 20
253.8622628580884
 30
0.0
 41
1.0
 10
627.4344665047804
 20
253.8622628580884
 30
0.0
 41
0.7071067811865476
 10
603.2797827557858
 20
253.8622621542898
 30
0.0
 41
1.0
 10
579.1250990067912
 20
253.8622614504912
 30
0.0
 41
0.7071067811865476
 10
579.1250990067912
 20
253.8622614504912
 30
0.0
 41
1.0
  0
SPLINE
  5
F7
330
1F
100
AcDbEntity
  8
Make2D$Visibile$Curve
370
    -3
100
AcDbSpline
210
0.0
220
0.0
230
1.0
 70
    28
 71
     2
 72
     6
 73
     3
 74
     0
 42
0.0000000001
 43
0.0000000001
 40
-22.93362637120549
 40
-22.93362637120549
 40
-22.93362637120549
 40
-17.20021977840412
 40
-17.20021977840412
 40
-17.20021977840412
 10
603.3927730927527
 20
442.1356787140252
 30
0.0
 41
1.0
 10
599.7427730927526
 20
442.1356787140252
 30
0.0
 41
0.7071067811865476
 10
599.7427730927527
 20
442.1356787140252
 30
0.0
 41
1.0
  0
SPLINE
  5
F8
330
1F
100
AcDbEntity
  8
Make2D$Visibile$Curve
370
    -3
100
AcDbSpline
210
0.0
220
0.0
230
1.0
 70
    28
 71
     2
 72
     6
 73
     3
 74
     0
 42
0.0000000001
 43
0.0000000001
 40
-5.733406592801372
 40
-5.733406592801372
 40
-5.733406592801372
 40
0.0
 40
0.0
 40
0.0
 10
607.0427730927527
 20
442.1356787140252
 30
0.0
 41
1.0
 10
607.0427730927527
 20
442.1356787140252
 30
0.0
 41
0.7071067811865475
 10
603.3927730927527
 20
442.1356787140252
 30
0.0
 41
1.0
  0
SPLINE
  5
F9
330
1F
100
AcDbEntity
  8
Make2D$Visibile$Curve
370
    -3
100
AcDbSpline
210
0.0
220
0.0
230
1.0
 70
     8
 71
     5
 72
    12
 73
     6
 74
     0
 42
0.0000000001
 43
0.0000000001
 40
-0.9414213562372264
 40
-0.9414213562372264
 40
-0.9414213562372264
 40
-0.9414213562372264
 40
-0.9414213562372264
 40
-0.9414213562372264
 40
-0.5625871142357963
 40
-0.5625871142357963
 40
-0.5625871142357963
 40
-0.5625871142357963
 40
-0.5625871142357963
 40
-0.5625871142357963
 10
478.8950808510817
 20
616.2354881034155
 30
0.0
 10
478.8548401831288
 20
616.2757287713684
 30
0.0
 10
478.808527097586
 20
616.3098970217316
 30
0.0
 10
478.7561415944533
 20
616.3379928545048
 30
0.0
 10
478.6980114448897
 20
616.3603440408469
 30
0.0
 10
478.6347921912133
 20
616.3776061230765
 30
0.0
  0
SPLINE
  5
FA
330
1F
100
AcDbEntity
  8
Make2D$Visibile$Curve
370
    -3
100
AcDbSpline
210
0.0
220
0.0
230
1.0
 70
     8
 71
     5
 72
    12
 73
     6
 74
     0
 42
0.0000000001
 43
0.0000000001
 40
0.9414213562373113
 40
0.9414213562373113
 40
0.9414213562373113
 40
0.9414213562373113
 40
0.9414213562373113
 40
0.9414213562373113
 40
1.320255598239263
 40
1.320255598239263
 40
1.320255598239263
 40
1.320255598239263
 40
1.320255598239263
 40
1.320255598239263
 10
302.0488116074876
 20
616.2354881034155
 30
0.0
 10
302.0085709395346
 20
616.1952474354625
 30
0.0
 10
301.9744026891715
 20
616.1489343499197
 30
0.0
 10
301.9463068563983
 20
616.0965488467868
 30
0.0
 10
301.923955670056
 20
616.0384186972233
 30
0.0
 10
301.9066935878266
 20
615.9751994435467
 30
0.0
  0
SPLINE
  5
FB
330
1F
100
AcDbEntity
  8
Make2D$Visibile$Curve
370
    -3
100
AcDbSpline
210
0.0
220
0.0
230
1.0
 70
    24
 71
     5
 72
    14
 73
     8
 74
     0
 42
0.0000000001
 43
0.0000000001
 40
0.4
 40
0.4
 40
0.4
 40
0.4
 40
0.4
 40
0.4
 40
0.6
 40
0.8
 40
1.0
 40
1.0
 40
1.0
 40
1.0
 40
1.0
 40
1.0
 10
303.2077939302692
 20
616.4229881034155
 30
0.0
 10
303.2275929201424
 20
616.4229881034155
 30
0.0
 10
303.2686051134513
 20
616.4229881034155
 30
0.0
 10
303.3343660441016
 20
616.4229881034155
 30
0.0
 10
303.4064909357826
 20
616.4229881034155
 30
0.0
 10
303.4849797884943
 20
616.4229881034155
 30
0.0
 10
303.5401341174268
 20
616.4229881034155
 30
0.0
 10
303.5684183886743
 20
616.4229881034155
 30
0.0
  0
SPLINE
  5
FC
330
1F
100
AcDbEntity
  8
Make2D$Visibile$Curve
370
    -3
100
AcDbSpline
210
0.0
220
0.0
230
1.0
 70
    24
 71
     5
 72
    14
 73
     8
 74
     0
 42
0.0000000001
 43
0.0000000001
 40
-1.0
 40
-1.0
 40
-1.0
 40
-1.0
 40
-1.0
 40
-1.0
 40
-0.8
 40
-0.6
 40
-0.4
 40
-0.4
 40
-0.4
 40
-0.4
 40
-0.4
 40
-0.4
 10
477.3754740698951
 20
616.4229881034155
 30
0.0
 10
477.4037583411426
 20
616.4229881034155
 30
0.0
 10
477.4589126700751
 20
616.4229881034155
 30
0.0
 10
477.5374015227866
 20
616.4229881034155
 30
0.0
 10
477.6095264144676
 20
616.4229881034155
 30
0.0
 10
477.6752873451179
 20
616.4229881034155
 30
0.0
 10
477.7162995384268
 20
616.4229881034155
 30
0.0
 10
477.7360985283
 20
616.4229881034155
 30
0.0
  0
SPLINE
  5
FD
330
1F
100
AcDbEntity
  8
Make2D$Visibile$Curve
370
    -3
100
AcDbSpline
210
0.0
220
0.0
230
1.0
 70
    24
 71
     5
 72
    14
 73
     8
 74
     0
 42
0.0000000001
 43
0.0000000001
 40
-1.0
 40
-1.0
 40
-1.0
 40
-1.0
 40
-1.0
 40
-1.0
 40
-0.8
 40
-0.6
 40
-0.4
 40
-0.4
 40
-0.4
 40
-0.4
 40
-0.4
 40
-0.4
 10
477.3754740698951
 20
600.1957068303961
 30
0.0
 10
477.4037583411426
 20
600.1957068303961
 30
0.0
 10
477.4589126700752
 20
600.1957068303961
 30
0.0
 10
477.5374015227867
 20
600.1957068303961
 30
0.0
 10
477.6095264144677
 20
600.1957068303961
 30
0.0
 10
477.675287345118
 20
600.1957068303961
 30
0.0
 10
477.7162995384268
 20
600.1957068303961
 30
0.0
 10
477.7360985283
 20
600.1957068303961
 30
0.0
  0
SPLINE
  5
FE
330
1F
100
AcDbEntity
  8
Make2D$Visibile$Curve
370
    -3
100
AcDbSpline
210
0.0
220
0.0
230
1.0
 70
    24
 71
     5
 72
    14
 73
     8
 74
     0
 42
0.0000000001
 43
0.0000000001
 40
-1.0
 40
-1.0
 40
-1.0
 40
-1.0
 40
-1.0
 40
-1.0
 40
-0.8
 40
-0.6
 40
-0.4
 40
-0.4
 40
-0.4
 40
-0.4
 40
-0.4
 40
-0.4
 10
303.5684183886742
 20
600.1957068303961
 30
0.0
 10
303.5401341174267
 20
600.1957068303961
 30
0.0
 10
303.4849797884941
 20
600.1957068303961
 30
0.0
 10
303.4064909357824
 20
600.1957068303961
 30
0.0
 10
303.3343660441013
 20
600.1957068303961
 30
0.0
 10
303.268605113451
 20
600.1957068303961
 30
0.0
 10
303.2275929201422
 20
600.1957068303961
 30
0.0
 10
303.207793930269
 20
600.1957068303961
 30
0.0
  0
SPLINE
  5
FF
330
1F
100
AcDbEntity
  8
Make2D$Visibile$Curve
370
    -3
100
AcDbSpline
210
0.0
220
0.0
230
1.0
 70
    24
 71
     5
 72
    14
 73
     8
 74
     0
 42
0.0000000001
 43
0.0000000001
 40
0.4
 40
0.4
 40
0.4
 40
0.4
 40
0.4
 40
0.4
 40
0.6
 40
0.8
 40
1.0
 40
1.0
 40
1.0
 40
1.0
 40
1.0
 40
1.0
 10
479.0825808510816
 20
601.5421891531776
 30
0.0
 10
479.0825808510816
 20
601.5619881430508
 30
0.0
 10
479.0825808510816
 20
601.6030003363596
 30
0.0
 10
479.0825808510817
 20
601.66876126701
 30
0.0
 10
479.0825808510817
 20
601.740886158691
 30
0.0
 10
479.0825808510817
 20
601.8193750114027
 30
0.0
 10
479.0825808510817
 20
601.8745293403352
 30
0.0
 10
479.0825808510817
 20
601.9028136115827
 30
0.0
  0
SPLINE
  5
100
330
1F
100
AcDbEntity
  8
Make2D$Visibile$Curve
370
    -3
100
AcDbSpline
210
0.0
220
0.0
230
1.0
 70
    24
 71
     2
 72
     6
 73
     3
 74
     0
 42
0.0000000001
 43
0.0000000001
 40
1.707106781186546
 40
1.707106781186546
 40
1.707106781186546
 40
14.52017449183285
 40
14.52017449183285
 40
14.52017449183285
 10
479.0825808510817
 20
601.9028136115827
 30
0.0
 10
479.0825808510817
 20
608.3093474669058
 30
0.0
 10
479.0825808510817
 20
614.715881322229
 30
0.0
  0
SPLINE
  5
101
330
1F
100
AcDbEntity
  8
Make2D$Visibile$Curve
370
    -3
100
AcDbSpline
210
0.0
220
0.0
230
1.0
 70
    24
 71
     5
 72
    14
 73
     8
 74
     0
 42
0.0000000001
 43
0.0000000001
 40
0.4
 40
0.4
 40
0.4
 40
0.4
 40
0.4
 40
0.4
 40
0.6
 40
0.8
 40
1.0
 40
1.0
 40
1.0
 40
1.0
 40
1.0
 40
1.0
 10
301.8613116074877
 20
601.5421891531776
 30
0.0
 10
301.8613116074876
 20
601.5619881430507
 30
0.0
 10
301.8613116074876
 20
601.6030003363596
 30
0.0
 10
301.8613116074876
 20
601.66876126701
 30
0.0
 10
301.8613116074876
 20
601.740886158691
 30
0.0
 10
301.8613116074876
 20
601.8193750114027
 30
0.0
 10
301.8613116074876
 20
601.8745293403354
 30
0.0
 10
301.8613116074876
 20
601.9028136115828
 30
0.0
  0
SPLINE
  5
102
330
1F
100
AcDbEntity
  8
Make2D$Visibile$Curve
370
    -3
100
AcDbSpline
210
0.0
220
0.0
230
1.0
 70
    24
 71
     2
 72
     6
 73
     3
 74
     0
 42
0.0000000001
 43
0.0000000001
 40
1.707106781186582
 40
1.707106781186582
 40
1.707106781186582
 40
14.52017449183285
 40
14.52017449183285
 40
14.52017449183285
 10
301.8613116074876
 20
601.9028136115828
 30
0.0
 10
301.8613116074876
 20
608.3093474669059
 30
0.0
 10
301.8613116074876
 20
614.715881322229
 30
0.0
  0
SPLINE
  5
103
330
1F
100
AcDbEntity
  8
Make2D$Visibile$Curve
370
    -3
100
AcDbSpline
210
0.0
220
0.0
230
1.0
 70
    24
 71
     5
 72
    14
 73
     8
 74
     0
 42
0.0000000001
 43
0.0000000001
 40
-1.0
 40
-1.0
 40
-1.0
 40
-1.0
 40
-1.0
 40
-1.0
 40
-0.8
 40
-0.6
 40
-0.4
 40
-0.4
 40
-0.4
 40
-0.4
 40
-0.4
 40
-0.4
 10
301.8613116074876
 20
614.715881322229
 30
0.0
 10
301.8613116074876
 20
614.7441655934765
 30
0.0
 10
301.8613116074876
 20
614.799319922409
 30
0.0
 10
301.8613116074876
 20
614.8778087751207
 30
0.0
 10
301.8613116074876
 20
614.9499336668018
 30
0.0
 10
301.8613116074876
 20
615.015694597452
 30
0.0
 10
301.8613116074876
 20
615.0567067907609
 30
0.0
 10
301.8613116074876
 20
615.0765057806341
 30
0.0
  0
SPLINE
  5
104
330
1F
100
AcDbEntity
  8
Make2D$Visibile$Curve
370
    -3
100
AcDbSpline
210
0.0
220
0.0
230
1.0
 70
     8
 71
     5
 72
    12
 73
     6
 74
     0
 42
0.0000000001
 43
0.0000000001
 40
-0.9414213562373113
 40
-0.9414213562373113
 40
-0.9414213562373113
 40
-0.9414213562373113
 40
-0.9414213562373113
 40
-0.9414213562373113
 40
0.0
 40
0.0
 40
0.0
 40
0.0
 40
0.0
 40
0.0
 10
302.0488116074876
 20
616.2354881034155
 30
0.0
 10
302.1488116074876
 20
616.3354881034156
 30
0.0
 10
302.2863116074876
 20
616.3979881034156
 30
0.0
 10
302.4613116074876
 20
616.4229881034155
 30
0.0
 10
302.6613116074876
 20
616.4229881034155
 30
0.0
 10
302.8613116074876
 20
616.4229881034155
 30
0.0
  0
SPLINE
  5
105
330
1F
100
AcDbEntity
  8
Make2D$Visibile$Curve
370
    -3
100
AcDbSpline
210
0.0
220
0.0
230
1.0
 70
     8
 71
     5
 72
    12
 73
     6
 74
     0
 42
0.0000000001
 43
0.0000000001
 40
0.0
 40
0.0
 40
0.0
 40
0.0
 40
0.0
 40
0.0
 40
0.9414213562373245
 40
0.9414213562373245
 40
0.9414213562373245
 40
0.9414213562373245
 40
0.9414213562373245
 40
0.9414213562373245
 10
478.0825808510817
 20
600.1957068303961
 30
0.0
 10
478.2825808510818
 20
600.1957068303961
 30
0.0
 10
478.4825808510818
 20
600.1957068303961
 30
0.0
 10
478.6575808510818
 20
600.2207068303962
 30
0.0
 10
478.7950808510818
 20
600.2832068303962
 30
0.0
 10
478.8950808510817
 20
600.3832068303961
 30
0.0
  0
SPLINE
  5
106
330
1F
100
AcDbEntity
  8
Make2D$Visibile$Curve
370
    -3
100
AcDbSpline
210
0.0
220
0.0
230
1.0
 70
     8
 71
     5
 72
    12
 73
     6
 74
     0
 42
0.0000000001
 43
0.0000000001
 40
0.9414213562373245
 40
0.9414213562373245
 40
0.9414213562373245
 40
0.9414213562373245
 40
0.9414213562373245
 40
0.9414213562373245
 40
1.33718714571141
 40
1.33718714571141
 40
1.33718714571141
 40
1.33718714571141
 40
1.33718714571141
 40
1.33718714571141
 10
478.8950808510817
 20
600.3832068303961
 30
0.0
 10
478.9371200279978
 20
600.4252460073122
 30
0.0
 10
478.9725318584296
 20
600.4739125307124
 30
0.0
 10
479.0013163423773
 20
600.5292064005969
 30
0.0
 10
479.0238638951424
 20
600.5907372016638
 30
0.0
 10
479.0409553473279
 20
600.6577241033106
 30
0.0
  0
SPLINE
  5
107
330
1F
100
AcDbEntity
  8
Make2D$Visibile$Curve
370
    -3
100
AcDbSpline
210
0.0
220
0.0
230
1.0
 70
     8
 71
     5
 72
    12
 73
     6
 74
     0
 42
0.0000000001
 43
0.0000000001
 40
0.5142137743393718
 40
0.5142137743393718
 40
0.5142137743393718
 40
0.5142137743393718
 40
0.5142137743393718
 40
0.5142137743393718
 40
0.7355774985911541
 40
0.7355774985911541
 40
0.7355774985911541
 40
0.7355774985911541
 40
0.7355774985911541
 40
0.7355774985911541
 10
479.0737223355137
 20
600.8365154188041
 30
0.0
 10
479.0693027207417
 20
600.7950053920688
 30
0.0
 10
479.0628507259639
 20
600.75333464754
 30
0.0
 10
479.0551744067869
 20
600.7138804580059
 30
0.0
 10
479.0470818188178
 20
600.6790200962546
 30
0.0
 10
479.0393810176631
 20
600.6511308350742
 30
0.0
  0
SPLINE
  5
108
330
1F
100
AcDbEntity
  8
Make2D$Visibile$Curve
370
    -3
100
AcDbSpline
210
0.0
220
0.0
230
1.0
 70
    24
 71
     5
 72
    22
 73
    16
 74
     0
 42
0.0000000001
 43
0.0000000001
 40
0.0
 40
0.0
 40
0.0
 40
0.0
 40
0.0
 40
0.0
 40
0.1119822832034045
 40
0.1119822832034045
 40
0.1119822832034045
 40
0.1119822832034045
 40
0.1119822832034045
 40
0.2341854198477392
 40
0.2341854198477392
 40
0.2341854198477392
 40
0.2341854198477392
 40
0.2341854198477392
 40
0.3688244740841654
 40
0.3688244740841654
 40
0.3688244740841654
 40
0.3688244740841654
 40
0.3688244740841654
 40
0.3688244740841654
 10
479.0825808510817
 20
615.0765057806341
 30
0.0
 10
479.0825808510817
 20
615.0567067907609
 30
0.0
 10
479.0825808510817
 20
615.0362006941066
 30
0.0
 10
479.0825808510817
 20
615.0149874906708
 30
0.0
 10
479.0825808510817
 20
614.9930671804541
 30
0.0
 10
479.0825808510817
 20
614.9704397634562
 30
0.0
 10
479.0825808510817
 20
614.9478123464582
 30
0.0
 10
479.0825808510817
 20
614.9244778226791
 30
0.0
 10
479.0825808510817
 20
614.9004361921186
 30
0.0
 10
479.0825808510817
 20
614.8756874547771
 30
0.0
 10
479.0825808510817
 20
614.8502316106544
 30
0.0
 10
479.0825808510817
 20
614.8247757665317
 30
0.0
 10
479.0825808510817
 20
614.7986128156278
 30
0.0
 10
479.0825808510817
 20
614.7717427579428
 30
0.0
 10
479.0825808510817
 20
614.7441655934765
 30
0.0
 10
479.0825808510817
 20
614.715881322229
 30
0.0
  0
SPLINE
  5
109
330
1F
100
AcDbEntity
  8
Make2D$Visibile$Curve
370
    -3
100
AcDbSpline
210
0.0
220
0.0
230
1.0
 70
     8
 71
     5
 72
    12
 73
     6
 74
     0
 42
0.0000000001
 43
0.0000000001
 40
0.5142137336757588
 40
0.5142137336757588
 40
0.5142137336757588
 40
0.5142137336757588
 40
0.5142137336757588
 40
0.5142137336757588
 40
0.7355774645698783
 40
0.7355774645698783
 40
0.7355774645698783
 40
0.7355774645698783
 40
0.7355774645698783
 40
0.7355774645698783
 10
478.4417722398737
 20
616.414129585592
 30
0.0
 10
478.4832822926946
 20
616.4097099686353
 30
0.0
 10
478.5249530253352
 20
616.4032579789771
 30
0.0
 10
478.5644071918161
 20
616.3955816663349
 30
0.0
 10
478.5992675461577
 20
616.3874890804263
 30
0.0
 10
478.6271568423806
 20
616.3797882709689
 30
0.0
  0
SPLINE
  5
10A
330
1F
100
AcDbEntity
  8
Make2D$Visibile$Curve
370
    -3
100
AcDbSpline
210
0.0
220
0.0
230
1.0
 70
     8
 71
     5
 72
    12
 73
     6
 74
     0
 42
0.0000000001
 43
0.0000000001
 40
0.2959492989369887
 40
0.2959492989369887
 40
0.2959492989369887
 40
0.2959492989369887
 40
0.2959492989369887
 40
0.2959492989369887
 40
0.4153492676031655
 40
0.4153492676031655
 40
0.4153492676031655
 40
0.4153492676031655
 40
0.4153492676031655
 40
0.4153492676031655
 10
478.22975397278
 20
616.4237741546797
 30
0.0
 10
478.2533513999343
 20
616.4237180193923
 30
0.0
 10
478.2756452625291
 20
616.4235485360477
 30
0.0
 10
478.2976659614526
 20
616.4231632163098
 30
0.0
 10
478.3204438975929
 20
616.422459571842
 30
0.0
 10
478.3450094718384
 20
616.4213351143078
 30
0.0
  0
SPLINE
  5
10B
330
1F
100
AcDbEntity
  8
Make2D$Visibile$Curve
370
    -3
100
AcDbSpline
210
0.0
220
0.0
230
1.0
 70
     8
 71
     5
 72
    12
 73
     6
 74
     0
 42
0.0000000001
 43
0.0000000001
 40
0.0456538382694407
 40
0.0456538382694407
 40
0.0456538382694407
 40
0.0456538382694407
 40
0.0456538382694407
 40
0.0456538382694407
 40
0.2034963990573574
 40
0.2034963990573574
 40
0.2034963990573574
 40
0.2034963990573574
 40
0.2034963990573574
 40
0.2034963990573574
 10
477.9912876046633
 20
616.4229892019305
 30
0.0
 10
478.0245515982616
 20
616.4229930210768
 30
0.0
 10
478.0546539054815
 20
616.423037819661
 30
0.0
 10
478.0833884456262
 20
616.4231287089508
 30
0.0
 10
478.1125491379987
 20
616.4232708002135
 30
0.0
 10
478.1439299019023
 20
616.4234692047162
 30
0.0
  0
SPLINE
  5
10C
330
1F
100
AcDbEntity
  8
Make2D$Visibile$Curve
370
    -3
100
AcDbSpline
210
0.0
220
0.0
230
1.0
 70
     8
 71
     5
 72
    12
 73
     6
 74
     0
 42
0.0000000001
 43
0.0000000001
 40
1.405258180082687
 40
1.405258180082687
 40
1.405258180082687
 40
1.405258180082687
 40
1.405258180082687
 40
1.405258180082687
 40
1.530259939460886
 40
1.530259939460886
 40
1.530259939460886
 40
1.530259939460886
 40
1.530259939460886
 40
1.530259939460886
 10
478.2051622620854
 20
616.4221112804271
 30
0.0
 10
478.1776043826675
 20
616.4223934377039
 30
0.0
 10
478.1485186849279
 20
616.4226556354656
 30
0.0
 10
478.1224994680297
 20
616.4228643376819
 30
0.0
 10
478.104141031136
 20
616.4229860083217
 30
0.0
 10
478.09803767341
 20
616.4229871113544
 30
0.0
  0
SPLINE
  5
10D
330
1F
100
AcDbEntity
  8
Make2D$Visibile$Curve
370
    -3
100
AcDbSpline
210
0.0
220
0.0
230
1.0
 70
     8
 71
     5
 72
    12
 73
     6
 74
     0
 42
0.0000000001
 43
0.0000000001
 40
0.5142137335709802
 40
0.5142137335709802
 40
0.5142137335709802
 40
0.5142137335709802
 40
0.5142137335709802
 40
0.5142137335709802
 40
0.7355774644718454
 40
0.7355774644718454
 40
0.7355774644718454
 40
0.7355774644718454
 40
0.7355774644718454
 40
0.7355774644718454
 10
301.8701701253109
 20
615.7821794922072
 30
0.0
 10
301.8745897422675
 20
615.823689545025
 30
0.0
 10
301.8810417319265
 20
615.8653602776685
 30
0.0
 10
301.8887180445696
 20
615.904814444154
 30
0.0
 10
301.8968106304784
 20
615.9396747984974
 30
0.0
 10
301.9045114399344
 20
615.9675640947146
 30
0.0
  0
SPLINE
  5
10E
330
1F
100
AcDbEntity
  8
Make2D$Visibile$Curve
370
    -3
100
AcDbSpline
210
0.0
220
0.0
230
1.0
 70
     8
 71
     5
 72
    12
 73
     6
 74
     0
 42
0.0000000001
 43
0.0000000001
 40
0.5142137336520981
 40
0.5142137336520981
 40
0.5142137336520981
 40
0.5142137336520981
 40
0.5142137336520981
 40
0.5142137336520981
 40
0.7355774645503443
 40
0.7355774645503443
 40
0.7355774645503443
 40
0.7355774645503443
 40
0.7355774645503443
 40
0.7355774645503443
 10
302.5021202186959
 20
600.2045653482197
 30
0.0
 10
302.4606101658807
 20
600.2089849651759
 30
0.0
 10
302.4189394332365
 20
600.2154369548351
 30
0.0
 10
302.3794852667492
 20
600.2231132674785
 30
0.0
 10
302.3446249124046
 20
600.2312058533875
 30
0.0
 10
302.3167356161888
 20
600.238906662843
 30
0.0
  0
SPLINE
  5
10F
330
1F
100
AcDbEntity
  8
Make2D$Visibile$Curve
370
    -3
100
AcDbSpline
210
0.0
220
0.0
230
1.0
 70
     8
 71
     5
 72
    12
 73
     6
 74
     0
 42
0.0000000001
 43
0.0000000001
 40
0.2959492989128519
 40
0.2959492989128519
 40
0.2959492989128519
 40
0.2959492989128519
 40
0.2959492989128519
 40
0.2959492989128519
 40
0.4153492675778362
 40
0.4153492675778362
 40
0.4153492675778362
 40
0.4153492675778362
 40
0.4153492675778362
 40
0.4153492675778362
 10
302.7141384857896
 20
600.1949207791322
 30
0.0
 10
302.690541058635
 20
600.1949769144194
 30
0.0
 10
302.6682471960409
 20
600.1951463977639
 30
0.0
 10
302.6462264971183
 20
600.195531717502
 30
0.0
 10
302.6234485609785
 20
600.1962353619698
 30
0.0
 10
302.5988829867328
 20
600.1973598195038
 30
0.0
  0
SPLINE
  5
110
330
1F
100
AcDbEntity
  8
Make2D$Visibile$Curve
370
    -3
100
AcDbSpline
210
0.0
220
0.0
230
1.0
 70
     8
 71
     5
 72
    12
 73
     6
 74
     0
 42
0.0000000001
 43
0.0000000001
 40
1.405258172143406
 40
1.405258172143406
 40
1.405258172143406
 40
1.405258172143406
 40
1.405258172143406
 40
1.405258172143406
 40
1.448910450362487
 40
1.448910450362487
 40
1.448910450362487
 40
1.448910450362487
 40
1.448910450362487
 40
1.448910450362487
 10
302.7387301872539
 20
600.1965836534778
 30
0.0
 10
302.7483537653454
 20
600.1964851204001
 30
0.0
 10
302.7581636608928
 20
600.1963890213832
 30
0.0
 10
302.767964218591
 20
600.1962967846106
 30
0.0
 10
302.7775597831348
 20
600.1962098382658
 30
0.0
 10
302.786754699219
 20
600.1961296105321
 30
0.0
  0
SPLINE
  5
111
330
1F
100
AcDbEntity
  8
Make2D$Visibile$Curve
370
    -3
100
AcDbSpline
210
0.0
220
0.0
230
1.0
 70
     8
 71
     5
 72
    12
 73
     6
 74
     0
 42
0.0000000001
 43
0.0000000001
 40
-0.1520894037439797
 40
-0.1520894037439797
 40
-0.1520894037439797
 40
-0.1520894037439797
 40
-0.1520894037439797
 40
-0.1520894037439797
 40
-0.1158300486582059
 40
-0.1158300486582059
 40
-0.1158300486582059
 40
-0.1158300486582059
 40
-0.1158300486582059
 40
-0.1158300486582059
 10
478.2431222743552
 20
616.4219765698367
 30
0.0
 10
478.2355618304199
 20
616.4221192345776
 30
0.0
 10
478.2279848642281
 20
616.4222453770619
 30
0.0
 10
478.2203925734127
 20
616.4223561949227
 30
0.0
 10
478.2127861831142
 20
616.4224529133005
 30
0.0
 10
478.2051669459811
 20
616.4225367848435
 30
0.0
  0
SPLINE
  5
112
330
1F
100
AcDbEntity
  8
Make2D$Visibile$Curve
370
    -3
100
AcDbSpline
210
0.0
220
0.0
230
1.0
 70
     8
 71
     5
 72
    12
 73
     6
 74
     0
 42
0.0000000001
 43
0.0000000001
 40
1.767012655030766
 40
1.767012655030766
 40
1.767012655030766
 40
1.767012655030766
 40
1.767012655030766
 40
1.767012655030766
 40
1.809344724745372
 40
1.809344724745372
 40
1.809344724745372
 40
1.809344724745372
 40
1.809344724745372
 40
1.809344724745372
 10
302.7387255033575
 20
600.1961581490698
 30
0.0
 10
302.747620809857
 20
600.1960602307113
 30
0.0
 10
302.7565336267144
 20
600.1959798227103
 30
0.0
 10
302.7654619606076
 20
600.1959149317454
 30
0.0
 10
302.7744037671112
 20
600.1958635133908
 30
0.0
 10
302.783356950696
 20
600.1958234721174
 30
0.0
  0
SPLINE
  5
113
330
1F
100
AcDbEntity
  8
Make2D$Visibile$Curve
370
    -3
100
AcDbSpline
210
0.0
220
0.0
230
1.0
 70
     8
 71
     5
 72
    12
 73
     6
 74
     0
 42
0.0000000001
 43
0.0000000001
 40
-1.838412869287692
 40
-1.838412869287692
 40
-1.838412869287692
 40
-1.838412869287692
 40
-1.838412869287692
 40
-1.838412869287692
 40
-1.767012655312634
 40
-1.767012655312634
 40
-1.767012655312634
 40
-1.767012655312634
 40
-1.767012655312634
 40
-1.767012655312634
 10
301.861337576634
 20
615.4701565630896
 30
0.0
 10
301.8613625169407
 20
615.4853002215195
 30
0.0
 10
301.8614073370444
 20
615.5004240001529
 30
0.0
 10
301.8614824287429
 20
615.5155175071909
 30
0.0
 10
301.8615977702426
 20
615.5305707644281
 30
0.0
 10
301.861762926158
 20
615.5455742072495
 30
0.0
  0
SPLINE
  5
114
330
1F
100
AcDbEntity
  8
Make2D$Visibile$Curve
370
    -3
100
AcDbSpline
210
0.0
220
0.0
230
1.0
 70
     8
 71
     5
 72
    12
 73
     6
 74
     0
 42
0.0000000001
 43
0.0000000001
 40
1.534084258777557
 40
1.534084258777557
 40
1.534084258777557
 40
1.534084258777557
 40
1.534084258777557
 40
1.534084258777557
 40
1.649491529198169
 40
1.649491529198169
 40
1.649491529198169
 40
1.649491529198169
 40
1.649491529198169
 40
1.649491529198169
 10
479.0710475465326
 20
600.836780668112
 30
0.0
 10
479.0732595224378
 20
600.8590863578952
 30
0.0
 10
479.0751312975049
 20
600.8817322485165
 30
0.0
 10
479.0766918659303
 20
600.9046893457794
 30
0.0
 10
479.077973044882
 20
600.9279258325162
 30
0.0
 10
479.0790094744995
 20
600.9514070685871
 30
0.0
  0
SPLINE
  5
115
330
1F
100
AcDbEntity
  8
Make2D$Visibile$Curve
370
    -3
100
AcDbSpline
210
0.0
220
0.0
230
1.0
 70
     8
 71
     5
 72
    12
 73
     6
 74
     0
 42
0.0000000001
 43
0.0000000001
 40
0.0734979877293034
 40
0.0734979877293034
 40
0.0734979877293034
 40
0.0734979877293034
 40
0.0734979877293034
 40
0.0734979877293034
 40
0.1158300574438987
 40
0.1158300574438987
 40
0.1158300574438987
 40
0.1158300574438987
 40
0.1158300574438987
 40
0.1158300574438987
 10
302.783356950696
 20
600.1958234721175
 30
0.0
 10
302.7744037671112
 20
600.1958635133908
 30
0.0
 10
302.7654619606076
 20
600.1959149317454
 30
0.0
 10
302.7565336267144
 20
600.1959798227103
 30
0.0
 10
302.747620809857
 20
600.1960602307113
 30
0.0
 10
302.7387255033575
 20
600.1961581490698
 30
0.0
  0
SPLINE
  5
116
330
1F
100
AcDbEntity
  8
Make2D$Visibile$Curve
370
    -3
100
AcDbSpline
210
0.0
220
0.0
230
1.0
 70
     8
 71
     5
 72
    12
 73
     6
 74
     0
 42
0.0000000001
 43
0.0000000001
 40
1.127793965504007
 40
1.127793965504007
 40
1.127793965504007
 40
1.127793965504007
 40
1.127793965504007
 40
1.127793965504007
 40
1.24755902305787
 40
1.24755902305787
 40
1.24755902305787
 40
1.24755902305787
 40
1.24755902305787
 40
1.24755902305787
 10
478.463939955427
 20
616.409014356296
 30
0.0
 10
478.4410256170526
 20
616.4116153551108
 30
0.0
 10
478.4173457812069
 20
616.4138347249179
 30
0.0
 10
478.3932153233317
 20
616.4157020988641
 30
0.0
 10
478.3689491188684
 20
616.4172471100958
 30
0.0
 10
478.3448620432584
 20
616.41849939176
 30
0.0
  0
SPLINE
  5
117
330
1F
100
AcDbEntity
  8
Make2D$Visibile$Curve
370
    -3
100
AcDbSpline
210
0.0
220
0.0
230
1.0
 70
     8
 71
     5
 72
    12
 73
     6
 74
     0
 42
0.0000000001
 43
0.0000000001
 40
1.169396900503464
 40
1.169396900503464
 40
1.169396900503464
 40
1.169396900503464
 40
1.169396900503464
 40
1.169396900503464
 40
1.260881678695021
 40
1.260881678695021
 40
1.260881678695021
 40
1.260881678695021
 40
1.260881678695021
 40
1.260881678695021
 10
301.8712158721668
 20
615.763756581119
 30
0.0
 10
301.8696177171726
 20
615.7456146877425
 30
0.0
 10
301.8682242219582
 20
615.7272175959677
 30
0.0
 10
301.8670221786198
 20
615.7087056501432
 30
0.0
 10
301.8659983792534
 20
615.6902191946187
 30
0.0
 10
301.865139615955
 20
615.6718985737443
 30
0.0
  0
SPLINE
  5
118
330
1F
100
AcDbEntity
  8
Make2D$Visibile$Curve
370
    -3
100
AcDbSpline
210
0.0
220
0.0
230
1.0
 70
     8
 71
     5
 72
    12
 73
     6
 74
     0
 42
0.0000000001
 43
0.0000000001
 40
0.5871048706307382
 40
0.5871048706307382
 40
0.5871048706307382
 40
0.5871048706307382
 40
0.5871048706307382
 40
0.5871048706307382
 40
0.9414213562373245
 40
0.9414213562373245
 40
0.9414213562373245
 40
0.9414213562373245
 40
0.9414213562373245
 40
0.9414213562373245
 10
302.2888577546782
 20
600.2468896379843
 30
0.0
 10
302.230977243316
 20
600.2642817945425
 30
0.0
 10
302.1776561627505
 20
600.2862333818975
 30
0.0
 10
302.1293961265355
 20
600.313246013603
 30
0.0
 10
302.0864479414479
 20
600.3455704964359
 30
0.0
 10
302.0488116074876
 20
600.3832068303961
 30
0.0
  0
SPLINE
  5
119
330
1F
100
AcDbEntity
  8
Make2D$Visibile$Curve
370
    -3
100
AcDbSpline
210
0.0
220
0.0
230
1.0
 70
     8
 71
     5
 72
    12
 73
     6
 74
     0
 42
0.0000000001
 43
0.0000000001
 40
0.0456539397798607
 40
0.0456539397798607
 40
0.0456539397798607
 40
0.0456539397798607
 40
0.0456539397798607
 40
0.0456539397798607
 40
0.2034967630481108
 40
0.2034967630481108
 40
0.2034967630481108
 40
0.2034967630481108
 40
0.2034967630481108
 40
0.2034967630481108
 10
479.0825819496361
 20
601.286999888144
 30
0.0
 10
479.0825857688781
 20
601.2537360725141
 30
0.0
 10
479.0826305693463
 20
601.2236335872874
 30
0.0
 10
479.0827214610199
 20
601.1948987506828
 30
0.0
 10
479.0828635538779
 20
601.1657378809193
 30
0.0
 10
479.0830619578996
 20
601.1343572962162
 30
0.0
  0
SPLINE
  5
11A
330
1F
100
AcDbEntity
  8
Make2D$Visibile$Curve
370
    -3
100
AcDbSpline
210
0.0
220
0.0
230
1.0
 70
     8
 71
     5
 72
    12
 73
     6
 74
     0
 42
0.0000000001
 43
0.0000000001
 40
0.2959490969913275
 40
0.2959490969913275
 40
0.2959490969913275
 40
0.2959490969913275
 40
0.2959490969913275
 40
0.2959490969913275
 40
0.4153491389961522
 40
0.4153491389961522
 40
0.4153491389961522
 40
0.4153491389961522
 40
0.4153491389961522
 40
0.4153491389961522
 10
479.0833669060818
 20
601.0485338029952
 30
0.0
 10
479.0833107713397
 20
601.0249363463158
 30
0.0
 10
479.0831412901588
 20
601.0026425201156
 30
0.0
 10
479.0827559729415
 20
600.9806218758474
 30
0.0
 10
479.0820523300899
 20
600.957843964964
 30
0.0
 10
479.0809278720062
 20
600.9332783389181
 30
0.0
  0
SPLINE
  5
11B
330
1F
100
AcDbEntity
  8
Make2D$Visibile$Curve
370
    -3
100
AcDbSpline
210
0.0
220
0.0
230
1.0
 70
     8
 71
     5
 72
    12
 73
     6
 74
     0
 42
0.0000000001
 43
0.0000000001
 40
0.0456538381834223
 40
0.0456538381834223
 40
0.0456538381834223
 40
0.0456538381834223
 40
0.0456538381834223
 40
0.0456538381834223
 40
0.2034963989550936
 40
0.2034963989550936
 40
0.2034963989550936
 40
0.2034963989550936
 40
0.2034963989550936
 40
0.2034963989550936
 10
301.8613105089728
 20
615.3316948570186
 30
0.0
 10
301.8613066898264
 20
615.3649588507628
 30
0.0
 10
301.8612618912425
 20
615.3950611579014
 30
0.0
 10
301.8611710019533
 20
615.4237956978902
 30
0.0
 10
301.8610289106907
 20
615.4529563901858
 30
0.0
 10
301.860830506187
 20
615.484337154244
 30
0.0
  0
SPLINE
  5
11C
330
1F
100
AcDbEntity
  8
Make2D$Visibile$Curve
370
    -3
100
AcDbSpline
210
0.0
220
0.0
230
1.0
 70
     8
 71
     5
 72
    12
 73
     6
 74
     0
 42
0.0000000001
 43
0.0000000001
 40
0.2959492988309816
 40
0.2959492988309816
 40
0.2959492988309816
 40
0.2959492988309816
 40
0.2959492988309816
 40
0.2959492988309816
 40
0.4153492674996504
 40
0.4153492674996504
 40
0.4153492674996504
 40
0.4153492674996504
 40
0.4153492674996504
 40
0.4153492674996504
 10
301.8605255562235
 20
615.570161225113
 30
0.0
 10
301.8605816915108
 20
615.5937586522621
 30
0.0
 10
301.8607511748554
 20
615.6160525148603
 30
0.0
 10
301.8611364945936
 20
615.6380732137898
 30
0.0
 10
301.8618401390615
 20
615.6608511499335
 30
0.0
 10
301.8629645965953
 20
615.6854167241731
 30
0.0
  0
SPLINE
  5
11D
330
1F
100
AcDbEntity
  8
Make2D$Visibile$Curve
370
    -3
100
AcDbSpline
210
0.0
220
0.0
230
1.0
 70
     8
 71
     5
 72
    12
 73
     6
 74
     0
 42
0.0000000001
 43
0.0000000001
 40
0.0456538382705167
 40
0.0456538382705167
 40
0.0456538382705167
 40
0.0456538382705167
 40
0.0456538382705167
 40
0.0456538382705167
 40
0.203496399034054
 40
0.203496399034054
 40
0.203496399034054
 40
0.203496399034054
 40
0.203496399034054
 40
0.203496399034054
 10
302.9526048538793
 20
600.1957057318814
 30
0.0
 10
302.9193408601838
 20
600.1957019127351
 30
0.0
 10
302.8892385530232
 20
600.195657114151
 30
0.0
 10
302.860504012989
 20
600.1955662248615
 30
0.0
 10
302.8313433206725
 20
600.1954241335991
 30
0.0
 10
302.799962556665
 20
600.1952257290957
 30
0.0
  0
SPLINE
  5
11E
330
1F
100
AcDbEntity
  8
Make2D$Visibile$Curve
370
    -3
100
AcDbSpline
210
0.0
220
0.0
230
1.0
 70
    12
 71
     3
 72
     8
 73
     4
 74
     0
 42
0.0000000001
 43
0.0000000001
 40
166.104039354728
 40
166.104039354728
 40
166.104039354728
 40
166.104039354728
 40
176.3204092608793
 40
176.3204092608793
 40
176.3204092608793
 40
176.3204092608793
 10
419.3206511713015
 20
625.8259765751241
 30
0.0
 41
1.0
 10
420.8375463669252
 20
622.8489021284429
 30
0.0
 41
1.0
 10
421.9600328044868
 20
619.6876394474227
 30
0.0
 41
1.0
 10
422.6603869145669
 20
616.4229881034155
 30
0.0
 41
1.0
  0
SPLINE
  5
11F
330
1F
100
AcDbEntity
  8
Make2D$Visibile$Curve
370
    -3
100
AcDbSpline
210
0.0
220
0.0
230
1.0
 70
    12
 71
     3
 72
     8
 73
     4
 74
     0
 42
0.0000000001
 43
0.0000000001
 40
41.71742106365696
 40
41.71742106365696
 40
41.71742106365696
 40
41.71742106365696
 40
51.86882399148935
 40
51.86882399148935
 40
51.86882399148935
 40
51.86882399148935
 10
350.7192382407244
 20
590.8712041130991
 30
0.0
 41
1.0
 10
349.2119891423145
 20
593.8293470280516
 30
0.0
 41
1.0
 10
348.0941485770238
 20
596.9693430806071
 30
0.0
 41
1.0
 10
347.3929145790758
 20
600.211924357114
 30
0.0
 41
1.0
  0
SPLINE
  5
120
330
1F
100
AcDbEntity
  8
Make2D$Visibile$Curve
370
    -3
100
AcDbSpline
210
0.0
220
0.0
230
1.0
 70
    12
 71
     3
 72
    14
 73
    10
 74
     0
 42
0.0000000001
 43
0.0000000001
 40
103.5934046409484
 40
103.5934046409484
 40
103.5934046409484
 40
103.5934046409484
 40
122.3829445178017
 40
122.3829445178017
 40
122.3829445178017
 40
159.3739184606095
 40
159.3739184606095
 40
159.3739184606095
 40
166.104039354728
 40
166.104039354728
 40
166.104039354728
 40
166.104039354728
 10
367.5434257948759
 20
642.6497073839259
 30
0.0
 41
1.0
 10
372.8826652445293
 20
645.3701857644689
 30
0.0
 41
1.0
 10
378.8573235765436
 20
646.8452813550812
 30
0.0
 41
1.0
 10
385.019944706013
 20
646.8452813550812
 30
0.0
 41
1.0
 10
397.1522991496904
 20
646.8452813550812
 30
0.0
 41
1.0
 10
408.5561509331793
 20
641.1281337261694
 30
0.0
 41
1.0
 10
415.8172975147854
 20
631.4466049506943
 30
0.0
 41
1.0
 10
417.1509571181846
 20
629.6683921461622
 30
0.0
 41
1.0
 10
418.3213835112584
 20
627.7871497825363
 30
0.0
 41
1.0
 10
419.3206511713015
 20
625.8259765751241
 30
0.0
 41
1.0
  0
SPLINE
  5
121
330
1F
100
AcDbEntity
  8
Make2D$Visibile$Curve
370
    -3
100
AcDbSpline
210
0.0
220
0.0
230
1.0
 70
     8
 71
     5
 72
    12
 73
     6
 74
     0
 42
0.0000000001
 43
0.0000000001
 40
0.2918414969414992
 40
0.2918414969414992
 40
0.2918414969414992
 40
0.2918414969414992
 40
0.2918414969414992
 40
0.2918414969414992
 40
0.3487584305995696
 40
0.3487584305995696
 40
0.3487584305995696
 40
0.3487584305995696
 40
0.3487584305995696
 40
0.3487584305995696
 10
302.5581812859864
 20
600.2025774399424
 30
0.0
 10
302.546871041624
 20
600.2033588978302
 30
0.0
 10
302.5356326090312
 20
600.2042121674875
 30
0.0
 10
302.5244698002779
 20
600.2051410609845
 30
0.0
 10
302.5133862604251
 20
600.2061492233819
 30
0.0
 10
302.5023854675247
 20
600.2072401327318
 30
0.0
  0
SPLINE
  5
122
330
1F
100
AcDbEntity
  8
Make2D$Visibile$Curve
370
    -3
100
AcDbSpline
210
0.0
220
0.0
230
1.0
 70
    12
 71
     3
 72
    44
 73
    40
 74
     0
 42
0.0000000001
 43
0.0000000001
 40
192.8632074205822
 40
192.8632074205822
 40
192.8632074205822
 40
192.8632074205822
 40
209.778588866065
 40
209.778588866065
 40
209.778588866065
 40
210.778588866065
 40
210.778588866065
 40
210.778588866065
 40
211.778588866065
 40
211.778588866065
 40
211.778588866065
 40
212.778588866065
 40
212.778588866065
 40
212.778588866065
 40
213.778588866065
 40
213.778588866065
 40
213.778588866065
 40
214.778588866065
 40
214.778588866065
 40
214.778588866065
 40
215.778588866065
 40
215.778588866065
 40
215.778588866065
 40
216.778588866065
 40
216.778588866065
 40
216.778588866065
 40
217.778588866065
 40
217.778588866065
 40
217.778588866065
 40
218.778588866065
 40
218.778588866065
 40
218.778588866065
 40
219.778588866065
 40
219.778588866065
 40
219.778588866065
 40
220.778588866065
 40
220.778588866065
 40
220.778588866065
 40
221.778588866065
 40
221.778588866065
 40
221.778588866065
 40
221.778588866065
 10
422.6539773335454
 20
600.2443723856213
 30
0.0
 41
1.0
 10
421.4901354587676
 20
594.8400888797192
 30
0.0
 41
1.0
 10
419.1692968718317
 20
589.7199082135905
 30
0.0
 41
1.0
 10
415.8172975147854
 20
585.2505757375288
 30
0.0
 41
1.0
 10
415.0122728770226
 20
584.2804178407376
 30
0.0
 41
1.0
 10
414.2072482392597
 20
583.3102599439464
 30
0.0
 41
1.0
 10
413.4022236014968
 20
582.3401020471554
 30
0.0
 41
1.0
 10
412.540381205795
 20
581.4846436691996
 30
0.0
 41
1.0
 10
411.6785388100934
 20
580.6291852912437
 30
0.0
 41
1.0
 10
410.8166964143916
 20
579.7737269132879
 30
0.0
 41
1.0
 10
409.9171173804584
 20
579.032897120637
 30
0.0
 41
1.0
 10
409.0175383465251
 20
578.2920673279862
 30
0.0
 41
1.0
 10
408.1179593125918
 20
577.5512375353352
 30
0.0
 41
1.0
 10
407.1979126091851
 20
576.9217318961621
 30
0.0
 41
1.0
 10
406.2778659057784
 20
576.2922262569891
 30
0.0
 41
1.0
 10
405.3578192023716
 20
575.6627206178161
 30
0.0
 41
1.0
 10
404.4323316550654
 20
575.1387673502935
 30
0.0
 41
1.0
 10
403.5068441077592
 20
574.6148140827709
 30
0.0
 41
1.0
 10
402.5813565604529
 20
574.0908608152483
 30
0.0
 41
1.0
 10
401.6630258155068
 20
573.664968295853
 30
0.0
 41
1.0
 10
400.7446950705607
 20
573.2390757764578
 30
0.0
 41
1.0
 10
399.8263643256146
 20
572.8131832570625
 30
0.0
 41
1.0
 10
398.9253651601215
 20
572.4768102352784
 30
0.0
 41
1.0
 10
398.0243659946286
 20
572.1404372134944
 30
0.0
 41
1.0
 10
397.1233668291355
 20
571.8040641917103
 30
0.0
 41
1.0
 10
396.2475956402764
 20
571.5481804287103
 30
0.0
 41
1.0
 10
395.3718244514171
 20
571.2922966657102
 30
0.0
 41
1.0
 10
394.496053262558
 20
571.0364129027103
 30
0.0
 41
1.0
 10
393.6513591596692
 20
570.8519394779414
 30
0.0
 41
1.0
 10
392.8066650567804
 20
570.6674660531726
 30
0.0
 41
1.0
 10
391.9619709538917
 20
570.4829926284038
 30
0.0
 41
1.0
 10
391.1524305889353
 20
570.361126336905
 30
0.0
 41
1.0
 10
390.3428902239789
 20
570.2392600454061
 30
0.0
 41
1.0
 10
389.5333498590225
 20
570.1173937539074
 30
0.0
 41
1.0
 10
388.7615536798974
 20
570.0498291052297
 30
0.0
 41
1.0
 10
387.9897575007723
 20
569.9822644565522
 30
0.0
 41
1.0
 10
387.2179613216471
 20
569.9146998078745
 30
0.0
 41
1.0
 10
386.4852891164358
 20
569.8937671903393
 30
0.0
 41
1.0
 10
385.7526169112243
 20
569.8728345728041
 30
0.0
 41
1.0
 10
385.019944706013
 20
569.8519019552689
 30
0.0
 41
1.0
  0
SPLINE
  5
123
330
1F
100
AcDbEntity
  8
Make2D$Visibile$Curve
370
    -3
100
AcDbSpline
210
0.0
220
0.0
230
1.0
 70
    12
 71
     3
 72
    11
 73
     7
 74
     0
 42
0.0000000001
 43
0.0000000001
 40
68.49111239391985
 40
68.49111239391985
 40
68.49111239391985
 40
68.49111239391985
 40
85.39197057499399
 40
85.39197057499399
 40
85.39197057499399
 40
103.5934046409484
 40
103.5934046409484
 40
103.5934046409484
 40
103.5934046409484
 10
347.3889124027668
 20
616.466727757148
 30
0.0
 41
1.0
 10
348.5537399800058
 20
621.8658835321812
 30
0.0
 41
1.0
 10
350.8734705109404
 20
626.981109768961
 30
0.0
 41
1.0
 10
354.2225918972405
 20
631.4466049506946
 30
0.0
 41
1.0
 10
357.7954440463262
 20
636.2104078161422
 30
0.0
 41
1.0
 10
362.3713026113313
 20
640.0143789939898
 30
0.0
 41
1.0
 10
367.5434257948759
 20
642.6497073839259
 30
0.0
 41
1.0
  0
SPLINE
  5
124
330
1F
100
AcDbEntity
  8
Make2D$Visibile$Curve
370
    -3
100
AcDbSpline
210
0.0
220
0.0
230
1.0
 70
    24
 71
     2
 72
     6
 73
     3
 74
     0
 42
0.0000000001
 43
0.0000000001
 40
-175.5141624624074
 40
-175.5141624624074
 40
-175.5141624624074
 40
-1.707106781186657
 40
-1.707106781186657
 40
-1.707106781186657
 10
303.5684183886743
 20
616.4229881034155
 30
0.0
 10
390.4719462292846
 20
616.4229881034155
 30
0.0
 10
477.3754740698951
 20
616.4229881034155
 30
0.0
  0
SPLINE
  5
125
330
1F
100
AcDbEntity
  8
Make2D$Visibile$Curve
370
    -3
100
AcDbSpline
210
0.0
220
0.0
230
1.0
 70
    24
 71
     2
 72
     6
 73
     3
 74
     0
 42
0.0000000001
 43
0.0000000001
 40
1.707106781186572
 40
1.707106781186572
 40
1.707106781186572
 40
175.5141624624075
 40
175.5141624624075
 40
175.5141624624075
 10
477.3754740698951
 20
600.1957068303961
 30
0.0
 10
390.4719462292846
 20
600.1957068303961
 30
0.0
 10
303.5684183886742
 20
600.1957068303961
 30
0.0
  0
SPLINE
  5
126
330
1F
100
AcDbEntity
  8
Make2D$Visibile$Curve
370
    -3
100
AcDbSpline
210
0.0
220
0.0
230
1.0
 70
     8
 71
     5
 72
    12
 73
     6
 74
     0
 42
0.0000000001
 43
0.0000000001
 40
-1.882842712474582
 40
-1.882842712474582
 40
-1.882842712474582
 40
-1.882842712474582
 40
-1.882842712474582
 40
-1.882842712474582
 40
-0.9414213562372257
 40
-0.9414213562372257
 40
-0.9414213562372257
 40
-0.9414213562372257
 40
-0.9414213562372257
 40
-0.9414213562372257
 10
479.0825808510817
 20
615.4229881034155
 30
0.0
 10
479.0825808510817
 20
615.6229881034155
 30
0.0
 10
479.0825808510817
 20
615.8229881034156
 30
0.0
 10
479.0575808510817
 20
615.9979881034155
 30
0.0
 10
478.9950808510817
 20
616.1354881034156
 30
0.0
 10
478.8950808510817
 20
616.2354881034155
 30
0.0
  0
SPLINE
  5
127
330
1F
100
AcDbEntity
  8
Make2D$Visibile$Curve
370
    -3
100
AcDbSpline
210
0.0
220
0.0
230
1.0
 70
     8
 71
     5
 72
    12
 73
     6
 74
     0
 42
0.0000000001
 43
0.0000000001
 40
0.9414213562373245
 40
0.9414213562373245
 40
0.9414213562373245
 40
0.9414213562373245
 40
0.9414213562373245
 40
0.9414213562373245
 40
1.882842712474649
 40
1.882842712474649
 40
1.882842712474649
 40
1.882842712474649
 40
1.882842712474649
 40
1.882842712474649
 10
302.0488116074876
 20
600.3832068303961
 30
0.0
 10
301.9488116074876
 20
600.4832068303962
 30
0.0
 10
301.8863116074876
 20
600.6207068303961
 30
0.0
 10
301.8613116074876
 20
600.7957068303962
 30
0.0
 10
301.8613116074876
 20
600.9957068303961
 30
0.0
 10
301.8613116074876
 20
601.1957068303961
 30
0.0
  0
SPLINE
  5
128
330
1F
100
AcDbEntity
  8
Make2D$Visibile$Curve
370
    -3
100
AcDbSpline
210
0.0
220
0.0
230
1.0
 70
    12
 71
     2
 72
     6
 73
     3
 74
     0
 42
0.0000000001
 43
0.0000000001
 40
-32.94991762490065
 40
-32.94991762490065
 40
-32.94991762490065
 40
0.0
 40
0.0
 40
0.0
 10
355.8520235920429
 20
583.2252230021422
 30
0.0
 41
0.8547343866901136
 10
367.3704506945032
 20
569.8524717538902
 30
0.0
 41
0.8404022357350583
 10
385.019944706013
 20
569.8524717538902
 30
0.0
 41
1.0
  0
SPLINE
  5
129
330
1F
100
AcDbEntity
  8
Make2D$Visibile$Curve
370
    -3
100
AcDbSpline
210
0.0
220
0.0
230
1.0
 70
    12
 71
     3
 72
    11
 73
     7
 74
     0
 42
0.0000000001
 43
0.0000000001
 40
0.4215401092195882
 40
0.4215401092195882
 40
0.4215401092195882
 40
0.4215401092195882
 40
34.98730016953851
 40
34.98730016953851
 40
34.98730016953851
 40
41.71742106365696
 40
41.71742106365696
 40
41.71742106365696
 40
41.71742106365696
 10
385.019944706013
 20
569.8518993568621
 30
0.0
 41
1.0
 10
371.5190136675503
 20
570.5611083124481
 30
0.0
 41
1.0
 10
361.0447091246355
 20
576.1544194343355
 30
0.0
 41
1.0
 10
354.2225918972405
 20
585.2505757375288
 30
0.0
 41
1.0
 10
352.8889322938413
 20
587.0287885420611
 30
0.0
 41
1.0
 10
351.7185059007675
 20
588.9100309056869
 30
0.0
 41
1.0
 10
350.7192382407244
 20
590.8712041130991
 30
0.0
 41
1.0
  0
ENDSEC
  0
SECTION
  2
OBJECTS
  0
DICTIONARY
  5
C
330
0
100
AcDbDictionary
281
     1
  3
ACAD_DETAILVIEWSTYLE
350
165
  3
ACAD_GROUP
350
D
  3
ACAD_LAYOUT
350
1A
  3
ACAD_MATERIAL
350
43
  3
ACAD_MLEADERSTYLE
350
5B
  3
ACAD_MLINESTYLE
350
17
  3
ACAD_PLOTSETTINGS
350
19
  3
ACAD_PLOTSTYLENAME
350
E
  3
ACAD_SCALELIST
350
47
  3
ACAD_SECTIONVIEWSTYLE
350
166
  3
ACAD_TABLESTYLE
350
59
  3
ACAD_VISUALSTYLE
350
2A
  3
AcDbVariableDictionary
350
12A
  3
ACDB_RECOMPOSE_DATA
350
162
  0
SUN
  5
5D
330
29
100
AcDbSun
 90
        1
290
     0
 63
     7
421
 16777215
 40
1.0
291
     1
 91
  2455826
 92
 54000000
292
     0
 70
     2
 71
   256
280
     1
  0
DICTIONARY
  5
165
102
{ACAD_REACTORS
330
C
102
}
330
C
100
AcDbDictionary
281
     1
  0
DICTIONARY
  5
D
102
{ACAD_REACTORS
330
C
102
}
330
C
100
AcDbDictionary
281
     1
  0
DICTIONARY
  5
1A
102
{ACAD_REACTORS
330
C
102
}
330
C
100
AcDbDictionary
281
     1
  3
Layout1
350
1E
  3
Layout2
350
26
  3
Model
350
22
  0
DICTIONARY
  5
43
102
{ACAD_REACTORS
330
C
102
}
330
C
100
AcDbDictionary
281
     1
  3
ByBlock
350
45
  3
ByLayer
350
44
  3
Global
350
46
  0
DICTIONARY
  5
5B
102
{ACAD_REACTORS
330
C
102
}
330
C
100
AcDbDictionary
281
     1
  3
Standard
350
5C
  0
DICTIONARY
  5
17
102
{ACAD_REACTORS
330
C
102
}
330
C
100
AcDbDictionary
281
     1
  3
Standard
350
18
  0
DICTIONARY
  5
19
102
{ACAD_REACTORS
330
C
102
}
330
C
100
AcDbDictionary
281
     1
  0
ACDBDICTIONARYWDFLT
  5
E
102
{ACAD_REACTORS
330
C
102
}
330
C
100
AcDbDictionary
281
     1
  3
Normal
350
F
100
AcDbDictionaryWithDefault
340
F
  0
DICTIONARY
  5
47
102
{ACAD_REACTORS
330
C
102
}
330
C
100
AcDbDictionary
281
     1
  3
A0
350
48
  3
A1
350
49
  3
A2
350
4A
  3
A3
350
4B
  3
A4
350
4C
  3
A5
350
4D
  3
A6
350
4E
  3
A7
350
4F
  3
A8
350
50
  3
A9
350
51
  3
B1
350
52
  3
B2
350
53
  3
B3
350
54
  3
B4
350
55
  3
B5
350
56
  3
B6
350
57
  3
B7
350
58
  0
DICTIONARY
  5
166
102
{ACAD_REACTORS
330
C
102
}
330
C
100
AcDbDictionary
281
     1
  0
DICTIONARY
  5
59
102
{ACAD_REACTORS
330
C
102
}
330
C
100
AcDbDictionary
281
     1
  3
Standard
350
5A
  0
DICTIONARY
  5
2A
102
{ACAD_REACTORS
330
C
102
}
330
C
100
AcDbDictionary
281
     1
  3
2dWireframe
350
2F
  3
Basic
350
32
  3
Brighten
350
36
  3
ColorChange
350
3A
  3
Conceptual
350
34
  3
Dim
350
35
  3
EdgeColorOff
350
3D
  3
Facepattern
350
39
  3
Flat
350
2B
  3
FlatWithEdges
350
2C
  3
Gouraud
350
2D
  3
GouraudWithEdges
350
2E
  3
Hidden
350
31
  3
JitterOff
350
3B
  3
Linepattern
350
38
  3
OverhangOff
350
3C
  3
Realistic
350
33
  3
Shaded
350
42
  3
Shaded with edges
350
41
  3
Shades of Gray
350
3E
  3
Sketchy
350
3F
  3
Thicken
350
37
  3
Wireframe
350
30
  3
X-Ray
350
40
  0
DICTIONARY
  5
12A
102
{ACAD_REACTORS
330
C
102
}
330
C
100
AcDbDictionary
281
     1
  3
CANNOSCALE
350
12B
  3
CMLEADERSTYLE
350
164
  3
CTABLESTYLE
350
163
  3
XCLIPFRAME
350
12C
  0
XRECORD
  5
162
102
{ACAD_REACTORS
330
C
102
}
330
C
100
AcDbXrecord
280
     1
 90
        1
330
5A
  0
LAYOUT
  5
1E
102
{ACAD_REACTORS
330
1A
102
}
330
1A
100
AcDbPlotSettings
  1

  2
none_device
  4

  6

 40
0.0
 41
0.0
 42
0.0
 43
0.0
 44
0.0
 45
0.0
 46
0.0
 47
0.0
 48
0.0
 49
0.0
140
0.0
141
0.0
142
1.0
143
1.0
 70
   688
 72
     0
 73
     0
 74
     5
  7

 75
    16
 76
     0
 77
     2
 78
   300
147
1.0
148
0.0
149
0.0
100
AcDbLayout
  1
Layout1
 70
     1
 71
     1
 10
0.0
 20
0.0
 11
12.0
 21
9.0
 12
0.0
 22
0.0
 32
0.0
 14
1.000000000000000E+20
 24
1.000000000000000E+20
 34
1.000000000000000E+20
 15
-1.000000000000000E+20
 25
-1.000000000000000E+20
 35
-1.000000000000000E+20
146
0.0
 13
0.0
 23
0.0
 33
0.0
 16
1.0
 26
0.0
 36
0.0
 17
0.0
 27
1.0
 37
0.0
 76
     0
330
1B
  0
LAYOUT
  5
26
102
{ACAD_REACTORS
330
1A
102
}
330
1A
100
AcDbPlotSettings
  1

  2
none_device
  4

  6

 40
0.0
 41
0.0
 42
0.0
 43
0.0
 44
0.0
 45
0.0
 46
0.0
 47
0.0
 48
0.0
 49
0.0
140
0.0
141
0.0
142
1.0
143
1.0
 70
   688
 72
     0
 73
     0
 74
     5
  7

 75
    16
 76
     0
 77
     2
 78
   300
147
1.0
148
0.0
149
0.0
100
AcDbLayout
  1
Layout2
 70
     1
 71
     2
 10
0.0
 20
0.0
 11
0.0
 21
0.0
 12
0.0
 22
0.0
 32
0.0
 14
0.0
 24
0.0
 34
0.0
 15
0.0
 25
0.0
 35
0.0
146
0.0
 13
0.0
 23
0.0
 33
0.0
 16
1.0
 26
0.0
 36
0.0
 17
0.0
 27
1.0
 37
0.0
 76
     0
330
23
  0
LAYOUT
  5
22
102
{ACAD_REACTORS
330
1A
102
}
330
1A
100
AcDbPlotSettings
  1

  2
none_device
  4
Letter_(8.50_x_11.00_Inches)
  6

 40
6.35
 41
6.35
 42
6.35000508
 43
6.35000508
 44
215.9
 45
279.4
 46
0.0
 47
0.0
 48
0.0
 49
0.0
140
0.0
141
0.0
142
1.0
143
1.0
 70
  1712
 72
     0
 73
     0
 74
     0
  7

 75
     0
 76
     0
 77
     2
 78
   300
147
1.0
148
0.0
149
0.0
100
AcDbLayout
  1
Model
 70
     1
 71
     0
 10
0.0
 20
0.0
 11
12.0
 21
9.0
 12
0.0
 22
0.0
 32
0.0
 14
301.8605255562234
 24
101.6963209801513
 34
0.0
 15
641.7938049094091
 25
646.8383380559012
 35
0.0
146
0.0
 13
0.0
 23
0.0
 33
0.0
 16
1.0
 26
0.0
 36
0.0
 17
0.0
 27
1.0
 37
0.0
 76
     0
330
1F
331
29
  0
MATERIAL
  5
45
102
{ACAD_REACTORS
330
43
102
}
330
43
100
AcDbMaterial
  1
ByBlock
 72
     1
 94
      127
  0
MATERIAL
  5
44
102
{ACAD_REACTORS
330
43
102
}
330
43
100
AcDbMaterial
  1
ByLayer
 72
     1
 94
      127
  0
MATERIAL
  5
46
102
{ACAD_REACTORS
330
43
102
}
330
43
100
AcDbMaterial
  1
Global
 72
     1
 94
      127
  0
MLEADERSTYLE
  5
5C
102
{ACAD_REACTORS
330
5B
102
}
102
{ACAD_XDICTIONARY
360
160
102
}
330
5B
100
AcDbMLeaderStyle
170
     2
171
     1
172
     0
 90
        2
 40
0.0
 41
0.0
173
     1
 91
-1056964608
340
14
 92
       -2
290
     1
 42
0.09
291
     1
 43
0.36
  3
Standard
341
0
 44
0.18
300

342
11
174
     1
178
     6
175
     1
176
     0
 93
-1056964608
 45
0.18
292
     0
297
     0
 46
0.18
343
0
 94
-1056964608
 47
1.0
 49
1.0
140
1.0
293
     1
141
0.0
294
     1
177
     0
142
1.0
295
     0
296
     0
143
0.125
1001
ACAD_MLEADERVER
1070
     2
  0
MLINESTYLE
  5
18
102
{ACAD_REACTORS
330
17
102
}
330
17
100
AcDbMlineStyle
  2
Standard
 70
     0
  3

 62
   256
 51
90.0
 52
90.0
 71
     2
 49
0.5
 62
   256
  6
BYLAYER
 49
-0.5
 62
   256
  6
BYLAYER
  0
ACDBPLACEHOLDER
  5
F
102
{ACAD_REACTORS
330
E
102
}
330
E
  0
SCALE
  5
48
102
{ACAD_REACTORS
330
47
102
}
330
47
100
AcDbScale
 70
     0
300
1:1
140
1.0
141
1.0
290
     1
  0
SCALE
  5
49
102
{ACAD_REACTORS
330
47
102
}
330
47
100
AcDbScale
 70
     0
300
1/128" = 1'-0"
140
0.0078125
141
12.0
290
     0
  0
SCALE
  5
4A
102
{ACAD_REACTORS
330
47
102
}
330
47
100
AcDbScale
 70
     0
300
1/64" = 1'-0"
140
0.015625
141
12.0
290
     0
  0
SCALE
  5
4B
102
{ACAD_REACTORS
330
47
102
}
330
47
100
AcDbScale
 70
     0
300
1/32" = 1'-0"
140
0.03125
141
12.0
290
     0
  0
SCALE
  5
4C
102
{ACAD_REACTORS
330
47
102
}
330
47
100
AcDbScale
 70
     0
300
1/16" = 1'-0"
140
0.0625
141
12.0
290
     0
  0
SCALE
  5
4D
102
{ACAD_REACTORS
330
47
102
}
330
47
100
AcDbScale
 70
     0
300
3/32" = 1'-0"
140
0.09375
141
12.0
290
     0
  0
SCALE
  5
4E
102
{ACAD_REACTORS
330
47
102
}
330
47
100
AcDbScale
 70
     0
300
1/8" = 1'-0"
140
0.125
141
12.0
290
     0
  0
SCALE
  5
4F
102
{ACAD_REACTORS
330
47
102
}
330
47
100
AcDbScale
 70
     0
300
3/16" = 1'-0"
140
0.1875
141
12.0
290
     0
  0
SCALE
  5
50
102
{ACAD_REACTORS
330
47
102
}
330
47
100
AcDbScale
 70
     0
300
1/4" = 1'-0"
140
0.25
141
12.0
290
     0
  0
SCALE
  5
51
102
{ACAD_REACTORS
330
47
102
}
330
47
100
AcDbScale
 70
     0
300
3/8" = 1'-0"
140
0.375
141
12.0
290
     0
  0
SCALE
  5
52
102
{ACAD_REACTORS
330
47
102
}
330
47
100
AcDbScale
 70
     0
300
1/2" = 1'-0"
140
0.5
141
12.0
290
     0
  0
SCALE
  5
53
102
{ACAD_REACTORS
330
47
102
}
330
47
100
AcDbScale
 70
     0
300
3/4" = 1'-0"
140
0.75
141
12.0
290
     0
  0
SCALE
  5
54
102
{ACAD_REACTORS
330
47
102
}
330
47
100
AcDbScale
 70
     0
300
1" = 1'-0"
140
1.0
141
12.0
290
     0
  0
SCALE
  5
55
102
{ACAD_REACTORS
330
47
102
}
330
47
100
AcDbScale
 70
     0
300
1-1/2" = 1'-0"
140
1.5
141
12.0
290
     0
  0
SCALE
  5
56
102
{ACAD_REACTORS
330
47
102
}
330
47
100
AcDbScale
 70
     0
300
3" = 1'-0"
140
3.0
141
12.0
290
     0
  0
SCALE
  5
57
102
{ACAD_REACTORS
330
47
102
}
330
47
100
AcDbScale
 70
     0
300
6" = 1'-0"
140
6.0
141
12.0
290
     0
  0
SCALE
  5
58
102
{ACAD_REACTORS
330
47
102
}
330
47
100
AcDbScale
 70
     0
300
1'-0" = 1'-0"
140
12.0
141
12.0
290
     0
  0
TABLESTYLE
  5
5A
102
{ACAD_REACTORS
330
59
102
}
102
{ACAD_XDICTIONARY
360
15D
102
}
330
59
100
AcDbTableStyle
  3
Standard
 70
     0
 71
     0
 40
0.06
 41
0.06
280
     0
281
     0
  7
Standard
140
0.18
170
     2
 62
     0
 63
   257
283
     0
 90
        4
 91
        0
  1

274
    -2
284
     1
 64
     0
275
    -2
285
     1
 65
     0
276
    -2
286
     1
 66
     0
277
    -2
287
     1
 67
     0
278
    -2
288
     1
 68
     0
279
    -2
289
     1
 69
     0
  7
Standard
140
0.25
170
     5
 62
     0
 63
   257
283
     0
 90
        4
 91
        0
  1

274
    -2
284
     1
 64
     0
275
    -2
285
     1
 65
     0
276
    -2
286
     1
 66
     0
277
    -2
287
     1
 67
     0
278
    -2
288
     1
 68
     0
279
    -2
289
     1
 69
     0
  7
Standard
140
0.18
170
     5
 62
     0
 63
   257
283
     0
 90
        4
 91
        0
  1

274
    -2
284
     1
 64
     0
275
    -2
285
     1
 65
     0
276
    -2
286
     1
 66
     0
277
    -2
287
     1
 67
     0
278
    -2
288
     1
 68
     0
279
    -2
289
     1
 69
     0
  0
VISUALSTYLE
  5
2F
102
{ACAD_REACTORS
330
2A
102
}
102
{ACAD_XDICTIONARY
360
135
102
}
330
2A
100
AcDbVisualStyle
  2
2dWireframe
 70
     4
 71
     0
 72
     2
 73
     0
 90
        0
 40
0.6
 41
30.0
 62
     5
 63
     7
421
 16777215
 74
     1
 91
        4
 64
     7
 65
   257
 75
     1
175
     1
 42
1.0
 92
        0
 66
   257
 43
1.0
 76
     1
 77
     6
 78
     2
 67
     7
 79
     5
170
     0
171
     0
290
     0
174
     0
 93
        1
 44
0.0
173
     0
291
     0
 45
0.0
  0
VISUALSTYLE
  5
32
102
{ACAD_REACTORS
330
2A
102
}
102
{ACAD_XDICTIONARY
360
13B
102
}
330
2A
100
AcDbVisualStyle
  2
Basic
 70
     7
 71
     1
 72
     0
 73
     1
 90
        0
 40
0.6
 41
30.0
 62
     5
 63
     7
421
 16777215
 74
     0
 91
        4
 64
     7
 65
   257
 75
     1
175
     1
 42
1.0
 92
        8
 66
     7
 43
1.0
 76
     1
 77
     6
 78
     2
 67
     7
 79
     5
170
     0
171
     0
290
     0
174
     0
 93
        1
 44
0.0
173
     0
291
     1
 45
0.0
  0
VISUALSTYLE
  5
36
102
{ACAD_REACTORS
330
2A
102
}
102
{ACAD_XDICTIONARY
360
143
102
}
330
2A
100
AcDbVisualStyle
  2
Brighten
 70
    12
 71
     2
 72
     2
 73
     0
 90
        0
 40
0.6
 41
30.0
 62
     5
 63
     7
421
 16777215
 74
     1
 91
        4
 64
     7
 65
   257
 75
     1
175
     1
 42
1.0
 92
        8
 66
     7
 43
1.0
 76
     1
 77
     6
 78
     2
 67
     7
 79
     5
170
     0
171
     0
290
     0
174
     0
 93
        1
 44
50.0
173
     0
291
     1
 45
0.0
  0
VISUALSTYLE
  5
3A
102
{ACAD_REACTORS
330
2A
102
}
102
{ACAD_XDICTIONARY
360
14B
102
}
330
2A
100
AcDbVisualStyle
  2
ColorChange
 70
    16
 71
     2
 72
     2
 73
     3
 90
        0
 40
0.6
 41
30.0
 62
     5
 63
     8
421
  8421504
 74
     1
 91
        4
 64
     7
 65
   257
 75
     1
175
     1
 42
1.0
 92
        8
 66
     8
424
  8421504
 43
1.0
 76
     1
 77
     6
 78
     2
 67
     7
 79
     5
170
     0
171
     0
290
     0
174
     0
 93
        1
 44
0.0
173
     0
291
     1
 45
0.0
  0
VISUALSTYLE
  5
34
102
{ACAD_REACTORS
330
2A
102
}
102
{ACAD_XDICTIONARY
360
13F
102
}
330
2A
100
AcDbVisualStyle
  2
Conceptual
 70
     9
 71
     3
 72
     2
 73
     0
 90
        0
 40
0.6
 41
30.0
 62
     5
 63
     7
421
 16777215
 74
     2
 91
        2
 64
     7
 65
   257
 75
     1
175
     1
 42
179.0
 92
        8
 66
     7
 43
1.0
 76
     1
 77
     6
 78
     2
 67
     7
 79
     3
170
     0
171
     0
290
     0
174
     0
 93
        1
 44
0.0
173
     0
291
     0
 45
0.0
  0
VISUALSTYLE
  5
35
102
{ACAD_REACTORS
330
2A
102
}
102
{ACAD_XDICTIONARY
360
141
102
}
330
2A
100
AcDbVisualStyle
  2
Dim
 70
    11
 71
     2
 72
     2
 73
     0
 90
        0
 40
0.6
 41
30.0
 62
     5
 63
     7
421
 16777215
 74
     1
 91
        4
 64
     7
 65
   257
 75
     1
175
     1
 42
1.0
 92
        8
 66
     7
 43
1.0
 76
     1
 77
     6
 78
     2
 67
     7
 79
     5
170
     0
171
     0
290
     0
174
     0
 93
        1
 44
-50.0
173
     0
291
     1
 45
0.0
  0
VISUALSTYLE
  5
3D
102
{ACAD_REACTORS
330
2A
102
}
102
{ACAD_XDICTIONARY
360
151
102
}
330
2A
100
AcDbVisualStyle
  2
EdgeColorOff
 70
    22
 71
     2
 72
     2
 73
     0
 90
        0
 40
0.6
 41
30.0
 62
     5
 63
     7
421
 16777215
 74
     1
 91
        4
 64
     7
 65
   257
 75
     1
175
     1
 42
1.0
 92
        8
 66
     7
 43
1.0
 76
     1
 77
     6
 78
     2
 67
     7
 79
     5
170
     0
171
     0
290
     0
174
     0
 93
        1
 44
0.0
173
     0
291
     1
 45
0.0
  0
VISUALSTYLE
  5
39
102
{ACAD_REACTORS
330
2A
102
}
102
{ACAD_XDICTIONARY
360
149
102
}
330
2A
100
AcDbVisualStyle
  2
Facepattern
 70
    15
 71
     2
 72
     2
 73
     0
 90
        0
 40
0.6
 41
30.0
 62
     5
 63
     7
421
 16777215
 74
     1
 91
        4
 64
     7
 65
   257
 75
     1
175
     1
 42
1.0
 92
        8
 66
     7
 43
1.0
 76
     1
 77
     6
 78
     2
 67
     7
 79
     5
170
     0
171
     0
290
     0
174
     0
 93
        1
 44
0.0
173
     0
291
     1
 45
0.0
  0
VISUALSTYLE
  5
2B
102
{ACAD_REACTORS
330
2A
102
}
102
{ACAD_XDICTIONARY
360
12D
102
}
330
2A
100
AcDbVisualStyle
  2
Flat
 70
     0
 71
     2
 72
     1
 73
     1
 90
        2
 40
0.6
 41
30.0
 62
     5
 63
     7
421
 16777215
 74
     0
 91
        0
 64
     7
 65
   257
 75
     1
175
     1
 42
1.0
 92
        8
 66
     7
 43
1.0
 76
     1
 77
     6
 78
     2
 67
     7
 79
     5
170
     0
171
     0
290
     0
174
     0
 93
       13
 44
0.0
173
     0
291
     1
 45
0.0
  0
VISUALSTYLE
  5
2C
102
{ACAD_REACTORS
330
2A
102
}
102
{ACAD_XDICTIONARY
360
12F
102
}
330
2A
100
AcDbVisualStyle
  2
FlatWithEdges
 70
     1
 71
     2
 72
     1
 73
     1
 90
        2
 40
0.6
 41
30.0
 62
     5
 63
     7
421
 16777215
 74
     1
 91
        0
 64
     7
 65
   257
 75
     1
175
     1
 42
1.0
 92
        0
 66
   257
 43
1.0
 76
     1
 77
     6
 78
     2
 67
     7
 79
     5
170
     0
171
     0
290
     0
174
     0
 93
       13
 44
0.0
173
     0
291
     1
 45
0.0
  0
VISUALSTYLE
  5
2D
102
{ACAD_REACTORS
330
2A
102
}
102
{ACAD_XDICTIONARY
360
131
102
}
330
2A
100
AcDbVisualStyle
  2
Gouraud
 70
     2
 71
     2
 72
     2
 73
     1
 90
        2
 40
0.6
 41
30.0
 62
     5
 63
     7
421
 16777215
 74
     0
 91
        0
 64
     7
 65
   257
 75
     1
175
     1
 42
1.0
 92
        0
 66
     7
 43
1.0
 76
     1
 77
     6
 78
     2
 67
     7
 79
     5
170
     0
171
     0
290
     0
174
     0
 93
       13
 44
0.0
173
     0
291
     1
 45
0.0
  0
VISUALSTYLE
  5
2E
102
{ACAD_REACTORS
330
2A
102
}
102
{ACAD_XDICTIONARY
360
133
102
}
330
2A
100
AcDbVisualStyle
  2
GouraudWithEdges
 70
     3
 71
     2
 72
     2
 73
     1
 90
        2
 40
0.6
 41
30.0
 62
     5
 63
     7
421
 16777215
 74
     1
 91
        0
 64
     7
 65
   257
 75
     1
175
     1
 42
1.0
 92
        0
 66
   257
 43
1.0
 76
     1
 77
     6
 78
     2
 67
     7
 79
     5
170
     0
171
     0
290
     0
174
     0
 93
       13
 44
0.0
173
     0
291
     1
 45
0.0
  0
VISUALSTYLE
  5
31
102
{ACAD_REACTORS
330
2A
102
}
102
{ACAD_XDICTIONARY
360
139
102
}
330
2A
100
AcDbVisualStyle
  2
Hidden
 70
     6
 71
     1
 72
     2
 73
     2
 90
        0
 40
0.6
 41
30.0
 62
     5
 63
     7
421
 16777215
 74
     2
 91
        2
 64
     7
 65
   257
 75
     2
175
     1
 42
40.0
 92
        0
 66
   257
 43
1.0
 76
     1
 77
     6
 78
     2
 67
     7
 79
     3
170
     0
171
     0
290
     0
174
     0
 93
        1
 44
0.0
173
     0
291
     0
 45
0.0
  0
VISUALSTYLE
  5
3B
102
{ACAD_REACTORS
330
2A
102
}
102
{ACAD_XDICTIONARY
360
14D
102
}
330
2A
100
AcDbVisualStyle
  2
JitterOff
 70
    20
 71
     2
 72
     2
 73
     0
 90
        0
 40
0.6
 41
30.0
 62
     5
 63
     7
421
 16777215
 74
     1
 91
        4
 64
     7
 65
   257
 75
     1
175
     1
 42
1.0
 92
       10
 66
     7
 43
1.0
 76
     1
 77
     6
 78
     2
 67
     7
 79
     5
170
     0
171
     0
290
     0
174
     0
 93
        1
 44
0.0
173
     0
291
     1
 45
0.0
  0
VISUALSTYLE
  5
38
102
{ACAD_REACTORS
330
2A
102
}
102
{ACAD_XDICTIONARY
360
147
102
}
330
2A
100
AcDbVisualStyle
  2
Linepattern
 70
    14
 71
     2
 72
     2
 73
     0
 90
        0
 40
0.6
 41
30.0
 62
     5
 63
     7
421
 16777215
 74
     1
 91
        4
 64
     7
 65
   257
 75
     7
175
     7
 42
1.0
 92
        8
 66
     7
 43
1.0
 76
     1
 77
     6
 78
     2
 67
     7
 79
     5
170
     0
171
     0
290
     0
174
     0
 93
        1
 44
0.0
173
     0
291
     1
 45
0.0
  0
VISUALSTYLE
  5
3C
102
{ACAD_REACTORS
330
2A
102
}
102
{ACAD_XDICTIONARY
360
14F
102
}
330
2A
100
AcDbVisualStyle
  2
OverhangOff
 70
    21
 71
     2
 72
     2
 73
     0
 90
        0
 40
0.6
 41
30.0
 62
     5
 63
     7
421
 16777215
 74
     1
 91
        4
 64
     7
 65
   257
 75
     1
175
     1
 42
1.0
 92
        9
 66
     7
 43
1.0
 76
     1
 77
     6
 78
     2
 67
     7
 79
     5
170
     0
171
     0
290
     0
174
     0
 93
        1
 44
0.0
173
     0
291
     1
 45
0.0
  0
VISUALSTYLE
  5
33
102
{ACAD_REACTORS
330
2A
102
}
102
{ACAD_XDICTIONARY
360
13D
102
}
330
2A
100
AcDbVisualStyle
  2
Realistic
 70
     8
 71
     2
 72
     3
 73
     0
 90
        2
 40
0.6
 41
30.0
 62
     5
 63
     7
421
 16777215
 74
     0
 91
        0
 64
     7
 65
   257
 75
     1
175
     1
 42
1.0
 92
        8
 66
   257
 43
1.0
 76
     1
 77
     6
 78
     2
 67
     7
 79
     3
170
     0
171
     0
290
     0
174
     0
 93
       13
 44
0.0
173
     0
291
     0
 45
0.0
  0
VISUALSTYLE
  5
42
102
{ACAD_REACTORS
330
2A
102
}
102
{ACAD_XDICTIONARY
360
15B
102
}
330
2A
100
AcDbVisualStyle
  2
Shaded
 70
    27
 71
     2
 72
     2
 73
     1
 90
        2
 40
0.6
 41
30.0
 62
     5
 63
     7
421
 16777215
 74
     0
 91
        4
 64
     7
 65
   257
 75
     1
175
     1
 42
1.0
 92
        8
 66
   257
 43
1.0
 76
     1
 77
     6
 78
     2
 67
     8
425
  7895160
 79
     3
170
     0
171
     0
290
     0
174
     0
 93
        5
 44
0.0
173
     0
291
     0
 45
0.0
  0
VISUALSTYLE
  5
41
102
{ACAD_REACTORS
330
2A
102
}
102
{ACAD_XDICTIONARY
360
159
102
}
330
2A
100
AcDbVisualStyle
  2
Shaded with edges
 70
    26
 71
     2
 72
     2
 73
     1
 90
        2
 40
0.6
 41
30.0
 62
     5
 63
     7
421
 16777215
 74
     1
 91
       10
 64
     7
 65
   257
 75
     2
175
     1
 42
1.0
 92
        8
 66
   257
 43
1.0
 76
     1
 77
     6
 78
     2
 67
     7
 79
     3
170
     0
171
     0
290
     0
174
     0
 93
        5
 44
0.0
173
     0
291
     0
 45
0.0
  0
VISUALSTYLE
  5
3E
102
{ACAD_REACTORS
330
2A
102
}
102
{ACAD_XDICTIONARY
360
153
102
}
330
2A
100
AcDbVisualStyle
  2
Shades of Gray
 70
    23
 71
     2
 72
     2
 73
     3
 90
        0
 40
0.6
 41
30.0
 62
     5
 63
     7
421
 16777215
 74
     2
 91
        2
 64
     7
 65
     7
 75
     1
175
     1
 42
40.0
 92
        8
 66
     7
 43
1.0
 76
     1
 77
     6
 78
     2
 67
     7
 79
     3
170
     0
171
     0
290
     0
174
     0
 93
        1
 44
0.0
173
     0
291
     0
 45
0.0
  0
VISUALSTYLE
  5
3F
102
{ACAD_REACTORS
330
2A
102
}
102
{ACAD_XDICTIONARY
360
155
102
}
330
2A
100
AcDbVisualStyle
  2
Sketchy
 70
    24
 71
     1
 72
     2
 73
     2
 90
        0
 40
0.6
 41
30.0
 62
     5
 63
     7
421
 16777215
 74
     2
 91
        2
 64
     7
 65
     7
 75
     1
175
     1
 42
40.0
 92
       11
 66
     7
 43
1.0
 76
     1
 77
     6
 78
     2
 67
     7
 79
     6
170
     0
171
     0
290
     0
174
     0
 93
        1
 44
0.0
173
     0
291
     0
 45
0.0
  0
VISUALSTYLE
  5
37
102
{ACAD_REACTORS
330
2A
102
}
102
{ACAD_XDICTIONARY
360
145
102
}
330
2A
100
AcDbVisualStyle
  2
Thicken
 70
    13
 71
     2
 72
     2
 73
     0
 90
        0
 40
0.6
 41
30.0
 62
     5
 63
     7
421
 16777215
 74
     1
 91
        4
 64
     7
 65
   257
 75
     1
175
     1
 42
1.0
 92
       12
 66
     7
 43
1.0
 76
     1
 77
     6
 78
     2
 67
     7
 79
     5
170
     0
171
     0
290
     0
174
     0
 93
        1
 44
0.0
173
     0
291
     1
 45
0.0
  0
VISUALSTYLE
  5
30
102
{ACAD_REACTORS
330
2A
102
}
102
{ACAD_XDICTIONARY
360
137
102
}
330
2A
100
AcDbVisualStyle
  2
Wireframe
 70
     5
 71
     0
 72
     2
 73
     0
 90
        0
 40
0.6
 41
30.0
 62
     5
 63
     7
421
 16777215
 74
     1
 91
        4
 64
     7
 65
   257
 75
     1
175
     1
 42
1.0
 92
        0
 66
   257
 43
1.0
 76
     1
 77
     6
 78
     2
 67
     7
 79
     3
170
     0
171
     0
290
     0
174
     0
 93
        1
 44
0.0
173
     0
291
     0
 45
0.0
  0
VISUALSTYLE
  5
40
102
{ACAD_REACTORS
330
2A
102
}
102
{ACAD_XDICTIONARY
360
157
102
}
330
2A
100
AcDbVisualStyle
  2
X-Ray
 70
    25
 71
     2
 72
     2
 73
     1
 90
        1
 40
0.5
 41
30.0
 62
     5
 63
     7
421
 16777215
 74
     1
 91
        0
 64
     7
 65
   257
 75
     1
175
     1
 42
1.0
 92
        8
 66
     7
 43
1.0
 76
     1
 77
     6
 78
     2
 67
     7
 79
     3
170
     0
171
     0
290
     0
174
     0
 93
       13
 44
0.0
173
     0
291
     0
 45
0.0
  0
DICTIONARYVAR
  5
12B
102
{ACAD_REACTORS
330
12A
102
}
330
12A
100
DictionaryVariables
280
     0
  1
1:1
  0
DICTIONARYVAR
  5
164
102
{ACAD_REACTORS
330
12A
102
}
330
12A
100
DictionaryVariables
280
     0
  1
Standard
  0
DICTIONARYVAR
  5
163
102
{ACAD_REACTORS
330
12A
102
}
330
12A
100
DictionaryVariables
280
     0
  1
Standard
  0
DICTIONARYVAR
  5
12C
102
{ACAD_REACTORS
330
12A
102
}
330
12A
100
DictionaryVariables
280
     0
  1
2
  0
DICTIONARY
  5
160
330
5C
100
AcDbDictionary
280
     1
281
     1
  3
ACAD_XREC_ROUNDTRIP
360
161
  0
DICTIONARY
  5
15D
330
5A
100
AcDbDictionary
280
     1
281
     1
  3
ACAD_ROUNDTRIP_2008_TABLESTYLE_CELLSTYLEMAP
360
15E
  0
DICTIONARY
  5
135
330
2F
100
AcDbDictionary
280
     1
281
     1
  3
ACAD_XREC_ROUNDTRIP
360
136
  0
DICTIONARY
  5
13B
330
32
100
AcDbDictionary
280
     1
281
     1
  3
ACAD_XREC_ROUNDTRIP
360
13C
  0
DICTIONARY
  5
143
330
36
100
AcDbDictionary
280
     1
281
     1
  3
ACAD_XREC_ROUNDTRIP
360
144
  0
DICTIONARY
  5
14B
330
3A
100
AcDbDictionary
280
     1
281
     1
  3
ACAD_XREC_ROUNDTRIP
360
14C
  0
DICTIONARY
  5
13F
330
34
100
AcDbDictionary
280
     1
281
     1
  3
ACAD_XREC_ROUNDTRIP
360
140
  0
DICTIONARY
  5
141
330
35
100
AcDbDictionary
280
     1
281
     1
  3
ACAD_XREC_ROUNDTRIP
360
142
  0
DICTIONARY
  5
151
330
3D
100
AcDbDictionary
280
     1
281
     1
  3
ACAD_XREC_ROUNDTRIP
360
152
  0
DICTIONARY
  5
149
330
39
100
AcDbDictionary
280
     1
281
     1
  3
ACAD_XREC_ROUNDTRIP
360
14A
  0
DICTIONARY
  5
12D
330
2B
100
AcDbDictionary
280
     1
281
     1
  3
ACAD_XREC_ROUNDTRIP
360
12E
  0
DICTIONARY
  5
12F
330
2C
100
AcDbDictionary
280
     1
281
     1
  3
ACAD_XREC_ROUNDTRIP
360
130
  0
DICTIONARY
  5
131
330
2D
100
AcDbDictionary
280
     1
281
     1
  3
ACAD_XREC_ROUNDTRIP
360
132
  0
DICTIONARY
  5
133
330
2E
100
AcDbDictionary
280
     1
281
     1
  3
ACAD_XREC_ROUNDTRIP
360
134
  0
DICTIONARY
  5
139
330
31
100
AcDbDictionary
280
     1
281
     1
  3
ACAD_XREC_ROUNDTRIP
360
13A
  0
DICTIONARY
  5
14D
330
3B
100
AcDbDictionary
280
     1
281
     1
  3
ACAD_XREC_ROUNDTRIP
360
14E
  0
DICTIONARY
  5
147
330
38
100
AcDbDictionary
280
     1
281
     1
  3
ACAD_XREC_ROUNDTRIP
360
148
  0
DICTIONARY
  5
14F
330
3C
100
AcDbDictionary
280
     1
281
     1
  3
ACAD_XREC_ROUNDTRIP
360
150
  0
DICTIONARY
  5
13D
330
33
100
AcDbDictionary
280
     1
281
     1
  3
ACAD_XREC_ROUNDTRIP
360
13E
  0
DICTIONARY
  5
15B
330
42
100
AcDbDictionary
280
     1
281
     1
  3
ACAD_XREC_ROUNDTRIP
360
15C
  0
DICTIONARY
  5
159
330
41
100
AcDbDictionary
280
     1
281
     1
  3
ACAD_XREC_ROUNDTRIP
360
15A
  0
DICTIONARY
  5
153
330
3E
100
AcDbDictionary
280
     1
281
     1
  3
ACAD_XREC_ROUNDTRIP
360
154
  0
DICTIONARY
  5
155
330
3F
100
AcDbDictionary
280
     1
281
     1
  3
ACAD_XREC_ROUNDTRIP
360
156
  0
DICTIONARY
  5
145
330
37
100
AcDbDictionary
280
     1
281
     1
  3
ACAD_XREC_ROUNDTRIP
360
146
  0
DICTIONARY
  5
137
330
30
100
AcDbDictionary
280
     1
281
     1
  3
ACAD_XREC_ROUNDTRIP
360
138
  0
DICTIONARY
  5
157
330
40
100
AcDbDictionary
280
     1
281
     1
  3
ACAD_XREC_ROUNDTRIP
360
158
  0
XRECORD
  5
161
102
{ACAD_REACTORS
330
160
102
}
330
160
100
AcDbXrecord
280
     1
102
ACAD_ROUNDTRIP_2010_MLEADER_STYLE
  0
CELLSTYLEMAP
  5
15E
102
{ACAD_REACTORS
330
15D
102
}
330
15D
100
AcDbCellStyleMap
 90
        3
300
CELLSTYLE
  1
TABLEFORMAT_BEGIN
 90
        5
170
     1
 91
        0
 92
    32768
 62
   257
 93
        1
300
CONTENTFORMAT
  1
CONTENTFORMAT_BEGIN
 90
        0
 91
        0
 92
        4
 93
        0
300

 40
0.0
140
1.0
 94
        5
 62
     0
340
11
144
0.25
309
CONTENTFORMAT_END
171
     1
301
MARGIN
  1
CELLMARGIN_BEGIN
 40
0.06
 40
0.06
 40
0.06
 40
0.06
 40
0.06
 40
0.06
309
CELLMARGIN_END
 94
        6
 95
        1
302
GRIDFORMAT
  1
GRIDFORMAT_BEGIN
 90
        0
 91
        1
 62
     0
 92
       -2
340
14
 93
        0
 40
0.045
309
GRIDFORMAT_END
 95
        2
302
GRIDFORMAT
  1
GRIDFORMAT_BEGIN
 90
        0
 91
        1
 62
     0
 92
       -2
340
14
 93
        0
 40
0.045
309
GRIDFORMAT_END
 95
        4
302
GRIDFORMAT
  1
GRIDFORMAT_BEGIN
 90
        0
 91
        1
 62
     0
 92
       -2
340
14
 93
        0
 40
0.045
309
GRIDFORMAT_END
 95
        8
302
GRIDFORMAT
  1
GRIDFORMAT_BEGIN
 90
        0
 91
        1
 62
     0
 92
       -2
340
14
 93
        0
 40
0.045
309
GRIDFORMAT_END
 95
       16
302
GRIDFORMAT
  1
GRIDFORMAT_BEGIN
 90
        0
 91
        1
 62
     0
 92
       -2
340
14
 93
        0
 40
0.045
309
GRIDFORMAT_END
 95
       32
302
GRIDFORMAT
  1
GRIDFORMAT_BEGIN
 90
        0
 91
        1
 62
     0
 92
       -2
340
14
 93
        0
 40
0.045
309
GRIDFORMAT_END
309
TABLEFORMAT_END
  1
CELLSTYLE_BEGIN
 90
        1
 91
        1
300
_TITLE
309
CELLSTYLE_END
300
CELLSTYLE
  1
TABLEFORMAT_BEGIN
 90
        5
170
     1
 91
        0
 92
        0
 62
   257
 93
        1
300
CONTENTFORMAT
  1
CONTENTFORMAT_BEGIN
 90
        0
 91
        0
 92
        4
 93
        0
300

 40
0.0
140
1.0
 94
        5
 62
     0
340
11
144
0.18
309
CONTENTFORMAT_END
171
     1
301
MARGIN
  1
CELLMARGIN_BEGIN
 40
0.06
 40
0.06
 40
0.06
 40
0.06
 40
0.06
 40
0.06
309
CELLMARGIN_END
 94
        6
 95
        1
302
GRIDFORMAT
  1
GRIDFORMAT_BEGIN
 90
        0
 91
        1
 62
     0
 92
       -2
340
14
 93
        0
 40
0.045
309
GRIDFORMAT_END
 95
        2
302
GRIDFORMAT
  1
GRIDFORMAT_BEGIN
 90
        0
 91
        1
 62
     0
 92
       -2
340
14
 93
        0
 40
0.045
309
GRIDFORMAT_END
 95
        4
302
GRIDFORMAT
  1
GRIDFORMAT_BEGIN
 90
        0
 91
        1
 62
     0
 92
       -2
340
14
 93
        0
 40
0.045
309
GRIDFORMAT_END
 95
        8
302
GRIDFORMAT
  1
GRIDFORMAT_BEGIN
 90
        0
 91
        1
 62
     0
 92
       -2
340
14
 93
        0
 40
0.045
309
GRIDFORMAT_END
 95
       16
302
GRIDFORMAT
  1
GRIDFORMAT_BEGIN
 90
        0
 91
        1
 62
     0
 92
       -2
340
14
 93
        0
 40
0.045
309
GRIDFORMAT_END
 95
       32
302
GRIDFORMAT
  1
GRIDFORMAT_BEGIN
 90
        0
 91
        1
 62
     0
 92
       -2
340
14
 93
        0
 40
0.045
309
GRIDFORMAT_END
309
TABLEFORMAT_END
  1
CELLSTYLE_BEGIN
 90
        2
 91
        1
300
_HEADER
309
CELLSTYLE_END
300
CELLSTYLE
  1
TABLEFORMAT_BEGIN
 90
        5
170
     1
 91
        0
 92
        0
 62
   257
 93
        1
300
CONTENTFORMAT
  1
CONTENTFORMAT_BEGIN
 90
        0
 91
        0
 92
        4
 93
        0
300

 40
0.0
140
1.0
 94
        2
 62
     0
340
11
144
0.18
309
CONTENTFORMAT_END
171
     1
301
MARGIN
  1
CELLMARGIN_BEGIN
 40
0.06
 40
0.06
 40
0.06
 40
0.06
 40
0.06
 40
0.06
309
CELLMARGIN_END
 94
        6
 95
        1
302
GRIDFORMAT
  1
GRIDFORMAT_BEGIN
 90
        0
 91
        1
 62
     0
 92
       -2
340
14
 93
        0
 40
0.045
309
GRIDFORMAT_END
 95
        2
302
GRIDFORMAT
  1
GRIDFORMAT_BEGIN
 90
        0
 91
        1
 62
     0
 92
       -2
340
14
 93
        0
 40
0.045
309
GRIDFORMAT_END
 95
        4
302
GRIDFORMAT
  1
GRIDFORMAT_BEGIN
 90
        0
 91
        1
 62
     0
 92
       -2
340
14
 93
        0
 40
0.045
309
GRIDFORMAT_END
 95
        8
302
GRIDFORMAT
  1
GRIDFORMAT_BEGIN
 90
        0
 91
        1
 62
     0
 92
       -2
340
14
 93
        0
 40
0.045
309
GRIDFORMAT_END
 95
       16
302
GRIDFORMAT
  1
GRIDFORMAT_BEGIN
 90
        0
 91
        1
 62
     0
 92
       -2
340
14
 93
        0
 40
0.045
309
GRIDFORMAT_END
 95
       32
302
GRIDFORMAT
  1
GRIDFORMAT_BEGIN
 90
        0
 91
        1
 62
     0
 92
       -2
340
14
 93
        0
 40
0.045
309
GRIDFORMAT_END
309
TABLEFORMAT_END
  1
CELLSTYLE_BEGIN
 90
        3
 91
        2
300
_DATA
309
CELLSTYLE_END
  0
XRECORD
  5
136
102
{ACAD_REACTORS
330
135
102
}
330
135
100
AcDbXrecord
280
     1
102
RTVSPropertyOp0
 70
     1
102
RTVSPropertyOp1
 70
     1
102
RTVSPropertyOp2
 70
     1
102
RTVSPropertyOp3
 70
     1
102
RTVSPropertyOp4
 70
     1
102
RTVSPropertyOp5
 70
     1
102
RTVSPropertyOp6
 70
     1
102
RTVSPropertyOp7
 70
     1
102
RTVSPropertyOp8
 70
     1
102
RTVSPropertyOp9
 70
     1
102
RTVSPropertyOp10
 70
     1
102
RTVSPropertyOp11
 70
     1
102
RTVSPropertyOp12
 70
     1
102
RTVSPropertyOp13
 70
     1
102
RTVSPropertyOp14
 70
     1
102
RTVSPropertyOp15
 70
     1
102
RTVSPropertyOp16
 70
     1
102
RTVSPropertyOp17
 70
     1
102
RTVSPropertyOp18
 70
     1
102
RTVSPropertyOp19
 70
     1
102
RTVSPropertyOp20
 70
     1
102
RTVSPropertyOp21
 70
     1
102
RTVSPropertyOp22
 70
     1
102
RTVSPropertyOp23
 70
     1
102
RTVSPropertyOp24
 70
     1
102
RTVSPropertyOp25
 70
     1
102
RTVSPropertyOp26
 70
     1
102
RTVSPropertyOp27
 70
     1
102
RTVSPropertyOp28
 70
     1
102
RTVSPropertyOp29
 70
     1
102
RTVSPropertyOp30
 70
     1
102
RTVSPropertyOp31
 70
     1
102
RTVSPropertyOp32
 70
     1
102
RTVSPropertyOp33
 70
     1
102
RTVSPropertyOp34
 70
     1
102
RTVSPropertyOp35
 70
     1
102
RTVSPropertyOp36
 70
     1
102
RTVSPropertyOp37
 70
     1
102
RTVSPropertyOp38
 70
     1
102
RTVSPropertyOp39
 70
     1
102
RTVSPropertyOp40
 70
     1
102
RTVSPropertyOp41
 70
     1
102
RTVSPropertyOp42
 70
     1
102
RTVSPropertyOp43
 70
     1
102
RTVSPropertyOp44
 70
     1
102
RTVSPropertyOp45
 70
     1
102
RTVSPropertyOp46
 70
     1
102
RTVSPropertyOp47
 70
     1
102
RTVSPropertyOp48
 70
     1
102
RTVSPropertyOp49
 70
     1
102
RTVSPropertyOp50
 70
     1
102
RTVSPropertyOp51
 70
     0
102
RTVSPropertyOp52
 70
     0
102
RTVSPropertyOp53
 70
     1
102
RTVSPropertyOp54
 70
     1
102
RTVSPropertyOp55
 70
     1
102
RTVSPropertyOp56
 70
     1
102
RTVSPropertyOp57
 70
     1
102
RTVSPost2010Prop28
280
     1
102
RTVSPost2010PropOp28
 70
     1
102
RTVSPost2010Prop29
280
     1
102
RTVSPost2010PropOp29
 70
     1
102
RTVSPost2010Prop30
280
     0
102
RTVSPost2010PropOp30
 70
     1
102
RTVSPost2010Prop31
280
     0
102
RTVSPost2010PropOp31
 70
     1
102
RTVSPost2010Prop32
280
     0
102
RTVSPost2010PropOp32
 70
     1
102
RTVSPost2010Prop33
280
     0
102
RTVSPost2010PropOp33
 70
     1
102
RTVSPost2010Prop34
280
     0
102
RTVSPost2010PropOp34
 70
     1
102
RTVSPost2010Prop35
280
     0
102
RTVSPost2010PropOp35
 70
     1
102
RTVSPost2010Prop36
280
     0
102
RTVSPost2010PropOp36
 70
     1
102
RTVSPost2010Prop37
 90
       50
102
RTVSPost2010PropOp37
 70
     1
102
RTVSPost2010Prop38
140
0.0
102
RTVSPost2010PropOp38
 70
     1
102
RTVSPost2010Prop39
140
1.0
102
RTVSPost2010PropOp39
 70
     1
102
RTVSPost2010Prop40
 90
        0
102
RTVSPost2010PropOp40
 70
     1
102
RTVSPost2010Prop41ColorIndex
 90
       18
102
RTVSPost2010Prop41ColorRGB
 90
        0
102
RTVSPost2010PropOp41
 70
     1
102
RTVSPost2010Prop42
 90
       50
102
RTVSPost2010PropOp42
 70
     1
102
RTVSPost2010Prop43
 90
        3
102
RTVSPost2010PropOp43
 70
     1
102
RTVSPost2010Prop44ColorIndex
 90
        5
102
RTVSPost2010Prop44ColorRGB
 90
      255
102
RTVSPost2010PropOp44
 70
     1
102
RTVSPost2010Prop45
280
     0
102
RTVSPost2010PropOp45
 70
     1
102
RTVSPost2010Prop46
 90
       50
102
RTVSPost2010PropOp46
 70
     1
102
RTVSPost2010Prop47
 90
       50
102
RTVSPost2010PropOp47
 70
     1
102
RTVSPost2010Prop48
 90
       50
102
RTVSPost2010PropOp48
 70
     1
102
RTVSPost2010Prop49
280
     0
102
RTVSPost2010PropOp49
 70
     1
102
RTVSPost2010Prop50
 90
       50
102
RTVSPost2010PropOp50
 70
     1
102
RTVSPost2010Prop51ColorIndex
 90
      256
102
RTVSPost2010Prop51ColorRGB
 90
-16777216
102
RTVSPost2010PropOp51
 70
     0
102
RTVSPost2010Prop52
140
1.0
102
RTVSPost2010PropOp52
 70
     0
102
RTVSPost2010Prop53
 90
        2
102
RTVSPost2010PropOp53
 70
     1
102
RTVSPost2010Prop54
  1
strokes_ogs.tif
102
RTVSPost2010PropOp54
 70
     1
102
RTVSPost2010Prop55
280
     0
102
RTVSPost2010PropOp55
 70
     1
102
RTVSPost2010Prop56
140
1.0
102
RTVSPost2010PropOp56
 70
     1
102
RTVSPost2010Prop57
140
1.0
102
RTVSPost2010PropOp57
 70
     1
  0
XRECORD
  5
13C
102
{ACAD_REACTORS
330
13B
102
}
330
13B
100
AcDbXrecord
280
     1
102
RTVSPropertyOp0
 70
     1
102
RTVSPropertyOp1
 70
     1
102
RTVSPropertyOp2
 70
     1
102
RTVSPropertyOp3
 70
     1
102
RTVSPropertyOp4
 70
     1
102
RTVSPropertyOp5
 70
     1
102
RTVSPropertyOp6
 70
     1
102
RTVSPropertyOp7
 70
     1
102
RTVSPropertyOp8
 70
     1
102
RTVSPropertyOp9
 70
     1
102
RTVSPropertyOp10
 70
     1
102
RTVSPropertyOp11
 70
     1
102
RTVSPropertyOp12
 70
     1
102
RTVSPropertyOp13
 70
     1
102
RTVSPropertyOp14
 70
     1
102
RTVSPropertyOp15
 70
     1
102
RTVSPropertyOp16
 70
     1
102
RTVSPropertyOp17
 70
     1
102
RTVSPropertyOp18
 70
     1
102
RTVSPropertyOp19
 70
     1
102
RTVSPropertyOp20
 70
     1
102
RTVSPropertyOp21
 70
     1
102
RTVSPropertyOp22
 70
     1
102
RTVSPropertyOp23
 70
     1
102
RTVSPropertyOp24
 70
     1
102
RTVSPropertyOp25
 70
     1
102
RTVSPropertyOp26
 70
     1
102
RTVSPropertyOp27
 70
     1
102
RTVSPropertyOp28
 70
     1
102
RTVSPropertyOp29
 70
     1
102
RTVSPropertyOp30
 70
     1
102
RTVSPropertyOp31
 70
     1
102
RTVSPropertyOp32
 70
     1
102
RTVSPropertyOp33
 70
     1
102
RTVSPropertyOp34
 70
     1
102
RTVSPropertyOp35
 70
     1
102
RTVSPropertyOp36
 70
     1
102
RTVSPropertyOp37
 70
     1
102
RTVSPropertyOp38
 70
     1
102
RTVSPropertyOp39
 70
     1
102
RTVSPropertyOp40
 70
     1
102
RTVSPropertyOp41
 70
     1
102
RTVSPropertyOp42
 70
     1
102
RTVSPropertyOp43
 70
     1
102
RTVSPropertyOp44
 70
     1
102
RTVSPropertyOp45
 70
     1
102
RTVSPropertyOp46
 70
     1
102
RTVSPropertyOp47
 70
     1
102
RTVSPropertyOp48
 70
     1
102
RTVSPropertyOp49
 70
     1
102
RTVSPropertyOp50
 70
     1
102
RTVSPropertyOp51
 70
     0
102
RTVSPropertyOp52
 70
     0
102
RTVSPropertyOp53
 70
     1
102
RTVSPropertyOp54
 70
     1
102
RTVSPropertyOp55
 70
     1
102
RTVSPropertyOp56
 70
     1
102
RTVSPropertyOp57
 70
     1
102
RTVSPost2010Prop28
280
     0
102
RTVSPost2010PropOp28
 70
     1
102
RTVSPost2010Prop29
280
     1
102
RTVSPost2010PropOp29
 70
     1
102
RTVSPost2010Prop30
280
     1
102
RTVSPost2010PropOp30
 70
     1
102
RTVSPost2010Prop31
280
     0
102
RTVSPost2010PropOp31
 70
     1
102
RTVSPost2010Prop32
280
     0
102
RTVSPost2010PropOp32
 70
     1
102
RTVSPost2010Prop33
280
     0
102
RTVSPost2010PropOp33
 70
     1
102
RTVSPost2010Prop34
280
     0
102
RTVSPost2010PropOp34
 70
     1
102
RTVSPost2010Prop35
280
     0
102
RTVSPost2010PropOp35
 70
     1
102
RTVSPost2010Prop36
280
     0
102
RTVSPost2010PropOp36
 70
     1
102
RTVSPost2010Prop37
 90
       50
102
RTVSPost2010PropOp37
 70
     1
102
RTVSPost2010Prop38
140
0.0
102
RTVSPost2010PropOp38
 70
     1
102
RTVSPost2010Prop39
140
1.0
102
RTVSPost2010PropOp39
 70
     1
102
RTVSPost2010Prop40
 90
        0
102
RTVSPost2010PropOp40
 70
     1
102
RTVSPost2010Prop41ColorIndex
 90
       18
102
RTVSPost2010Prop41ColorRGB
 90
        0
102
RTVSPost2010PropOp41
 70
     1
102
RTVSPost2010Prop42
 90
       50
102
RTVSPost2010PropOp42
 70
     1
102
RTVSPost2010Prop43
 90
        3
102
RTVSPost2010PropOp43
 70
     1
102
RTVSPost2010Prop44ColorIndex
 90
        5
102
RTVSPost2010Prop44ColorRGB
 90
      255
102
RTVSPost2010PropOp44
 70
     1
102
RTVSPost2010Prop45
280
     0
102
RTVSPost2010PropOp45
 70
     1
102
RTVSPost2010Prop46
 90
       50
102
RTVSPost2010PropOp46
 70
     1
102
RTVSPost2010Prop47
 90
       50
102
RTVSPost2010PropOp47
 70
     1
102
RTVSPost2010Prop48
 90
       50
102
RTVSPost2010PropOp48
 70
     1
102
RTVSPost2010Prop49
280
     0
102
RTVSPost2010PropOp49
 70
     1
102
RTVSPost2010Prop50
 90
       50
102
RTVSPost2010PropOp50
 70
     1
102
RTVSPost2010Prop51ColorIndex
 90
      256
102
RTVSPost2010Prop51ColorRGB
 90
-16777216
102
RTVSPost2010PropOp51
 70
     0
102
RTVSPost2010Prop52
140
1.0
102
RTVSPost2010PropOp52
 70
     0
102
RTVSPost2010Prop53
 90
        2
102
RTVSPost2010PropOp53
 70
     1
102
RTVSPost2010Prop54
  1
strokes_ogs.tif
102
RTVSPost2010PropOp54
 70
     1
102
RTVSPost2010Prop55
280
     0
102
RTVSPost2010PropOp55
 70
     1
102
RTVSPost2010Prop56
140
1.0
102
RTVSPost2010PropOp56
 70
     1
102
RTVSPost2010Prop57
140
1.0
102
RTVSPost2010PropOp57
 70
     1
  0
XRECORD
  5
144
102
{ACAD_REACTORS
330
143
102
}
330
143
100
AcDbXrecord
280
     1
102
RTVSPropertyOp0
 70
     1
102
RTVSPropertyOp1
 70
     1
102
RTVSPropertyOp2
 70
     1
102
RTVSPropertyOp3
 70
     1
102
RTVSPropertyOp4
 70
     1
102
RTVSPropertyOp5
 70
     1
102
RTVSPropertyOp6
 70
     1
102
RTVSPropertyOp7
 70
     1
102
RTVSPropertyOp8
 70
     1
102
RTVSPropertyOp9
 70
     1
102
RTVSPropertyOp10
 70
     1
102
RTVSPropertyOp11
 70
     1
102
RTVSPropertyOp12
 70
     1
102
RTVSPropertyOp13
 70
     1
102
RTVSPropertyOp14
 70
     1
102
RTVSPropertyOp15
 70
     1
102
RTVSPropertyOp16
 70
     1
102
RTVSPropertyOp17
 70
     1
102
RTVSPropertyOp18
 70
     1
102
RTVSPropertyOp19
 70
     1
102
RTVSPropertyOp20
 70
     1
102
RTVSPropertyOp21
 70
     1
102
RTVSPropertyOp22
 70
     1
102
RTVSPropertyOp23
 70
     1
102
RTVSPropertyOp24
 70
     1
102
RTVSPropertyOp25
 70
     1
102
RTVSPropertyOp26
 70
     1
102
RTVSPropertyOp27
 70
     1
102
RTVSPropertyOp28
 70
     1
102
RTVSPropertyOp29
 70
     1
102
RTVSPropertyOp30
 70
     1
102
RTVSPropertyOp31
 70
     1
102
RTVSPropertyOp32
 70
     1
102
RTVSPropertyOp33
 70
     1
102
RTVSPropertyOp34
 70
     1
102
RTVSPropertyOp35
 70
     1
102
RTVSPropertyOp36
 70
     1
102
RTVSPropertyOp37
 70
     1
102
RTVSPropertyOp38
 70
     1
102
RTVSPropertyOp39
 70
     1
102
RTVSPropertyOp40
 70
     1
102
RTVSPropertyOp41
 70
     1
102
RTVSPropertyOp42
 70
     1
102
RTVSPropertyOp43
 70
     1
102
RTVSPropertyOp44
 70
     1
102
RTVSPropertyOp45
 70
     1
102
RTVSPropertyOp46
 70
     1
102
RTVSPropertyOp47
 70
     1
102
RTVSPropertyOp48
 70
     1
102
RTVSPropertyOp49
 70
     1
102
RTVSPropertyOp50
 70
     1
102
RTVSPropertyOp51
 70
     0
102
RTVSPropertyOp52
 70
     0
102
RTVSPropertyOp53
 70
     1
102
RTVSPropertyOp54
 70
     1
102
RTVSPropertyOp55
 70
     1
102
RTVSPropertyOp56
 70
     1
102
RTVSPropertyOp57
 70
     1
102
RTVSPost2010Prop28
280
     0
102
RTVSPost2010PropOp28
 70
     1
102
RTVSPost2010Prop29
280
     1
102
RTVSPost2010PropOp29
 70
     1
102
RTVSPost2010Prop30
280
     1
102
RTVSPost2010PropOp30
 70
     1
102
RTVSPost2010Prop31
280
     0
102
RTVSPost2010PropOp31
 70
     1
102
RTVSPost2010Prop32
280
     0
102
RTVSPost2010PropOp32
 70
     1
102
RTVSPost2010Prop33
280
     0
102
RTVSPost2010PropOp33
 70
     1
102
RTVSPost2010Prop34
280
     0
102
RTVSPost2010PropOp34
 70
     1
102
RTVSPost2010Prop35
280
     0
102
RTVSPost2010PropOp35
 70
     1
102
RTVSPost2010Prop36
280
     0
102
RTVSPost2010PropOp36
 70
     1
102
RTVSPost2010Prop37
 90
       50
102
RTVSPost2010PropOp37
 70
     1
102
RTVSPost2010Prop38
140
0.0
102
RTVSPost2010PropOp38
 70
     1
102
RTVSPost2010Prop39
140
1.0
102
RTVSPost2010PropOp39
 70
     1
102
RTVSPost2010Prop40
 90
        0
102
RTVSPost2010PropOp40
 70
     1
102
RTVSPost2010Prop41ColorIndex
 90
       18
102
RTVSPost2010Prop41ColorRGB
 90
        0
102
RTVSPost2010PropOp41
 70
     1
102
RTVSPost2010Prop42
 90
       50
102
RTVSPost2010PropOp42
 70
     1
102
RTVSPost2010Prop43
 90
        3
102
RTVSPost2010PropOp43
 70
     1
102
RTVSPost2010Prop44ColorIndex
 90
        5
102
RTVSPost2010Prop44ColorRGB
 90
      255
102
RTVSPost2010PropOp44
 70
     1
102
RTVSPost2010Prop45
280
     0
102
RTVSPost2010PropOp45
 70
     1
102
RTVSPost2010Prop46
 90
       50
102
RTVSPost2010PropOp46
 70
     1
102
RTVSPost2010Prop47
 90
       50
102
RTVSPost2010PropOp47
 70
     1
102
RTVSPost2010Prop48
 90
       50
102
RTVSPost2010PropOp48
 70
     1
102
RTVSPost2010Prop49
280
     0
102
RTVSPost2010PropOp49
 70
     1
102
RTVSPost2010Prop50
 90
       50
102
RTVSPost2010PropOp50
 70
     1
102
RTVSPost2010Prop51ColorIndex
 90
      256
102
RTVSPost2010Prop51ColorRGB
 90
-16777216
102
RTVSPost2010PropOp51
 70
     0
102
RTVSPost2010Prop52
140
1.0
102
RTVSPost2010PropOp52
 70
     0
102
RTVSPost2010Prop53
 90
        2
102
RTVSPost2010PropOp53
 70
     1
102
RTVSPost2010Prop54
  1
strokes_ogs.tif
102
RTVSPost2010PropOp54
 70
     1
102
RTVSPost2010Prop55
280
     0
102
RTVSPost2010PropOp55
 70
     1
102
RTVSPost2010Prop56
140
1.0
102
RTVSPost2010PropOp56
 70
     1
102
RTVSPost2010Prop57
140
1.0
102
RTVSPost2010PropOp57
 70
     1
  0
XRECORD
  5
14C
102
{ACAD_REACTORS
330
14B
102
}
330
14B
100
AcDbXrecord
280
     1
102
RTVSPropertyOp0
 70
     1
102
RTVSPropertyOp1
 70
     1
102
RTVSPropertyOp2
 70
     1
102
RTVSPropertyOp3
 70
     1
102
RTVSPropertyOp4
 70
     1
102
RTVSPropertyOp5
 70
     1
102
RTVSPropertyOp6
 70
     1
102
RTVSPropertyOp7
 70
     1
102
RTVSPropertyOp8
 70
     1
102
RTVSPropertyOp9
 70
     1
102
RTVSPropertyOp10
 70
     1
102
RTVSPropertyOp11
 70
     1
102
RTVSPropertyOp12
 70
     1
102
RTVSPropertyOp13
 70
     1
102
RTVSPropertyOp14
 70
     1
102
RTVSPropertyOp15
 70
     1
102
RTVSPropertyOp16
 70
     1
102
RTVSPropertyOp17
 70
     1
102
RTVSPropertyOp18
 70
     1
102
RTVSPropertyOp19
 70
     1
102
RTVSPropertyOp20
 70
     1
102
RTVSPropertyOp21
 70
     1
102
RTVSPropertyOp22
 70
     1
102
RTVSPropertyOp23
 70
     1
102
RTVSPropertyOp24
 70
     1
102
RTVSPropertyOp25
 70
     1
102
RTVSPropertyOp26
 70
     1
102
RTVSPropertyOp27
 70
     1
102
RTVSPropertyOp28
 70
     1
102
RTVSPropertyOp29
 70
     1
102
RTVSPropertyOp30
 70
     1
102
RTVSPropertyOp31
 70
     1
102
RTVSPropertyOp32
 70
     1
102
RTVSPropertyOp33
 70
     1
102
RTVSPropertyOp34
 70
     1
102
RTVSPropertyOp35
 70
     1
102
RTVSPropertyOp36
 70
     1
102
RTVSPropertyOp37
 70
     1
102
RTVSPropertyOp38
 70
     1
102
RTVSPropertyOp39
 70
     1
102
RTVSPropertyOp40
 70
     1
102
RTVSPropertyOp41
 70
     1
102
RTVSPropertyOp42
 70
     1
102
RTVSPropertyOp43
 70
     1
102
RTVSPropertyOp44
 70
     1
102
RTVSPropertyOp45
 70
     1
102
RTVSPropertyOp46
 70
     1
102
RTVSPropertyOp47
 70
     1
102
RTVSPropertyOp48
 70
     1
102
RTVSPropertyOp49
 70
     1
102
RTVSPropertyOp50
 70
     1
102
RTVSPropertyOp51
 70
     0
102
RTVSPropertyOp52
 70
     0
102
RTVSPropertyOp53
 70
     1
102
RTVSPropertyOp54
 70
     1
102
RTVSPropertyOp55
 70
     1
102
RTVSPropertyOp56
 70
     1
102
RTVSPropertyOp57
 70
     1
102
RTVSPost2010Prop28
280
     0
102
RTVSPost2010PropOp28
 70
     1
102
RTVSPost2010Prop29
280
     1
102
RTVSPost2010PropOp29
 70
     1
102
RTVSPost2010Prop30
280
     1
102
RTVSPost2010PropOp30
 70
     1
102
RTVSPost2010Prop31
280
     0
102
RTVSPost2010PropOp31
 70
     1
102
RTVSPost2010Prop32
280
     0
102
RTVSPost2010PropOp32
 70
     1
102
RTVSPost2010Prop33
280
     0
102
RTVSPost2010PropOp33
 70
     1
102
RTVSPost2010Prop34
280
     0
102
RTVSPost2010PropOp34
 70
     1
102
RTVSPost2010Prop35
280
     0
102
RTVSPost2010PropOp35
 70
     1
102
RTVSPost2010Prop36
280
     0
102
RTVSPost2010PropOp36
 70
     1
102
RTVSPost2010Prop37
 90
       50
102
RTVSPost2010PropOp37
 70
     1
102
RTVSPost2010Prop38
140
0.0
102
RTVSPost2010PropOp38
 70
     1
102
RTVSPost2010Prop39
140
1.0
102
RTVSPost2010PropOp39
 70
     1
102
RTVSPost2010Prop40
 90
        0
102
RTVSPost2010PropOp40
 70
     1
102
RTVSPost2010Prop41ColorIndex
 90
       18
102
RTVSPost2010Prop41ColorRGB
 90
        0
102
RTVSPost2010PropOp41
 70
     1
102
RTVSPost2010Prop42
 90
       50
102
RTVSPost2010PropOp42
 70
     1
102
RTVSPost2010Prop43
 90
        3
102
RTVSPost2010PropOp43
 70
     1
102
RTVSPost2010Prop44ColorIndex
 90
        5
102
RTVSPost2010Prop44ColorRGB
 90
      255
102
RTVSPost2010PropOp44
 70
     1
102
RTVSPost2010Prop45
280
     0
102
RTVSPost2010PropOp45
 70
     1
102
RTVSPost2010Prop46
 90
       50
102
RTVSPost2010PropOp46
 70
     1
102
RTVSPost2010Prop47
 90
       50
102
RTVSPost2010PropOp47
 70
     1
102
RTVSPost2010Prop48
 90
       50
102
RTVSPost2010PropOp48
 70
     1
102
RTVSPost2010Prop49
280
     0
102
RTVSPost2010PropOp49
 70
     1
102
RTVSPost2010Prop50
 90
       50
102
RTVSPost2010PropOp50
 70
     1
102
RTVSPost2010Prop51ColorIndex
 90
      256
102
RTVSPost2010Prop51ColorRGB
 90
-16777216
102
RTVSPost2010PropOp51
 70
     0
102
RTVSPost2010Prop52
140
1.0
102
RTVSPost2010PropOp52
 70
     0
102
RTVSPost2010Prop53
 90
        2
102
RTVSPost2010PropOp53
 70
     1
102
RTVSPost2010Prop54
  1
strokes_ogs.tif
102
RTVSPost2010PropOp54
 70
     1
102
RTVSPost2010Prop55
280
     0
102
RTVSPost2010PropOp55
 70
     1
102
RTVSPost2010Prop56
140
1.0
102
RTVSPost2010PropOp56
 70
     1
102
RTVSPost2010Prop57
140
1.0
102
RTVSPost2010PropOp57
 70
     1
  0
XRECORD
  5
140
102
{ACAD_REACTORS
330
13F
102
}
330
13F
100
AcDbXrecord
280
     1
102
RTVSPropertyOp0
 70
     1
102
RTVSPropertyOp1
 70
     1
102
RTVSPropertyOp2
 70
     1
102
RTVSPropertyOp3
 70
     1
102
RTVSPropertyOp4
 70
     1
102
RTVSPropertyOp5
 70
     1
102
RTVSPropertyOp6
 70
     1
102
RTVSPropertyOp7
 70
     1
102
RTVSPropertyOp8
 70
     1
102
RTVSPropertyOp9
 70
     1
102
RTVSPropertyOp10
 70
     1
102
RTVSPropertyOp11
 70
     1
102
RTVSPropertyOp12
 70
     1
102
RTVSPropertyOp13
 70
     1
102
RTVSPropertyOp14
 70
     1
102
RTVSPropertyOp15
 70
     1
102
RTVSPropertyOp16
 70
     1
102
RTVSPropertyOp17
 70
     1
102
RTVSPropertyOp18
 70
     1
102
RTVSPropertyOp19
 70
     1
102
RTVSPropertyOp20
 70
     1
102
RTVSPropertyOp21
 70
     1
102
RTVSPropertyOp22
 70
     1
102
RTVSPropertyOp23
 70
     1
102
RTVSPropertyOp24
 70
     1
102
RTVSPropertyOp25
 70
     1
102
RTVSPropertyOp26
 70
     1
102
RTVSPropertyOp27
 70
     1
102
RTVSPropertyOp28
 70
     1
102
RTVSPropertyOp29
 70
     1
102
RTVSPropertyOp30
 70
     1
102
RTVSPropertyOp31
 70
     1
102
RTVSPropertyOp32
 70
     1
102
RTVSPropertyOp33
 70
     1
102
RTVSPropertyOp34
 70
     1
102
RTVSPropertyOp35
 70
     1
102
RTVSPropertyOp36
 70
     1
102
RTVSPropertyOp37
 70
     1
102
RTVSPropertyOp38
 70
     1
102
RTVSPropertyOp39
 70
     1
102
RTVSPropertyOp40
 70
     1
102
RTVSPropertyOp41
 70
     1
102
RTVSPropertyOp42
 70
     1
102
RTVSPropertyOp43
 70
     1
102
RTVSPropertyOp44
 70
     1
102
RTVSPropertyOp45
 70
     1
102
RTVSPropertyOp46
 70
     1
102
RTVSPropertyOp47
 70
     1
102
RTVSPropertyOp48
 70
     1
102
RTVSPropertyOp49
 70
     1
102
RTVSPropertyOp50
 70
     1
102
RTVSPropertyOp51
 70
     0
102
RTVSPropertyOp52
 70
     0
102
RTVSPropertyOp53
 70
     1
102
RTVSPropertyOp54
 70
     1
102
RTVSPropertyOp55
 70
     1
102
RTVSPropertyOp56
 70
     1
102
RTVSPropertyOp57
 70
     1
102
RTVSPost2010Prop28
280
     0
102
RTVSPost2010PropOp28
 70
     1
102
RTVSPost2010Prop29
280
     1
102
RTVSPost2010PropOp29
 70
     1
102
RTVSPost2010Prop30
280
     1
102
RTVSPost2010PropOp30
 70
     1
102
RTVSPost2010Prop31
280
     0
102
RTVSPost2010PropOp31
 70
     1
102
RTVSPost2010Prop32
280
     0
102
RTVSPost2010PropOp32
 70
     1
102
RTVSPost2010Prop33
280
     0
102
RTVSPost2010PropOp33
 70
     1
102
RTVSPost2010Prop34
280
     0
102
RTVSPost2010PropOp34
 70
     1
102
RTVSPost2010Prop35
280
     0
102
RTVSPost2010PropOp35
 70
     1
102
RTVSPost2010Prop36
280
     0
102
RTVSPost2010PropOp36
 70
     1
102
RTVSPost2010Prop37
 90
       50
102
RTVSPost2010PropOp37
 70
     1
102
RTVSPost2010Prop38
140
0.0
102
RTVSPost2010PropOp38
 70
     1
102
RTVSPost2010Prop39
140
1.0
102
RTVSPost2010PropOp39
 70
     1
102
RTVSPost2010Prop40
 90
        0
102
RTVSPost2010PropOp40
 70
     1
102
RTVSPost2010Prop41ColorIndex
 90
       18
102
RTVSPost2010Prop41ColorRGB
 90
        0
102
RTVSPost2010PropOp41
 70
     1
102
RTVSPost2010Prop42
 90
       50
102
RTVSPost2010PropOp42
 70
     1
102
RTVSPost2010Prop43
 90
        3
102
RTVSPost2010PropOp43
 70
     1
102
RTVSPost2010Prop44ColorIndex
 90
        5
102
RTVSPost2010Prop44ColorRGB
 90
      255
102
RTVSPost2010PropOp44
 70
     1
102
RTVSPost2010Prop45
280
     0
102
RTVSPost2010PropOp45
 70
     1
102
RTVSPost2010Prop46
 90
       50
102
RTVSPost2010PropOp46
 70
     1
102
RTVSPost2010Prop47
 90
       50
102
RTVSPost2010PropOp47
 70
     1
102
RTVSPost2010Prop48
 90
       50
102
RTVSPost2010PropOp48
 70
     1
102
RTVSPost2010Prop49
280
     0
102
RTVSPost2010PropOp49
 70
     1
102
RTVSPost2010Prop50
 90
       50
102
RTVSPost2010PropOp50
 70
     1
102
RTVSPost2010Prop51ColorIndex
 90
      256
102
RTVSPost2010Prop51ColorRGB
 90
-16777216
102
RTVSPost2010PropOp51
 70
     0
102
RTVSPost2010Prop52
140
1.0
102
RTVSPost2010PropOp52
 70
     0
102
RTVSPost2010Prop53
 90
        2
102
RTVSPost2010PropOp53
 70
     1
102
RTVSPost2010Prop54
  1
strokes_ogs.tif
102
RTVSPost2010PropOp54
 70
     1
102
RTVSPost2010Prop55
280
     0
102
RTVSPost2010PropOp55
 70
     1
102
RTVSPost2010Prop56
140
1.0
102
RTVSPost2010PropOp56
 70
     1
102
RTVSPost2010Prop57
140
1.0
102
RTVSPost2010PropOp57
 70
     1
  0
XRECORD
  5
142
102
{ACAD_REACTORS
330
141
102
}
330
141
100
AcDbXrecord
280
     1
102
RTVSPropertyOp0
 70
     1
102
RTVSPropertyOp1
 70
     1
102
RTVSPropertyOp2
 70
     1
102
RTVSPropertyOp3
 70
     1
102
RTVSPropertyOp4
 70
     1
102
RTVSPropertyOp5
 70
     1
102
RTVSPropertyOp6
 70
     1
102
RTVSPropertyOp7
 70
     1
102
RTVSPropertyOp8
 70
     1
102
RTVSPropertyOp9
 70
     1
102
RTVSPropertyOp10
 70
     1
102
RTVSPropertyOp11
 70
     1
102
RTVSPropertyOp12
 70
     1
102
RTVSPropertyOp13
 70
     1
102
RTVSPropertyOp14
 70
     1
102
RTVSPropertyOp15
 70
     1
102
RTVSPropertyOp16
 70
     1
102
RTVSPropertyOp17
 70
     1
102
RTVSPropertyOp18
 70
     1
102
RTVSPropertyOp19
 70
     1
102
RTVSPropertyOp20
 70
     1
102
RTVSPropertyOp21
 70
     1
102
RTVSPropertyOp22
 70
     1
102
RTVSPropertyOp23
 70
     1
102
RTVSPropertyOp24
 70
     1
102
RTVSPropertyOp25
 70
     1
102
RTVSPropertyOp26
 70
     1
102
RTVSPropertyOp27
 70
     1
102
RTVSPropertyOp28
 70
     1
102
RTVSPropertyOp29
 70
     1
102
RTVSPropertyOp30
 70
     1
102
RTVSPropertyOp31
 70
     1
102
RTVSPropertyOp32
 70
     1
102
RTVSPropertyOp33
 70
     1
102
RTVSPropertyOp34
 70
     1
102
RTVSPropertyOp35
 70
     1
102
RTVSPropertyOp36
 70
     1
102
RTVSPropertyOp37
 70
     1
102
RTVSPropertyOp38
 70
     1
102
RTVSPropertyOp39
 70
     1
102
RTVSPropertyOp40
 70
     1
102
RTVSPropertyOp41
 70
     1
102
RTVSPropertyOp42
 70
     1
102
RTVSPropertyOp43
 70
     1
102
RTVSPropertyOp44
 70
     1
102
RTVSPropertyOp45
 70
     1
102
RTVSPropertyOp46
 70
     1
102
RTVSPropertyOp47
 70
     1
102
RTVSPropertyOp48
 70
     1
102
RTVSPropertyOp49
 70
     1
102
RTVSPropertyOp50
 70
     1
102
RTVSPropertyOp51
 70
     0
102
RTVSPropertyOp52
 70
     0
102
RTVSPropertyOp53
 70
     1
102
RTVSPropertyOp54
 70
     1
102
RTVSPropertyOp55
 70
     1
102
RTVSPropertyOp56
 70
     1
102
RTVSPropertyOp57
 70
     1
102
RTVSPost2010Prop28
280
     0
102
RTVSPost2010PropOp28
 70
     1
102
RTVSPost2010Prop29
280
     1
102
RTVSPost2010PropOp29
 70
     1
102
RTVSPost2010Prop30
280
     1
102
RTVSPost2010PropOp30
 70
     1
102
RTVSPost2010Prop31
280
     0
102
RTVSPost2010PropOp31
 70
     1
102
RTVSPost2010Prop32
280
     0
102
RTVSPost2010PropOp32
 70
     1
102
RTVSPost2010Prop33
280
     0
102
RTVSPost2010PropOp33
 70
     1
102
RTVSPost2010Prop34
280
     0
102
RTVSPost2010PropOp34
 70
     1
102
RTVSPost2010Prop35
280
     0
102
RTVSPost2010PropOp35
 70
     1
102
RTVSPost2010Prop36
280
     0
102
RTVSPost2010PropOp36
 70
     1
102
RTVSPost2010Prop37
 90
       50
102
RTVSPost2010PropOp37
 70
     1
102
RTVSPost2010Prop38
140
0.0
102
RTVSPost2010PropOp38
 70
     1
102
RTVSPost2010Prop39
140
1.0
102
RTVSPost2010PropOp39
 70
     1
102
RTVSPost2010Prop40
 90
        0
102
RTVSPost2010PropOp40
 70
     1
102
RTVSPost2010Prop41ColorIndex
 90
       18
102
RTVSPost2010Prop41ColorRGB
 90
        0
102
RTVSPost2010PropOp41
 70
     1
102
RTVSPost2010Prop42
 90
       50
102
RTVSPost2010PropOp42
 70
     1
102
RTVSPost2010Prop43
 90
        3
102
RTVSPost2010PropOp43
 70
     1
102
RTVSPost2010Prop44ColorIndex
 90
        5
102
RTVSPost2010Prop44ColorRGB
 90
      255
102
RTVSPost2010PropOp44
 70
     1
102
RTVSPost2010Prop45
280
     0
102
RTVSPost2010PropOp45
 70
     1
102
RTVSPost2010Prop46
 90
       50
102
RTVSPost2010PropOp46
 70
     1
102
RTVSPost2010Prop47
 90
       50
102
RTVSPost2010PropOp47
 70
     1
102
RTVSPost2010Prop48
 90
       50
102
RTVSPost2010PropOp48
 70
     1
102
RTVSPost2010Prop49
280
     0
102
RTVSPost2010PropOp49
 70
     1
102
RTVSPost2010Prop50
 90
       50
102
RTVSPost2010PropOp50
 70
     1
102
RTVSPost2010Prop51ColorIndex
 90
      256
102
RTVSPost2010Prop51ColorRGB
 90
-16777216
102
RTVSPost2010PropOp51
 70
     0
102
RTVSPost2010Prop52
140
1.0
102
RTVSPost2010PropOp52
 70
     0
102
RTVSPost2010Prop53
 90
        2
102
RTVSPost2010PropOp53
 70
     1
102
RTVSPost2010Prop54
  1
strokes_ogs.tif
102
RTVSPost2010PropOp54
 70
     1
102
RTVSPost2010Prop55
280
     0
102
RTVSPost2010PropOp55
 70
     1
102
RTVSPost2010Prop56
140
1.0
102
RTVSPost2010PropOp56
 70
     1
102
RTVSPost2010Prop57
140
1.0
102
RTVSPost2010PropOp57
 70
     1
  0
XRECORD
  5
152
102
{ACAD_REACTORS
330
151
102
}
330
151
100
AcDbXrecord
280
     1
102
RTVSPropertyOp0
 70
     0
102
RTVSPropertyOp1
 70
     0
102
RTVSPropertyOp2
 70
     0
102
RTVSPropertyOp3
 70
     0
102
RTVSPropertyOp4
 70
     0
102
RTVSPropertyOp5
 70
     0
102
RTVSPropertyOp6
 70
     0
102
RTVSPropertyOp7
 70
     0
102
RTVSPropertyOp8
 70
     0
102
RTVSPropertyOp9
 70
     0
102
RTVSPropertyOp10
 70
     0
102
RTVSPropertyOp11
 70
     0
102
RTVSPropertyOp12
 70
     0
102
RTVSPropertyOp13
 70
     0
102
RTVSPropertyOp14
 70
     2
102
RTVSPropertyOp15
 70
     0
102
RTVSPropertyOp16
 70
     0
102
RTVSPropertyOp17
 70
     0
102
RTVSPropertyOp18
 70
     0
102
RTVSPropertyOp19
 70
     0
102
RTVSPropertyOp20
 70
     0
102
RTVSPropertyOp21
 70
     0
102
RTVSPropertyOp22
 70
     0
102
RTVSPropertyOp23
 70
     0
102
RTVSPropertyOp24
 70
     0
102
RTVSPropertyOp25
 70
     0
102
RTVSPropertyOp26
 70
     0
102
RTVSPropertyOp27
 70
     0
102
RTVSPropertyOp28
 70
     0
102
RTVSPropertyOp29
 70
     0
102
RTVSPropertyOp30
 70
     0
102
RTVSPropertyOp31
 70
     0
102
RTVSPropertyOp32
 70
     0
102
RTVSPropertyOp33
 70
     0
102
RTVSPropertyOp34
 70
     0
102
RTVSPropertyOp35
 70
     0
102
RTVSPropertyOp36
 70
     0
102
RTVSPropertyOp37
 70
     0
102
RTVSPropertyOp38
 70
     0
102
RTVSPropertyOp39
 70
     0
102
RTVSPropertyOp40
 70
     0
102
RTVSPropertyOp41
 70
     0
102
RTVSPropertyOp42
 70
     0
102
RTVSPropertyOp43
 70
     0
102
RTVSPropertyOp44
 70
     0
102
RTVSPropertyOp45
 70
     0
102
RTVSPropertyOp46
 70
     0
102
RTVSPropertyOp47
 70
     0
102
RTVSPropertyOp48
 70
     0
102
RTVSPropertyOp49
 70
     0
102
RTVSPropertyOp50
 70
     0
102
RTVSPropertyOp51
 70
     0
102
RTVSPropertyOp52
 70
     0
102
RTVSPropertyOp53
 70
     0
102
RTVSPropertyOp54
 70
     0
102
RTVSPropertyOp55
 70
     0
102
RTVSPropertyOp56
 70
     0
102
RTVSPropertyOp57
 70
     0
102
RTVSPost2010Prop28
280
     0
102
RTVSPost2010PropOp28
 70
     0
102
RTVSPost2010Prop29
280
     1
102
RTVSPost2010PropOp29
 70
     0
102
RTVSPost2010Prop30
280
     1
102
RTVSPost2010PropOp30
 70
     0
102
RTVSPost2010Prop31
280
     0
102
RTVSPost2010PropOp31
 70
     0
102
RTVSPost2010Prop32
280
     0
102
RTVSPost2010PropOp32
 70
     0
102
RTVSPost2010Prop33
280
     0
102
RTVSPost2010PropOp33
 70
     0
102
RTVSPost2010Prop34
280
     0
102
RTVSPost2010PropOp34
 70
     0
102
RTVSPost2010Prop35
280
     0
102
RTVSPost2010PropOp35
 70
     0
102
RTVSPost2010Prop36
280
     0
102
RTVSPost2010PropOp36
 70
     0
102
RTVSPost2010Prop37
 90
       50
102
RTVSPost2010PropOp37
 70
     0
102
RTVSPost2010Prop38
140
0.0
102
RTVSPost2010PropOp38
 70
     0
102
RTVSPost2010Prop39
140
1.0
102
RTVSPost2010PropOp39
 70
     0
102
RTVSPost2010Prop40
 90
        0
102
RTVSPost2010PropOp40
 70
     0
102
RTVSPost2010Prop41ColorIndex
 90
       18
102
RTVSPost2010Prop41ColorRGB
 90
        0
102
RTVSPost2010PropOp41
 70
     0
102
RTVSPost2010Prop42
 90
       50
102
RTVSPost2010PropOp42
 70
     0
102
RTVSPost2010Prop43
 90
        3
102
RTVSPost2010PropOp43
 70
     0
102
RTVSPost2010Prop44ColorIndex
 90
        5
102
RTVSPost2010Prop44ColorRGB
 90
      255
102
RTVSPost2010PropOp44
 70
     0
102
RTVSPost2010Prop45
280
     0
102
RTVSPost2010PropOp45
 70
     0
102
RTVSPost2010Prop46
 90
       50
102
RTVSPost2010PropOp46
 70
     0
102
RTVSPost2010Prop47
 90
       50
102
RTVSPost2010PropOp47
 70
     0
102
RTVSPost2010Prop48
 90
       50
102
RTVSPost2010PropOp48
 70
     0
102
RTVSPost2010Prop49
280
     0
102
RTVSPost2010PropOp49
 70
     0
102
RTVSPost2010Prop50
 90
       50
102
RTVSPost2010PropOp50
 70
     0
102
RTVSPost2010Prop51ColorIndex
 90
      256
102
RTVSPost2010Prop51ColorRGB
 90
-16777216
102
RTVSPost2010PropOp51
 70
     0
102
RTVSPost2010Prop52
140
1.0
102
RTVSPost2010PropOp52
 70
     0
102
RTVSPost2010Prop53
 90
        2
102
RTVSPost2010PropOp53
 70
     0
102
RTVSPost2010Prop54
  1
strokes_ogs.tif
102
RTVSPost2010PropOp54
 70
     0
102
RTVSPost2010Prop55
280
     0
102
RTVSPost2010PropOp55
 70
     0
102
RTVSPost2010Prop56
140
1.0
102
RTVSPost2010PropOp56
 70
     0
102
RTVSPost2010Prop57
140
1.0
102
RTVSPost2010PropOp57
 70
     0
  0
XRECORD
  5
14A
102
{ACAD_REACTORS
330
149
102
}
330
149
100
AcDbXrecord
280
     1
102
RTVSPropertyOp0
 70
     1
102
RTVSPropertyOp1
 70
     1
102
RTVSPropertyOp2
 70
     1
102
RTVSPropertyOp3
 70
     1
102
RTVSPropertyOp4
 70
     1
102
RTVSPropertyOp5
 70
     1
102
RTVSPropertyOp6
 70
     1
102
RTVSPropertyOp7
 70
     1
102
RTVSPropertyOp8
 70
     1
102
RTVSPropertyOp9
 70
     1
102
RTVSPropertyOp10
 70
     1
102
RTVSPropertyOp11
 70
     1
102
RTVSPropertyOp12
 70
     1
102
RTVSPropertyOp13
 70
     1
102
RTVSPropertyOp14
 70
     1
102
RTVSPropertyOp15
 70
     1
102
RTVSPropertyOp16
 70
     1
102
RTVSPropertyOp17
 70
     1
102
RTVSPropertyOp18
 70
     1
102
RTVSPropertyOp19
 70
     1
102
RTVSPropertyOp20
 70
     1
102
RTVSPropertyOp21
 70
     1
102
RTVSPropertyOp22
 70
     1
102
RTVSPropertyOp23
 70
     1
102
RTVSPropertyOp24
 70
     1
102
RTVSPropertyOp25
 70
     1
102
RTVSPropertyOp26
 70
     1
102
RTVSPropertyOp27
 70
     1
102
RTVSPropertyOp28
 70
     1
102
RTVSPropertyOp29
 70
     1
102
RTVSPropertyOp30
 70
     1
102
RTVSPropertyOp31
 70
     1
102
RTVSPropertyOp32
 70
     1
102
RTVSPropertyOp33
 70
     1
102
RTVSPropertyOp34
 70
     1
102
RTVSPropertyOp35
 70
     1
102
RTVSPropertyOp36
 70
     1
102
RTVSPropertyOp37
 70
     1
102
RTVSPropertyOp38
 70
     1
102
RTVSPropertyOp39
 70
     1
102
RTVSPropertyOp40
 70
     1
102
RTVSPropertyOp41
 70
     1
102
RTVSPropertyOp42
 70
     1
102
RTVSPropertyOp43
 70
     1
102
RTVSPropertyOp44
 70
     1
102
RTVSPropertyOp45
 70
     1
102
RTVSPropertyOp46
 70
     1
102
RTVSPropertyOp47
 70
     1
102
RTVSPropertyOp48
 70
     1
102
RTVSPropertyOp49
 70
     1
102
RTVSPropertyOp50
 70
     1
102
RTVSPropertyOp51
 70
     0
102
RTVSPropertyOp52
 70
     0
102
RTVSPropertyOp53
 70
     1
102
RTVSPropertyOp54
 70
     1
102
RTVSPropertyOp55
 70
     1
102
RTVSPropertyOp56
 70
     1
102
RTVSPropertyOp57
 70
     1
102
RTVSPost2010Prop28
280
     0
102
RTVSPost2010PropOp28
 70
     1
102
RTVSPost2010Prop29
280
     1
102
RTVSPost2010PropOp29
 70
     1
102
RTVSPost2010Prop30
280
     1
102
RTVSPost2010PropOp30
 70
     1
102
RTVSPost2010Prop31
280
     0
102
RTVSPost2010PropOp31
 70
     1
102
RTVSPost2010Prop32
280
     0
102
RTVSPost2010PropOp32
 70
     1
102
RTVSPost2010Prop33
280
     0
102
RTVSPost2010PropOp33
 70
     1
102
RTVSPost2010Prop34
280
     0
102
RTVSPost2010PropOp34
 70
     1
102
RTVSPost2010Prop35
280
     0
102
RTVSPost2010PropOp35
 70
     1
102
RTVSPost2010Prop36
280
     0
102
RTVSPost2010PropOp36
 70
     1
102
RTVSPost2010Prop37
 90
       50
102
RTVSPost2010PropOp37
 70
     1
102
RTVSPost2010Prop38
140
0.0
102
RTVSPost2010PropOp38
 70
     1
102
RTVSPost2010Prop39
140
1.0
102
RTVSPost2010PropOp39
 70
     1
102
RTVSPost2010Prop40
 90
        0
102
RTVSPost2010PropOp40
 70
     1
102
RTVSPost2010Prop41ColorIndex
 90
       18
102
RTVSPost2010Prop41ColorRGB
 90
        0
102
RTVSPost2010PropOp41
 70
     1
102
RTVSPost2010Prop42
 90
       50
102
RTVSPost2010PropOp42
 70
     1
102
RTVSPost2010Prop43
 90
        3
102
RTVSPost2010PropOp43
 70
     1
102
RTVSPost2010Prop44ColorIndex
 90
        5
102
RTVSPost2010Prop44ColorRGB
 90
      255
102
RTVSPost2010PropOp44
 70
     1
102
RTVSPost2010Prop45
280
     0
102
RTVSPost2010PropOp45
 70
     1
102
RTVSPost2010Prop46
 90
       50
102
RTVSPost2010PropOp46
 70
     1
102
RTVSPost2010Prop47
 90
       50
102
RTVSPost2010PropOp47
 70
     1
102
RTVSPost2010Prop48
 90
       50
102
RTVSPost2010PropOp48
 70
     1
102
RTVSPost2010Prop49
280
     0
102
RTVSPost2010PropOp49
 70
     1
102
RTVSPost2010Prop50
 90
       50
102
RTVSPost2010PropOp50
 70
     1
102
RTVSPost2010Prop51ColorIndex
 90
      256
102
RTVSPost2010Prop51ColorRGB
 90
-16777216
102
RTVSPost2010PropOp51
 70
     0
102
RTVSPost2010Prop52
140
1.0
102
RTVSPost2010PropOp52
 70
     0
102
RTVSPost2010Prop53
 90
        2
102
RTVSPost2010PropOp53
 70
     1
102
RTVSPost2010Prop54
  1
strokes_ogs.tif
102
RTVSPost2010PropOp54
 70
     1
102
RTVSPost2010Prop55
280
     0
102
RTVSPost2010PropOp55
 70
     1
102
RTVSPost2010Prop56
140
1.0
102
RTVSPost2010PropOp56
 70
     1
102
RTVSPost2010Prop57
140
1.0
102
RTVSPost2010PropOp57
 70
     1
  0
XRECORD
  5
12E
102
{ACAD_REACTORS
330
12D
102
}
330
12D
100
AcDbXrecord
280
     1
102
RTVSPropertyOp0
 70
     1
102
RTVSPropertyOp1
 70
     1
102
RTVSPropertyOp2
 70
     1
102
RTVSPropertyOp3
 70
     1
102
RTVSPropertyOp4
 70
     1
102
RTVSPropertyOp5
 70
     1
102
RTVSPropertyOp6
 70
     1
102
RTVSPropertyOp7
 70
     1
102
RTVSPropertyOp8
 70
     1
102
RTVSPropertyOp9
 70
     1
102
RTVSPropertyOp10
 70
     1
102
RTVSPropertyOp11
 70
     1
102
RTVSPropertyOp12
 70
     1
102
RTVSPropertyOp13
 70
     1
102
RTVSPropertyOp14
 70
     1
102
RTVSPropertyOp15
 70
     1
102
RTVSPropertyOp16
 70
     1
102
RTVSPropertyOp17
 70
     1
102
RTVSPropertyOp18
 70
     1
102
RTVSPropertyOp19
 70
     1
102
RTVSPropertyOp20
 70
     1
102
RTVSPropertyOp21
 70
     1
102
RTVSPropertyOp22
 70
     1
102
RTVSPropertyOp23
 70
     1
102
RTVSPropertyOp24
 70
     1
102
RTVSPropertyOp25
 70
     1
102
RTVSPropertyOp26
 70
     1
102
RTVSPropertyOp27
 70
     1
102
RTVSPropertyOp28
 70
     1
102
RTVSPropertyOp29
 70
     1
102
RTVSPropertyOp30
 70
     1
102
RTVSPropertyOp31
 70
     1
102
RTVSPropertyOp32
 70
     1
102
RTVSPropertyOp33
 70
     1
102
RTVSPropertyOp34
 70
     1
102
RTVSPropertyOp35
 70
     1
102
RTVSPropertyOp36
 70
     1
102
RTVSPropertyOp37
 70
     1
102
RTVSPropertyOp38
 70
     1
102
RTVSPropertyOp39
 70
     1
102
RTVSPropertyOp40
 70
     1
102
RTVSPropertyOp41
 70
     1
102
RTVSPropertyOp42
 70
     1
102
RTVSPropertyOp43
 70
     1
102
RTVSPropertyOp44
 70
     1
102
RTVSPropertyOp45
 70
     1
102
RTVSPropertyOp46
 70
     1
102
RTVSPropertyOp47
 70
     1
102
RTVSPropertyOp48
 70
     1
102
RTVSPropertyOp49
 70
     1
102
RTVSPropertyOp50
 70
     1
102
RTVSPropertyOp51
 70
     0
102
RTVSPropertyOp52
 70
     0
102
RTVSPropertyOp53
 70
     1
102
RTVSPropertyOp54
 70
     1
102
RTVSPropertyOp55
 70
     1
102
RTVSPropertyOp56
 70
     1
102
RTVSPropertyOp57
 70
     1
102
RTVSPost2010Prop28
280
     0
102
RTVSPost2010PropOp28
 70
     1
102
RTVSPost2010Prop29
280
     1
102
RTVSPost2010PropOp29
 70
     1
102
RTVSPost2010Prop30
280
     1
102
RTVSPost2010PropOp30
 70
     1
102
RTVSPost2010Prop31
280
     0
102
RTVSPost2010PropOp31
 70
     1
102
RTVSPost2010Prop32
280
     0
102
RTVSPost2010PropOp32
 70
     1
102
RTVSPost2010Prop33
280
     0
102
RTVSPost2010PropOp33
 70
     1
102
RTVSPost2010Prop34
280
     0
102
RTVSPost2010PropOp34
 70
     1
102
RTVSPost2010Prop35
280
     0
102
RTVSPost2010PropOp35
 70
     1
102
RTVSPost2010Prop36
280
     0
102
RTVSPost2010PropOp36
 70
     1
102
RTVSPost2010Prop37
 90
       50
102
RTVSPost2010PropOp37
 70
     1
102
RTVSPost2010Prop38
140
0.0
102
RTVSPost2010PropOp38
 70
     1
102
RTVSPost2010Prop39
140
1.0
102
RTVSPost2010PropOp39
 70
     1
102
RTVSPost2010Prop40
 90
        0
102
RTVSPost2010PropOp40
 70
     1
102
RTVSPost2010Prop41ColorIndex
 90
       18
102
RTVSPost2010Prop41ColorRGB
 90
        0
102
RTVSPost2010PropOp41
 70
     1
102
RTVSPost2010Prop42
 90
       50
102
RTVSPost2010PropOp42
 70
     1
102
RTVSPost2010Prop43
 90
        3
102
RTVSPost2010PropOp43
 70
     1
102
RTVSPost2010Prop44ColorIndex
 90
        5
102
RTVSPost2010Prop44ColorRGB
 90
      255
102
RTVSPost2010PropOp44
 70
     1
102
RTVSPost2010Prop45
280
     0
102
RTVSPost2010PropOp45
 70
     1
102
RTVSPost2010Prop46
 90
       50
102
RTVSPost2010PropOp46
 70
     1
102
RTVSPost2010Prop47
 90
       50
102
RTVSPost2010PropOp47
 70
     1
102
RTVSPost2010Prop48
 90
       50
102
RTVSPost2010PropOp48
 70
     1
102
RTVSPost2010Prop49
280
     0
102
RTVSPost2010PropOp49
 70
     1
102
RTVSPost2010Prop50
 90
       50
102
RTVSPost2010PropOp50
 70
     1
102
RTVSPost2010Prop51ColorIndex
 90
      256
102
RTVSPost2010Prop51ColorRGB
 90
-16777216
102
RTVSPost2010PropOp51
 70
     0
102
RTVSPost2010Prop52
140
1.0
102
RTVSPost2010PropOp52
 70
     0
102
RTVSPost2010Prop53
 90
        2
102
RTVSPost2010PropOp53
 70
     1
102
RTVSPost2010Prop54
  1
strokes_ogs.tif
102
RTVSPost2010PropOp54
 70
     1
102
RTVSPost2010Prop55
280
     0
102
RTVSPost2010PropOp55
 70
     1
102
RTVSPost2010Prop56
140
1.0
102
RTVSPost2010PropOp56
 70
     1
102
RTVSPost2010Prop57
140
1.0
102
RTVSPost2010PropOp57
 70
     1
  0
XRECORD
  5
130
102
{ACAD_REACTORS
330
12F
102
}
330
12F
100
AcDbXrecord
280
     1
102
RTVSPropertyOp0
 70
     1
102
RTVSPropertyOp1
 70
     1
102
RTVSPropertyOp2
 70
     1
102
RTVSPropertyOp3
 70
     1
102
RTVSPropertyOp4
 70
     1
102
RTVSPropertyOp5
 70
     1
102
RTVSPropertyOp6
 70
     1
102
RTVSPropertyOp7
 70
     1
102
RTVSPropertyOp8
 70
     1
102
RTVSPropertyOp9
 70
     1
102
RTVSPropertyOp10
 70
     1
102
RTVSPropertyOp11
 70
     1
102
RTVSPropertyOp12
 70
     1
102
RTVSPropertyOp13
 70
     1
102
RTVSPropertyOp14
 70
     1
102
RTVSPropertyOp15
 70
     1
102
RTVSPropertyOp16
 70
     1
102
RTVSPropertyOp17
 70
     1
102
RTVSPropertyOp18
 70
     1
102
RTVSPropertyOp19
 70
     1
102
RTVSPropertyOp20
 70
     1
102
RTVSPropertyOp21
 70
     1
102
RTVSPropertyOp22
 70
     1
102
RTVSPropertyOp23
 70
     1
102
RTVSPropertyOp24
 70
     1
102
RTVSPropertyOp25
 70
     1
102
RTVSPropertyOp26
 70
     1
102
RTVSPropertyOp27
 70
     1
102
RTVSPropertyOp28
 70
     1
102
RTVSPropertyOp29
 70
     1
102
RTVSPropertyOp30
 70
     1
102
RTVSPropertyOp31
 70
     1
102
RTVSPropertyOp32
 70
     1
102
RTVSPropertyOp33
 70
     1
102
RTVSPropertyOp34
 70
     1
102
RTVSPropertyOp35
 70
     1
102
RTVSPropertyOp36
 70
     1
102
RTVSPropertyOp37
 70
     1
102
RTVSPropertyOp38
 70
     1
102
RTVSPropertyOp39
 70
     1
102
RTVSPropertyOp40
 70
     1
102
RTVSPropertyOp41
 70
     1
102
RTVSPropertyOp42
 70
     1
102
RTVSPropertyOp43
 70
     1
102
RTVSPropertyOp44
 70
     1
102
RTVSPropertyOp45
 70
     1
102
RTVSPropertyOp46
 70
     1
102
RTVSPropertyOp47
 70
     1
102
RTVSPropertyOp48
 70
     1
102
RTVSPropertyOp49
 70
     1
102
RTVSPropertyOp50
 70
     1
102
RTVSPropertyOp51
 70
     0
102
RTVSPropertyOp52
 70
     0
102
RTVSPropertyOp53
 70
     1
102
RTVSPropertyOp54
 70
     1
102
RTVSPropertyOp55
 70
     1
102
RTVSPropertyOp56
 70
     1
102
RTVSPropertyOp57
 70
     1
102
RTVSPost2010Prop28
280
     0
102
RTVSPost2010PropOp28
 70
     1
102
RTVSPost2010Prop29
280
     1
102
RTVSPost2010PropOp29
 70
     1
102
RTVSPost2010Prop30
280
     1
102
RTVSPost2010PropOp30
 70
     1
102
RTVSPost2010Prop31
280
     0
102
RTVSPost2010PropOp31
 70
     1
102
RTVSPost2010Prop32
280
     0
102
RTVSPost2010PropOp32
 70
     1
102
RTVSPost2010Prop33
280
     0
102
RTVSPost2010PropOp33
 70
     1
102
RTVSPost2010Prop34
280
     0
102
RTVSPost2010PropOp34
 70
     1
102
RTVSPost2010Prop35
280
     0
102
RTVSPost2010PropOp35
 70
     1
102
RTVSPost2010Prop36
280
     0
102
RTVSPost2010PropOp36
 70
     1
102
RTVSPost2010Prop37
 90
       50
102
RTVSPost2010PropOp37
 70
     1
102
RTVSPost2010Prop38
140
0.0
102
RTVSPost2010PropOp38
 70
     1
102
RTVSPost2010Prop39
140
1.0
102
RTVSPost2010PropOp39
 70
     1
102
RTVSPost2010Prop40
 90
        0
102
RTVSPost2010PropOp40
 70
     1
102
RTVSPost2010Prop41ColorIndex
 90
       18
102
RTVSPost2010Prop41ColorRGB
 90
        0
102
RTVSPost2010PropOp41
 70
     1
102
RTVSPost2010Prop42
 90
       50
102
RTVSPost2010PropOp42
 70
     1
102
RTVSPost2010Prop43
 90
        3
102
RTVSPost2010PropOp43
 70
     1
102
RTVSPost2010Prop44ColorIndex
 90
        5
102
RTVSPost2010Prop44ColorRGB
 90
      255
102
RTVSPost2010PropOp44
 70
     1
102
RTVSPost2010Prop45
280
     0
102
RTVSPost2010PropOp45
 70
     1
102
RTVSPost2010Prop46
 90
       50
102
RTVSPost2010PropOp46
 70
     1
102
RTVSPost2010Prop47
 90
       50
102
RTVSPost2010PropOp47
 70
     1
102
RTVSPost2010Prop48
 90
       50
102
RTVSPost2010PropOp48
 70
     1
102
RTVSPost2010Prop49
280
     0
102
RTVSPost2010PropOp49
 70
     1
102
RTVSPost2010Prop50
 90
       50
102
RTVSPost2010PropOp50
 70
     1
102
RTVSPost2010Prop51ColorIndex
 90
      256
102
RTVSPost2010Prop51ColorRGB
 90
-16777216
102
RTVSPost2010PropOp51
 70
     0
102
RTVSPost2010Prop52
140
1.0
102
RTVSPost2010PropOp52
 70
     0
102
RTVSPost2010Prop53
 90
        2
102
RTVSPost2010PropOp53
 70
     1
102
RTVSPost2010Prop54
  1
strokes_ogs.tif
102
RTVSPost2010PropOp54
 70
     1
102
RTVSPost2010Prop55
280
     0
102
RTVSPost2010PropOp55
 70
     1
102
RTVSPost2010Prop56
140
1.0
102
RTVSPost2010PropOp56
 70
     1
102
RTVSPost2010Prop57
140
1.0
102
RTVSPost2010PropOp57
 70
     1
  0
XRECORD
  5
132
102
{ACAD_REACTORS
330
131
102
}
330
131
100
AcDbXrecord
280
     1
102
RTVSPropertyOp0
 70
     1
102
RTVSPropertyOp1
 70
     1
102
RTVSPropertyOp2
 70
     1
102
RTVSPropertyOp3
 70
     1
102
RTVSPropertyOp4
 70
     1
102
RTVSPropertyOp5
 70
     1
102
RTVSPropertyOp6
 70
     1
102
RTVSPropertyOp7
 70
     1
102
RTVSPropertyOp8
 70
     1
102
RTVSPropertyOp9
 70
     1
102
RTVSPropertyOp10
 70
     1
102
RTVSPropertyOp11
 70
     1
102
RTVSPropertyOp12
 70
     1
102
RTVSPropertyOp13
 70
     1
102
RTVSPropertyOp14
 70
     1
102
RTVSPropertyOp15
 70
     1
102
RTVSPropertyOp16
 70
     1
102
RTVSPropertyOp17
 70
     1
102
RTVSPropertyOp18
 70
     1
102
RTVSPropertyOp19
 70
     1
102
RTVSPropertyOp20
 70
     1
102
RTVSPropertyOp21
 70
     1
102
RTVSPropertyOp22
 70
     1
102
RTVSPropertyOp23
 70
     1
102
RTVSPropertyOp24
 70
     1
102
RTVSPropertyOp25
 70
     1
102
RTVSPropertyOp26
 70
     1
102
RTVSPropertyOp27
 70
     1
102
RTVSPropertyOp28
 70
     1
102
RTVSPropertyOp29
 70
     1
102
RTVSPropertyOp30
 70
     1
102
RTVSPropertyOp31
 70
     1
102
RTVSPropertyOp32
 70
     1
102
RTVSPropertyOp33
 70
     1
102
RTVSPropertyOp34
 70
     1
102
RTVSPropertyOp35
 70
     1
102
RTVSPropertyOp36
 70
     1
102
RTVSPropertyOp37
 70
     1
102
RTVSPropertyOp38
 70
     1
102
RTVSPropertyOp39
 70
     1
102
RTVSPropertyOp40
 70
     1
102
RTVSPropertyOp41
 70
     1
102
RTVSPropertyOp42
 70
     1
102
RTVSPropertyOp43
 70
     1
102
RTVSPropertyOp44
 70
     1
102
RTVSPropertyOp45
 70
     1
102
RTVSPropertyOp46
 70
     1
102
RTVSPropertyOp47
 70
     1
102
RTVSPropertyOp48
 70
     1
102
RTVSPropertyOp49
 70
     1
102
RTVSPropertyOp50
 70
     1
102
RTVSPropertyOp51
 70
     0
102
RTVSPropertyOp52
 70
     0
102
RTVSPropertyOp53
 70
     1
102
RTVSPropertyOp54
 70
     1
102
RTVSPropertyOp55
 70
     1
102
RTVSPropertyOp56
 70
     1
102
RTVSPropertyOp57
 70
     1
102
RTVSPost2010Prop28
280
     0
102
RTVSPost2010PropOp28
 70
     1
102
RTVSPost2010Prop29
280
     1
102
RTVSPost2010PropOp29
 70
     1
102
RTVSPost2010Prop30
280
     1
102
RTVSPost2010PropOp30
 70
     1
102
RTVSPost2010Prop31
280
     0
102
RTVSPost2010PropOp31
 70
     1
102
RTVSPost2010Prop32
280
     0
102
RTVSPost2010PropOp32
 70
     1
102
RTVSPost2010Prop33
280
     0
102
RTVSPost2010PropOp33
 70
     1
102
RTVSPost2010Prop34
280
     0
102
RTVSPost2010PropOp34
 70
     1
102
RTVSPost2010Prop35
280
     0
102
RTVSPost2010PropOp35
 70
     1
102
RTVSPost2010Prop36
280
     0
102
RTVSPost2010PropOp36
 70
     1
102
RTVSPost2010Prop37
 90
       50
102
RTVSPost2010PropOp37
 70
     1
102
RTVSPost2010Prop38
140
0.0
102
RTVSPost2010PropOp38
 70
     1
102
RTVSPost2010Prop39
140
1.0
102
RTVSPost2010PropOp39
 70
     1
102
RTVSPost2010Prop40
 90
        0
102
RTVSPost2010PropOp40
 70
     1
102
RTVSPost2010Prop41ColorIndex
 90
       18
102
RTVSPost2010Prop41ColorRGB
 90
        0
102
RTVSPost2010PropOp41
 70
     1
102
RTVSPost2010Prop42
 90
       50
102
RTVSPost2010PropOp42
 70
     1
102
RTVSPost2010Prop43
 90
        3
102
RTVSPost2010PropOp43
 70
     1
102
RTVSPost2010Prop44ColorIndex
 90
        5
102
RTVSPost2010Prop44ColorRGB
 90
      255
102
RTVSPost2010PropOp44
 70
     1
102
RTVSPost2010Prop45
280
     0
102
RTVSPost2010PropOp45
 70
     1
102
RTVSPost2010Prop46
 90
       50
102
RTVSPost2010PropOp46
 70
     1
102
RTVSPost2010Prop47
 90
       50
102
RTVSPost2010PropOp47
 70
     1
102
RTVSPost2010Prop48
 90
       50
102
RTVSPost2010PropOp48
 70
     1
102
RTVSPost2010Prop49
280
     0
102
RTVSPost2010PropOp49
 70
     1
102
RTVSPost2010Prop50
 90
       50
102
RTVSPost2010PropOp50
 70
     1
102
RTVSPost2010Prop51ColorIndex
 90
      256
102
RTVSPost2010Prop51ColorRGB
 90
-16777216
102
RTVSPost2010PropOp51
 70
     0
102
RTVSPost2010Prop52
140
1.0
102
RTVSPost2010PropOp52
 70
     0
102
RTVSPost2010Prop53
 90
        2
102
RTVSPost2010PropOp53
 70
     1
102
RTVSPost2010Prop54
  1
strokes_ogs.tif
102
RTVSPost2010PropOp54
 70
     1
102
RTVSPost2010Prop55
280
     0
102
RTVSPost2010PropOp55
 70
     1
102
RTVSPost2010Prop56
140
1.0
102
RTVSPost2010PropOp56
 70
     1
102
RTVSPost2010Prop57
140
1.0
102
RTVSPost2010PropOp57
 70
     1
  0
XRECORD
  5
134
102
{ACAD_REACTORS
330
133
102
}
330
133
100
AcDbXrecord
280
     1
102
RTVSPropertyOp0
 70
     1
102
RTVSPropertyOp1
 70
     1
102
RTVSPropertyOp2
 70
     1
102
RTVSPropertyOp3
 70
     1
102
RTVSPropertyOp4
 70
     1
102
RTVSPropertyOp5
 70
     1
102
RTVSPropertyOp6
 70
     1
102
RTVSPropertyOp7
 70
     1
102
RTVSPropertyOp8
 70
     1
102
RTVSPropertyOp9
 70
     1
102
RTVSPropertyOp10
 70
     1
102
RTVSPropertyOp11
 70
     1
102
RTVSPropertyOp12
 70
     1
102
RTVSPropertyOp13
 70
     1
102
RTVSPropertyOp14
 70
     1
102
RTVSPropertyOp15
 70
     1
102
RTVSPropertyOp16
 70
     1
102
RTVSPropertyOp17
 70
     1
102
RTVSPropertyOp18
 70
     1
102
RTVSPropertyOp19
 70
     1
102
RTVSPropertyOp20
 70
     1
102
RTVSPropertyOp21
 70
     1
102
RTVSPropertyOp22
 70
     1
102
RTVSPropertyOp23
 70
     1
102
RTVSPropertyOp24
 70
     1
102
RTVSPropertyOp25
 70
     1
102
RTVSPropertyOp26
 70
     1
102
RTVSPropertyOp27
 70
     1
102
RTVSPropertyOp28
 70
     1
102
RTVSPropertyOp29
 70
     1
102
RTVSPropertyOp30
 70
     1
102
RTVSPropertyOp31
 70
     1
102
RTVSPropertyOp32
 70
     1
102
RTVSPropertyOp33
 70
     1
102
RTVSPropertyOp34
 70
     1
102
RTVSPropertyOp35
 70
     1
102
RTVSPropertyOp36
 70
     1
102
RTVSPropertyOp37
 70
     1
102
RTVSPropertyOp38
 70
     1
102
RTVSPropertyOp39
 70
     1
102
RTVSPropertyOp40
 70
     1
102
RTVSPropertyOp41
 70
     1
102
RTVSPropertyOp42
 70
     1
102
RTVSPropertyOp43
 70
     1
102
RTVSPropertyOp44
 70
     1
102
RTVSPropertyOp45
 70
     1
102
RTVSPropertyOp46
 70
     1
102
RTVSPropertyOp47
 70
     1
102
RTVSPropertyOp48
 70
     1
102
RTVSPropertyOp49
 70
     1
102
RTVSPropertyOp50
 70
     1
102
RTVSPropertyOp51
 70
     0
102
RTVSPropertyOp52
 70
     0
102
RTVSPropertyOp53
 70
     1
102
RTVSPropertyOp54
 70
     1
102
RTVSPropertyOp55
 70
     1
102
RTVSPropertyOp56
 70
     1
102
RTVSPropertyOp57
 70
     1
102
RTVSPost2010Prop28
280
     0
102
RTVSPost2010PropOp28
 70
     1
102
RTVSPost2010Prop29
280
     1
102
RTVSPost2010PropOp29
 70
     1
102
RTVSPost2010Prop30
280
     1
102
RTVSPost2010PropOp30
 70
     1
102
RTVSPost2010Prop31
280
     0
102
RTVSPost2010PropOp31
 70
     1
102
RTVSPost2010Prop32
280
     0
102
RTVSPost2010PropOp32
 70
     1
102
RTVSPost2010Prop33
280
     0
102
RTVSPost2010PropOp33
 70
     1
102
RTVSPost2010Prop34
280
     0
102
RTVSPost2010PropOp34
 70
     1
102
RTVSPost2010Prop35
280
     0
102
RTVSPost2010PropOp35
 70
     1
102
RTVSPost2010Prop36
280
     0
102
RTVSPost2010PropOp36
 70
     1
102
RTVSPost2010Prop37
 90
       50
102
RTVSPost2010PropOp37
 70
     1
102
RTVSPost2010Prop38
140
0.0
102
RTVSPost2010PropOp38
 70
     1
102
RTVSPost2010Prop39
140
1.0
102
RTVSPost2010PropOp39
 70
     1
102
RTVSPost2010Prop40
 90
        0
102
RTVSPost2010PropOp40
 70
     1
102
RTVSPost2010Prop41ColorIndex
 90
       18
102
RTVSPost2010Prop41ColorRGB
 90
        0
102
RTVSPost2010PropOp41
 70
     1
102
RTVSPost2010Prop42
 90
       50
102
RTVSPost2010PropOp42
 70
     1
102
RTVSPost2010Prop43
 90
        3
102
RTVSPost2010PropOp43
 70
     1
102
RTVSPost2010Prop44ColorIndex
 90
        5
102
RTVSPost2010Prop44ColorRGB
 90
      255
102
RTVSPost2010PropOp44
 70
     1
102
RTVSPost2010Prop45
280
     0
102
RTVSPost2010PropOp45
 70
     1
102
RTVSPost2010Prop46
 90
       50
102
RTVSPost2010PropOp46
 70
     1
102
RTVSPost2010Prop47
 90
       50
102
RTVSPost2010PropOp47
 70
     1
102
RTVSPost2010Prop48
 90
       50
102
RTVSPost2010PropOp48
 70
     1
102
RTVSPost2010Prop49
280
     0
102
RTVSPost2010PropOp49
 70
     1
102
RTVSPost2010Prop50
 90
       50
102
RTVSPost2010PropOp50
 70
     1
102
RTVSPost2010Prop51ColorIndex
 90
      256
102
RTVSPost2010Prop51ColorRGB
 90
-16777216
102
RTVSPost2010PropOp51
 70
     0
102
RTVSPost2010Prop52
140
1.0
102
RTVSPost2010PropOp52
 70
     0
102
RTVSPost2010Prop53
 90
        2
102
RTVSPost2010PropOp53
 70
     1
102
RTVSPost2010Prop54
  1
strokes_ogs.tif
102
RTVSPost2010PropOp54
 70
     1
102
RTVSPost2010Prop55
280
     0
102
RTVSPost2010PropOp55
 70
     1
102
RTVSPost2010Prop56
140
1.0
102
RTVSPost2010PropOp56
 70
     1
102
RTVSPost2010Prop57
140
1.0
102
RTVSPost2010PropOp57
 70
     1
  0
XRECORD
  5
13A
102
{ACAD_REACTORS
330
139
102
}
330
139
100
AcDbXrecord
280
     1
102
RTVSPropertyOp0
 70
     1
102
RTVSPropertyOp1
 70
     1
102
RTVSPropertyOp2
 70
     1
102
RTVSPropertyOp3
 70
     1
102
RTVSPropertyOp4
 70
     1
102
RTVSPropertyOp5
 70
     1
102
RTVSPropertyOp6
 70
     1
102
RTVSPropertyOp7
 70
     1
102
RTVSPropertyOp8
 70
     1
102
RTVSPropertyOp9
 70
     1
102
RTVSPropertyOp10
 70
     1
102
RTVSPropertyOp11
 70
     1
102
RTVSPropertyOp12
 70
     1
102
RTVSPropertyOp13
 70
     1
102
RTVSPropertyOp14
 70
     1
102
RTVSPropertyOp15
 70
     1
102
RTVSPropertyOp16
 70
     1
102
RTVSPropertyOp17
 70
     1
102
RTVSPropertyOp18
 70
     1
102
RTVSPropertyOp19
 70
     1
102
RTVSPropertyOp20
 70
     1
102
RTVSPropertyOp21
 70
     1
102
RTVSPropertyOp22
 70
     1
102
RTVSPropertyOp23
 70
     1
102
RTVSPropertyOp24
 70
     1
102
RTVSPropertyOp25
 70
     1
102
RTVSPropertyOp26
 70
     1
102
RTVSPropertyOp27
 70
     1
102
RTVSPropertyOp28
 70
     1
102
RTVSPropertyOp29
 70
     1
102
RTVSPropertyOp30
 70
     1
102
RTVSPropertyOp31
 70
     1
102
RTVSPropertyOp32
 70
     1
102
RTVSPropertyOp33
 70
     1
102
RTVSPropertyOp34
 70
     1
102
RTVSPropertyOp35
 70
     1
102
RTVSPropertyOp36
 70
     1
102
RTVSPropertyOp37
 70
     1
102
RTVSPropertyOp38
 70
     1
102
RTVSPropertyOp39
 70
     1
102
RTVSPropertyOp40
 70
     1
102
RTVSPropertyOp41
 70
     1
102
RTVSPropertyOp42
 70
     1
102
RTVSPropertyOp43
 70
     1
102
RTVSPropertyOp44
 70
     1
102
RTVSPropertyOp45
 70
     1
102
RTVSPropertyOp46
 70
     1
102
RTVSPropertyOp47
 70
     1
102
RTVSPropertyOp48
 70
     1
102
RTVSPropertyOp49
 70
     1
102
RTVSPropertyOp50
 70
     1
102
RTVSPropertyOp51
 70
     0
102
RTVSPropertyOp52
 70
     0
102
RTVSPropertyOp53
 70
     1
102
RTVSPropertyOp54
 70
     1
102
RTVSPropertyOp55
 70
     1
102
RTVSPropertyOp56
 70
     1
102
RTVSPropertyOp57
 70
     1
102
RTVSPost2010Prop28
280
     0
102
RTVSPost2010PropOp28
 70
     1
102
RTVSPost2010Prop29
280
     1
102
RTVSPost2010PropOp29
 70
     1
102
RTVSPost2010Prop30
280
     1
102
RTVSPost2010PropOp30
 70
     1
102
RTVSPost2010Prop31
280
     0
102
RTVSPost2010PropOp31
 70
     1
102
RTVSPost2010Prop32
280
     0
102
RTVSPost2010PropOp32
 70
     1
102
RTVSPost2010Prop33
280
     0
102
RTVSPost2010PropOp33
 70
     1
102
RTVSPost2010Prop34
280
     0
102
RTVSPost2010PropOp34
 70
     1
102
RTVSPost2010Prop35
280
     0
102
RTVSPost2010PropOp35
 70
     1
102
RTVSPost2010Prop36
280
     0
102
RTVSPost2010PropOp36
 70
     1
102
RTVSPost2010Prop37
 90
       50
102
RTVSPost2010PropOp37
 70
     1
102
RTVSPost2010Prop38
140
0.0
102
RTVSPost2010PropOp38
 70
     1
102
RTVSPost2010Prop39
140
1.0
102
RTVSPost2010PropOp39
 70
     1
102
RTVSPost2010Prop40
 90
        0
102
RTVSPost2010PropOp40
 70
     1
102
RTVSPost2010Prop41ColorIndex
 90
       18
102
RTVSPost2010Prop41ColorRGB
 90
        0
102
RTVSPost2010PropOp41
 70
     1
102
RTVSPost2010Prop42
 90
       50
102
RTVSPost2010PropOp42
 70
     1
102
RTVSPost2010Prop43
 90
        3
102
RTVSPost2010PropOp43
 70
     1
102
RTVSPost2010Prop44ColorIndex
 90
        5
102
RTVSPost2010Prop44ColorRGB
 90
      255
102
RTVSPost2010PropOp44
 70
     1
102
RTVSPost2010Prop45
280
     0
102
RTVSPost2010PropOp45
 70
     1
102
RTVSPost2010Prop46
 90
       50
102
RTVSPost2010PropOp46
 70
     1
102
RTVSPost2010Prop47
 90
       50
102
RTVSPost2010PropOp47
 70
     1
102
RTVSPost2010Prop48
 90
       50
102
RTVSPost2010PropOp48
 70
     1
102
RTVSPost2010Prop49
280
     0
102
RTVSPost2010PropOp49
 70
     1
102
RTVSPost2010Prop50
 90
       50
102
RTVSPost2010PropOp50
 70
     1
102
RTVSPost2010Prop51ColorIndex
 90
      256
102
RTVSPost2010Prop51ColorRGB
 90
-16777216
102
RTVSPost2010PropOp51
 70
     0
102
RTVSPost2010Prop52
140
1.0
102
RTVSPost2010PropOp52
 70
     0
102
RTVSPost2010Prop53
 90
        2
102
RTVSPost2010PropOp53
 70
     1
102
RTVSPost2010Prop54
  1
strokes_ogs.tif
102
RTVSPost2010PropOp54
 70
     1
102
RTVSPost2010Prop55
280
     0
102
RTVSPost2010PropOp55
 70
     1
102
RTVSPost2010Prop56
140
1.0
102
RTVSPost2010PropOp56
 70
     1
102
RTVSPost2010Prop57
140
1.0
102
RTVSPost2010PropOp57
 70
     1
  0
XRECORD
  5
14E
102
{ACAD_REACTORS
330
14D
102
}
330
14D
100
AcDbXrecord
280
     1
102
RTVSPropertyOp0
 70
     0
102
RTVSPropertyOp1
 70
     0
102
RTVSPropertyOp2
 70
     0
102
RTVSPropertyOp3
 70
     0
102
RTVSPropertyOp4
 70
     0
102
RTVSPropertyOp5
 70
     0
102
RTVSPropertyOp6
 70
     0
102
RTVSPropertyOp7
 70
     0
102
RTVSPropertyOp8
 70
     0
102
RTVSPropertyOp9
 70
     0
102
RTVSPropertyOp10
 70
     0
102
RTVSPropertyOp11
 70
     0
102
RTVSPropertyOp12
 70
     0
102
RTVSPropertyOp13
 70
     0
102
RTVSPropertyOp14
 70
     2
102
RTVSPropertyOp15
 70
     0
102
RTVSPropertyOp16
 70
     0
102
RTVSPropertyOp17
 70
     0
102
RTVSPropertyOp18
 70
     0
102
RTVSPropertyOp19
 70
     0
102
RTVSPropertyOp20
 70
     0
102
RTVSPropertyOp21
 70
     0
102
RTVSPropertyOp22
 70
     0
102
RTVSPropertyOp23
 70
     0
102
RTVSPropertyOp24
 70
     0
102
RTVSPropertyOp25
 70
     0
102
RTVSPropertyOp26
 70
     0
102
RTVSPropertyOp27
 70
     0
102
RTVSPropertyOp28
 70
     0
102
RTVSPropertyOp29
 70
     0
102
RTVSPropertyOp30
 70
     0
102
RTVSPropertyOp31
 70
     0
102
RTVSPropertyOp32
 70
     0
102
RTVSPropertyOp33
 70
     0
102
RTVSPropertyOp34
 70
     0
102
RTVSPropertyOp35
 70
     0
102
RTVSPropertyOp36
 70
     0
102
RTVSPropertyOp37
 70
     0
102
RTVSPropertyOp38
 70
     0
102
RTVSPropertyOp39
 70
     0
102
RTVSPropertyOp40
 70
     0
102
RTVSPropertyOp41
 70
     0
102
RTVSPropertyOp42
 70
     0
102
RTVSPropertyOp43
 70
     0
102
RTVSPropertyOp44
 70
     0
102
RTVSPropertyOp45
 70
     0
102
RTVSPropertyOp46
 70
     0
102
RTVSPropertyOp47
 70
     0
102
RTVSPropertyOp48
 70
     0
102
RTVSPropertyOp49
 70
     0
102
RTVSPropertyOp50
 70
     0
102
RTVSPropertyOp51
 70
     0
102
RTVSPropertyOp52
 70
     0
102
RTVSPropertyOp53
 70
     0
102
RTVSPropertyOp54
 70
     0
102
RTVSPropertyOp55
 70
     0
102
RTVSPropertyOp56
 70
     0
102
RTVSPropertyOp57
 70
     0
102
RTVSPost2010Prop28
280
     0
102
RTVSPost2010PropOp28
 70
     0
102
RTVSPost2010Prop29
280
     1
102
RTVSPost2010PropOp29
 70
     0
102
RTVSPost2010Prop30
280
     1
102
RTVSPost2010PropOp30
 70
     0
102
RTVSPost2010Prop31
280
     0
102
RTVSPost2010PropOp31
 70
     0
102
RTVSPost2010Prop32
280
     0
102
RTVSPost2010PropOp32
 70
     0
102
RTVSPost2010Prop33
280
     0
102
RTVSPost2010PropOp33
 70
     0
102
RTVSPost2010Prop34
280
     0
102
RTVSPost2010PropOp34
 70
     0
102
RTVSPost2010Prop35
280
     0
102
RTVSPost2010PropOp35
 70
     0
102
RTVSPost2010Prop36
280
     0
102
RTVSPost2010PropOp36
 70
     0
102
RTVSPost2010Prop37
 90
       50
102
RTVSPost2010PropOp37
 70
     0
102
RTVSPost2010Prop38
140
0.0
102
RTVSPost2010PropOp38
 70
     0
102
RTVSPost2010Prop39
140
1.0
102
RTVSPost2010PropOp39
 70
     0
102
RTVSPost2010Prop40
 90
        0
102
RTVSPost2010PropOp40
 70
     0
102
RTVSPost2010Prop41ColorIndex
 90
       18
102
RTVSPost2010Prop41ColorRGB
 90
        0
102
RTVSPost2010PropOp41
 70
     0
102
RTVSPost2010Prop42
 90
       50
102
RTVSPost2010PropOp42
 70
     0
102
RTVSPost2010Prop43
 90
        3
102
RTVSPost2010PropOp43
 70
     0
102
RTVSPost2010Prop44ColorIndex
 90
        5
102
RTVSPost2010Prop44ColorRGB
 90
      255
102
RTVSPost2010PropOp44
 70
     0
102
RTVSPost2010Prop45
280
     0
102
RTVSPost2010PropOp45
 70
     0
102
RTVSPost2010Prop46
 90
       50
102
RTVSPost2010PropOp46
 70
     0
102
RTVSPost2010Prop47
 90
       50
102
RTVSPost2010PropOp47
 70
     0
102
RTVSPost2010Prop48
 90
       50
102
RTVSPost2010PropOp48
 70
     0
102
RTVSPost2010Prop49
280
     0
102
RTVSPost2010PropOp49
 70
     0
102
RTVSPost2010Prop50
 90
       50
102
RTVSPost2010PropOp50
 70
     0
102
RTVSPost2010Prop51ColorIndex
 90
      256
102
RTVSPost2010Prop51ColorRGB
 90
-16777216
102
RTVSPost2010PropOp51
 70
     0
102
RTVSPost2010Prop52
140
1.0
102
RTVSPost2010PropOp52
 70
     0
102
RTVSPost2010Prop53
 90
        2
102
RTVSPost2010PropOp53
 70
     0
102
RTVSPost2010Prop54
  1
strokes_ogs.tif
102
RTVSPost2010PropOp54
 70
     0
102
RTVSPost2010Prop55
280
     0
102
RTVSPost2010PropOp55
 70
     0
102
RTVSPost2010Prop56
140
1.0
102
RTVSPost2010PropOp56
 70
     0
102
RTVSPost2010Prop57
140
1.0
102
RTVSPost2010PropOp57
 70
     0
  0
XRECORD
  5
148
102
{ACAD_REACTORS
330
147
102
}
330
147
100
AcDbXrecord
280
     1
102
RTVSPropertyOp0
 70
     1
102
RTVSPropertyOp1
 70
     1
102
RTVSPropertyOp2
 70
     1
102
RTVSPropertyOp3
 70
     1
102
RTVSPropertyOp4
 70
     1
102
RTVSPropertyOp5
 70
     1
102
RTVSPropertyOp6
 70
     1
102
RTVSPropertyOp7
 70
     1
102
RTVSPropertyOp8
 70
     1
102
RTVSPropertyOp9
 70
     1
102
RTVSPropertyOp10
 70
     1
102
RTVSPropertyOp11
 70
     1
102
RTVSPropertyOp12
 70
     1
102
RTVSPropertyOp13
 70
     1
102
RTVSPropertyOp14
 70
     1
102
RTVSPropertyOp15
 70
     1
102
RTVSPropertyOp16
 70
     1
102
RTVSPropertyOp17
 70
     1
102
RTVSPropertyOp18
 70
     1
102
RTVSPropertyOp19
 70
     1
102
RTVSPropertyOp20
 70
     1
102
RTVSPropertyOp21
 70
     1
102
RTVSPropertyOp22
 70
     1
102
RTVSPropertyOp23
 70
     1
102
RTVSPropertyOp24
 70
     1
102
RTVSPropertyOp25
 70
     1
102
RTVSPropertyOp26
 70
     1
102
RTVSPropertyOp27
 70
     1
102
RTVSPropertyOp28
 70
     1
102
RTVSPropertyOp29
 70
     1
102
RTVSPropertyOp30
 70
     1
102
RTVSPropertyOp31
 70
     1
102
RTVSPropertyOp32
 70
     1
102
RTVSPropertyOp33
 70
     1
102
RTVSPropertyOp34
 70
     1
102
RTVSPropertyOp35
 70
     1
102
RTVSPropertyOp36
 70
     1
102
RTVSPropertyOp37
 70
     1
102
RTVSPropertyOp38
 70
     1
102
RTVSPropertyOp39
 70
     1
102
RTVSPropertyOp40
 70
     1
102
RTVSPropertyOp41
 70
     1
102
RTVSPropertyOp42
 70
     1
102
RTVSPropertyOp43
 70
     1
102
RTVSPropertyOp44
 70
     1
102
RTVSPropertyOp45
 70
     1
102
RTVSPropertyOp46
 70
     1
102
RTVSPropertyOp47
 70
     1
102
RTVSPropertyOp48
 70
     1
102
RTVSPropertyOp49
 70
     1
102
RTVSPropertyOp50
 70
     1
102
RTVSPropertyOp51
 70
     0
102
RTVSPropertyOp52
 70
     0
102
RTVSPropertyOp53
 70
     1
102
RTVSPropertyOp54
 70
     1
102
RTVSPropertyOp55
 70
     1
102
RTVSPropertyOp56
 70
     1
102
RTVSPropertyOp57
 70
     1
102
RTVSPost2010Prop28
280
     0
102
RTVSPost2010PropOp28
 70
     1
102
RTVSPost2010Prop29
280
     1
102
RTVSPost2010PropOp29
 70
     1
102
RTVSPost2010Prop30
280
     1
102
RTVSPost2010PropOp30
 70
     1
102
RTVSPost2010Prop31
280
     0
102
RTVSPost2010PropOp31
 70
     1
102
RTVSPost2010Prop32
280
     0
102
RTVSPost2010PropOp32
 70
     1
102
RTVSPost2010Prop33
280
     0
102
RTVSPost2010PropOp33
 70
     1
102
RTVSPost2010Prop34
280
     0
102
RTVSPost2010PropOp34
 70
     1
102
RTVSPost2010Prop35
280
     0
102
RTVSPost2010PropOp35
 70
     1
102
RTVSPost2010Prop36
280
     0
102
RTVSPost2010PropOp36
 70
     1
102
RTVSPost2010Prop37
 90
       50
102
RTVSPost2010PropOp37
 70
     1
102
RTVSPost2010Prop38
140
0.0
102
RTVSPost2010PropOp38
 70
     1
102
RTVSPost2010Prop39
140
1.0
102
RTVSPost2010PropOp39
 70
     1
102
RTVSPost2010Prop40
 90
        0
102
RTVSPost2010PropOp40
 70
     1
102
RTVSPost2010Prop41ColorIndex
 90
       18
102
RTVSPost2010Prop41ColorRGB
 90
        0
102
RTVSPost2010PropOp41
 70
     1
102
RTVSPost2010Prop42
 90
       50
102
RTVSPost2010PropOp42
 70
     1
102
RTVSPost2010Prop43
 90
        3
102
RTVSPost2010PropOp43
 70
     1
102
RTVSPost2010Prop44ColorIndex
 90
        5
102
RTVSPost2010Prop44ColorRGB
 90
      255
102
RTVSPost2010PropOp44
 70
     1
102
RTVSPost2010Prop45
280
     0
102
RTVSPost2010PropOp45
 70
     1
102
RTVSPost2010Prop46
 90
       50
102
RTVSPost2010PropOp46
 70
     1
102
RTVSPost2010Prop47
 90
       50
102
RTVSPost2010PropOp47
 70
     1
102
RTVSPost2010Prop48
 90
       50
102
RTVSPost2010PropOp48
 70
     1
102
RTVSPost2010Prop49
280
     0
102
RTVSPost2010PropOp49
 70
     1
102
RTVSPost2010Prop50
 90
       50
102
RTVSPost2010PropOp50
 70
     1
102
RTVSPost2010Prop51ColorIndex
 90
      256
102
RTVSPost2010Prop51ColorRGB
 90
-16777216
102
RTVSPost2010PropOp51
 70
     0
102
RTVSPost2010Prop52
140
1.0
102
RTVSPost2010PropOp52
 70
     0
102
RTVSPost2010Prop53
 90
        2
102
RTVSPost2010PropOp53
 70
     1
102
RTVSPost2010Prop54
  1
strokes_ogs.tif
102
RTVSPost2010PropOp54
 70
     1
102
RTVSPost2010Prop55
280
     0
102
RTVSPost2010PropOp55
 70
     1
102
RTVSPost2010Prop56
140
1.0
102
RTVSPost2010PropOp56
 70
     1
102
RTVSPost2010Prop57
140
1.0
102
RTVSPost2010PropOp57
 70
     1
  0
XRECORD
  5
150
102
{ACAD_REACTORS
330
14F
102
}
330
14F
100
AcDbXrecord
280
     1
102
RTVSPropertyOp0
 70
     0
102
RTVSPropertyOp1
 70
     0
102
RTVSPropertyOp2
 70
     0
102
RTVSPropertyOp3
 70
     0
102
RTVSPropertyOp4
 70
     0
102
RTVSPropertyOp5
 70
     0
102
RTVSPropertyOp6
 70
     0
102
RTVSPropertyOp7
 70
     0
102
RTVSPropertyOp8
 70
     0
102
RTVSPropertyOp9
 70
     0
102
RTVSPropertyOp10
 70
     0
102
RTVSPropertyOp11
 70
     0
102
RTVSPropertyOp12
 70
     0
102
RTVSPropertyOp13
 70
     0
102
RTVSPropertyOp14
 70
     2
102
RTVSPropertyOp15
 70
     0
102
RTVSPropertyOp16
 70
     0
102
RTVSPropertyOp17
 70
     0
102
RTVSPropertyOp18
 70
     0
102
RTVSPropertyOp19
 70
     0
102
RTVSPropertyOp20
 70
     0
102
RTVSPropertyOp21
 70
     0
102
RTVSPropertyOp22
 70
     0
102
RTVSPropertyOp23
 70
     0
102
RTVSPropertyOp24
 70
     0
102
RTVSPropertyOp25
 70
     0
102
RTVSPropertyOp26
 70
     0
102
RTVSPropertyOp27
 70
     0
102
RTVSPropertyOp28
 70
     0
102
RTVSPropertyOp29
 70
     0
102
RTVSPropertyOp30
 70
     0
102
RTVSPropertyOp31
 70
     0
102
RTVSPropertyOp32
 70
     0
102
RTVSPropertyOp33
 70
     0
102
RTVSPropertyOp34
 70
     0
102
RTVSPropertyOp35
 70
     0
102
RTVSPropertyOp36
 70
     0
102
RTVSPropertyOp37
 70
     0
102
RTVSPropertyOp38
 70
     0
102
RTVSPropertyOp39
 70
     0
102
RTVSPropertyOp40
 70
     0
102
RTVSPropertyOp41
 70
     0
102
RTVSPropertyOp42
 70
     0
102
RTVSPropertyOp43
 70
     0
102
RTVSPropertyOp44
 70
     0
102
RTVSPropertyOp45
 70
     0
102
RTVSPropertyOp46
 70
     0
102
RTVSPropertyOp47
 70
     0
102
RTVSPropertyOp48
 70
     0
102
RTVSPropertyOp49
 70
     0
102
RTVSPropertyOp50
 70
     0
102
RTVSPropertyOp51
 70
     0
102
RTVSPropertyOp52
 70
     0
102
RTVSPropertyOp53
 70
     0
102
RTVSPropertyOp54
 70
     0
102
RTVSPropertyOp55
 70
     0
102
RTVSPropertyOp56
 70
     0
102
RTVSPropertyOp57
 70
     0
102
RTVSPost2010Prop28
280
     0
102
RTVSPost2010PropOp28
 70
     0
102
RTVSPost2010Prop29
280
     1
102
RTVSPost2010PropOp29
 70
     0
102
RTVSPost2010Prop30
280
     1
102
RTVSPost2010PropOp30
 70
     0
102
RTVSPost2010Prop31
280
     0
102
RTVSPost2010PropOp31
 70
     0
102
RTVSPost2010Prop32
280
     0
102
RTVSPost2010PropOp32
 70
     0
102
RTVSPost2010Prop33
280
     0
102
RTVSPost2010PropOp33
 70
     0
102
RTVSPost2010Prop34
280
     0
102
RTVSPost2010PropOp34
 70
     0
102
RTVSPost2010Prop35
280
     0
102
RTVSPost2010PropOp35
 70
     0
102
RTVSPost2010Prop36
280
     0
102
RTVSPost2010PropOp36
 70
     0
102
RTVSPost2010Prop37
 90
       50
102
RTVSPost2010PropOp37
 70
     0
102
RTVSPost2010Prop38
140
0.0
102
RTVSPost2010PropOp38
 70
     0
102
RTVSPost2010Prop39
140
1.0
102
RTVSPost2010PropOp39
 70
     0
102
RTVSPost2010Prop40
 90
        0
102
RTVSPost2010PropOp40
 70
     0
102
RTVSPost2010Prop41ColorIndex
 90
       18
102
RTVSPost2010Prop41ColorRGB
 90
        0
102
RTVSPost2010PropOp41
 70
     0
102
RTVSPost2010Prop42
 90
       50
102
RTVSPost2010PropOp42
 70
     0
102
RTVSPost2010Prop43
 90
        3
102
RTVSPost2010PropOp43
 70
     0
102
RTVSPost2010Prop44ColorIndex
 90
        5
102
RTVSPost2010Prop44ColorRGB
 90
      255
102
RTVSPost2010PropOp44
 70
     0
102
RTVSPost2010Prop45
280
     0
102
RTVSPost2010PropOp45
 70
     0
102
RTVSPost2010Prop46
 90
       50
102
RTVSPost2010PropOp46
 70
     0
102
RTVSPost2010Prop47
 90
       50
102
RTVSPost2010PropOp47
 70
     0
102
RTVSPost2010Prop48
 90
       50
102
RTVSPost2010PropOp48
 70
     0
102
RTVSPost2010Prop49
280
     0
102
RTVSPost2010PropOp49
 70
     0
102
RTVSPost2010Prop50
 90
       50
102
RTVSPost2010PropOp50
 70
     0
102
RTVSPost2010Prop51ColorIndex
 90
      256
102
RTVSPost2010Prop51ColorRGB
 90
-16777216
102
RTVSPost2010PropOp51
 70
     0
102
RTVSPost2010Prop52
140
1.0
102
RTVSPost2010PropOp52
 70
     0
102
RTVSPost2010Prop53
 90
        2
102
RTVSPost2010PropOp53
 70
     0
102
RTVSPost2010Prop54
  1
strokes_ogs.tif
102
RTVSPost2010PropOp54
 70
     0
102
RTVSPost2010Prop55
280
     0
102
RTVSPost2010PropOp55
 70
     0
102
RTVSPost2010Prop56
140
1.0
102
RTVSPost2010PropOp56
 70
     0
102
RTVSPost2010Prop57
140
1.0
102
RTVSPost2010PropOp57
 70
     0
  0
XRECORD
  5
13E
102
{ACAD_REACTORS
330
13D
102
}
330
13D
100
AcDbXrecord
280
     1
102
RTVSPropertyOp0
 70
     1
102
RTVSPropertyOp1
 70
     1
102
RTVSPropertyOp2
 70
     1
102
RTVSPropertyOp3
 70
     1
102
RTVSPropertyOp4
 70
     1
102
RTVSPropertyOp5
 70
     1
102
RTVSPropertyOp6
 70
     1
102
RTVSPropertyOp7
 70
     1
102
RTVSPropertyOp8
 70
     1
102
RTVSPropertyOp9
 70
     1
102
RTVSPropertyOp10
 70
     1
102
RTVSPropertyOp11
 70
     1
102
RTVSPropertyOp12
 70
     1
102
RTVSPropertyOp13
 70
     1
102
RTVSPropertyOp14
 70
     1
102
RTVSPropertyOp15
 70
     1
102
RTVSPropertyOp16
 70
     1
102
RTVSPropertyOp17
 70
     1
102
RTVSPropertyOp18
 70
     1
102
RTVSPropertyOp19
 70
     1
102
RTVSPropertyOp20
 70
     1
102
RTVSPropertyOp21
 70
     1
102
RTVSPropertyOp22
 70
     1
102
RTVSPropertyOp23
 70
     1
102
RTVSPropertyOp24
 70
     1
102
RTVSPropertyOp25
 70
     1
102
RTVSPropertyOp26
 70
     1
102
RTVSPropertyOp27
 70
     1
102
RTVSPropertyOp28
 70
     1
102
RTVSPropertyOp29
 70
     1
102
RTVSPropertyOp30
 70
     1
102
RTVSPropertyOp31
 70
     1
102
RTVSPropertyOp32
 70
     1
102
RTVSPropertyOp33
 70
     1
102
RTVSPropertyOp34
 70
     1
102
RTVSPropertyOp35
 70
     1
102
RTVSPropertyOp36
 70
     1
102
RTVSPropertyOp37
 70
     1
102
RTVSPropertyOp38
 70
     1
102
RTVSPropertyOp39
 70
     1
102
RTVSPropertyOp40
 70
     1
102
RTVSPropertyOp41
 70
     1
102
RTVSPropertyOp42
 70
     1
102
RTVSPropertyOp43
 70
     1
102
RTVSPropertyOp44
 70
     1
102
RTVSPropertyOp45
 70
     1
102
RTVSPropertyOp46
 70
     1
102
RTVSPropertyOp47
 70
     1
102
RTVSPropertyOp48
 70
     1
102
RTVSPropertyOp49
 70
     1
102
RTVSPropertyOp50
 70
     1
102
RTVSPropertyOp51
 70
     0
102
RTVSPropertyOp52
 70
     0
102
RTVSPropertyOp53
 70
     1
102
RTVSPropertyOp54
 70
     1
102
RTVSPropertyOp55
 70
     1
102
RTVSPropertyOp56
 70
     1
102
RTVSPropertyOp57
 70
     1
102
RTVSPost2010Prop28
280
     0
102
RTVSPost2010PropOp28
 70
     1
102
RTVSPost2010Prop29
280
     1
102
RTVSPost2010PropOp29
 70
     1
102
RTVSPost2010Prop30
280
     1
102
RTVSPost2010PropOp30
 70
     1
102
RTVSPost2010Prop31
280
     0
102
RTVSPost2010PropOp31
 70
     1
102
RTVSPost2010Prop32
280
     0
102
RTVSPost2010PropOp32
 70
     1
102
RTVSPost2010Prop33
280
     0
102
RTVSPost2010PropOp33
 70
     1
102
RTVSPost2010Prop34
280
     0
102
RTVSPost2010PropOp34
 70
     1
102
RTVSPost2010Prop35
280
     0
102
RTVSPost2010PropOp35
 70
     1
102
RTVSPost2010Prop36
280
     0
102
RTVSPost2010PropOp36
 70
     1
102
RTVSPost2010Prop37
 90
       50
102
RTVSPost2010PropOp37
 70
     1
102
RTVSPost2010Prop38
140
0.0
102
RTVSPost2010PropOp38
 70
     1
102
RTVSPost2010Prop39
140
1.0
102
RTVSPost2010PropOp39
 70
     1
102
RTVSPost2010Prop40
 90
        0
102
RTVSPost2010PropOp40
 70
     1
102
RTVSPost2010Prop41ColorIndex
 90
       18
102
RTVSPost2010Prop41ColorRGB
 90
        0
102
RTVSPost2010PropOp41
 70
     1
102
RTVSPost2010Prop42
 90
       50
102
RTVSPost2010PropOp42
 70
     1
102
RTVSPost2010Prop43
 90
        3
102
RTVSPost2010PropOp43
 70
     1
102
RTVSPost2010Prop44ColorIndex
 90
        5
102
RTVSPost2010Prop44ColorRGB
 90
      255
102
RTVSPost2010PropOp44
 70
     1
102
RTVSPost2010Prop45
280
     0
102
RTVSPost2010PropOp45
 70
     1
102
RTVSPost2010Prop46
 90
       50
102
RTVSPost2010PropOp46
 70
     1
102
RTVSPost2010Prop47
 90
       50
102
RTVSPost2010PropOp47
 70
     1
102
RTVSPost2010Prop48
 90
       50
102
RTVSPost2010PropOp48
 70
     1
102
RTVSPost2010Prop49
280
     0
102
RTVSPost2010PropOp49
 70
     1
102
RTVSPost2010Prop50
 90
       50
102
RTVSPost2010PropOp50
 70
     1
102
RTVSPost2010Prop51ColorIndex
 90
      256
102
RTVSPost2010Prop51ColorRGB
 90
-16777216
102
RTVSPost2010PropOp51
 70
     0
102
RTVSPost2010Prop52
140
1.0
102
RTVSPost2010PropOp52
 70
     0
102
RTVSPost2010Prop53
 90
        2
102
RTVSPost2010PropOp53
 70
     1
102
RTVSPost2010Prop54
  1
strokes_ogs.tif
102
RTVSPost2010PropOp54
 70
     1
102
RTVSPost2010Prop55
280
     0
102
RTVSPost2010PropOp55
 70
     1
102
RTVSPost2010Prop56
140
1.0
102
RTVSPost2010PropOp56
 70
     1
102
RTVSPost2010Prop57
140
1.0
102
RTVSPost2010PropOp57
 70
     1
  0
XRECORD
  5
15C
102
{ACAD_REACTORS
330
15B
102
}
330
15B
100
AcDbXrecord
280
     1
102
RTVSPropertyOp0
 70
     1
102
RTVSPropertyOp1
 70
     1
102
RTVSPropertyOp2
 70
     1
102
RTVSPropertyOp3
 70
     1
102
RTVSPropertyOp4
 70
     1
102
RTVSPropertyOp5
 70
     1
102
RTVSPropertyOp6
 70
     1
102
RTVSPropertyOp7
 70
     1
102
RTVSPropertyOp8
 70
     1
102
RTVSPropertyOp9
 70
     1
102
RTVSPropertyOp10
 70
     1
102
RTVSPropertyOp11
 70
     1
102
RTVSPropertyOp12
 70
     1
102
RTVSPropertyOp13
 70
     1
102
RTVSPropertyOp14
 70
     1
102
RTVSPropertyOp15
 70
     1
102
RTVSPropertyOp16
 70
     1
102
RTVSPropertyOp17
 70
     1
102
RTVSPropertyOp18
 70
     1
102
RTVSPropertyOp19
 70
     1
102
RTVSPropertyOp20
 70
     1
102
RTVSPropertyOp21
 70
     1
102
RTVSPropertyOp22
 70
     1
102
RTVSPropertyOp23
 70
     1
102
RTVSPropertyOp24
 70
     1
102
RTVSPropertyOp25
 70
     1
102
RTVSPropertyOp26
 70
     1
102
RTVSPropertyOp27
 70
     1
102
RTVSPropertyOp28
 70
     1
102
RTVSPropertyOp29
 70
     1
102
RTVSPropertyOp30
 70
     1
102
RTVSPropertyOp31
 70
     1
102
RTVSPropertyOp32
 70
     1
102
RTVSPropertyOp33
 70
     1
102
RTVSPropertyOp34
 70
     1
102
RTVSPropertyOp35
 70
     1
102
RTVSPropertyOp36
 70
     1
102
RTVSPropertyOp37
 70
     1
102
RTVSPropertyOp38
 70
     1
102
RTVSPropertyOp39
 70
     1
102
RTVSPropertyOp40
 70
     1
102
RTVSPropertyOp41
 70
     1
102
RTVSPropertyOp42
 70
     1
102
RTVSPropertyOp43
 70
     1
102
RTVSPropertyOp44
 70
     1
102
RTVSPropertyOp45
 70
     1
102
RTVSPropertyOp46
 70
     1
102
RTVSPropertyOp47
 70
     1
102
RTVSPropertyOp48
 70
     1
102
RTVSPropertyOp49
 70
     1
102
RTVSPropertyOp50
 70
     1
102
RTVSPropertyOp51
 70
     0
102
RTVSPropertyOp52
 70
     0
102
RTVSPropertyOp53
 70
     1
102
RTVSPropertyOp54
 70
     1
102
RTVSPropertyOp55
 70
     1
102
RTVSPropertyOp56
 70
     1
102
RTVSPropertyOp57
 70
     1
102
RTVSPost2010Prop28
280
     0
102
RTVSPost2010PropOp28
 70
     1
102
RTVSPost2010Prop29
280
     1
102
RTVSPost2010PropOp29
 70
     1
102
RTVSPost2010Prop30
280
     1
102
RTVSPost2010PropOp30
 70
     1
102
RTVSPost2010Prop31
280
     0
102
RTVSPost2010PropOp31
 70
     1
102
RTVSPost2010Prop32
280
     0
102
RTVSPost2010PropOp32
 70
     1
102
RTVSPost2010Prop33
280
     0
102
RTVSPost2010PropOp33
 70
     1
102
RTVSPost2010Prop34
280
     0
102
RTVSPost2010PropOp34
 70
     1
102
RTVSPost2010Prop35
280
     0
102
RTVSPost2010PropOp35
 70
     1
102
RTVSPost2010Prop36
280
     0
102
RTVSPost2010PropOp36
 70
     1
102
RTVSPost2010Prop37
 90
       50
102
RTVSPost2010PropOp37
 70
     1
102
RTVSPost2010Prop38
140
0.0
102
RTVSPost2010PropOp38
 70
     1
102
RTVSPost2010Prop39
140
1.0
102
RTVSPost2010PropOp39
 70
     1
102
RTVSPost2010Prop40
 90
        0
102
RTVSPost2010PropOp40
 70
     1
102
RTVSPost2010Prop41ColorIndex
 90
       18
102
RTVSPost2010Prop41ColorRGB
 90
        0
102
RTVSPost2010PropOp41
 70
     1
102
RTVSPost2010Prop42
 90
       50
102
RTVSPost2010PropOp42
 70
     1
102
RTVSPost2010Prop43
 90
        3
102
RTVSPost2010PropOp43
 70
     1
102
RTVSPost2010Prop44ColorIndex
 90
        5
102
RTVSPost2010Prop44ColorRGB
 90
      255
102
RTVSPost2010PropOp44
 70
     1
102
RTVSPost2010Prop45
280
     0
102
RTVSPost2010PropOp45
 70
     1
102
RTVSPost2010Prop46
 90
       50
102
RTVSPost2010PropOp46
 70
     1
102
RTVSPost2010Prop47
 90
       50
102
RTVSPost2010PropOp47
 70
     1
102
RTVSPost2010Prop48
 90
       50
102
RTVSPost2010PropOp48
 70
     1
102
RTVSPost2010Prop49
280
     0
102
RTVSPost2010PropOp49
 70
     1
102
RTVSPost2010Prop50
 90
       50
102
RTVSPost2010PropOp50
 70
     1
102
RTVSPost2010Prop51ColorIndex
 90
      256
102
RTVSPost2010Prop51ColorRGB
 90
-16777216
102
RTVSPost2010PropOp51
 70
     0
102
RTVSPost2010Prop52
140
1.0
102
RTVSPost2010PropOp52
 70
     0
102
RTVSPost2010Prop53
 90
        2
102
RTVSPost2010PropOp53
 70
     1
102
RTVSPost2010Prop54
  1
strokes_ogs.tif
102
RTVSPost2010PropOp54
 70
     1
102
RTVSPost2010Prop55
280
     0
102
RTVSPost2010PropOp55
 70
     1
102
RTVSPost2010Prop56
140
1.0
102
RTVSPost2010PropOp56
 70
     1
102
RTVSPost2010Prop57
140
1.0
102
RTVSPost2010PropOp57
 70
     1
  0
XRECORD
  5
15A
102
{ACAD_REACTORS
330
159
102
}
330
159
100
AcDbXrecord
280
     1
102
RTVSPropertyOp0
 70
     1
102
RTVSPropertyOp1
 70
     1
102
RTVSPropertyOp2
 70
     1
102
RTVSPropertyOp3
 70
     1
102
RTVSPropertyOp4
 70
     1
102
RTVSPropertyOp5
 70
     1
102
RTVSPropertyOp6
 70
     1
102
RTVSPropertyOp7
 70
     1
102
RTVSPropertyOp8
 70
     1
102
RTVSPropertyOp9
 70
     1
102
RTVSPropertyOp10
 70
     1
102
RTVSPropertyOp11
 70
     1
102
RTVSPropertyOp12
 70
     1
102
RTVSPropertyOp13
 70
     1
102
RTVSPropertyOp14
 70
     1
102
RTVSPropertyOp15
 70
     1
102
RTVSPropertyOp16
 70
     1
102
RTVSPropertyOp17
 70
     1
102
RTVSPropertyOp18
 70
     1
102
RTVSPropertyOp19
 70
     1
102
RTVSPropertyOp20
 70
     1
102
RTVSPropertyOp21
 70
     1
102
RTVSPropertyOp22
 70
     1
102
RTVSPropertyOp23
 70
     1
102
RTVSPropertyOp24
 70
     1
102
RTVSPropertyOp25
 70
     1
102
RTVSPropertyOp26
 70
     1
102
RTVSPropertyOp27
 70
     1
102
RTVSPropertyOp28
 70
     1
102
RTVSPropertyOp29
 70
     1
102
RTVSPropertyOp30
 70
     1
102
RTVSPropertyOp31
 70
     1
102
RTVSPropertyOp32
 70
     1
102
RTVSPropertyOp33
 70
     1
102
RTVSPropertyOp34
 70
     1
102
RTVSPropertyOp35
 70
     1
102
RTVSPropertyOp36
 70
     1
102
RTVSPropertyOp37
 70
     1
102
RTVSPropertyOp38
 70
     1
102
RTVSPropertyOp39
 70
     1
102
RTVSPropertyOp40
 70
     1
102
RTVSPropertyOp41
 70
     1
102
RTVSPropertyOp42
 70
     1
102
RTVSPropertyOp43
 70
     1
102
RTVSPropertyOp44
 70
     1
102
RTVSPropertyOp45
 70
     1
102
RTVSPropertyOp46
 70
     1
102
RTVSPropertyOp47
 70
     1
102
RTVSPropertyOp48
 70
     1
102
RTVSPropertyOp49
 70
     1
102
RTVSPropertyOp50
 70
     1
102
RTVSPropertyOp51
 70
     0
102
RTVSPropertyOp52
 70
     0
102
RTVSPropertyOp53
 70
     1
102
RTVSPropertyOp54
 70
     1
102
RTVSPropertyOp55
 70
     1
102
RTVSPropertyOp56
 70
     1
102
RTVSPropertyOp57
 70
     1
102
RTVSPost2010Prop28
280
     0
102
RTVSPost2010PropOp28
 70
     1
102
RTVSPost2010Prop29
280
     1
102
RTVSPost2010PropOp29
 70
     1
102
RTVSPost2010Prop30
280
     1
102
RTVSPost2010PropOp30
 70
     1
102
RTVSPost2010Prop31
280
     0
102
RTVSPost2010PropOp31
 70
     1
102
RTVSPost2010Prop32
280
     0
102
RTVSPost2010PropOp32
 70
     1
102
RTVSPost2010Prop33
280
     0
102
RTVSPost2010PropOp33
 70
     1
102
RTVSPost2010Prop34
280
     0
102
RTVSPost2010PropOp34
 70
     1
102
RTVSPost2010Prop35
280
     0
102
RTVSPost2010PropOp35
 70
     1
102
RTVSPost2010Prop36
280
     0
102
RTVSPost2010PropOp36
 70
     1
102
RTVSPost2010Prop37
 90
       50
102
RTVSPost2010PropOp37
 70
     1
102
RTVSPost2010Prop38
140
0.0
102
RTVSPost2010PropOp38
 70
     1
102
RTVSPost2010Prop39
140
1.0
102
RTVSPost2010PropOp39
 70
     1
102
RTVSPost2010Prop40
 90
        0
102
RTVSPost2010PropOp40
 70
     1
102
RTVSPost2010Prop41ColorIndex
 90
       18
102
RTVSPost2010Prop41ColorRGB
 90
        0
102
RTVSPost2010PropOp41
 70
     1
102
RTVSPost2010Prop42
 90
       50
102
RTVSPost2010PropOp42
 70
     1
102
RTVSPost2010Prop43
 90
        3
102
RTVSPost2010PropOp43
 70
     1
102
RTVSPost2010Prop44ColorIndex
 90
        5
102
RTVSPost2010Prop44ColorRGB
 90
      255
102
RTVSPost2010PropOp44
 70
     1
102
RTVSPost2010Prop45
280
     0
102
RTVSPost2010PropOp45
 70
     1
102
RTVSPost2010Prop46
 90
       50
102
RTVSPost2010PropOp46
 70
     1
102
RTVSPost2010Prop47
 90
       50
102
RTVSPost2010PropOp47
 70
     1
102
RTVSPost2010Prop48
 90
       50
102
RTVSPost2010PropOp48
 70
     1
102
RTVSPost2010Prop49
280
     0
102
RTVSPost2010PropOp49
 70
     1
102
RTVSPost2010Prop50
 90
       50
102
RTVSPost2010PropOp50
 70
     1
102
RTVSPost2010Prop51ColorIndex
 90
      256
102
RTVSPost2010Prop51ColorRGB
 90
-16777216
102
RTVSPost2010PropOp51
 70
     0
102
RTVSPost2010Prop52
140
1.0
102
RTVSPost2010PropOp52
 70
     0
102
RTVSPost2010Prop53
 90
        2
102
RTVSPost2010PropOp53
 70
     1
102
RTVSPost2010Prop54
  1
strokes_ogs.tif
102
RTVSPost2010PropOp54
 70
     1
102
RTVSPost2010Prop55
280
     0
102
RTVSPost2010PropOp55
 70
     1
102
RTVSPost2010Prop56
140
1.0
102
RTVSPost2010PropOp56
 70
     1
102
RTVSPost2010Prop57
140
1.0
102
RTVSPost2010PropOp57
 70
     1
  0
XRECORD
  5
154
102
{ACAD_REACTORS
330
153
102
}
330
153
100
AcDbXrecord
280
     1
102
RTVSPropertyOp0
 70
     1
102
RTVSPropertyOp1
 70
     1
102
RTVSPropertyOp2
 70
     1
102
RTVSPropertyOp3
 70
     1
102
RTVSPropertyOp4
 70
     1
102
RTVSPropertyOp5
 70
     1
102
RTVSPropertyOp6
 70
     1
102
RTVSPropertyOp7
 70
     1
102
RTVSPropertyOp8
 70
     1
102
RTVSPropertyOp9
 70
     1
102
RTVSPropertyOp10
 70
     1
102
RTVSPropertyOp11
 70
     1
102
RTVSPropertyOp12
 70
     1
102
RTVSPropertyOp13
 70
     1
102
RTVSPropertyOp14
 70
     1
102
RTVSPropertyOp15
 70
     1
102
RTVSPropertyOp16
 70
     1
102
RTVSPropertyOp17
 70
     1
102
RTVSPropertyOp18
 70
     1
102
RTVSPropertyOp19
 70
     1
102
RTVSPropertyOp20
 70
     1
102
RTVSPropertyOp21
 70
     1
102
RTVSPropertyOp22
 70
     1
102
RTVSPropertyOp23
 70
     1
102
RTVSPropertyOp24
 70
     1
102
RTVSPropertyOp25
 70
     1
102
RTVSPropertyOp26
 70
     1
102
RTVSPropertyOp27
 70
     1
102
RTVSPropertyOp28
 70
     1
102
RTVSPropertyOp29
 70
     1
102
RTVSPropertyOp30
 70
     1
102
RTVSPropertyOp31
 70
     1
102
RTVSPropertyOp32
 70
     1
102
RTVSPropertyOp33
 70
     1
102
RTVSPropertyOp34
 70
     1
102
RTVSPropertyOp35
 70
     1
102
RTVSPropertyOp36
 70
     1
102
RTVSPropertyOp37
 70
     1
102
RTVSPropertyOp38
 70
     1
102
RTVSPropertyOp39
 70
     1
102
RTVSPropertyOp40
 70
     1
102
RTVSPropertyOp41
 70
     1
102
RTVSPropertyOp42
 70
     1
102
RTVSPropertyOp43
 70
     1
102
RTVSPropertyOp44
 70
     1
102
RTVSPropertyOp45
 70
     1
102
RTVSPropertyOp46
 70
     1
102
RTVSPropertyOp47
 70
     1
102
RTVSPropertyOp48
 70
     1
102
RTVSPropertyOp49
 70
     1
102
RTVSPropertyOp50
 70
     1
102
RTVSPropertyOp51
 70
     0
102
RTVSPropertyOp52
 70
     0
102
RTVSPropertyOp53
 70
     1
102
RTVSPropertyOp54
 70
     1
102
RTVSPropertyOp55
 70
     1
102
RTVSPropertyOp56
 70
     1
102
RTVSPropertyOp57
 70
     1
102
RTVSPost2010Prop28
280
     0
102
RTVSPost2010PropOp28
 70
     1
102
RTVSPost2010Prop29
280
     1
102
RTVSPost2010PropOp29
 70
     1
102
RTVSPost2010Prop30
280
     1
102
RTVSPost2010PropOp30
 70
     1
102
RTVSPost2010Prop31
280
     0
102
RTVSPost2010PropOp31
 70
     1
102
RTVSPost2010Prop32
280
     0
102
RTVSPost2010PropOp32
 70
     1
102
RTVSPost2010Prop33
280
     0
102
RTVSPost2010PropOp33
 70
     1
102
RTVSPost2010Prop34
280
     0
102
RTVSPost2010PropOp34
 70
     1
102
RTVSPost2010Prop35
280
     0
102
RTVSPost2010PropOp35
 70
     1
102
RTVSPost2010Prop36
280
     0
102
RTVSPost2010PropOp36
 70
     1
102
RTVSPost2010Prop37
 90
       50
102
RTVSPost2010PropOp37
 70
     1
102
RTVSPost2010Prop38
140
0.0
102
RTVSPost2010PropOp38
 70
     1
102
RTVSPost2010Prop39
140
1.0
102
RTVSPost2010PropOp39
 70
     1
102
RTVSPost2010Prop40
 90
        0
102
RTVSPost2010PropOp40
 70
     1
102
RTVSPost2010Prop41ColorIndex
 90
       18
102
RTVSPost2010Prop41ColorRGB
 90
        0
102
RTVSPost2010PropOp41
 70
     1
102
RTVSPost2010Prop42
 90
       50
102
RTVSPost2010PropOp42
 70
     1
102
RTVSPost2010Prop43
 90
        3
102
RTVSPost2010PropOp43
 70
     1
102
RTVSPost2010Prop44ColorIndex
 90
        5
102
RTVSPost2010Prop44ColorRGB
 90
      255
102
RTVSPost2010PropOp44
 70
     1
102
RTVSPost2010Prop45
280
     0
102
RTVSPost2010PropOp45
 70
     1
102
RTVSPost2010Prop46
 90
       50
102
RTVSPost2010PropOp46
 70
     1
102
RTVSPost2010Prop47
 90
       50
102
RTVSPost2010PropOp47
 70
     1
102
RTVSPost2010Prop48
 90
       50
102
RTVSPost2010PropOp48
 70
     1
102
RTVSPost2010Prop49
280
     0
102
RTVSPost2010PropOp49
 70
     1
102
RTVSPost2010Prop50
 90
       50
102
RTVSPost2010PropOp50
 70
     1
102
RTVSPost2010Prop51ColorIndex
 90
      256
102
RTVSPost2010Prop51ColorRGB
 90
-16777216
102
RTVSPost2010PropOp51
 70
     0
102
RTVSPost2010Prop52
140
1.0
102
RTVSPost2010PropOp52
 70
     0
102
RTVSPost2010Prop53
 90
        2
102
RTVSPost2010PropOp53
 70
     1
102
RTVSPost2010Prop54
  1
strokes_ogs.tif
102
RTVSPost2010PropOp54
 70
     1
102
RTVSPost2010Prop55
280
     0
102
RTVSPost2010PropOp55
 70
     1
102
RTVSPost2010Prop56
140
1.0
102
RTVSPost2010PropOp56
 70
     1
102
RTVSPost2010Prop57
140
1.0
102
RTVSPost2010PropOp57
 70
     1
  0
XRECORD
  5
156
102
{ACAD_REACTORS
330
155
102
}
330
155
100
AcDbXrecord
280
     1
102
RTVSPropertyOp0
 70
     1
102
RTVSPropertyOp1
 70
     1
102
RTVSPropertyOp2
 70
     1
102
RTVSPropertyOp3
 70
     1
102
RTVSPropertyOp4
 70
     1
102
RTVSPropertyOp5
 70
     1
102
RTVSPropertyOp6
 70
     1
102
RTVSPropertyOp7
 70
     1
102
RTVSPropertyOp8
 70
     1
102
RTVSPropertyOp9
 70
     1
102
RTVSPropertyOp10
 70
     1
102
RTVSPropertyOp11
 70
     1
102
RTVSPropertyOp12
 70
     1
102
RTVSPropertyOp13
 70
     1
102
RTVSPropertyOp14
 70
     1
102
RTVSPropertyOp15
 70
     1
102
RTVSPropertyOp16
 70
     1
102
RTVSPropertyOp17
 70
     1
102
RTVSPropertyOp18
 70
     1
102
RTVSPropertyOp19
 70
     1
102
RTVSPropertyOp20
 70
     1
102
RTVSPropertyOp21
 70
     1
102
RTVSPropertyOp22
 70
     1
102
RTVSPropertyOp23
 70
     1
102
RTVSPropertyOp24
 70
     1
102
RTVSPropertyOp25
 70
     1
102
RTVSPropertyOp26
 70
     1
102
RTVSPropertyOp27
 70
     1
102
RTVSPropertyOp28
 70
     1
102
RTVSPropertyOp29
 70
     1
102
RTVSPropertyOp30
 70
     1
102
RTVSPropertyOp31
 70
     1
102
RTVSPropertyOp32
 70
     1
102
RTVSPropertyOp33
 70
     1
102
RTVSPropertyOp34
 70
     1
102
RTVSPropertyOp35
 70
     1
102
RTVSPropertyOp36
 70
     1
102
RTVSPropertyOp37
 70
     1
102
RTVSPropertyOp38
 70
     1
102
RTVSPropertyOp39
 70
     1
102
RTVSPropertyOp40
 70
     1
102
RTVSPropertyOp41
 70
     1
102
RTVSPropertyOp42
 70
     1
102
RTVSPropertyOp43
 70
     1
102
RTVSPropertyOp44
 70
     1
102
RTVSPropertyOp45
 70
     1
102
RTVSPropertyOp46
 70
     1
102
RTVSPropertyOp47
 70
     1
102
RTVSPropertyOp48
 70
     1
102
RTVSPropertyOp49
 70
     1
102
RTVSPropertyOp50
 70
     1
102
RTVSPropertyOp51
 70
     0
102
RTVSPropertyOp52
 70
     0
102
RTVSPropertyOp53
 70
     1
102
RTVSPropertyOp54
 70
     1
102
RTVSPropertyOp55
 70
     1
102
RTVSPropertyOp56
 70
     1
102
RTVSPropertyOp57
 70
     1
102
RTVSPost2010Prop28
280
     0
102
RTVSPost2010PropOp28
 70
     1
102
RTVSPost2010Prop29
280
     1
102
RTVSPost2010PropOp29
 70
     1
102
RTVSPost2010Prop30
280
     1
102
RTVSPost2010PropOp30
 70
     1
102
RTVSPost2010Prop31
280
     0
102
RTVSPost2010PropOp31
 70
     1
102
RTVSPost2010Prop32
280
     0
102
RTVSPost2010PropOp32
 70
     1
102
RTVSPost2010Prop33
280
     0
102
RTVSPost2010PropOp33
 70
     1
102
RTVSPost2010Prop34
280
     0
102
RTVSPost2010PropOp34
 70
     1
102
RTVSPost2010Prop35
280
     0
102
RTVSPost2010PropOp35
 70
     1
102
RTVSPost2010Prop36
280
     0
102
RTVSPost2010PropOp36
 70
     1
102
RTVSPost2010Prop37
 90
       50
102
RTVSPost2010PropOp37
 70
     1
102
RTVSPost2010Prop38
140
0.0
102
RTVSPost2010PropOp38
 70
     1
102
RTVSPost2010Prop39
140
1.0
102
RTVSPost2010PropOp39
 70
     1
102
RTVSPost2010Prop40
 90
        0
102
RTVSPost2010PropOp40
 70
     1
102
RTVSPost2010Prop41ColorIndex
 90
       18
102
RTVSPost2010Prop41ColorRGB
 90
        0
102
RTVSPost2010PropOp41
 70
     1
102
RTVSPost2010Prop42
 90
       50
102
RTVSPost2010PropOp42
 70
     1
102
RTVSPost2010Prop43
 90
        3
102
RTVSPost2010PropOp43
 70
     1
102
RTVSPost2010Prop44ColorIndex
 90
        5
102
RTVSPost2010Prop44ColorRGB
 90
      255
102
RTVSPost2010PropOp44
 70
     1
102
RTVSPost2010Prop45
280
     0
102
RTVSPost2010PropOp45
 70
     1
102
RTVSPost2010Prop46
 90
       50
102
RTVSPost2010PropOp46
 70
     1
102
RTVSPost2010Prop47
 90
       50
102
RTVSPost2010PropOp47
 70
     1
102
RTVSPost2010Prop48
 90
       50
102
RTVSPost2010PropOp48
 70
     1
102
RTVSPost2010Prop49
280
     0
102
RTVSPost2010PropOp49
 70
     1
102
RTVSPost2010Prop50
 90
       50
102
RTVSPost2010PropOp50
 70
     1
102
RTVSPost2010Prop51ColorIndex
 90
      256
102
RTVSPost2010Prop51ColorRGB
 90
-16777216
102
RTVSPost2010PropOp51
 70
     0
102
RTVSPost2010Prop52
140
1.0
102
RTVSPost2010PropOp52
 70
     0
102
RTVSPost2010Prop53
 90
        2
102
RTVSPost2010PropOp53
 70
     1
102
RTVSPost2010Prop54
  1
strokes_ogs.tif
102
RTVSPost2010PropOp54
 70
     1
102
RTVSPost2010Prop55
280
     0
102
RTVSPost2010PropOp55
 70
     1
102
RTVSPost2010Prop56
140
1.0
102
RTVSPost2010PropOp56
 70
     1
102
RTVSPost2010Prop57
140
1.0
102
RTVSPost2010PropOp57
 70
     1
  0
XRECORD
  5
146
102
{ACAD_REACTORS
330
145
102
}
330
145
100
AcDbXrecord
280
     1
102
RTVSPropertyOp0
 70
     1
102
RTVSPropertyOp1
 70
     1
102
RTVSPropertyOp2
 70
     1
102
RTVSPropertyOp3
 70
     1
102
RTVSPropertyOp4
 70
     1
102
RTVSPropertyOp5
 70
     1
102
RTVSPropertyOp6
 70
     1
102
RTVSPropertyOp7
 70
     1
102
RTVSPropertyOp8
 70
     1
102
RTVSPropertyOp9
 70
     1
102
RTVSPropertyOp10
 70
     1
102
RTVSPropertyOp11
 70
     1
102
RTVSPropertyOp12
 70
     1
102
RTVSPropertyOp13
 70
     1
102
RTVSPropertyOp14
 70
     1
102
RTVSPropertyOp15
 70
     1
102
RTVSPropertyOp16
 70
     1
102
RTVSPropertyOp17
 70
     1
102
RTVSPropertyOp18
 70
     1
102
RTVSPropertyOp19
 70
     1
102
RTVSPropertyOp20
 70
     1
102
RTVSPropertyOp21
 70
     1
102
RTVSPropertyOp22
 70
     1
102
RTVSPropertyOp23
 70
     1
102
RTVSPropertyOp24
 70
     1
102
RTVSPropertyOp25
 70
     1
102
RTVSPropertyOp26
 70
     1
102
RTVSPropertyOp27
 70
     1
102
RTVSPropertyOp28
 70
     1
102
RTVSPropertyOp29
 70
     1
102
RTVSPropertyOp30
 70
     1
102
RTVSPropertyOp31
 70
     1
102
RTVSPropertyOp32
 70
     1
102
RTVSPropertyOp33
 70
     1
102
RTVSPropertyOp34
 70
     1
102
RTVSPropertyOp35
 70
     1
102
RTVSPropertyOp36
 70
     1
102
RTVSPropertyOp37
 70
     1
102
RTVSPropertyOp38
 70
     1
102
RTVSPropertyOp39
 70
     1
102
RTVSPropertyOp40
 70
     1
102
RTVSPropertyOp41
 70
     1
102
RTVSPropertyOp42
 70
     1
102
RTVSPropertyOp43
 70
     1
102
RTVSPropertyOp44
 70
     1
102
RTVSPropertyOp45
 70
     1
102
RTVSPropertyOp46
 70
     1
102
RTVSPropertyOp47
 70
     1
102
RTVSPropertyOp48
 70
     1
102
RTVSPropertyOp49
 70
     1
102
RTVSPropertyOp50
 70
     1
102
RTVSPropertyOp51
 70
     0
102
RTVSPropertyOp52
 70
     0
102
RTVSPropertyOp53
 70
     1
102
RTVSPropertyOp54
 70
     1
102
RTVSPropertyOp55
 70
     1
102
RTVSPropertyOp56
 70
     1
102
RTVSPropertyOp57
 70
     1
102
RTVSPost2010Prop28
280
     0
102
RTVSPost2010PropOp28
 70
     1
102
RTVSPost2010Prop29
280
     1
102
RTVSPost2010PropOp29
 70
     1
102
RTVSPost2010Prop30
280
     1
102
RTVSPost2010PropOp30
 70
     1
102
RTVSPost2010Prop31
280
     0
102
RTVSPost2010PropOp31
 70
     1
102
RTVSPost2010Prop32
280
     0
102
RTVSPost2010PropOp32
 70
     1
102
RTVSPost2010Prop33
280
     0
102
RTVSPost2010PropOp33
 70
     1
102
RTVSPost2010Prop34
280
     0
102
RTVSPost2010PropOp34
 70
     1
102
RTVSPost2010Prop35
280
     0
102
RTVSPost2010PropOp35
 70
     1
102
RTVSPost2010Prop36
280
     0
102
RTVSPost2010PropOp36
 70
     1
102
RTVSPost2010Prop37
 90
       50
102
RTVSPost2010PropOp37
 70
     1
102
RTVSPost2010Prop38
140
0.0
102
RTVSPost2010PropOp38
 70
     1
102
RTVSPost2010Prop39
140
1.0
102
RTVSPost2010PropOp39
 70
     1
102
RTVSPost2010Prop40
 90
        0
102
RTVSPost2010PropOp40
 70
     1
102
RTVSPost2010Prop41ColorIndex
 90
       18
102
RTVSPost2010Prop41ColorRGB
 90
        0
102
RTVSPost2010PropOp41
 70
     1
102
RTVSPost2010Prop42
 90
       50
102
RTVSPost2010PropOp42
 70
     1
102
RTVSPost2010Prop43
 90
        3
102
RTVSPost2010PropOp43
 70
     1
102
RTVSPost2010Prop44ColorIndex
 90
        5
102
RTVSPost2010Prop44ColorRGB
 90
      255
102
RTVSPost2010PropOp44
 70
     1
102
RTVSPost2010Prop45
280
     0
102
RTVSPost2010PropOp45
 70
     1
102
RTVSPost2010Prop46
 90
       50
102
RTVSPost2010PropOp46
 70
     1
102
RTVSPost2010Prop47
 90
       50
102
RTVSPost2010PropOp47
 70
     1
102
RTVSPost2010Prop48
 90
       50
102
RTVSPost2010PropOp48
 70
     1
102
RTVSPost2010Prop49
280
     0
102
RTVSPost2010PropOp49
 70
     1
102
RTVSPost2010Prop50
 90
       50
102
RTVSPost2010PropOp50
 70
     1
102
RTVSPost2010Prop51ColorIndex
 90
      256
102
RTVSPost2010Prop51ColorRGB
 90
-16777216
102
RTVSPost2010PropOp51
 70
     0
102
RTVSPost2010Prop52
140
1.0
102
RTVSPost2010PropOp52
 70
     0
102
RTVSPost2010Prop53
 90
        2
102
RTVSPost2010PropOp53
 70
     1
102
RTVSPost2010Prop54
  1
strokes_ogs.tif
102
RTVSPost2010PropOp54
 70
     1
102
RTVSPost2010Prop55
280
     0
102
RTVSPost2010PropOp55
 70
     1
102
RTVSPost2010Prop56
140
1.0
102
RTVSPost2010PropOp56
 70
     1
102
RTVSPost2010Prop57
140
1.0
102
RTVSPost2010PropOp57
 70
     1
  0
XRECORD
  5
138
102
{ACAD_REACTORS
330
137
102
}
330
137
100
AcDbXrecord
280
     1
102
RTVSPropertyOp0
 70
     1
102
RTVSPropertyOp1
 70
     1
102
RTVSPropertyOp2
 70
     1
102
RTVSPropertyOp3
 70
     1
102
RTVSPropertyOp4
 70
     1
102
RTVSPropertyOp5
 70
     1
102
RTVSPropertyOp6
 70
     1
102
RTVSPropertyOp7
 70
     1
102
RTVSPropertyOp8
 70
     1
102
RTVSPropertyOp9
 70
     1
102
RTVSPropertyOp10
 70
     1
102
RTVSPropertyOp11
 70
     1
102
RTVSPropertyOp12
 70
     1
102
RTVSPropertyOp13
 70
     1
102
RTVSPropertyOp14
 70
     1
102
RTVSPropertyOp15
 70
     1
102
RTVSPropertyOp16
 70
     1
102
RTVSPropertyOp17
 70
     1
102
RTVSPropertyOp18
 70
     1
102
RTVSPropertyOp19
 70
     1
102
RTVSPropertyOp20
 70
     1
102
RTVSPropertyOp21
 70
     1
102
RTVSPropertyOp22
 70
     1
102
RTVSPropertyOp23
 70
     1
102
RTVSPropertyOp24
 70
     1
102
RTVSPropertyOp25
 70
     1
102
RTVSPropertyOp26
 70
     1
102
RTVSPropertyOp27
 70
     1
102
RTVSPropertyOp28
 70
     1
102
RTVSPropertyOp29
 70
     1
102
RTVSPropertyOp30
 70
     1
102
RTVSPropertyOp31
 70
     1
102
RTVSPropertyOp32
 70
     1
102
RTVSPropertyOp33
 70
     1
102
RTVSPropertyOp34
 70
     1
102
RTVSPropertyOp35
 70
     1
102
RTVSPropertyOp36
 70
     1
102
RTVSPropertyOp37
 70
     1
102
RTVSPropertyOp38
 70
     1
102
RTVSPropertyOp39
 70
     1
102
RTVSPropertyOp40
 70
     1
102
RTVSPropertyOp41
 70
     1
102
RTVSPropertyOp42
 70
     1
102
RTVSPropertyOp43
 70
     1
102
RTVSPropertyOp44
 70
     1
102
RTVSPropertyOp45
 70
     1
102
RTVSPropertyOp46
 70
     1
102
RTVSPropertyOp47
 70
     1
102
RTVSPropertyOp48
 70
     1
102
RTVSPropertyOp49
 70
     1
102
RTVSPropertyOp50
 70
     1
102
RTVSPropertyOp51
 70
     0
102
RTVSPropertyOp52
 70
     0
102
RTVSPropertyOp53
 70
     1
102
RTVSPropertyOp54
 70
     1
102
RTVSPropertyOp55
 70
     1
102
RTVSPropertyOp56
 70
     1
102
RTVSPropertyOp57
 70
     1
102
RTVSPost2010Prop28
280
     0
102
RTVSPost2010PropOp28
 70
     1
102
RTVSPost2010Prop29
280
     1
102
RTVSPost2010PropOp29
 70
     1
102
RTVSPost2010Prop30
280
     1
102
RTVSPost2010PropOp30
 70
     1
102
RTVSPost2010Prop31
280
     0
102
RTVSPost2010PropOp31
 70
     1
102
RTVSPost2010Prop32
280
     0
102
RTVSPost2010PropOp32
 70
     1
102
RTVSPost2010Prop33
280
     0
102
RTVSPost2010PropOp33
 70
     1
102
RTVSPost2010Prop34
280
     0
102
RTVSPost2010PropOp34
 70
     1
102
RTVSPost2010Prop35
280
     0
102
RTVSPost2010PropOp35
 70
     1
102
RTVSPost2010Prop36
280
     0
102
RTVSPost2010PropOp36
 70
     1
102
RTVSPost2010Prop37
 90
       50
102
RTVSPost2010PropOp37
 70
     1
102
RTVSPost2010Prop38
140
0.0
102
RTVSPost2010PropOp38
 70
     1
102
RTVSPost2010Prop39
140
1.0
102
RTVSPost2010PropOp39
 70
     1
102
RTVSPost2010Prop40
 90
        0
102
RTVSPost2010PropOp40
 70
     1
102
RTVSPost2010Prop41ColorIndex
 90
       18
102
RTVSPost2010Prop41ColorRGB
 90
        0
102
RTVSPost2010PropOp41
 70
     1
102
RTVSPost2010Prop42
 90
       50
102
RTVSPost2010PropOp42
 70
     1
102
RTVSPost2010Prop43
 90
        3
102
RTVSPost2010PropOp43
 70
     1
102
RTVSPost2010Prop44ColorIndex
 90
        5
102
RTVSPost2010Prop44ColorRGB
 90
      255
102
RTVSPost2010PropOp44
 70
     1
102
RTVSPost2010Prop45
280
     0
102
RTVSPost2010PropOp45
 70
     1
102
RTVSPost2010Prop46
 90
       50
102
RTVSPost2010PropOp46
 70
     1
102
RTVSPost2010Prop47
 90
       50
102
RTVSPost2010PropOp47
 70
     1
102
RTVSPost2010Prop48
 90
       50
102
RTVSPost2010PropOp48
 70
     1
102
RTVSPost2010Prop49
280
     0
102
RTVSPost2010PropOp49
 70
     1
102
RTVSPost2010Prop50
 90
       50
102
RTVSPost2010PropOp50
 70
     1
102
RTVSPost2010Prop51ColorIndex
 90
      256
102
RTVSPost2010Prop51ColorRGB
 90
-16777216
102
RTVSPost2010PropOp51
 70
     0
102
RTVSPost2010Prop52
140
1.0
102
RTVSPost2010PropOp52
 70
     0
102
RTVSPost2010Prop53
 90
        2
102
RTVSPost2010PropOp53
 70
     1
102
RTVSPost2010Prop54
  1
strokes_ogs.tif
102
RTVSPost2010PropOp54
 70
     1
102
RTVSPost2010Prop55
280
     0
102
RTVSPost2010PropOp55
 70
     1
102
RTVSPost2010Prop56
140
1.0
102
RTVSPost2010PropOp56
 70
     1
102
RTVSPost2010Prop57
140
1.0
102
RTVSPost2010PropOp57
 70
     1
  0
XRECORD
  5
158
102
{ACAD_REACTORS
330
157
102
}
330
157
100
AcDbXrecord
280
     1
102
RTVSPropertyOp0
 70
     1
102
RTVSPropertyOp1
 70
     1
102
RTVSPropertyOp2
 70
     1
102
RTVSPropertyOp3
 70
     1
102
RTVSPropertyOp4
 70
     1
102
RTVSPropertyOp5
 70
     1
102
RTVSPropertyOp6
 70
     1
102
RTVSPropertyOp7
 70
     1
102
RTVSPropertyOp8
 70
     1
102
RTVSPropertyOp9
 70
     1
102
RTVSPropertyOp10
 70
     1
102
RTVSPropertyOp11
 70
     1
102
RTVSPropertyOp12
 70
     1
102
RTVSPropertyOp13
 70
     1
102
RTVSPropertyOp14
 70
     1
102
RTVSPropertyOp15
 70
     1
102
RTVSPropertyOp16
 70
     1
102
RTVSPropertyOp17
 70
     1
102
RTVSPropertyOp18
 70
     1
102
RTVSPropertyOp19
 70
     1
102
RTVSPropertyOp20
 70
     1
102
RTVSPropertyOp21
 70
     1
102
RTVSPropertyOp22
 70
     1
102
RTVSPropertyOp23
 70
     1
102
RTVSPropertyOp24
 70
     1
102
RTVSPropertyOp25
 70
     1
102
RTVSPropertyOp26
 70
     1
102
RTVSPropertyOp27
 70
     1
102
RTVSPropertyOp28
 70
     1
102
RTVSPropertyOp29
 70
     1
102
RTVSPropertyOp30
 70
     1
102
RTVSPropertyOp31
 70
     1
102
RTVSPropertyOp32
 70
     1
102
RTVSPropertyOp33
 70
     1
102
RTVSPropertyOp34
 70
     1
102
RTVSPropertyOp35
 70
     1
102
RTVSPropertyOp36
 70
     1
102
RTVSPropertyOp37
 70
     1
102
RTVSPropertyOp38
 70
     1
102
RTVSPropertyOp39
 70
     1
102
RTVSPropertyOp40
 70
     1
102
RTVSPropertyOp41
 70
     1
102
RTVSPropertyOp42
 70
     1
102
RTVSPropertyOp43
 70
     1
102
RTVSPropertyOp44
 70
     1
102
RTVSPropertyOp45
 70
     1
102
RTVSPropertyOp46
 70
     1
102
RTVSPropertyOp47
 70
     1
102
RTVSPropertyOp48
 70
     1
102
RTVSPropertyOp49
 70
     1
102
RTVSPropertyOp50
 70
     1
102
RTVSPropertyOp51
 70
     0
102
RTVSPropertyOp52
 70
     0
102
RTVSPropertyOp53
 70
     1
102
RTVSPropertyOp54
 70
     1
102
RTVSPropertyOp55
 70
     1
102
RTVSPropertyOp56
 70
     1
102
RTVSPropertyOp57
 70
     1
102
RTVSPost2010Prop28
280
     0
102
RTVSPost2010PropOp28
 70
     1
102
RTVSPost2010Prop29
280
     1
102
RTVSPost2010PropOp29
 70
     1
102
RTVSPost2010Prop30
280
     1
102
RTVSPost2010PropOp30
 70
     1
102
RTVSPost2010Prop31
280
     0
102
RTVSPost2010PropOp31
 70
     1
102
RTVSPost2010Prop32
280
     0
102
RTVSPost2010PropOp32
 70
     1
102
RTVSPost2010Prop33
280
     0
102
RTVSPost2010PropOp33
 70
     1
102
RTVSPost2010Prop34
280
     0
102
RTVSPost2010PropOp34
 70
     1
102
RTVSPost2010Prop35
280
     0
102
RTVSPost2010PropOp35
 70
     1
102
RTVSPost2010Prop36
280
     0
102
RTVSPost2010PropOp36
 70
     1
102
RTVSPost2010Prop37
 90
       50
102
RTVSPost2010PropOp37
 70
     1
102
RTVSPost2010Prop38
140
0.0
102
RTVSPost2010PropOp38
 70
     1
102
RTVSPost2010Prop39
140
1.0
102
RTVSPost2010PropOp39
 70
     1
102
RTVSPost2010Prop40
 90
        0
102
RTVSPost2010PropOp40
 70
     1
102
RTVSPost2010Prop41ColorIndex
 90
       18
102
RTVSPost2010Prop41ColorRGB
 90
        0
102
RTVSPost2010PropOp41
 70
     1
102
RTVSPost2010Prop42
 90
       50
102
RTVSPost2010PropOp42
 70
     1
102
RTVSPost2010Prop43
 90
        3
102
RTVSPost2010PropOp43
 70
     1
102
RTVSPost2010Prop44ColorIndex
 90
        5
102
RTVSPost2010Prop44ColorRGB
 90
      255
102
RTVSPost2010PropOp44
 70
     1
102
RTVSPost2010Prop45
280
     0
102
RTVSPost2010PropOp45
 70
     1
102
RTVSPost2010Prop46
 90
       50
102
RTVSPost2010PropOp46
 70
     1
102
RTVSPost2010Prop47
 90
       50
102
RTVSPost2010PropOp47
 70
     1
102
RTVSPost2010Prop48
 90
       50
102
RTVSPost2010PropOp48
 70
     1
102
RTVSPost2010Prop49
280
     0
102
RTVSPost2010PropOp49
 70
     1
102
RTVSPost2010Prop50
 90
       50
102
RTVSPost2010PropOp50
 70
     1
102
RTVSPost2010Prop51ColorIndex
 90
      256
102
RTVSPost2010Prop51ColorRGB
 90
-16777216
102
RTVSPost2010PropOp51
 70
     0
102
RTVSPost2010Prop52
140
1.0
102
RTVSPost2010PropOp52
 70
     0
102
RTVSPost2010Prop53
 90
        2
102
RTVSPost2010PropOp53
 70
     1
102
RTVSPost2010Prop54
  1
strokes_ogs.tif
102
RTVSPost2010PropOp54
 70
     1
102
RTVSPost2010Prop55
280
     0
102
RTVSPost2010PropOp55
 70
     1
102
RTVSPost2010Prop56
140
1.0
102
RTVSPost2010PropOp56
 70
     1
102
RTVSPost2010Prop57
140
1.0
102
RTVSPost2010PropOp57
 70
     1
  0
ENDSEC
  0
EOF
