  0
SECTION
  2
HEADER
  9
$ACADVER
  1
AC1018
  9
$ACADMAINTVER
 70
     0
  9
$DWGCODEPAGE
  3
ANSI_1252
  9
$INSBASE
 10
0.0
 20
0.0
 30
0.0
  9
$EXTMIN
 10
0.0000000000000249
 20
0.0000000000000079
 30
0.0
  9
$EXTMAX
 10
78.54102461844167
 20
138.7783047718569
 30
0.0
  9
$LIMMIN
 10
0.0
 20
0.0
  9
$LIMMAX
 10
12.0
 20
9.0
  9
$ORTHOMODE
 70
     0
  9
$REGENMODE
 70
     1
  9
$FILLMODE
 70
     1
  9
$QTEXTMODE
 70
     0
  9
$MIRRTEXT
 70
     1
  9
$LTSCALE
 40
1.0
  9
$ATTMODE
 70
     1
  9
$TEXTSIZE
 40
0.2
  9
$TRACEWID
 40
0.05
  9
$TEXTSTYLE
  7
Standard
  9
$CLAYER
  8
PREDEFINITO
  9
$CELTYPE
  6
ByLayer
  9
$CECOLOR
 62
   256
  9
$CELTSCALE
 40
1.0
  9
$DISPSILH
 70
     0
  9
$DIMSCALE
 40
1.0
  9
$DIMASZ
 40
0.18
  9
$DIMEXO
 40
0.0625
  9
$DIMDLI
 40
0.38
  9
$DIMRND
 40
0.0
  9
$DIMDLE
 40
0.0
  9
$DIMEXE
 40
0.18
  9
$DIMTP
 40
0.0
  9
$DIMTM
 40
0.0
  9
$DIMTXT
 40
0.18
  9
$DIMCEN
 40
0.09
  9
$DIMTSZ
 40
0.0
  9
$DIMTOL
 70
     0
  9
$DIMLIM
 70
     0
  9
$DIMTIH
 70
     1
  9
$DIMTOH
 70
     1
  9
$DIMSE1
 70
     0
  9
$DIMSE2
 70
     0
  9
$DIMTAD
 70
     0
  9
$DIMZIN
 70
     0
  9
$DIMBLK
  1

  9
$DIMASO
 70
     1
  9
$DIMSHO
 70
     1
  9
$DIMPOST
  1

  9
$DIMAPOST
  1

  9
$DIMALT
 70
     0
  9
$DIMALTD
 70
     2
  9
$DIMALTF
 40
25.4
  9
$DIMLFAC
 40
1.0
  9
$DIMTOFL
 70
     0
  9
$DIMTVP
 40
0.0
  9
$DIMTIX
 70
     0
  9
$DIMSOXD
 70
     0
  9
$DIMSAH
 70
     0
  9
$DIMBLK1
  1

  9
$DIMBLK2
  1

  9
$DIMSTYLE
  2
Standard
  9
$DIMCLRD
 70
     0
  9
$DIMCLRE
 70
     0
  9
$DIMCLRT
 70
     0
  9
$DIMTFAC
 40
1.0
  9
$DIMGAP
 40
0.09
  9
$DIMJUST
 70
     0
  9
$DIMSD1
 70
     0
  9
$DIMSD2
 70
     0
  9
$DIMTOLJ
 70
     1
  9
$DIMTZIN
 70
     0
  9
$DIMALTZ
 70
     0
  9
$DIMALTTZ
 70
     0
  9
$DIMUPT
 70
     0
  9
$DIMDEC
 70
     4
  9
$DIMTDEC
 70
     4
  9
$DIMALTU
 70
     2
  9
$DIMALTTD
 70
     2
  9
$DIMTXSTY
  7
Standard
  9
$DIMAUNIT
 70
     0
  9
$DIMADEC
 70
     0
  9
$DIMALTRND
 40
0.0
  9
$DIMAZIN
 70
     0
  9
$DIMDSEP
 70
    46
  9
$DIMATFIT
 70
     3
  9
$DIMFRAC
 70
     0
  9
$DIMLDRBLK
  1

  9
$DIMLUNIT
 70
     2
  9
$DIMLWD
 70
    -2
  9
$DIMLWE
 70
    -2
  9
$DIMTMOVE
 70
     0
  9
$LUNITS
 70
     2
  9
$LUPREC
 70
     3
  9
$SKETCHINC
 40
0.1
  9
$FILLETRAD
 40
0.5
  9
$AUNITS
 70
     0
  9
$AUPREC
 70
     0
  9
$MENU
  1
.
  9
$ELEVATION
 40
0.0
  9
$PELEVATION
 40
0.0
  9
$THICKNESS
 40
0.0
  9
$LIMCHECK
 70
     0
  9
$CHAMFERA
 40
0.5
  9
$CHAMFERB
 40
0.5
  9
$CHAMFERC
 40
1.0
  9
$CHAMFERD
 40
0.0
  9
$SKPOLY
 70
     0
  9
$TDCREATE
 40
2455868.506172894
  9
$TDUCREATE
 40
2455868.464506227
  9
$TDUPDATE
 40
2455868.506172905
  9
$TDUUPDATE
 40
2455868.464506238
  9
$TDINDWG
 40
0.0000000116
  9
$TDUSRTIMER
 40
0.0000000116
  9
$USRTIMER
 70
     1
  9
$ANGBASE
 50
0.0
  9
$ANGDIR
 70
     0
  9
$PDMODE
 70
     0
  9
$PDSIZE
 40
0.0
  9
$PLINEWID
 40
0.0
  9
$SPLFRAME
 70
     0
  9
$SPLINETYPE
 70
     6
  9
$SPLINESEGS
 70
     8
  9
$HANDSEED
  5
A2
  9
$SURFTAB1
 70
     6
  9
$SURFTAB2
 70
     6
  9
$SURFTYPE
 70
     6
  9
$SURFU
 70
     6
  9
$SURFV
 70
     6
  9
$UCSBASE
  2

  9
$UCSNAME
  2

  9
$UCSORG
 10
0.0
 20
0.0
 30
0.0
  9
$UCSXDIR
 10
1.0
 20
0.0
 30
0.0
  9
$UCSYDIR
 10
0.0
 20
1.0
 30
0.0
  9
$UCSORTHOREF
  2

  9
$UCSORTHOVIEW
 70
     0
  9
$UCSORGTOP
 10
0.0
 20
0.0
 30
0.0
  9
$UCSORGBOTTOM
 10
0.0
 20
0.0
 30
0.0
  9
$UCSORGLEFT
 10
0.0
 20
0.0
 30
0.0
  9
$UCSORGRIGHT
 10
0.0
 20
0.0
 30
0.0
  9
$UCSORGFRONT
 10
0.0
 20
0.0
 30
0.0
  9
$UCSORGBACK
 10
0.0
 20
0.0
 30
0.0
  9
$PUCSBASE
  2

  9
$PUCSNAME
  2

  9
$PUCSORG
 10
0.0
 20
0.0
 30
0.0
  9
$PUCSXDIR
 10
1.0
 20
0.0
 30
0.0
  9
$PUCSYDIR
 10
0.0
 20
1.0
 30
0.0
  9
$PUCSORTHOREF
  2

  9
$PUCSORTHOVIEW
 70
     0
  9
$PUCSORGTOP
 10
0.0
 20
0.0
 30
0.0
  9
$PUCSORGBOTTOM
 10
0.0
 20
0.0
 30
0.0
  9
$PUCSORGLEFT
 10
0.0
 20
0.0
 30
0.0
  9
$PUCSORGRIGHT
 10
0.0
 20
0.0
 30
0.0
  9
$PUCSORGFRONT
 10
0.0
 20
0.0
 30
0.0
  9
$PUCSORGBACK
 10
0.0
 20
0.0
 30
0.0
  9
$USERI1
 70
     0
  9
$USERI2
 70
     0
  9
$USERI3
 70
     0
  9
$USERI4
 70
     0
  9
$USERI5
 70
     0
  9
$USERR1
 40
0.0
  9
$USERR2
 40
0.0
  9
$USERR3
 40
0.0
  9
$USERR4
 40
0.0
  9
$USERR5
 40
0.0
  9
$WORLDVIEW
 70
     1
  9
$SHADEDGE
 70
     3
  9
$SHADEDIF
 70
    70
  9
$TILEMODE
 70
     1
  9
$MAXACTVP
 70
    64
  9
$PINSBASE
 10
0.0
 20
0.0
 30
0.0
  9
$PLIMCHECK
 70
     0
  9
$PEXTMIN
 10
1.000000000000000E+20
 20
1.000000000000000E+20
 30
1.000000000000000E+20
  9
$PEXTMAX
 10
-1.000000000000000E+20
 20
-1.000000000000000E+20
 30
-1.000000000000000E+20
  9
$PLIMMIN
 10
0.0
 20
0.0
  9
$PLIMMAX
 10
12.0
 20
9.0
  9
$UNITMODE
 70
     0
  9
$VISRETAIN
 70
     1
  9
$PLINEGEN
 70
     0
  9
$PSLTSCALE
 70
     1
  9
$TREEDEPTH
 70
  3020
  9
$CMLSTYLE
  2
Standard
  9
$CMLJUST
 70
     0
  9
$CMLSCALE
 40
1.0
  9
$PROXYGRAPHICS
 70
     1
  9
$MEASUREMENT
 70
     0
  9
$CELWEIGHT
370
    -1
  9
$ENDCAPS
280
     0
  9
$JOINSTYLE
280
     0
  9
$LWDISPLAY
290
     0
  9
$INSUNITS
 70
     4
  9
$HYPERLINKBASE
  1

  9
$STYLESHEET
  1

  9
$XEDIT
290
     1
  9
$CEPSNTYPE
380
     0
  9
$PSTYLEMODE
290
     1
  9
$FINGERPRINTGUID
  2
{F7EDB2A1-8D4E-4E55-A5D2-DAF0E3E7C527}
  9
$VERSIONGUID
  2
{FAEB1C32-E019-11D5-929B-00C0DF256EC4}
  9
$EXTNAMES
290
     1
  9
$PSVPSCALE
 40
0.0
  9
$OLESTARTUP
290
     0
  9
$SORTENTS
280
   127
  9
$INDEXCTL
280
     0
  9
$HIDETEXT
280
     1
  9
$XCLIPFRAME
290
     0
  9
$HALOGAP
280
     0
  9
$OBSCOLOR
 70
   257
  9
$OBSLTYPE
280
     0
  9
$INTERSECTIONDISPLAY
280
     0
  9
$INTERSECTIONCOLOR
 70
   257
  9
$DIMASSOC
280
     2
  9
$PROJECTNAME
  1

  0
ENDSEC
  0
SECTION
  2
CLASSES
  0
CLASS
  1
ACDBDICTIONARYWDFLT
  2
AcDbDictionaryWithDefault
  3
ObjectDBX Classes
 90
        0
 91
        3
280
     0
281
     0
  0
CLASS
  1
VISUALSTYLE
  2
AcDbVisualStyle
  3
ObjectDBX Classes
 90
     4095
 91
        3
280
     0
281
     0
  0
CLASS
  1
SCALE
  2
AcDbScale
  3
ObjectDBX Classes
 90
     1153
 91
        3
280
     0
281
     0
  0
ENDSEC
  0
SECTION
  2
TABLES
  0
TABLE
  2
VPORT
  5
8
330
0
100
AcDbSymbolTable
 70
     1
  0
VPORT
  5
29
330
8
100
AcDbSymbolTableRecord
100
AcDbViewportTableRecord
  2
*Active
 70
     0
 10
0.0
 20
0.0
 11
1.0
 21
1.0
 12
0.0
 22
0.0
 13
0.0
 23
0.0
 14
0.5
 24
0.5
 15
0.5
 25
0.5
 16
0.0
 26
0.0
 36
1.0
 17
39.27051230922085
 27
69.38915238592844
 37
0.0
 40
141.553870867294
 41
0.5659459866407672
 42
50.0
 43
0.0
 44
0.0
 50
0.0
 51
0.0
 71
     0
 72
   100
 73
     1
 74
     3
 75
     0
 76
     0
 77
     0
 78
     0
281
     0
 65
     1
110
0.0
120
0.0
130
0.0
111
1.0
121
0.0
131
0.0
112
0.0
122
1.0
132
0.0
 79
     0
146
0.0
  0
ENDTAB
  0
TABLE
  2
LTYPE
  5
5
330
0
100
AcDbSymbolTable
 70
     1
  0
LTYPE
  5
14
330
5
100
AcDbSymbolTableRecord
100
AcDbLinetypeTableRecord
  2
ByBlock
 70
     0
  3

 72
    65
 73
     0
 40
0.0
  0
LTYPE
  5
15
330
5
100
AcDbSymbolTableRecord
100
AcDbLinetypeTableRecord
  2
ByLayer
 70
     0
  3

 72
    65
 73
     0
 40
0.0
  0
LTYPE
  5
16
330
5
100
AcDbSymbolTableRecord
100
AcDbLinetypeTableRecord
  2
Continuous
 70
     0
  3
Solid line
 72
    65
 73
     0
 40
0.0
  0
ENDTAB
  0
TABLE
  2
LAYER
  5
2
330
0
100
AcDbSymbolTable
 70
     3
  0
LAYER
  5
10
330
2
100
AcDbSymbolTableRecord
100
AcDbLayerTableRecord
  2
0
 70
     0
 62
     7
  6
Continuous
370
    -3
390
F
  0
LAYER
  5
5D
330
2
100
AcDbSymbolTableRecord
100
AcDbLayerTableRecord
  2
LINEE VISIBILI 2D
 70
     0
 62
     7
  6
Continuous
370
    -3
390
F
  0
LAYER
  5
6F
330
2
100
AcDbSymbolTableRecord
100
AcDbLayerTableRecord
  2
PREDEFINITO
 70
     0
 62
     7
  6
Continuous
370
    -3
390
F
  0
ENDTAB
  0
TABLE
  2
STYLE
  5
3
330
0
100
AcDbSymbolTable
 70
     1
  0
STYLE
  5
11
330
3
100
AcDbSymbolTableRecord
100
AcDbTextStyleTableRecord
  2
Standard
 70
     0
 40
0.0
 41
1.0
 50
0.0
 71
     0
 42
0.2
  3
txt
  4

  0
ENDTAB
  0
TABLE
  2
VIEW
  5
6
330
0
100
AcDbSymbolTable
 70
     0
  0
ENDTAB
  0
TABLE
  2
UCS
  5
7
330
0
100
AcDbSymbolTable
 70
     0
  0
ENDTAB
  0
TABLE
  2
APPID
  5
9
330
0
100
AcDbSymbolTable
 70
     1
  0
APPID
  5
12
330
9
100
AcDbSymbolTableRecord
100
AcDbRegAppTableRecord
  2
ACAD
 70
     0
  0
ENDTAB
  0
TABLE
  2
DIMSTYLE
  5
A
330
0
100
AcDbSymbolTable
 70
     1
100
AcDbDimStyleTable
  0
DIMSTYLE
105
27
330
A
100
AcDbSymbolTableRecord
100
AcDbDimStyleTableRecord
  2
Standard
 70
     0
340
11
  0
ENDTAB
  0
TABLE
  2
BLOCK_RECORD
  5
1
330
0
100
AcDbSymbolTable
 70
     1
  0
BLOCK_RECORD
  5
1F
330
1
100
AcDbSymbolTableRecord
100
AcDbBlockTableRecord
  2
*Model_Space
340
22
  0
BLOCK_RECORD
  5
1B
330
1
100
AcDbSymbolTableRecord
100
AcDbBlockTableRecord
  2
*Paper_Space
340
1E
  0
BLOCK_RECORD
  5
23
330
1
100
AcDbSymbolTableRecord
100
AcDbBlockTableRecord
  2
*Paper_Space0
340
26
  0
ENDTAB
  0
ENDSEC
  0
SECTION
  2
BLOCKS
  0
BLOCK
  5
20
330
1F
100
AcDbEntity
  8
0
100
AcDbBlockBegin
  2
*Model_Space
 70
     0
 10
0.0
 20
0.0
 30
0.0
  3
*Model_Space
  1

  0
ENDBLK
  5
21
330
1F
100
AcDbEntity
  8
0
100
AcDbBlockEnd
  0
BLOCK
  5
1C
330
1B
100
AcDbEntity
 67
     1
  8
0
100
AcDbBlockBegin
  2
*Paper_Space
 70
     0
 10
0.0
 20
0.0
 30
0.0
  3
*Paper_Space
  1

  0
ENDBLK
  5
1D
330
1B
100
AcDbEntity
 67
     1
  8
0
100
AcDbBlockEnd
  0
BLOCK
  5
24
330
23
100
AcDbEntity
  8
0
100
AcDbBlockBegin
  2
*Paper_Space0
 70
     0
 10
0.0
 20
0.0
 30
0.0
  3
*Paper_Space0
  1

  0
ENDBLK
  5
25
330
23
100
AcDbEntity
  8
0
100
AcDbBlockEnd
  0
ENDSEC
  0
SECTION
  2
ENTITIES
  0
SPLINE
  5
5E
330
1F
100
AcDbEntity
  8
LINEE VISIBILI 2D
100
AcDbSpline
210
0.0
220
0.0
230
1.0
 70
    24
 71
     2
 72
     6
 73
     3
 74
     0
 42
0.0000000001
 43
0.0000000001
 40
0.0
 40
0.0
 40
0.0
 40
29.2799981335449
 40
29.2799981335449
 40
29.2799981335449
 10
78.18102366880696
 20
30.00000000000011
 30
0.0
 10
63.54102366880696
 20
29.9999999999989
 30
0.0
 10
48.90102366880695
 20
29.99999999999769
 30
0.0
  0
SPLINE
  5
5F
330
1F
100
AcDbEntity
  8
LINEE VISIBILI 2D
100
AcDbSpline
210
0.0
220
0.0
230
1.0
 70
    12
 71
     2
 72
     6
 73
     3
 74
     0
 42
0.0000000001
 43
0.0000000001
 40
0.0
 40
0.0
 40
0.0
 40
0.5654848111910508
 40
0.5654848111910508
 40
0.5654848111910508
 10
48.90102366880695
 20
29.99999999999769
 30
0.0
 41
1.0
 10
48.54102460203453
 20
29.99999813354983
 30
0.0
 41
0.7071086142162287
 10
48.5410246020345
 20
29.64000000000011
 30
0.0
 41
1.0
  0
SPLINE
  5
60
330
1F
100
AcDbEntity
  8
LINEE VISIBILI 2D
100
AcDbSpline
210
0.0
220
0.0
230
1.0
 70
    24
 71
     2
 72
     6
 73
     3
 74
     0
 42
0.0000000001
 43
0.0000000001
 40
0.0
 40
0.0
 40
0.0
 40
29.28
 40
29.28
 40
29.28
 10
48.5410246020345
 20
29.64000000000011
 30
0.0
 10
48.5410246020345
 20
15.00000000000011
 30
0.0
 10
48.5410246020345
 20
0.360000000000106
 30
0.0
  0
SPLINE
  5
61
330
1F
100
AcDbEntity
  8
LINEE VISIBILI 2D
100
AcDbSpline
210
0.0
220
0.0
230
1.0
 70
    12
 71
     2
 72
     6
 73
     3
 74
     0
 42
0.0000000001
 43
0.0000000001
 40
0.0
 40
0.0
 40
0.0
 40
0.5654848111910679
 40
0.5654848111910679
 40
0.5654848111910679
 10
48.5410246020345
 20
0.360000000000106
 30
0.0
 41
1.0
 10
48.54102460203443
 20
0.0000018664503217
 30
0.0
 41
0.7071086142160812
 10
48.9010246020345
 20
0.0000000000001066
 30
0.0
 41
1.0
  0
SPLINE
  5
62
330
1F
100
AcDbEntity
  8
LINEE VISIBILI 2D
100
AcDbSpline
210
0.0
220
0.0
230
1.0
 70
    24
 71
     2
 72
     6
 73
     3
 74
     0
 42
0.0000000001
 43
0.0000000001
 40
0.0
 40
0.0
 40
0.0
 40
29.28000000000001
 40
29.28000000000001
 40
29.28000000000001
 10
48.9010246020345
 20
0.0000000000001066
 30
0.0
 10
63.54102461023916
 20
0.0000000000000572
 30
0.0
 10
78.18102461844381
 20
0.0000000000000079
 30
0.0
  0
SPLINE
  5
63
330
1F
100
AcDbEntity
  8
LINEE VISIBILI 2D
100
AcDbSpline
210
0.0
220
0.0
230
1.0
 70
    12
 71
     2
 72
     6
 73
     3
 74
     0
 42
0.0000000001
 43
0.0000000001
 40
0.0
 40
0.0
 40
0.0
 40
0.5654866448276105
 40
0.5654866448276105
 40
0.5654866448276105
 10
78.18102461844381
 20
0.0000000000000079
 30
0.0
 41
1.0
 10
78.54102460203455
 20
0.0000000328186814
 30
0.0
 41
0.7071068134174755
 10
78.5410246020345
 20
0.360000000000106
 30
0.0
 41
1.0
  0
SPLINE
  5
64
330
1F
100
AcDbEntity
  8
LINEE VISIBILI 2D
100
AcDbSpline
210
0.0
220
0.0
230
1.0
 70
    24
 71
     2
 72
     6
 73
     3
 74
     0
 42
0.0000000001
 43
0.0000000001
 40
0.0
 40
0.0
 40
0.0
 40
29.28
 40
29.28
 40
29.28
 10
78.5410246020345
 20
0.360000000000106
 30
0.0
 10
78.5410246020345
 20
15.00000000000011
 30
0.0
 10
78.5410246020345
 20
29.64000000000011
 30
0.0
  0
SPLINE
  5
65
330
1F
100
AcDbEntity
  8
LINEE VISIBILI 2D
100
AcDbSpline
210
0.0
220
0.0
230
1.0
 70
    12
 71
     2
 72
     6
 73
     3
 74
     0
 42
0.0000000001
 43
0.0000000001
 40
0.0
 40
0.0
 40
0.0
 40
0.5654866776461625
 40
0.5654866776461625
 40
0.5654866776461625
 10
78.5410246020345
 20
29.64000000000011
 30
0.0
 41
1.0
 10
78.54102460203454
 20
30.00000000000013
 30
0.0
 41
0.7071067811864812
 10
78.18102366880696
 20
30.00000000000011
 30
0.0
 41
1.0
  0
SPLINE
  5
66
330
1F
100
AcDbEntity
  8
LINEE VISIBILI 2D
100
AcDbSpline
210
0.0
220
0.0
230
1.0
 70
    12
 71
     2
 72
     6
 73
     3
 74
     0
 42
0.0000000001
 43
0.0000000001
 40
0.0
 40
0.0
 40
0.0
 40
0.1304471808779317
 40
0.1304471808779317
 40
0.1304471808779317
 10
14.14308215601838
 20
122.715819458388
 30
0.0
 41
1.0
 10
14.08101403818281
 20
122.7359406774561
 30
0.0
 41
0.9994366133846504
 10
14.02043563887248
 20
122.7601805670069
 30
0.0
 41
1.0
  0
SPLINE
  5
67
330
1F
100
AcDbEntity
  8
LINEE VISIBILI 2D
100
AcDbSpline
210
0.0
220
0.0
230
1.0
 70
    12
 71
     2
 72
     6
 73
     3
 74
     0
 42
0.0000000001
 43
0.0000000001
 40
0.0
 40
0.0
 40
0.0
 40
1.215459174735608
 40
1.215459174735608
 40
1.215459174735608
 10
14.10000000000005
 20
123.9184945188293
 30
0.0
 41
1.0
 10
14.05598739908844
 20
123.3123573572116
 30
0.0
 41
0.9999916410782549
 10
14.01693289970796
 20
122.7058805531943
 30
0.0
 41
1.0
  0
SPLINE
  5
68
330
1F
100
AcDbEntity
  8
LINEE VISIBILI 2D
100
AcDbSpline
210
0.0
220
0.0
230
1.0
 70
    12
 71
     3
 72
    10
 73
     6
 74
     0
 42
0.0000000001
 43
0.0000000001
 40
-0.2636160481530586
 40
-0.2636160481530586
 40
-0.2636160481530586
 40
-0.2636160481530586
 40
-0.2370745247620734
 40
-0.2370745247620734
 40
-0.0256199690890254
 40
-0.0256199690890254
 40
-0.0256199690890254
 40
-0.0256199690890254
 10
15.04854285223759
 20
111.4476345448674
 30
0.0
 41
1.0
 10
15.02151342578893
 20
111.8462608481538
 30
0.0
 41
1.0
 10
14.98398854211077
 20
112.2449976604171
 30
0.0
 41
1.0
 10
14.66469284637254
 20
115.7673298886978
 30
0.0
 41
1.0
 10
14.28771672273602
 20
119.4372392499977
 30
0.0
 41
1.0
 10
14.14214443289309
 20
122.7370084429734
 30
0.0
 41
1.0
  0
SPLINE
  5
69
330
1F
100
AcDbEntity
  8
LINEE VISIBILI 2D
100
AcDbSpline
210
0.0
220
0.0
230
1.0
 70
    12
 71
     3
 72
    12
 73
     8
 74
     0
 42
0.0000000001
 43
0.0000000001
 40
-0.553348641198454
 40
-0.553348641198454
 40
-0.553348641198454
 40
-0.553348641198454
 40
-0.5394399618118214
 40
-0.5394399618118214
 40
-0.4767281507482496
 40
-0.4767281507482496
 40
-0.467288762203645
 40
-0.467288762203645
 40
-0.467288762203645
 40
-0.467288762203645
 10
15.50846968322872
 20
97.896686600712
 30
0.0
 41
1.0
 10
15.48456136369164
 20
98.10150491292258
 30
0.0
 41
1.0
 10
15.45938145577619
 20
98.3055872917985
 30
0.0
 41
1.0
 10
15.31847270276543
 20
99.42134775431731
 30
0.0
 41
1.0
 10
15.23691703732429
 20
100.0121379129192
 30
0.0
 41
1.0
 10
15.00710896428748
 20
101.4979488175533
 30
0.0
 41
1.0
 10
14.97994082616935
 20
101.6920548324562
 30
0.0
 41
1.0
 10
14.96178019738246
 20
101.8667567174427
 30
0.0
 41
1.0
  0
SPLINE
  5
6A
330
1F
100
AcDbEntity
  8
LINEE VISIBILI 2D
100
AcDbSpline
210
0.0
220
0.0
230
1.0
 70
    12
 71
     2
 72
     6
 73
     3
 74
     0
 42
0.0000000001
 43
0.0000000001
 40
-0.1051389395232095
 40
-0.1051389395232095
 40
-0.1051389395232095
 40
0.0
 40
0.0
 40
0.0
 10
63.97102457595684
 20
122.626355645955
 30
0.0
 41
1.0
 10
63.91852426901318
 20
122.6234019241799
 30
0.0
 41
0.999604638467571
 10
63.86594093803126
 20
122.6234040090764
 30
0.0
 41
1.0
  0
SPLINE
  5
6B
330
1F
100
AcDbEntity
  8
LINEE VISIBILI 2D
100
AcDbSpline
210
0.0
220
0.0
230
1.0
 70
    24
 71
     2
 72
     6
 73
     3
 74
     0
 42
0.0000000001
 43
0.0000000001
 40
0.0
 40
0.0
 40
0.0
 40
0.1888780679211735
 40
0.1888780679211735
 40
0.1888780679211735
 10
63.86594093803126
 20
122.6234040090764
 30
0.0
 10
63.77150190407065
 20
122.623404008787
 30
0.0
 10
63.67706287011005
 20
122.6234040084976
 30
0.0
  0
SPLINE
  5
6C
330
1F
100
AcDbEntity
  8
LINEE VISIBILI 2D
100
AcDbSpline
210
0.0
220
0.0
230
1.0
 70
    24
 71
     2
 72
     6
 73
     3
 74
     0
 42
0.0000000001
 43
0.0000000001
 40
0.0
 40
0.0
 40
0.0
 40
0.0110413845935966
 40
0.0110413845935966
 40
0.0110413845935966
 10
63.67706287011005
 20
122.6234040084976
 30
0.0
 10
63.67154217782891
 20
122.6234040084976
 30
0.0
 10
63.66602148554778
 20
122.6234040084976
 30
0.0
  0
SPLINE
  5
6D
330
1F
100
AcDbEntity
  8
LINEE VISIBILI 2D
100
AcDbSpline
210
0.0
220
0.0
230
1.0
 70
    24
 71
     2
 72
     6
 73
     3
 74
     0
 42
0.0000000001
 43
0.0000000001
 40
0.0
 40
0.0
 40
0.0
 40
0.1999194524517449
 40
0.1999194524517449
 40
0.1999194524517449
 10
63.66602148554778
 20
122.6234040084976
 30
0.0
 10
63.56606175933761
 20
122.6234040087853
 30
0.0
 10
63.46610203312743
 20
122.623404009073
 30
0.0
  0
SPLINE
  5
6E
330
1F
100
AcDbEntity
  8
LINEE VISIBILI 2D
100
AcDbSpline
210
0.0
220
0.0
230
1.0
 70
    12
 71
     2
 72
     6
 73
     3
 74
     0
 42
0.0000000001
 43
0.0000000001
 40
-0.1199397337013522
 40
-0.1199397337013522
 40
-0.1199397337013522
 40
0.0
 40
0.0
 40
0.0
 10
63.46610203312743
 20
122.623404009073
 30
0.0
 41
1.0
 10
63.40611158999658
 20
122.623401730072
 30
0.0
 41
0.9994855893651348
 10
63.34624440786197
 20
122.6272453970056
 30
0.0
 41
1.0
  0
SPLINE
  5
70
330
1F
100
AcDbEntity
  8
PREDEFINITO
100
AcDbSpline
210
0.0
220
0.0
230
1.0
 70
    24
 71
     2
 72
     6
 73
     3
 74
     0
 42
0.0000000001
 43
0.0000000001
 40
0.0
 40
0.0
 40
0.0
 40
59.51864101363179
 40
59.51864101363179
 40
59.51864101363179
 10
48.54102463484872
 20
138.4783028635737
 30
0.0
 10
48.54102368521404
 20
108.7189823567578
 30
0.0
 10
48.54102273557937
 20
78.95966184994197
 30
0.0
  0
SPLINE
  5
71
330
1F
100
AcDbEntity
  8
PREDEFINITO
100
AcDbSpline
210
0.0
220
0.0
230
1.0
 70
    24
 71
     2
 72
     6
 73
     3
 74
     0
 42
0.0000000001
 43
0.0000000001
 40
-0.29999904585857
 40
-0.29999904585857
 40
-0.29999904585857
 40
0.0
 40
0.0
 40
0.0
 10
48.54102273557937
 20
78.95966184994197
 30
0.0
 10
48.54285121570209
 20
78.80966232701269
 30
0.0
 10
48.5446796958248
 20
78.6596628040834
 30
0.0
  0
SPLINE
  5
72
330
1F
100
AcDbEntity
  8
PREDEFINITO
100
AcDbSpline
210
0.0
220
0.0
230
1.0
 70
    24
 71
     2
 72
     6
 73
     3
 74
     0
 42
0.0000000001
 43
0.0000000001
 40
-0.3526860795092261
 40
-0.3526860795092261
 40
-0.3526860795092261
 40
0.0
 40
0.0
 40
0.0
 10
48.5446796958248
 20
78.6596628040834
 30
0.0
 10
48.72285121570211
 20
78.6596628040834
 30
0.0
 10
48.90102273557942
 20
78.6596628040834
 30
0.0
  0
SPLINE
  5
73
330
1F
100
AcDbEntity
  8
PREDEFINITO
100
AcDbSpline
210
0.0
220
0.0
230
1.0
 70
    24
 71
     2
 72
     6
 73
     3
 74
     0
 42
0.0000000001
 43
0.0000000001
 40
0.0
 40
0.0
 40
0.0
 40
11.51217548316174
 40
11.51217548316174
 40
11.51217548316174
 10
48.90102273557942
 20
78.6596628040834
 30
0.0
 10
54.65711047716029
 20
78.6596628040834
 30
0.0
 10
60.41319821874116
 20
78.6596628040834
 30
0.0
  0
POLYLINE
  5
74
330
1F
100
AcDbEntity
  8
PREDEFINITO
100
AcDb2dPolyline
 66
     1
 10
0.0
 20
0.0
 30
0.0
  0
VERTEX
  5
76
330
74
100
AcDbEntity
  8
PREDEFINITO
100
AcDbVertex
100
AcDb2dVertex
 10
60.41319821874116
 20
78.6596628040834
 30
0.0
  0
VERTEX
  5
77
330
74
100
AcDbEntity
  8
PREDEFINITO
100
AcDbVertex
100
AcDb2dVertex
 10
60.44542846366343
 20
78.6596628040834
 30
0.0
  0
VERTEX
  5
78
330
74
100
AcDbEntity
  8
PREDEFINITO
100
AcDbVertex
100
AcDb2dVertex
 10
60.47712793405588
 20
78.95966238100554
 30
0.0
  0
SEQEND
  5
75
330
74
100
AcDbEntity
  8
PREDEFINITO
  0
SPLINE
  5
79
330
1F
100
AcDbEntity
  8
PREDEFINITO
100
AcDbSpline
210
0.0
220
0.0
230
1.0
 70
     8
 71
     3
 72
    21
 73
    17
 74
     0
 42
0.0000000001
 43
0.0000000001
 40
0.0
 40
0.0
 40
0.0
 40
0.0
 40
2.482165880902981
 40
4.970533278714984
 40
7.365859620720258
 40
8.286219199607082
 40
10.39617744821314
 40
11.6726502624889
 40
15.27013934619306
 40
18.05979225032188
 40
21.45522197597462
 40
26.36565217719111
 40
31.56353377104029
 40
32.78978093824012
 40
37.10364456428093
 40
49.46652334865353
 40
49.46652334865353
 40
49.46652334865353
 40
49.46652334865353
 10
60.47712793405588
 20
78.95966238100554
 30
0.0
 10
60.56406921166862
 20
79.78246308328818
 30
0.0
 10
60.70017010883432
 20
81.43422123591733
 30
0.0
 10
60.77565990573721
 20
83.88921067684306
 30
0.0
 10
60.73411659752357
 20
85.82409812695118
 30
0.0
 10
60.63183502626249
 20
87.62981983345855
 30
0.0
 10
60.49841924281941
 20
89.0597167236648
 30
0.0
 10
60.41855825713498
 20
91.38718009294772
 30
0.0
 10
60.48949819403578
 20
93.94241925502372
 30
0.0
 10
60.77277843685761
 20
97.19166575167569
 30
0.0
 10
61.13461713499257
 20
100.8721325011181
 30
0.0
 10
61.66620277253141
 20
105.3424219699002
 30
0.0
 10
62.12842582762156
 20
109.091912125575
 30
0.0
 10
62.56417014481738
 20
112.6446941081028
 30
0.0
 10
63.17059666189577
 20
118.5820908514044
 30
0.0
 10
63.46234476286169
 20
124.1368758122962
 30
0.0
 10
63.53929849779423
 20
128.2570581186224
 30
0.0
  0
SPLINE
  5
7A
330
1F
100
AcDbEntity
  8
PREDEFINITO
100
AcDbSpline
210
0.0
220
0.0
230
1.0
 70
    24
 71
     2
 72
     6
 73
     3
 74
     0
 42
0.0000000001
 43
0.0000000001
 40
0.0
 40
0.0
 40
0.0
 40
0.3539899326299718
 40
0.3539899326299718
 40
0.3539899326299718
 10
48.54703466940455
 20
138.7783047718569
 30
0.0
 10
48.72402963571953
 20
138.7783047718569
 30
0.0
 10
48.90102460203452
 20
138.7783047718569
 30
0.0
  0
SPLINE
  5
7B
330
1F
100
AcDbEntity
  8
PREDEFINITO
100
AcDbSpline
210
0.0
220
0.0
230
1.0
 70
    24
 71
     2
 72
     6
 73
     3
 74
     0
 42
0.0000000001
 43
0.0000000001
 40
0.0
 40
0.0
 40
0.0
 40
29.27999999999999
 40
29.27999999999999
 40
29.27999999999999
 10
48.90102460203452
 20
138.7783047718569
 30
0.0
 10
63.54102460203451
 20
138.7783047718569
 30
0.0
 10
78.18102460203451
 20
138.7783047718569
 30
0.0
  0
SPLINE
  5
7C
330
1F
100
AcDbEntity
  8
PREDEFINITO
100
AcDbSpline
210
0.0
220
0.0
230
1.0
 70
    24
 71
     2
 72
     6
 73
     3
 74
     0
 42
0.0000000001
 43
0.0000000001
 40
0.0
 40
0.0
 40
0.0
 40
0.3539899326299718
 40
0.3539899326299718
 40
0.3539899326299718
 10
78.18102460203451
 20
138.7783047718569
 30
0.0
 10
78.35952208519201
 20
138.7783047718569
 30
0.0
 10
78.53801956834951
 20
138.7783047718569
 30
0.0
  0
SPLINE
  5
7D
330
1F
100
AcDbEntity
  8
PREDEFINITO
100
AcDbSpline
210
0.0
220
0.0
230
1.0
 70
    24
 71
     2
 72
     6
 73
     3
 74
     0
 42
0.0000000001
 43
0.0000000001
 40
0.0
 40
0.0
 40
0.0
 40
0.2999999768227326
 40
0.2999999768227326
 40
0.2999999768227326
 10
78.53801956834951
 20
138.7783047718569
 30
0.0
 10
78.53952209339559
 20
138.6283047834455
 30
0.0
 10
78.54102461844167
 20
138.4783047950341
 30
0.0
  0
SPLINE
  5
7E
330
1F
100
AcDbEntity
  8
PREDEFINITO
100
AcDbSpline
210
0.0
220
0.0
230
1.0
 70
    24
 71
     2
 72
     6
 73
     3
 74
     0
 42
0.0000000001
 43
0.0000000001
 40
-59.51864197936202
 40
-59.51864197936202
 40
-59.51864197936202
 40
0.0
 40
0.0
 40
0.0
 10
78.54102461844167
 20
138.4783047950341
 30
0.0
 10
78.54102367701057
 20
108.7189838053532
 30
0.0
 10
78.54102273557947
 20
78.95966281567216
 30
0.0
  0
SPLINE
  5
7F
330
1F
100
AcDbEntity
  8
PREDEFINITO
100
AcDbSpline
210
0.0
220
0.0
230
1.0
 70
    24
 71
     2
 72
     6
 73
     3
 74
     0
 42
0.0000000001
 43
0.0000000001
 40
0.0
 40
0.0
 40
0.0
 40
0.3000000115887644
 40
0.3000000115887644
 40
0.3000000115887644
 10
78.54102273557947
 20
78.95966281567216
 30
0.0
 10
78.53919425545718
 20
78.80966280987778
 30
0.0
 10
78.53736577533488
 20
78.6596628040834
 30
0.0
  0
SPLINE
  5
80
330
1F
100
AcDbEntity
  8
PREDEFINITO
100
AcDbSpline
210
0.0
220
0.0
230
1.0
 70
    24
 71
     2
 72
     6
 73
     3
 74
     0
 42
0.0000000001
 43
0.0000000001
 40
0.0
 40
0.0
 40
0.0
 40
0.3526860795109172
 40
0.3526860795109172
 40
0.3526860795109172
 10
78.53736577533488
 20
78.6596628040834
 30
0.0
 10
78.35919425545714
 20
78.6596628040834
 30
0.0
 10
78.1810227355794
 20
78.6596628040834
 30
0.0
  0
SPLINE
  5
81
330
1F
100
AcDbEntity
  8
PREDEFINITO
100
AcDbSpline
210
0.0
220
0.0
230
1.0
 70
    24
 71
     2
 72
     6
 73
     3
 74
     0
 42
0.0000000001
 43
0.0000000001
 40
0.0
 40
0.0
 40
0.0
 40
11.51548359157815
 40
11.51548359157815
 40
11.51548359157815
 10
78.1810227355794
 20
78.6596628040834
 30
0.0
 10
72.42328093979033
 20
78.6596628040834
 30
0.0
 10
66.66553914400126
 20
78.6596628040834
 30
0.0
  0
POLYLINE
  5
82
330
1F
100
AcDbEntity
  8
PREDEFINITO
100
AcDb2dPolyline
 66
     1
 10
0.0
 20
0.0
 30
0.0
  0
VERTEX
  5
84
330
82
100
AcDbEntity
  8
PREDEFINITO
100
AcDbVertex
100
AcDb2dVertex
 10
66.66553914400126
 20
78.6596628040834
 30
0.0
  0
VERTEX
  5
85
330
82
100
AcDbEntity
  8
PREDEFINITO
100
AcDbVertex
100
AcDb2dVertex
 10
66.63412832810216
 20
78.6596628040834
 30
0.0
  0
VERTEX
  5
86
330
82
100
AcDbEntity
  8
PREDEFINITO
100
AcDbVertex
100
AcDb2dVertex
 10
66.61726879052003
 20
78.95966252773906
 30
0.0
  0
SEQEND
  5
83
330
82
100
AcDbEntity
  8
PREDEFINITO
  0
SPLINE
  5
87
330
1F
100
AcDbEntity
  8
PREDEFINITO
100
AcDbSpline
210
0.0
220
0.0
230
1.0
 70
    12
 71
     3
 72
    35
 73
    31
 74
     0
 42
0.0000000001
 43
0.0000000001
 40
0.0
 40
0.0
 40
0.0
 40
0.0
 40
0.121438741164567
 40
0.121438741164567
 40
0.121438741164567
 40
2.681949239724681
 40
3.57717364645082
 40
4.615948734235086
 40
5.364474728688579
 40
6.783530434924405
 40
9.384004041810282
 40
10.49504888237877
 40
10.97952644597099
 40
11.79818155198532
 40
12.53400646156973
 40
13.51168219388548
 40
16.18581537829008
 40
18.84530781582184
 40
20.05042434202213
 40
22.29843279583401
 40
23.90803496787823
 40
27.70861439249781
 40
30.1309631118381
 40
31.33627390937049
 40
33.01997968664377
 40
34.22480667142818
 40
35.43319191831635
 40
36.88905319052889
 40
42.95404024102058
 40
50.02029241273876
 40
50.02029241273876
 40
50.02029241273876
 40
50.02029241273876
 10
66.61726879052003
 20
78.95966252773906
 30
0.0
 41
1.0
 10
66.61405075586237
 20
79.00001399216686
 30
0.0
 41
0.9999999999999687
 10
66.61083273357752
 20
79.04036545758066
 30
0.0
 41
0.9999999999999688
 10
66.60761472366549
 20
79.0807169239806
 30
0.0
 41
1.0
 10
66.53897452081144
 20
79.92989151983872
 30
0.0
 41
1.0
 10
66.3460124781808
 20
81.07849487566557
 30
0.0
 41
1.0
 10
65.7329187889212
 20
82.45451944834026
 30
0.0
 41
1.0
 10
65.18673482165524
 20
83.16844531765754
 30
0.0
 41
1.0
 10
64.68337779044761
 20
84.11381457962663
 30
0.0
 41
1.0
 10
64.11999821892306
 20
85.60121787012454
 30
0.0
 41
1.0
 10
63.76156123851561
 20
87.28679498949212
 30
0.0
 41
1.0
 10
63.76893430252857
 20
88.69042191564304
 30
0.0
 41
1.0
 10
63.84447495938757
 20
89.4910711813561
 30
0.0
 41
1.0
 10
63.95433081927207
 20
90.16267028289687
 30
0.0
 41
1.0
 10
64.05782897292535
 20
91.00002746244031
 30
0.0
 41
1.0
 10
64.21218701215349
 20
92.45478493118341
 30
0.0
 41
1.0
 10
64.31581714756004
 20
94.55731712488353
 30
0.0
 41
1.0
 10
64.2787959678056
 20
96.7375943295916
 30
0.0
 41
1.0
 10
64.17700736399242
 20
98.77254949315133
 30
0.0
 41
1.0
 10
64.01966984507116
 20
100.4533753312234
 30
0.0
 41
1.0
 10
63.87373226576404
 20
103.0019452612547
 30
0.0
 41
1.0
 10
63.78297658968021
 20
105.6118721128874
 30
0.0
 41
1.0
 10
63.81883908373965
 20
108.088430574726
 30
0.0
 41
1.0
 10
63.92640545947097
 20
109.8560938052533
 30
0.0
 41
1.0
 10
64.05511182190959
 20
111.2145775735271
 30
0.0
 41
1.0
 10
64.14610529648066
 20
112.5773635088072
 30
0.0
 41
1.0
 10
64.19985625597971
 20
113.8662578530873
 30
0.0
 41
1.0
 10
64.20704616155288
 20
116.7760567889121
 30
0.0
 41
1.0
 10
64.06835986189542
 20
121.6375907020011
 30
0.0
 41
1.0
 10
63.76364414980563
 20
126.0050534144823
 30
0.0
 41
1.0
 10
63.54102601548773
 20
128.3500201350828
 30
0.0
 41
1.0
  0
SPLINE
  5
88
330
1F
100
AcDbEntity
  8
LINEE VISIBILI 2D
100
AcDbSpline
210
0.0
220
0.0
230
1.0
 70
    24
 71
     2
 72
     6
 73
     3
 74
     0
 42
0.0000000001
 43
0.0000000001
 40
0.0
 40
0.0
 40
0.0
 40
13.38095168492485
 40
13.38095168492485
 40
13.38095168492485
 10
29.6400000000001
 20
78.6596628040834
 30
0.0
 10
22.94952415753768
 20
78.6596628040834
 30
0.0
 10
16.25904831507525
 20
78.6596628040834
 30
0.0
  0
POLYLINE
  5
89
330
1F
100
AcDbEntity
  8
LINEE VISIBILI 2D
100
AcDb2dPolyline
 66
     1
 10
0.0
 20
0.0
 30
0.0
  0
VERTEX
  5
8B
330
89
100
AcDbEntity
  8
LINEE VISIBILI 2D
100
AcDbVertex
100
AcDb2dVertex
 10
16.25904831507525
 20
78.6596628040834
 30
0.0
  0
VERTEX
  5
8C
330
89
100
AcDbEntity
  8
LINEE VISIBILI 2D
100
AcDbVertex
100
AcDb2dVertex
 10
16.30455229070185
 20
78.95966281335441
 30
0.0
  0
SEQEND
  5
8A
330
89
100
AcDbEntity
  8
LINEE VISIBILI 2D
  0
SPLINE
  5
8D
330
1F
100
AcDbEntity
  8
LINEE VISIBILI 2D
100
AcDbSpline
210
0.0
220
0.0
230
1.0
 70
     8
 71
     3
 72
    33
 73
    29
 74
     0
 42
0.0000000001
 43
0.0000000001
 40
0.0
 40
0.0
 40
0.0
 40
0.0
 40
1.258684385931186
 40
3.096644255568616
 40
5.082433668839397
 40
9.611879424657587
 40
10.56963328475076
 40
12.43895218882726
 40
13.69675775005384
 40
14.18249494699525
 40
15.1961446709203
 40
15.76998998219072
 40
17.18382332630626
 40
19.21690659346803
 40
21.05116118922404
 40
22.96778386146263
 40
23.34367024511897
 40
24.11810699299965
 40
24.96251641228354
 40
25.93159719188617
 40
26.08969856269311
 40
27.26712023079517
 40
32.0056264690819
 40
33.43508423349097
 40
35.61791393194743
 40
38.42786080972247
 40
40.74738409391563
 40
45.32804755444348
 40
45.32804755444348
 40
45.32804755444348
 40
45.32804755444348
 10
16.30455229070185
 20
78.95966281335441
 30
0.0
 10
16.36754074437543
 20
79.37493502695406
 30
0.0
 10
16.41348982591216
 20
80.40801144513532
 30
0.0
 10
16.32639125370023
 20
82.10098168884343
 30
0.0
 10
16.04872137453814
 20
84.87166599814685
 30
0.0
 10
15.7354372095776
 20
87.34312955304355
 30
0.0
 10
15.46251108734724
 20
89.779977700171
 30
0.0
 10
15.33248901999703
 20
91.13579413494831
 30
0.0
 10
15.3108139222362
 20
92.34149772238594
 30
0.0
 10
15.40235693358286
 20
93.25741517097131
 30
0.0
 10
15.5569741164659
 20
93.93232839725832
 30
0.0
 10
15.67620239007154
 20
94.926594463317
 30
0.0
 10
15.69583299681645
 20
96.26903089208714
 30
0.0
 10
15.50547185072279
 20
98.02194745449283
 30
0.0
 10
15.26612903891005
 20
99.93320198867946
 30
0.0
 10
15.04691715524909
 20
101.2928082533393
 30
0.0
 10
14.91664512765136
 20
102.3061766128829
 30
0.0
 10
14.95463207957402
 20
102.9748354557535
 30
0.0
 10
14.99536330502838
 20
103.8327601599663
 30
0.0
 10
15.06979636287366
 20
104.4883838771272
 30
0.0
 10
15.12525398303301
 20
105.2538492849177
 30
0.0
 10
15.16320325892
 20
107.2794116659497
 30
0.0
 10
15.14670129272575
 20
109.7275191663198
 30
0.0
 10
14.99565465399489
 20
112.5079687246816
 30
0.0
 10
14.76369295636284
 20
114.6367819909706
 30
0.0
 10
14.55351043338651
 20
117.0650472889785
 30
0.0
 10
14.28474908947547
 20
120.2905117410382
 30
0.0
 10
14.14211868448137
 20
122.5866785584332
 30
0.0
 10
14.10000000000005
 20
124.1131274794224
 30
0.0
  0
SPLINE
  5
8E
330
1F
100
AcDbEntity
  8
LINEE VISIBILI 2D
100
AcDbSpline
210
0.0
220
0.0
230
1.0
 70
     8
 71
     3
 72
    29
 73
    25
 74
     0
 42
0.0000000001
 43
0.0000000001
 40
0.0
 40
0.0
 40
0.0
 40
0.0
 40
4.824598254158952
 40
9.262991793048885
 40
12.49272827151047
 40
13.69203430788199
 40
15.7907329950523
 40
16.61537027781124
 40
17.46375139427516
 40
19.82824814617421
 40
21.19262116710729
 40
22.08513957303042
 40
25.42265906193867
 40
27.24641449292592
 40
29.9032303864835
 40
31.41348166650555
 40
34.14878637650475
 40
35.00019457415596
 40
36.13470998840119
 40
37.33577389341066
 40
37.81591794486982
 40
39.7994481143339
 40
41.47685794671821
 40
45.28038209749437
 40
45.28038209749437
 40
45.28038209749437
 40
45.28038209749437
 10
14.10000000000005
 20
124.1131274794224
 30
0.0
 10
13.98407223248391
 20
122.5090937475006
 30
0.0
 10
13.81688683165761
 20
119.4254371049948
 30
0.0
 10
13.76157186702916
 20
115.2604703043947
 30
0.0
 10
13.86279291904313
 20
112.3054385397241
 30
0.0
 10
14.03891321878991
 20
110.1362321790371
 30
0.0
 10
14.19814155747294
 20
108.7711265893479
 30
0.0
 10
14.29097350096478
 20
107.5169909568863
 30
0.0
 10
14.30327950408414
 20
106.1705644731106
 30
0.0
 10
14.24637655572914
 20
104.6457832830194
 30
0.0
 10
14.24912946200655
 20
103.1049065528598
 30
0.0
 10
14.31569832693094
 20
101.2412819250369
 30
0.0
 10
14.45671295321858
 20
99.22766215840959
 30
0.0
 10
14.49621580727844
 20
96.62084357694118
 30
0.0
 10
14.3816020028891
 20
94.6256026145877
 30
0.0
 10
14.09985309216343
 20
92.34130699165203
 30
0.0
 10
13.85014582396993
 20
90.66113349192736
 30
0.0
 10
13.63113700391496
 20
89.10251511141601
 30
0.0
 10
13.52839341997482
 20
88.04439980080757
 30
0.0
 10
13.53996491322099
 20
87.10366141722459
 30
0.0
 10
13.69388706731854
 20
85.89129788295183
 30
0.0
 10
13.9185685976998
 20
84.52873249021582
 30
0.0
 10
14.09140207916853
 20
82.043381619129
 30
0.0
 10
13.96189641089048
 20
80.21355960396045
 30
0.0
 10
13.77679413789337
 20
78.95966281335443
 30
0.0
  0
POLYLINE
  5
8F
330
1F
100
AcDbEntity
  8
LINEE VISIBILI 2D
100
AcDb2dPolyline
 66
     1
 10
0.0
 20
0.0
 30
0.0
  0
VERTEX
  5
91
330
8F
100
AcDbEntity
  8
LINEE VISIBILI 2D
100
AcDbVertex
100
AcDb2dVertex
 10
13.77679413789337
 20
78.95966281335443
 30
0.0
  0
VERTEX
  5
92
330
8F
100
AcDbEntity
  8
LINEE VISIBILI 2D
100
AcDbVertex
100
AcDb2dVertex
 10
13.72765682939654
 20
78.6596628040834
 30
0.0
  0
VERTEX
  5
93
330
8F
100
AcDbEntity
  8
LINEE VISIBILI 2D
100
AcDbVertex
100
AcDb2dVertex
 10
13.68305163543035
 20
78.6596628040834
 30
0.0
  0
SEQEND
  5
90
330
8F
100
AcDbEntity
  8
LINEE VISIBILI 2D
  0
SPLINE
  5
94
330
1F
100
AcDbEntity
  8
LINEE VISIBILI 2D
100
AcDbSpline
210
0.0
220
0.0
230
1.0
 70
    24
 71
     2
 72
     6
 73
     3
 74
     0
 42
0.0000000001
 43
0.0000000001
 40
0.0
 40
0.0
 40
0.0
 40
13.32305163543025
 40
13.32305163543025
 40
13.32305163543025
 10
13.68305163543035
 20
78.6596628040834
 30
0.0
 10
7.021525817715222
 20
78.6596628040834
 30
0.0
 10
0.3600000000000989
 20
78.6596628040834
 30
0.0
  0
SPLINE
  5
95
330
1F
100
AcDbEntity
  8
LINEE VISIBILI 2D
100
AcDbSpline
210
0.0
220
0.0
230
1.0
 70
    24
 71
     2
 72
     6
 73
     3
 74
     0
 42
0.0000000001
 43
0.0000000001
 40
0.0
 40
0.0
 40
0.0
 40
0.3526860795092473
 40
0.3526860795092473
 40
0.3526860795092473
 10
0.3600000000000989
 20
78.6596628040834
 30
0.0
 10
0.1800000000000814
 20
78.6596628040834
 30
0.0
 10
0.0000000000000639
 20
78.6596628040834
 30
0.0
  0
SPLINE
  5
96
330
1F
100
AcDbEntity
  8
LINEE VISIBILI 2D
100
AcDbSpline
210
0.0
220
0.0
230
1.0
 70
    24
 71
     2
 72
     6
 73
     3
 74
     0
 42
0.0000000001
 43
0.0000000001
 40
0.0
 40
0.0
 40
0.0
 40
0.2999990574474367
 40
0.2999990574474367
 40
0.2999990574474367
 10
0.0000000000000639
 20
78.6596628040834
 30
0.0
 10
0.0000000000000568
 20
78.80966256844525
 30
0.0
 10
0.0000000000000497
 20
78.95966233280711
 30
0.0
  0
SPLINE
  5
97
330
1F
100
AcDbEntity
  8
LINEE VISIBILI 2D
100
AcDbSpline
210
0.0
220
0.0
230
1.0
 70
    24
 71
     2
 72
     6
 73
     3
 74
     0
 42
0.0000000001
 43
0.0000000001
 40
-59.51864102522067
 40
-59.51864102522067
 40
-59.51864102522067
 40
0.0
 40
0.0
 40
0.0
 10
0.0000000000000497
 20
78.95966233280711
 30
0.0
 10
0.0000000000000373
 20
108.7189833166938
 30
0.0
 10
0.0000000000000249
 20
138.4783043005805
 30
0.0
  0
SPLINE
  5
98
330
1F
100
AcDbEntity
  8
LINEE VISIBILI 2D
100
AcDbSpline
210
0.0
220
0.0
230
1.0
 70
    24
 71
     2
 72
     6
 73
     3
 74
     0
 42
0.0000000001
 43
0.0000000001
 40
0.0
 40
0.0
 40
0.0
 40
0.3000000000000114
 40
0.3000000000000114
 40
0.3000000000000114
 10
0.0000000000000249
 20
138.4783043005805
 30
0.0
 10
0.0015025168425211
 20
138.6283045362187
 30
0.0
 10
0.0030050336850173
 20
138.7783047718569
 30
0.0
  0
SPLINE
  5
99
330
1F
100
AcDbEntity
  8
LINEE VISIBILI 2D
100
AcDbSpline
210
0.0
220
0.0
230
1.0
 70
    24
 71
     2
 72
     6
 73
     3
 74
     0
 42
0.0000000001
 43
0.0000000001
 40
0.0
 40
0.0
 40
0.0
 40
0.3539899326300644
 40
0.3539899326300644
 40
0.3539899326300644
 10
0.0030050336850173
 20
138.7783047718569
 30
0.0
 10
0.1815025168425581
 20
138.7783047718569
 30
0.0
 10
0.3600000000000989
 20
138.7783047718569
 30
0.0
  0
SPLINE
  5
9A
330
1F
100
AcDbEntity
  8
LINEE VISIBILI 2D
100
AcDbSpline
210
0.0
220
0.0
230
1.0
 70
    24
 71
     2
 72
     6
 73
     3
 74
     0
 42
0.0000000001
 43
0.0000000001
 40
0.0
 40
0.0
 40
0.0
 40
29.28
 40
29.28
 40
29.28
 10
0.3600000000000989
 20
138.7783047718569
 30
0.0
 10
15.0000000000001
 20
138.7783047718569
 30
0.0
 10
29.6400000000001
 20
138.7783047718569
 30
0.0
  0
SPLINE
  5
9B
330
1F
100
AcDbEntity
  8
LINEE VISIBILI 2D
100
AcDbSpline
210
0.0
220
0.0
230
1.0
 70
    24
 71
     2
 72
     6
 73
     3
 74
     0
 42
0.0000000001
 43
0.0000000001
 40
0.0
 40
0.0
 40
0.0
 40
0.3599999999999994
 40
0.3599999999999994
 40
0.3599999999999994
 10
29.6400000000001
 20
138.7783047718569
 30
0.0
 10
29.8200000000001
 20
138.7783047718569
 30
0.0
 10
30.0000000000001
 20
138.7783047718569
 30
0.0
  0
SPLINE
  5
9C
330
1F
100
AcDbEntity
  8
LINEE VISIBILI 2D
100
AcDbSpline
210
0.0
220
0.0
230
1.0
 70
    24
 71
     2
 72
     6
 73
     3
 74
     0
 42
0.0000000001
 43
0.0000000001
 40
-0.3000000000001535
 40
-0.3000000000001535
 40
-0.3000000000001535
 40
0.0
 40
0.0
 40
0.0
 10
30.0000000000001
 20
138.7783047718569
 30
0.0
 10
30.0000000000001
 20
138.6283043005805
 30
0.0
 10
30.0000000000001
 20
138.478303829304
 30
0.0
  0
SPLINE
  5
9D
330
1F
100
AcDbEntity
  8
LINEE VISIBILI 2D
100
AcDbSpline
210
0.0
220
0.0
230
1.0
 70
    24
 71
     2
 72
     6
 73
     3
 74
     0
 42
0.0000000001
 43
0.0000000001
 40
-59.51864008266787
 40
-59.51864008266787
 40
-59.51864008266787
 40
0.0
 40
0.0
 40
0.0
 10
30.0000000000001
 20
138.478303829304
 30
0.0
 10
30.0000000000001
 20
108.7189831400376
 30
0.0
 10
30.0000000000001
 20
78.95966245077128
 30
0.0
  0
SPLINE
  5
9E
330
1F
100
AcDbEntity
  8
LINEE VISIBILI 2D
100
AcDbSpline
210
0.0
220
0.0
230
1.0
 70
    24
 71
     2
 72
     6
 73
     3
 74
     0
 42
0.0000000001
 43
0.0000000001
 40
0.0
 40
0.0
 40
0.0
 40
0.2999992933757483
 40
0.2999992933757483
 40
0.2999992933757483
 10
30.0000000000001
 20
78.95966245077128
 30
0.0
 10
30.0000000000001
 20
78.80966262742734
 30
0.0
 10
30.0000000000001
 20
78.6596628040834
 30
0.0
  0
SPLINE
  5
9F
330
1F
100
AcDbEntity
  8
LINEE VISIBILI 2D
100
AcDbSpline
210
0.0
220
0.0
230
1.0
 70
    24
 71
     2
 72
     6
 73
     3
 74
     0
 42
0.0000000001
 43
0.0000000001
 40
0.0
 40
0.0
 40
0.0
 40
0.3599999999999994
 40
0.3599999999999994
 40
0.3599999999999994
 10
30.0000000000001
 20
78.6596628040834
 30
0.0
 10
29.8200000000001
 20
78.6596628040834
 30
0.0
 10
29.6400000000001
 20
78.6596628040834
 30
0.0
  0
ENDSEC
  0
SECTION
  2
OBJECTS
  0
DICTIONARY
  5
C
330
0
100
AcDbDictionary
281
     1
  3
ACAD_GROUP
350
D
  3
ACAD_LAYOUT
350
1A
  3
ACAD_MLEADERSTYLE
350
A1
  3
ACAD_MLINESTYLE
350
17
  3
ACAD_PLOTSETTINGS
350
19
  3
ACAD_PLOTSTYLENAME
350
E
  3
ACAD_SCALELIST
350
3B
  3
ACAD_TABLESTYLE
350
A0
  3
ACAD_VISUALSTYLE
350
2A
  0
DICTIONARY
  5
D
102
{ACAD_REACTORS
330
C
102
}
330
C
100
AcDbDictionary
281
     1
  0
DICTIONARY
  5
1A
102
{ACAD_REACTORS
330
C
102
}
330
C
100
AcDbDictionary
281
     1
  3
Layout1
350
1E
  3
Layout2
350
26
  3
Model
350
22
  0
DICTIONARY
  5
A1
102
{ACAD_REACTORS
330
C
102
}
330
C
100
AcDbDictionary
281
     1
  0
DICTIONARY
  5
17
102
{ACAD_REACTORS
330
C
102
}
330
C
100
AcDbDictionary
281
     1
  3
Standard
350
18
  0
DICTIONARY
  5
19
102
{ACAD_REACTORS
330
C
102
}
330
C
100
AcDbDictionary
281
     1
  0
ACDBDICTIONARYWDFLT
  5
E
102
{ACAD_REACTORS
330
C
102
}
330
C
100
AcDbDictionary
281
     1
  3
Normal
350
F
100
AcDbDictionaryWithDefault
340
F
  0
DICTIONARY
  5
3B
102
{ACAD_REACTORS
330
C
102
}
330
C
100
AcDbDictionary
281
     1
  3
A0
350
3C
  3
A1
350
3D
  3
A2
350
3E
  3
A3
350
3F
  3
A4
350
40
  3
A5
350
41
  3
A6
350
42
  3
A7
350
43
  3
A8
350
44
  3
A9
350
45
  3
B0
350
46
  3
B1
350
47
  3
B2
350
48
  3
B3
350
49
  3
B4
350
4A
  3
B5
350
4B
  3
B6
350
4C
  3
B7
350
4D
  3
B8
350
4E
  3
B9
350
4F
  3
C0
350
50
  3
C1
350
51
  3
C2
350
52
  3
C3
350
53
  3
C4
350
54
  3
C5
350
55
  3
C6
350
56
  3
C7
350
57
  3
C8
350
58
  3
C9
350
59
  3
D0
350
5A
  3
D1
350
5B
  3
D2
350
5C
  0
DICTIONARY
  5
A0
102
{ACAD_REACTORS
330
C
102
}
330
C
100
AcDbDictionary
281
     1
  0
DICTIONARY
  5
2A
102
{ACAD_REACTORS
330
C
102
}
330
C
100
AcDbDictionary
281
     1
  3
2dWireframe
350
2F
  3
3D Hidden
350
31
  3
3dWireframe
350
30
  3
Basic
350
32
  3
Brighten
350
36
  3
ColorChange
350
3A
  3
Conceptual
350
34
  3
Dim
350
35
  3
Facepattern
350
39
  3
Flat
350
2B
  3
FlatWithEdges
350
2C
  3
Gouraud
350
2D
  3
GouraudWithEdges
350
2E
  3
Linepattern
350
38
  3
Realistic
350
33
  3
Thicken
350
37
  0
LAYOUT
  5
1E
102
{ACAD_REACTORS
330
1A
102
}
330
1A
100
AcDbPlotSettings
  1

  2
none_device
  4

  6

 40
0.0
 41
0.0
 42
0.0
 43
0.0
 44
0.0
 45
0.0
 46
0.0
 47
0.0
 48
0.0
 49
0.0
140
0.0
141
0.0
142
1.0
143
1.0
 70
   688
 72
     0
 73
     0
 74
     5
  7

 75
    16
 76
     0
 77
     2
 78
   300
147
1.0
148
0.0
149
0.0
100
AcDbLayout
  1
Layout1
 70
     1
 71
     1
 10
0.0
 20
0.0
 11
12.0
 21
9.0
 12
0.0
 22
0.0
 32
0.0
 14
1.000000000000000E+20
 24
1.000000000000000E+20
 34
1.000000000000000E+20
 15
-1.000000000000000E+20
 25
-1.000000000000000E+20
 35
-1.000000000000000E+20
146
0.0
 13
0.0
 23
0.0
 33
0.0
 16
1.0
 26
0.0
 36
0.0
 17
0.0
 27
1.0
 37
0.0
 76
     0
330
1B
  0
LAYOUT
  5
26
102
{ACAD_REACTORS
330
1A
102
}
330
1A
100
AcDbPlotSettings
  1

  2
none_device
  4

  6

 40
0.0
 41
0.0
 42
0.0
 43
0.0
 44
0.0
 45
0.0
 46
0.0
 47
0.0
 48
0.0
 49
0.0
140
0.0
141
0.0
142
1.0
143
1.0
 70
   688
 72
     0
 73
     0
 74
     5
  7

 75
    16
 76
     0
 77
     2
 78
   300
147
1.0
148
0.0
149
0.0
100
AcDbLayout
  1
Layout2
 70
     1
 71
     2
 10
0.0
 20
0.0
 11
0.0
 21
0.0
 12
0.0
 22
0.0
 32
0.0
 14
0.0
 24
0.0
 34
0.0
 15
0.0
 25
0.0
 35
0.0
146
0.0
 13
0.0
 23
0.0
 33
0.0
 16
1.0
 26
0.0
 36
0.0
 17
0.0
 27
1.0
 37
0.0
 76
     0
330
23
  0
LAYOUT
  5
22
102
{ACAD_REACTORS
330
1A
102
}
330
1A
100
AcDbPlotSettings
  1

  2
none_device
  4

  6

 40
0.0
 41
0.0
 42
0.0
 43
0.0
 44
0.0
 45
0.0
 46
0.0
 47
0.0
 48
0.0
 49
0.0
140
0.0
141
0.0
142
1.0
143
1.0
 70
  1712
 72
     0
 73
     0
 74
     0
  7

 75
     0
 76
     0
 77
     2
 78
   300
147
1.0
148
0.0
149
0.0
100
AcDbLayout
  1
Model
 70
     1
 71
     0
 10
0.0
 20
0.0
 11
12.0
 21
9.0
 12
0.0
 22
0.0
 32
0.0
 14
0.0000000000000249
 24
0.0000000000000079
 34
0.0
 15
78.54102461844167
 25
138.7783047718569
 35
0.0
146
0.0
 13
0.0
 23
0.0
 33
0.0
 16
1.0
 26
0.0
 36
0.0
 17
0.0
 27
1.0
 37
0.0
 76
     0
330
1F
331
29
  0
MLINESTYLE
  5
18
102
{ACAD_REACTORS
330
17
102
}
330
17
100
AcDbMlineStyle
  2
Standard
 70
     0
  3

 62
   256
 51
90.0
 52
90.0
 71
     2
 49
0.5
 62
   256
  6
BYLAYER
 49
-0.5
 62
   256
  6
BYLAYER
  0
ACDBPLACEHOLDER
  5
F
102
{ACAD_REACTORS
330
E
102
}
330
E
  0
SCALE
  5
3C
102
{ACAD_REACTORS
330
3B
102
}
330
3B
100
AcDbScale
 70
     0
300
1:1
140
1.0
141
1.0
290
     1
  0
SCALE
  5
3D
102
{ACAD_REACTORS
330
3B
102
}
330
3B
100
AcDbScale
 70
     0
300
1:2
140
1.0
141
2.0
290
     0
  0
SCALE
  5
3E
102
{ACAD_REACTORS
330
3B
102
}
330
3B
100
AcDbScale
 70
     0
300
1:4
140
1.0
141
4.0
290
     0
  0
SCALE
  5
3F
102
{ACAD_REACTORS
330
3B
102
}
330
3B
100
AcDbScale
 70
     0
300
1:5
140
1.0
141
5.0
290
     0
  0
SCALE
  5
40
102
{ACAD_REACTORS
330
3B
102
}
330
3B
100
AcDbScale
 70
     0
300
1:8
140
1.0
141
8.0
290
     0
  0
SCALE
  5
41
102
{ACAD_REACTORS
330
3B
102
}
330
3B
100
AcDbScale
 70
     0
300
1:10
140
1.0
141
10.0
290
     0
  0
SCALE
  5
42
102
{ACAD_REACTORS
330
3B
102
}
330
3B
100
AcDbScale
 70
     0
300
1:16
140
1.0
141
16.0
290
     0
  0
SCALE
  5
43
102
{ACAD_REACTORS
330
3B
102
}
330
3B
100
AcDbScale
 70
     0
300
1:20
140
1.0
141
20.0
290
     0
  0
SCALE
  5
44
102
{ACAD_REACTORS
330
3B
102
}
330
3B
100
AcDbScale
 70
     0
300
1:30
140
1.0
141
30.0
290
     0
  0
SCALE
  5
45
102
{ACAD_REACTORS
330
3B
102
}
330
3B
100
AcDbScale
 70
     0
300
1:40
140
1.0
141
40.0
290
     0
  0
SCALE
  5
46
102
{ACAD_REACTORS
330
3B
102
}
330
3B
100
AcDbScale
 70
     0
300
1:50
140
1.0
141
50.0
290
     0
  0
SCALE
  5
47
102
{ACAD_REACTORS
330
3B
102
}
330
3B
100
AcDbScale
 70
     0
300
1:100
140
1.0
141
100.0
290
     0
  0
SCALE
  5
48
102
{ACAD_REACTORS
330
3B
102
}
330
3B
100
AcDbScale
 70
     0
300
2:1
140
2.0
141
1.0
290
     0
  0
SCALE
  5
49
102
{ACAD_REACTORS
330
3B
102
}
330
3B
100
AcDbScale
 70
     0
300
4:1
140
4.0
141
1.0
290
     0
  0
SCALE
  5
4A
102
{ACAD_REACTORS
330
3B
102
}
330
3B
100
AcDbScale
 70
     0
300
8:1
140
8.0
141
1.0
290
     0
  0
SCALE
  5
4B
102
{ACAD_REACTORS
330
3B
102
}
330
3B
100
AcDbScale
 70
     0
300
10:1
140
10.0
141
1.0
290
     0
  0
SCALE
  5
4C
102
{ACAD_REACTORS
330
3B
102
}
330
3B
100
AcDbScale
 70
     0
300
100:1
140
100.0
141
1.0
290
     0
  0
SCALE
  5
4D
102
{ACAD_REACTORS
330
3B
102
}
330
3B
100
AcDbScale
 70
     0
300
1/128" = 1'-0"
140
0.0078125
141
12.0
290
     0
  0
SCALE
  5
4E
102
{ACAD_REACTORS
330
3B
102
}
330
3B
100
AcDbScale
 70
     0
300
1/64" = 1'-0"
140
0.015625
141
12.0
290
     0
  0
SCALE
  5
4F
102
{ACAD_REACTORS
330
3B
102
}
330
3B
100
AcDbScale
 70
     0
300
1/32" = 1'-0"
140
0.03125
141
12.0
290
     0
  0
SCALE
  5
50
102
{ACAD_REACTORS
330
3B
102
}
330
3B
100
AcDbScale
 70
     0
300
1/16" = 1'-0"
140
0.0625
141
12.0
290
     0
  0
SCALE
  5
51
102
{ACAD_REACTORS
330
3B
102
}
330
3B
100
AcDbScale
 70
     0
300
3/32" = 1'-0"
140
0.09375
141
12.0
290
     0
  0
SCALE
  5
52
102
{ACAD_REACTORS
330
3B
102
}
330
3B
100
AcDbScale
 70
     0
300
1/8" = 1'-0"
140
0.125
141
12.0
290
     0
  0
SCALE
  5
53
102
{ACAD_REACTORS
330
3B
102
}
330
3B
100
AcDbScale
 70
     0
300
3/16" = 1'-0"
140
0.1875
141
12.0
290
     0
  0
SCALE
  5
54
102
{ACAD_REACTORS
330
3B
102
}
330
3B
100
AcDbScale
 70
     0
300
1/4" = 1'-0"
140
0.25
141
12.0
290
     0
  0
SCALE
  5
55
102
{ACAD_REACTORS
330
3B
102
}
330
3B
100
AcDbScale
 70
     0
300
3/8" = 1'-0"
140
0.375
141
12.0
290
     0
  0
SCALE
  5
56
102
{ACAD_REACTORS
330
3B
102
}
330
3B
100
AcDbScale
 70
     0
300
1/2" = 1'-0"
140
0.5
141
12.0
290
     0
  0
SCALE
  5
57
102
{ACAD_REACTORS
330
3B
102
}
330
3B
100
AcDbScale
 70
     0
300
3/4" = 1'-0"
140
0.75
141
12.0
290
     0
  0
SCALE
  5
58
102
{ACAD_REACTORS
330
3B
102
}
330
3B
100
AcDbScale
 70
     0
300
1" = 1'-0"
140
1.0
141
12.0
290
     0
  0
SCALE
  5
59
102
{ACAD_REACTORS
330
3B
102
}
330
3B
100
AcDbScale
 70
     0
300
1-1/2" = 1'-0"
140
1.5
141
12.0
290
     0
  0
SCALE
  5
5A
102
{ACAD_REACTORS
330
3B
102
}
330
3B
100
AcDbScale
 70
     0
300
3" = 1'-0"
140
3.0
141
12.0
290
     0
  0
SCALE
  5
5B
102
{ACAD_REACTORS
330
3B
102
}
330
3B
100
AcDbScale
 70
     0
300
6" = 1'-0"
140
6.0
141
12.0
290
     0
  0
SCALE
  5
5C
102
{ACAD_REACTORS
330
3B
102
}
330
3B
100
AcDbScale
 70
     0
300
1'-0" = 1'-0"
140
12.0
141
12.0
290
     0
  0
VISUALSTYLE
  5
2F
102
{ACAD_REACTORS
330
2A
102
}
330
2A
100
AcDbVisualStyle
  2
2dWireframe
 70
     4
 71
     0
 72
     2
 73
     0
 90
        0
 40
-0.6
 41
-30.0
 62
     5
 63
     7
421
 16777215
 74
     1
 91
        4
 64
     7
 65
   257
 75
     1
175
     1
 42
1.0
 92
        0
 66
   257
 43
1.0
 76
     1
 77
     6
 78
     2
 67
     7
 79
     5
170
     0
171
     0
290
     0
174
     0
 93
        1
 44
0.0
173
     0
291
     0
 45
0.0
1001
ACAD
1000
AcDbSavedByObjectVersion
1070
     0
  0
VISUALSTYLE
  5
31
102
{ACAD_REACTORS
330
2A
102
}
330
2A
100
AcDbVisualStyle
  2
3D Hidden
 70
     6
 71
     1
 72
     2
 73
     2
 90
        0
 40
-0.6
 41
-30.0
 62
     5
 63
     7
421
 16777215
 74
     2
 91
        2
 64
     7
 65
   257
 75
     2
175
     1
 42
40.0
 92
        0
 66
   257
 43
1.0
 76
     1
 77
     6
 78
     2
 67
     7
 79
     3
170
     0
171
     0
290
     0
174
     0
 93
        1
 44
0.0
173
     0
291
     0
 45
0.0
1001
ACAD
1000
AcDbSavedByObjectVersion
1070
     0
  0
VISUALSTYLE
  5
30
102
{ACAD_REACTORS
330
2A
102
}
330
2A
100
AcDbVisualStyle
  2
3dWireframe
 70
     5
 71
     0
 72
     2
 73
     0
 90
        0
 40
-0.6
 41
-30.0
 62
     5
 63
     7
421
 16777215
 74
     1
 91
        4
 64
     7
 65
   257
 75
     1
175
     1
 42
1.0
 92
        0
 66
   257
 43
1.0
 76
     1
 77
     6
 78
     2
 67
     7
 79
     5
170
     0
171
     0
290
     0
174
     0
 93
        1
 44
0.0
173
     0
291
     0
 45
0.0
1001
ACAD
1000
AcDbSavedByObjectVersion
1070
     0
  0
VISUALSTYLE
  5
32
102
{ACAD_REACTORS
330
2A
102
}
330
2A
100
AcDbVisualStyle
  2
Basic
 70
     7
 71
     1
 72
     0
 73
     1
 90
        0
 40
-0.6
 41
-30.0
 62
     5
 63
     7
421
 16777215
 74
     0
 91
        4
 64
     7
 65
   257
 75
     1
175
     1
 42
1.0
 92
        8
 66
     7
 43
1.0
 76
     1
 77
     6
 78
     2
 67
     7
 79
     5
170
     0
171
     0
290
     0
174
     0
 93
        1
 44
0.0
173
     0
291
     1
 45
0.0
1001
ACAD
1000
AcDbSavedByObjectVersion
1070
     0
  0
VISUALSTYLE
  5
36
102
{ACAD_REACTORS
330
2A
102
}
330
2A
100
AcDbVisualStyle
  2
Brighten
 70
    12
 71
     2
 72
     2
 73
     0
 90
        0
 40
-0.6
 41
-30.0
 62
     5
 63
     7
421
 16777215
 74
     1
 91
        4
 64
     7
 65
   257
 75
     1
175
     1
 42
1.0
 92
        8
 66
     7
 43
1.0
 76
     1
 77
     6
 78
     2
 67
     7
 79
     5
170
     0
171
     0
290
     0
174
     0
 93
        1
 44
50.0
173
     0
291
     1
 45
0.0
1001
ACAD
1000
AcDbSavedByObjectVersion
1070
     0
  0
VISUALSTYLE
  5
3A
102
{ACAD_REACTORS
330
2A
102
}
330
2A
100
AcDbVisualStyle
  2
ColorChange
 70
    16
 71
     2
 72
     2
 73
     3
 90
        0
 40
-0.6
 41
-30.0
 62
     5
 63
     8
421
  8421504
 74
     1
 91
        4
 64
     7
 65
   257
 75
     1
175
     1
 42
1.0
 92
        8
 66
     8
424
  8421504
 43
1.0
 76
     1
 77
     6
 78
     2
 67
     7
 79
     5
170
     0
171
     0
290
     0
174
     0
 93
        1
 44
0.0
173
     0
291
     1
 45
0.0
1001
ACAD
1000
AcDbSavedByObjectVersion
1070
     0
  0
VISUALSTYLE
  5
34
102
{ACAD_REACTORS
330
2A
102
}
330
2A
100
AcDbVisualStyle
  2
Conceptual
 70
     9
 71
     3
 72
     2
 73
     0
 90
        0
 40
-0.6
 41
-30.0
 62
     5
 63
     7
421
 16777215
 74
     2
 91
        2
 64
     7
 65
   257
 75
     1
175
     1
 42
40.0
 92
        8
 66
     7
 43
1.0
 76
     1
 77
     6
 78
     2
 67
     7
 79
     3
170
     0
171
     0
290
     0
174
     0
 93
        1
 44
0.0
173
     0
291
     0
 45
0.0
1001
ACAD
1000
AcDbSavedByObjectVersion
1070
     0
  0
VISUALSTYLE
  5
35
102
{ACAD_REACTORS
330
2A
102
}
330
2A
100
AcDbVisualStyle
  2
Dim
 70
    11
 71
     2
 72
     2
 73
     0
 90
        0
 40
-0.6
 41
-30.0
 62
     5
 63
     7
421
 16777215
 74
     1
 91
        4
 64
     7
 65
   257
 75
     1
175
     1
 42
1.0
 92
        8
 66
     7
 43
1.0
 76
     1
 77
     6
 78
     2
 67
     7
 79
     5
170
     0
171
     0
290
     0
174
     0
 93
        1
 44
-50.0
173
     0
291
     1
 45
0.0
1001
ACAD
1000
AcDbSavedByObjectVersion
1070
     0
  0
VISUALSTYLE
  5
39
102
{ACAD_REACTORS
330
2A
102
}
330
2A
100
AcDbVisualStyle
  2
Facepattern
 70
    15
 71
     2
 72
     2
 73
     0
 90
        0
 40
-0.6
 41
-30.0
 62
     5
 63
     7
421
 16777215
 74
     1
 91
        4
 64
     7
 65
   257
 75
     1
175
     1
 42
1.0
 92
        8
 66
     7
 43
1.0
 76
     1
 77
     6
 78
     2
 67
     7
 79
     5
170
     0
171
     0
290
     0
174
     0
 93
        1
 44
0.0
173
     0
291
     1
 45
0.0
1001
ACAD
1000
AcDbSavedByObjectVersion
1070
     0
  0
VISUALSTYLE
  5
2B
102
{ACAD_REACTORS
330
2A
102
}
330
2A
100
AcDbVisualStyle
  2
Flat
 70
     0
 71
     2
 72
     1
 73
     1
 90
        2
 40
-0.6
 41
30.0
 62
     5
 63
     7
421
 16777215
 74
     0
 91
        4
 64
     7
 65
   257
 75
     1
175
     1
 42
1.0
 92
        8
 66
     7
 43
1.0
 76
     1
 77
     6
 78
     2
 67
     7
 79
     5
170
     0
171
     0
290
     0
174
     0
 93
       13
 44
0.0
173
     0
291
     1
 45
0.0
1001
ACAD
1000
AcDbSavedByObjectVersion
1070
     0
  0
VISUALSTYLE
  5
2C
102
{ACAD_REACTORS
330
2A
102
}
330
2A
100
AcDbVisualStyle
  2
FlatWithEdges
 70
     1
 71
     2
 72
     1
 73
     1
 90
        2
 40
-0.6
 41
30.0
 62
     5
 63
     7
421
 16777215
 74
     1
 91
        4
 64
     7
 65
   257
 75
     1
175
     1
 42
1.0
 92
        0
 66
   257
 43
1.0
 76
     1
 77
     6
 78
     2
 67
     7
 79
     5
170
     0
171
     0
290
     0
174
     0
 93
       13
 44
0.0
173
     0
291
     1
 45
0.0
1001
ACAD
1000
AcDbSavedByObjectVersion
1070
     0
  0
VISUALSTYLE
  5
2D
102
{ACAD_REACTORS
330
2A
102
}
330
2A
100
AcDbVisualStyle
  2
Gouraud
 70
     2
 71
     2
 72
     2
 73
     1
 90
        2
 40
-0.6
 41
30.0
 62
     5
 63
     7
421
 16777215
 74
     0
 91
        4
 64
     7
 65
   257
 75
     1
175
     1
 42
1.0
 92
        0
 66
     7
 43
1.0
 76
     1
 77
     6
 78
     2
 67
     7
 79
     5
170
     0
171
     0
290
     0
174
     0
 93
       13
 44
0.0
173
     0
291
     1
 45
0.0
1001
ACAD
1000
AcDbSavedByObjectVersion
1070
     0
  0
VISUALSTYLE
  5
2E
102
{ACAD_REACTORS
330
2A
102
}
330
2A
100
AcDbVisualStyle
  2
GouraudWithEdges
 70
     3
 71
     2
 72
     2
 73
     1
 90
        2
 40
-0.6
 41
30.0
 62
     5
 63
     7
421
 16777215
 74
     1
 91
        4
 64
     7
 65
   257
 75
     1
175
     1
 42
1.0
 92
        0
 66
   257
 43
1.0
 76
     1
 77
     6
 78
     2
 67
     7
 79
     5
170
     0
171
     0
290
     0
174
     0
 93
       13
 44
0.0
173
     0
291
     1
 45
0.0
1001
ACAD
1000
AcDbSavedByObjectVersion
1070
     0
  0
VISUALSTYLE
  5
38
102
{ACAD_REACTORS
330
2A
102
}
330
2A
100
AcDbVisualStyle
  2
Linepattern
 70
    14
 71
     2
 72
     2
 73
     0
 90
        0
 40
-0.6
 41
-30.0
 62
     5
 63
     7
421
 16777215
 74
     1
 91
        4
 64
     7
 65
   257
 75
     7
175
     7
 42
1.0
 92
        8
 66
     7
 43
1.0
 76
     1
 77
     6
 78
     2
 67
     7
 79
     5
170
     0
171
     0
290
     0
174
     0
 93
        1
 44
0.0
173
     0
291
     1
 45
0.0
1001
ACAD
1000
AcDbSavedByObjectVersion
1070
     0
  0
VISUALSTYLE
  5
33
102
{ACAD_REACTORS
330
2A
102
}
330
2A
100
AcDbVisualStyle
  2
Realistic
 70
     8
 71
     2
 72
     2
 73
     0
 90
        0
 40
-0.6
 41
-30.0
 62
     5
 63
     7
421
 16777215
 74
     1
 91
        0
 64
     7
 65
   257
 75
     1
175
     1
 42
1.0
 92
        8
 66
     8
424
  7895160
 43
1.0
 76
     1
 77
     6
 78
     2
 67
     7
 79
     5
170
     0
171
     0
290
     0
174
     0
 93
       13
 44
0.0
173
     0
291
     0
 45
0.0
1001
ACAD
1000
AcDbSavedByObjectVersion
1070
     0
  0
VISUALSTYLE
  5
37
102
{ACAD_REACTORS
330
2A
102
}
330
2A
100
AcDbVisualStyle
  2
Thicken
 70
    13
 71
     2
 72
     2
 73
     0
 90
        0
 40
-0.6
 41
-30.0
 62
     5
 63
     7
421
 16777215
 74
     1
 91
        4
 64
     7
 65
   257
 75
     1
175
     1
 42
1.0
 92
       12
 66
     7
 43
1.0
 76
     1
 77
     6
 78
     2
 67
     7
 79
     5
170
     0
171
     0
290
     0
174
     0
 93
        1
 44
0.0
173
     0
291
     1
 45
0.0
1001
ACAD
1000
AcDbSavedByObjectVersion
1070
     0
  0
ENDSEC
  0
EOF
