  0
SECTION
  2
HEADER
  9
$ACADVER
  1
AC1018
  9
$ACADMAINTVER
 70
     0
  9
$DWGCODEPAGE
  3
ANSI_1252
  9
$INSBASE
 10
0.0
 20
0.0
 30
0.0
  9
$EXTMIN
 10
-83.73138121412335
 20
-385.5986242154776
 30
-434.7887947300338
  9
$EXTMAX
 10
416.760868824155
 20
-217.353454286377
 30
65.70345530824441
  9
$LIMMIN
 10
0.0
 20
0.0
  9
$LIMMAX
 10
12.0
 20
9.0
  9
$ORTHOMODE
 70
     0
  9
$REGENMODE
 70
     1
  9
$FILLMODE
 70
     1
  9
$QTEXTMODE
 70
     0
  9
$MIRRTEXT
 70
     1
  9
$LTSCALE
 40
1.0
  9
$ATTMODE
 70
     1
  9
$TEXTSIZE
 40
0.2
  9
$TRACEWID
 40
0.05
  9
$TEXTSTYLE
  7
Standard
  9
$CLAYER
  8
PREDEFINITO
  9
$CELTYPE
  6
ByLayer
  9
$CECOLOR
 62
   256
  9
$CELTSCALE
 40
1.0
  9
$DISPSILH
 70
     0
  9
$DIMSCALE
 40
1.0
  9
$DIMASZ
 40
0.18
  9
$DIMEXO
 40
0.0625
  9
$DIMDLI
 40
0.38
  9
$DIMRND
 40
0.0
  9
$DIMDLE
 40
0.0
  9
$DIMEXE
 40
0.18
  9
$DIMTP
 40
0.0
  9
$DIMTM
 40
0.0
  9
$DIMTXT
 40
0.18
  9
$DIMCEN
 40
0.09
  9
$DIMTSZ
 40
0.0
  9
$DIMTOL
 70
     0
  9
$DIMLIM
 70
     0
  9
$DIMTIH
 70
     1
  9
$DIMTOH
 70
     1
  9
$DIMSE1
 70
     0
  9
$DIMSE2
 70
     0
  9
$DIMTAD
 70
     0
  9
$DIMZIN
 70
     0
  9
$DIMBLK
  1

  9
$DIMASO
 70
     1
  9
$DIMSHO
 70
     1
  9
$DIMPOST
  1

  9
$DIMAPOST
  1

  9
$DIMALT
 70
     0
  9
$DIMALTD
 70
     2
  9
$DIMALTF
 40
25.4
  9
$DIMLFAC
 40
1.0
  9
$DIMTOFL
 70
     0
  9
$DIMTVP
 40
0.0
  9
$DIMTIX
 70
     0
  9
$DIMSOXD
 70
     0
  9
$DIMSAH
 70
     0
  9
$DIMBLK1
  1

  9
$DIMBLK2
  1

  9
$DIMSTYLE
  2
Standard
  9
$DIMCLRD
 70
     0
  9
$DIMCLRE
 70
     0
  9
$DIMCLRT
 70
     0
  9
$DIMTFAC
 40
1.0
  9
$DIMGAP
 40
0.09
  9
$DIMJUST
 70
     0
  9
$DIMSD1
 70
     0
  9
$DIMSD2
 70
     0
  9
$DIMTOLJ
 70
     1
  9
$DIMTZIN
 70
     0
  9
$DIMALTZ
 70
     0
  9
$DIMALTTZ
 70
     0
  9
$DIMUPT
 70
     0
  9
$DIMDEC
 70
     4
  9
$DIMTDEC
 70
     4
  9
$DIMALTU
 70
     2
  9
$DIMALTTD
 70
     2
  9
$DIMTXSTY
  7
Standard
  9
$DIMAUNIT
 70
     0
  9
$DIMADEC
 70
     0
  9
$DIMALTRND
 40
0.0
  9
$DIMAZIN
 70
     0
  9
$DIMDSEP
 70
    46
  9
$DIMATFIT
 70
     3
  9
$DIMFRAC
 70
     0
  9
$DIMLDRBLK
  1

  9
$DIMLUNIT
 70
     2
  9
$DIMLWD
 70
    -2
  9
$DIMLWE
 70
    -2
  9
$DIMTMOVE
 70
     0
  9
$LUNITS
 70
     2
  9
$LUPREC
 70
     3
  9
$SKETCHINC
 40
0.1
  9
$FILLETRAD
 40
0.5
  9
$AUNITS
 70
     0
  9
$AUPREC
 70
     0
  9
$MENU
  1
.
  9
$ELEVATION
 40
0.0
  9
$PELEVATION
 40
0.0
  9
$THICKNESS
 40
0.0
  9
$LIMCHECK
 70
     0
  9
$CHAMFERA
 40
0.5
  9
$CHAMFERB
 40
0.5
  9
$CHAMFERC
 40
1.0
  9
$CHAMFERD
 40
0.0
  9
$SKPOLY
 70
     0
  9
$TDCREATE
 40
2456237.512199005
  9
$TDUCREATE
 40
2456237.470532338
  9
$TDUPDATE
 40
2456237.512199016
  9
$TDUUPDATE
 40
2456237.470532349
  9
$TDINDWG
 40
0.0000000116
  9
$TDUSRTIMER
 40
0.0000000116
  9
$USRTIMER
 70
     1
  9
$ANGBASE
 50
0.0
  9
$ANGDIR
 70
     0
  9
$PDMODE
 70
     0
  9
$PDSIZE
 40
0.0
  9
$PLINEWID
 40
0.0
  9
$SPLFRAME
 70
     0
  9
$SPLINETYPE
 70
     6
  9
$SPLINESEGS
 70
     8
  9
$HANDSEED
  5
181
  9
$SURFTAB1
 70
     6
  9
$SURFTAB2
 70
     6
  9
$SURFTYPE
 70
     6
  9
$SURFU
 70
     6
  9
$SURFV
 70
     6
  9
$UCSBASE
  2

  9
$UCSNAME
  2

  9
$UCSORG
 10
0.0
 20
0.0
 30
0.0
  9
$UCSXDIR
 10
1.0
 20
0.0
 30
0.0
  9
$UCSYDIR
 10
0.0
 20
1.0
 30
0.0
  9
$UCSORTHOREF
  2

  9
$UCSORTHOVIEW
 70
     0
  9
$UCSORGTOP
 10
0.0
 20
0.0
 30
0.0
  9
$UCSORGBOTTOM
 10
0.0
 20
0.0
 30
0.0
  9
$UCSORGLEFT
 10
0.0
 20
0.0
 30
0.0
  9
$UCSORGRIGHT
 10
0.0
 20
0.0
 30
0.0
  9
$UCSORGFRONT
 10
0.0
 20
0.0
 30
0.0
  9
$UCSORGBACK
 10
0.0
 20
0.0
 30
0.0
  9
$PUCSBASE
  2

  9
$PUCSNAME
  2

  9
$PUCSORG
 10
0.0
 20
0.0
 30
0.0
  9
$PUCSXDIR
 10
1.0
 20
0.0
 30
0.0
  9
$PUCSYDIR
 10
0.0
 20
1.0
 30
0.0
  9
$PUCSORTHOREF
  2

  9
$PUCSORTHOVIEW
 70
     0
  9
$PUCSORGTOP
 10
0.0
 20
0.0
 30
0.0
  9
$PUCSORGBOTTOM
 10
0.0
 20
0.0
 30
0.0
  9
$PUCSORGLEFT
 10
0.0
 20
0.0
 30
0.0
  9
$PUCSORGRIGHT
 10
0.0
 20
0.0
 30
0.0
  9
$PUCSORGFRONT
 10
0.0
 20
0.0
 30
0.0
  9
$PUCSORGBACK
 10
0.0
 20
0.0
 30
0.0
  9
$USERI1
 70
     0
  9
$USERI2
 70
     0
  9
$USERI3
 70
     0
  9
$USERI4
 70
     0
  9
$USERI5
 70
     0
  9
$USERR1
 40
0.0
  9
$USERR2
 40
0.0
  9
$USERR3
 40
0.0
  9
$USERR4
 40
0.0
  9
$USERR5
 40
0.0
  9
$WORLDVIEW
 70
     1
  9
$SHADEDGE
 70
     3
  9
$SHADEDIF
 70
    70
  9
$TILEMODE
 70
     1
  9
$MAXACTVP
 70
    64
  9
$PINSBASE
 10
0.0
 20
0.0
 30
0.0
  9
$PLIMCHECK
 70
     0
  9
$PEXTMIN
 10
1.000000000000000E+20
 20
1.000000000000000E+20
 30
1.000000000000000E+20
  9
$PEXTMAX
 10
-1.000000000000000E+20
 20
-1.000000000000000E+20
 30
-1.000000000000000E+20
  9
$PLIMMIN
 10
0.0
 20
0.0
  9
$PLIMMAX
 10
12.0
 20
9.0
  9
$UNITMODE
 70
     0
  9
$VISRETAIN
 70
     1
  9
$PLINEGEN
 70
     0
  9
$PSLTSCALE
 70
     1
  9
$TREEDEPTH
 70
  3020
  9
$CMLSTYLE
  2
Standard
  9
$CMLJUST
 70
     0
  9
$CMLSCALE
 40
1.0
  9
$PROXYGRAPHICS
 70
     1
  9
$MEASUREMENT
 70
     0
  9
$CELWEIGHT
370
    -1
  9
$ENDCAPS
280
     0
  9
$JOINSTYLE
280
     0
  9
$LWDISPLAY
290
     0
  9
$INSUNITS
 70
     4
  9
$HYPERLINKBASE
  1

  9
$STYLESHEET
  1

  9
$XEDIT
290
     1
  9
$CEPSNTYPE
380
     0
  9
$PSTYLEMODE
290
     1
  9
$FINGERPRINTGUID
  2
{A3FFEB12-8E45-41E9-93FB-B1C2895CD5DF}
  9
$VERSIONGUID
  2
{FAEB1C32-E019-11D5-929B-00C0DF256EC4}
  9
$EXTNAMES
290
     1
  9
$PSVPSCALE
 40
0.0
  9
$OLESTARTUP
290
     0
  9
$SORTENTS
280
   127
  9
$INDEXCTL
280
     0
  9
$HIDETEXT
280
     1
  9
$XCLIPFRAME
290
     0
  9
$HALOGAP
280
     0
  9
$OBSCOLOR
 70
   257
  9
$OBSLTYPE
280
     0
  9
$INTERSECTIONDISPLAY
280
     0
  9
$INTERSECTIONCOLOR
 70
   257
  9
$DIMASSOC
280
     2
  9
$PROJECTNAME
  1

  0
ENDSEC
  0
SECTION
  2
CLASSES
  0
CLASS
  1
ACDBDICTIONARYWDFLT
  2
AcDbDictionaryWithDefault
  3
ObjectDBX Classes
 90
        0
 91
        3
280
     0
281
     0
  0
ENDSEC
  0
SECTION
  2
TABLES
  0
TABLE
  2
VPORT
  5
8
330
0
100
AcDbSymbolTable
 70
     1
  0
VPORT
  5
29
330
8
100
AcDbSymbolTableRecord
100
AcDbViewportTableRecord
  2
*Active
 70
     0
 10
0.0
 20
0.0
 11
1.0
 21
1.0
 12
0.0
 22
0.0
 13
0.0
 23
0.0
 14
0.5
 24
0.5
 15
0.5
 25
0.5
 16
0.0
 26
0.0
 36
1.0
 17
166.5147438050158
 27
-301.4760392509273
 37
0.0
 40
171.6100733276826
 41
2.974779307181231
 42
50.0
 43
0.0
 44
0.0
 50
0.0
 51
0.0
 71
     0
 72
   100
 73
     1
 74
     3
 75
     0
 76
     0
 77
     0
 78
     0
281
     0
 65
     1
110
0.0
120
0.0
130
0.0
111
1.0
121
0.0
131
0.0
112
0.0
122
1.0
132
0.0
 79
     0
146
0.0
  0
ENDTAB
  0
TABLE
  2
LTYPE
  5
5
330
0
100
AcDbSymbolTable
 70
     1
  0
LTYPE
  5
14
330
5
100
AcDbSymbolTableRecord
100
AcDbLinetypeTableRecord
  2
ByBlock
 70
     0
  3

 72
    65
 73
     0
 40
0.0
  0
LTYPE
  5
15
330
5
100
AcDbSymbolTableRecord
100
AcDbLinetypeTableRecord
  2
ByLayer
 70
     0
  3

 72
    65
 73
     0
 40
0.0
  0
LTYPE
  5
16
330
5
100
AcDbSymbolTableRecord
100
AcDbLinetypeTableRecord
  2
Continuous
 70
     0
  3
Solid line
 72
    65
 73
     0
 40
0.0
  0
ENDTAB
  0
TABLE
  2
LAYER
  5
2
330
0
100
AcDbSymbolTable
 70
     2
  0
LAYER
  5
10
330
2
100
AcDbSymbolTableRecord
100
AcDbLayerTableRecord
  2
0
 70
     0
 62
     7
  6
Continuous
370
    -3
390
F
  0
LAYER
  5
2A
330
2
100
AcDbSymbolTableRecord
100
AcDbLayerTableRecord
  2
PREDEFINITO
 70
     0
 62
     7
  6
Continuous
370
    -3
390
F
  0
ENDTAB
  0
TABLE
  2
STYLE
  5
3
330
0
100
AcDbSymbolTable
 70
     1
  0
STYLE
  5
11
330
3
100
AcDbSymbolTableRecord
100
AcDbTextStyleTableRecord
  2
Standard
 70
     0
 40
0.0
 41
1.0
 50
0.0
 71
     0
 42
0.2
  3
txt
  4

  0
ENDTAB
  0
TABLE
  2
VIEW
  5
6
330
0
100
AcDbSymbolTable
 70
     0
  0
ENDTAB
  0
TABLE
  2
UCS
  5
7
330
0
100
AcDbSymbolTable
 70
     0
  0
ENDTAB
  0
TABLE
  2
APPID
  5
9
330
0
100
AcDbSymbolTable
 70
     1
  0
APPID
  5
12
330
9
100
AcDbSymbolTableRecord
100
AcDbRegAppTableRecord
  2
ACAD
 70
     0
  0
ENDTAB
  0
TABLE
  2
DIMSTYLE
  5
A
330
0
100
AcDbSymbolTable
 70
     1
100
AcDbDimStyleTable
  0
DIMSTYLE
105
27
330
A
100
AcDbSymbolTableRecord
100
AcDbDimStyleTableRecord
  2
Standard
 70
     0
340
11
  0
ENDTAB
  0
TABLE
  2
BLOCK_RECORD
  5
1
330
0
100
AcDbSymbolTable
 70
     1
  0
BLOCK_RECORD
  5
1F
330
1
100
AcDbSymbolTableRecord
100
AcDbBlockTableRecord
  2
*Model_Space
340
22
  0
BLOCK_RECORD
  5
1B
330
1
100
AcDbSymbolTableRecord
100
AcDbBlockTableRecord
  2
*Paper_Space
340
1E
  0
BLOCK_RECORD
  5
23
330
1
100
AcDbSymbolTableRecord
100
AcDbBlockTableRecord
  2
*Paper_Space0
340
26
  0
ENDTAB
  0
ENDSEC
  0
SECTION
  2
BLOCKS
  0
BLOCK
  5
20
330
1F
100
AcDbEntity
  8
0
100
AcDbBlockBegin
  2
*Model_Space
 70
     0
 71
     0
 10
0.0
 20
0.0
 30
0.0
  3
*Model_Space
  1

  0
ENDBLK
  5
21
330
1F
100
AcDbEntity
  8
0
100
AcDbBlockEnd
  0
BLOCK
  5
1C
330
1B
100
AcDbEntity
 67
     1
  8
0
100
AcDbBlockBegin
  2
*Paper_Space
 70
     0
 71
     0
 10
0.0
 20
0.0
 30
0.0
  3
*Paper_Space
  1

  0
ENDBLK
  5
1D
330
1B
100
AcDbEntity
 67
     1
  8
0
100
AcDbBlockEnd
  0
BLOCK
  5
24
330
23
100
AcDbEntity
  8
0
100
AcDbBlockBegin
  2
*Paper_Space0
 70
     0
 71
     0
 10
0.0
 20
0.0
 30
0.0
  3
*Paper_Space0
  1

  0
ENDBLK
  5
25
330
23
100
AcDbEntity
  8
0
100
AcDbBlockEnd
  0
ENDSEC
  0
SECTION
  2
ENTITIES
  0
SPLINE
  5
2B
330
1F
100
AcDbEntity
  8
PREDEFINITO
100
AcDbSpline
210
0.0
220
0.0
230
1.0
 70
    12
 71
     2
 72
     8
 73
     5
 74
     0
 42
0.0000000001
 43
0.0000000001
 40
0.0
 40
0.0
 40
0.0
 40
154.5219189643178
 40
154.5219189643178
 40
309.0438379286355
 40
309.0438379286355
 40
309.0438379286355
 10
-8.660260557321067
 20
-226.8686204763314
 30
-184.5426697110977
 41
1.0
 10
-72.7957968564421
 20
-226.8686204763315
 30
-184.5426697111215
 41
0.760328801642016
 10
-82.81375308124416
 20
-290.2169240799315
 30
-184.54266971101
 41
1.0
 10
-92.83170930604636
 20
-353.5652276835314
 30
-184.5426697108985
 41
0.760328801642016
 10
-31.82577798766437
 20
-373.3552089961231
 30
-184.5426697108398
 41
1.0
  0
SPLINE
  5
2C
330
1F
100
AcDbEntity
  8
PREDEFINITO
100
AcDbSpline
210
-6.758920892349085E-25
220
-1.0
230
1.818445819401579E-12
 70
    15
 71
     2
 72
    12
 73
     9
 74
     0
 42
0.0000000001
 43
0.0000000001
 40
-2074.771624888495
 40
-2074.771624888495
 40
-2074.771624888495
 40
-1556.078718666372
 40
-1556.078718666372
 40
-1037.385812444248
 40
-1037.385812444248
 40
-518.6929062221238
 40
-518.6929062221238
 40
0.0
 40
0.0
 40
0.0
 10
-31.82577798766403
 20
-373.355208996122
 30
-184.54266971084
 41
1.0
 10
-31.82577798759031
 20
-373.3552089964826
 30
-382.8831915035199
 41
0.707106781186548
 10
166.5147438050897
 20
-373.3552089964826
 30
-382.8831915034462
 41
1.0
 10
364.8552655977697
 20
-373.3552089964826
 30
-382.8831915033724
 41
0.707106781186548
 10
364.855265597696
 20
-373.355208996122
 30
-184.5426697106925
 41
1.0
 10
364.8552655976222
 20
-373.3552089957612
 30
13.79785208198751
 41
0.707106781186548
 10
166.5147438049422
 20
-373.3552089957612
 30
13.79785208191379
 41
1.0
 10
-31.82577798773774
 20
-373.3552089957612
 30
13.79785208184008
 41
0.707106781186548
 10
-31.82577798766403
 20
-373.355208996122
 30
-184.54266971084
 41
1.0
  0
SPLINE
  5
2D
330
1F
100
AcDbEntity
  8
PREDEFINITO
100
AcDbSpline
210
0.0
220
0.0
230
1.0
 70
    12
 71
     2
 72
     6
 73
     3
 74
     0
 42
0.0000000001
 43
0.0000000001
 40
0.0
 40
0.0
 40
0.0
 40
52.4845523723021
 40
52.4845523723021
 40
52.4845523723021
 10
-31.82577798766437
 20
-373.3552089961231
 30
-184.5426697108398
 41
1.0
 10
-13.95049036976982
 20
-379.1538518538067
 30
-184.5426697108226
 41
0.99225871862384
 10
4.802522437218272
 20
-380.3682146802861
 30
-184.5426697108134
 41
1.0
  0
SPLINE
  5
2E
330
1F
100
AcDbEntity
  8
PREDEFINITO
100
AcDbSpline
210
6.743756203209418E-25
220
1.0
230
-1.818711329905630E-12
 70
    15
 71
     2
 72
    12
 73
     9
 74
     0
 42
0.0000000001
 43
0.0000000001
 40
-1586.724174341446
 40
-1586.724174341446
 40
-1586.724174341446
 40
-1190.043130756084
 40
-1190.043130756084
 40
-793.3620871707228
 40
-793.3620871707228
 40
-396.6810435853614
 40
-396.6810435853614
 40
0.0
 40
0.0
 40
0.0
 10
4.802522437218443
 20
-380.3682146802826
 30
-184.5426697108134
 41
1.0
 10
4.802522437278419
 20
-380.3682146805767
 30
-346.2548910786109
 41
0.707106781186548
 10
166.5147438050759
 20
-380.3682146805767
 30
-346.2548910785509
 41
1.0
 10
328.2269651728735
 20
-380.3682146805767
 30
-346.254891078491
 41
0.707106781186548
 10
328.2269651728135
 20
-380.3682146802826
 30
-184.5426697106935
 41
1.0
 10
328.2269651727535
 20
-380.3682146799885
 30
-22.83044834289597
 41
0.707106781186548
 10
166.514743804956
 20
-380.3682146799885
 30
-22.83044834295592
 41
1.0
 10
4.802522437158479
 20
-380.3682146799885
 30
-22.83044834301587
 41
0.707106781186548
 10
4.802522437218443
 20
-380.3682146802826
 30
-184.5426697108134
 41
1.0
  0
SPLINE
  5
2F
330
1F
100
AcDbEntity
  8
PREDEFINITO
100
AcDbSpline
210
0.0
220
0.0
230
1.0
 70
    12
 71
     2
 72
     6
 73
     3
 74
     0
 42
0.0000000001
 43
0.0000000001
 40
0.0
 40
0.0
 40
0.0
 40
228.8153019160992
 40
228.8153019160992
 40
228.8153019160992
 10
4.802522437218272
 20
-380.3682146802861
 30
-184.5426697108134
 41
1.0
 10
85.57404710877566
 20
-385.5986242154758
 30
-184.5426697107739
 41
0.999477344980782
 10
166.5147438050222
 20
-385.5986242154775
 30
-184.5426697107438
 41
1.0
  0
SPLINE
  5
30
330
1F
100
AcDbEntity
  8
PREDEFINITO
100
AcDbSpline
210
0.0
220
0.0
230
1.0
 70
    12
 71
     2
 72
     6
 73
     3
 74
     0
 42
0.0000000001
 43
0.0000000001
 40
0.0
 40
0.0
 40
0.0
 40
228.4230471124322
 40
228.4230471124322
 40
228.4230471124322
 10
166.5147438050222
 20
-381.3086242154835
 30
-184.5426697107516
 41
1.0
 10
85.7128025889617
 20
-381.3086242154831
 30
-184.5426697107816
 41
0.999477344980783
 10
5.079743388404324
 20
-376.0871810966582
 30
-184.5426697108211
 41
1.0
  0
SPLINE
  5
31
330
1F
100
AcDbEntity
  8
PREDEFINITO
100
AcDbSpline
210
-6.744084548282636E-25
220
-1.0
230
1.818489397894130E-12
 70
    15
 71
     2
 72
    12
 73
     9
 74
     0
 42
0.0000000001
 43
0.0000000001
 40
-1291.480003332894
 40
-1291.480003332894
 40
-1291.480003332894
 40
-968.6100024996704
 40
-968.6100024996704
 40
-645.7400016664469
 40
-645.7400016664469
 40
-322.8700008332235
 40
-322.8700008332235
 40
0.0
 40
0.0
 40
0.0
 10
5.079743388404211
 20
-376.087181096659
 30
-184.5426697108211
 41
1.0
 10
5.079743388464096
 20
-376.0871810969525
 30
-345.9776701274329
 41
0.707106781186548
 10
166.5147438050758
 20
-376.0871810969526
 30
-345.977670127373
 41
1.0
 10
327.9497442216876
 20
-376.0871810969525
 30
-345.9776701273131
 41
0.707106781186548
 10
327.9497442216277
 20
-376.087181096659
 30
-184.5426697107014
 41
1.0
 10
327.9497442215679
 20
-376.0871810963654
 30
-23.1076692940896
 41
0.707106781186548
 10
166.5147438049561
 20
-376.0871810963654
 30
-23.10766929414947
 41
1.0
 10
5.079743388344357
 20
-376.0871810963654
 30
-23.10766929420934
 41
0.707106781186548
 10
5.079743388404211
 20
-376.087181096659
 30
-184.5426697108211
 41
1.0
  0
SPLINE
  5
32
330
1F
100
AcDbEntity
  8
PREDEFINITO
100
AcDbSpline
210
0.0
220
0.0
230
1.0
 70
    12
 71
     2
 72
     6
 73
     3
 74
     0
 42
0.0000000001
 43
0.0000000001
 40
0.0
 40
0.0
 40
0.0
 40
50.98499373345159
 40
50.98499373345159
 40
50.98499373345159
 10
5.079743388404324
 20
-376.0871810966582
 30
-184.5426697108211
 41
1.0
 10
-13.13746905279919
 20
-374.9075143509619
 30
-184.54266971083
 41
0.992258718623734
 10
-30.50203416744728
 20
-369.2745470034621
 30
-184.5426697108468
 41
1.0
  0
SPLINE
  5
33
330
1F
100
AcDbEntity
  8
PREDEFINITO
100
AcDbSpline
210
-6.744351430968643E-25
220
-1.0
230
1.818690237839454E-12
 70
    15
 71
     2
 72
    12
 73
     9
 74
     0
 42
0.0000000001
 43
0.0000000001
 40
-1576.134223779711
 40
-1576.134223779711
 40
-1576.134223779711
 40
-1182.100667834784
 40
-1182.100667834784
 40
-788.0671118898556
 40
-788.0671118898556
 40
-394.0335559449278
 40
-394.0335559449278
 40
0.0
 40
0.0
 40
0.0
 10
-30.50203416744796
 20
-369.2745470034642
 30
-184.5426697108467
 41
1.0
 10
-30.50203416737488
 20
-369.2745470038225
 30
-381.5594476833106
 41
0.707106781186548
 10
166.514743805089
 20
-369.2745470038225
 30
-381.5594476832375
 41
1.0
 10
363.531521777553
 20
-369.2745470038225
 30
-381.5594476831645
 41
0.707106781186548
 10
363.5315217774799
 20
-369.2745470034642
 30
-184.5426697107006
 41
1.0
 10
363.5315217774069
 20
-369.2745470031059
 30
12.47410826176336
 41
0.707106781186548
 10
166.5147438049429
 20
-369.274547003106
 30
12.47410826169033
 41
1.0
 10
-30.50203416752102
 20
-369.2745470031059
 30
12.47410826161721
 41
0.707106781186548
 10
-30.50203416744796
 20
-369.2745470034642
 30
-184.5426697108467
 41
1.0
  0
SPLINE
  5
34
330
1F
100
AcDbEntity
  8
PREDEFINITO
100
AcDbSpline
210
0.0
220
0.0
230
1.0
 70
    12
 71
     2
 72
     8
 73
     5
 74
     0
 42
0.0000000001
 43
0.0000000001
 40
0.0
 40
0.0
 40
0.0
 40
145.6920952434316
 40
145.6920952434316
 40
291.3841904868631
 40
291.3841904868631
 40
291.3841904868631
 10
-30.50203416744728
 20
-369.2745470034621
 30
-184.5426697108468
 41
1.0
 10
-88.02191235447206
 20
-350.615421737728
 30
-184.5426697109021
 41
0.760328801641961
 10
-78.57641075683858
 20
-290.8870211070258
 30
-184.5426697110072
 41
1.0
 10
-69.13090915920515
 20
-231.1586204763235
 30
-184.5426697111124
 41
0.760328801641961
 10
-8.66026055732101
 20
-231.1586204763236
 30
-184.54266971109
 41
1.0
  0
SPLINE
  5
35
330
1F
100
AcDbEntity
  8
PREDEFINITO
100
AcDbSpline
210
7.584260164066340E-13
220
1.0
230
-1.818794661227827E-12
 70
    12
 71
     2
 72
     8
 73
     5
 74
     0
 42
0.0000000001
 43
0.0000000001
 40
0.0
 40
0.0
 40
0.0
 40
275.1642533986387
 40
275.1642533986387
 40
550.3285067972774
 40
550.3285067972774
 40
550.3285067972774
 10
341.6897481673528
 20
-231.1586204765894
 30
-184.5426697109598
 41
1.0
 10
341.6897481674179
 20
-231.1586204769079
 30
-359.7176740732966
 41
0.7071067811865476
 10
166.514743805081
 20
-231.158620476775
 30
-359.7176740733618
 41
1.0
 10
-8.660260557255915
 20
-231.1586204766422
 30
-359.7176740734268
 41
0.7071067811865476
 10
-8.66026055732101
 20
-231.1586204763236
 30
-184.54266971109
 41
1.0
  0
SPLINE
  5
36
330
1F
100
AcDbEntity
  8
PREDEFINITO
100
AcDbSpline
210
7.585882639232465E-13
220
1.0
230
-1.818632413711214E-12
 70
    12
 71
     2
 72
     8
 73
     5
 74
     0
 42
0.0000000001
 43
0.0000000001
 40
0.0
 40
0.0
 40
0.0
 40
275.1642533986387
 40
275.1642533986387
 40
550.3285067972774
 40
550.3285067972774
 40
550.3285067972774
 10
-8.66026055732101
 20
-231.1586204763236
 30
-184.54266971109
 41
1.0
 10
-8.660260557385945
 20
-231.158620476005
 30
-9.367665348753045
 41
0.7071067811865476
 10
166.5147438049509
 20
-231.1586204761379
 30
-9.367665348688092
 41
1.0
 10
341.6897481672879
 20
-231.1586204762708
 30
-9.367665348623056
 41
0.7071067811865476
 10
341.6897481673528
 20
-231.1586204765894
 30
-184.5426697109598
 41
1.0
  0
SPLINE
  5
37
330
1F
100
AcDbEntity
  8
PREDEFINITO
100
AcDbSpline
210
-7.513822978079993E-13
220
-1.0
230
1.818543467808498E-12
 70
    12
 71
     2
 72
     8
 73
     5
 74
     0
 42
0.0000000001
 43
0.0000000001
 40
-531.3048478286652
 40
-531.3048478286652
 40
-531.3048478286652
 40
-265.6524239143326
 40
-265.6524239143326
 40
0.0
 40
0.0
 40
0.0
 10
335.6343294462546
 20
-231.1586204765848
 30
-184.5426697109619
 41
1.0
 10
335.6343294461918
 20
-231.1586204762773
 30
-15.42308406972318
 41
0.7071067811865476
 10
166.5147438049531
 20
-231.1586204761502
 30
-15.42308406978611
 41
1.0
 10
-2.604841836285539
 20
-231.1586204760231
 30
-15.42308406984891
 41
0.7071067811865476
 10
-2.604841836222761
 20
-231.1586204763307
 30
-184.5426697110876
 41
1.0
  0
SPLINE
  5
38
330
1F
100
AcDbEntity
  8
PREDEFINITO
100
AcDbSpline
210
-7.513822978079989E-13
220
-1.0
230
1.818543467808499E-12
 70
    12
 71
     2
 72
     8
 73
     5
 74
     0
 42
0.0000000001
 43
0.0000000001
 40
-531.3048478286652
 40
-531.3048478286652
 40
-531.3048478286652
 40
-265.6524239143326
 40
-265.6524239143326
 40
0.0
 40
0.0
 40
0.0
 10
-2.604841836222761
 20
-231.1586204763307
 30
-184.5426697110876
 41
1.0
 10
-2.604841836159771
 20
-231.1586204766382
 30
-353.6622553523262
 41
0.7071067811865476
 10
166.5147438050788
 20
-231.1586204767653
 30
-353.6622553522634
 41
1.0
 10
335.6343294463175
 20
-231.1586204768924
 30
-353.6622553522005
 41
0.7071067811865476
 10
335.6343294462546
 20
-231.1586204765848
 30
-184.5426697109619
 41
1.0
  0
SPLINE
  5
39
330
1F
100
AcDbEntity
  8
PREDEFINITO
100
AcDbSpline
210
0.0
220
0.0
230
1.0
 70
    12
 71
     2
 72
     6
 73
     3
 74
     0
 42
0.0000000001
 43
0.0000000001
 40
0.0
 40
0.0
 40
0.0
 40
17.26162697096528
 40
17.26162697096528
 40
17.26162697096528
 10
-2.604841836222761
 20
-231.1586204763307
 30
-184.5426697110876
 41
1.0
 10
4.54515816377639
 20
-231.1586204763307
 30
-184.5426697110699
 41
0.707106781186548
 10
4.545158163776478
 20
-224.0086204763318
 30
-184.5426697110679
 41
1.0
  0
ARC
  5
3A
330
1F
100
AcDbEntity
  8
PREDEFINITO
100
AcDbCircle
 10
-166.5147438051678
 20
-184.5426697112942
 30
-222.5786204759719
 40
161.96958564124
210
6.821210263296962E-13
220
1.0
230
-1.136868377216160E-12
100
AcDbArc
 50
359.9999999999918
 51
90.0
  0
ARC
  5
3B
330
1F
100
AcDbEntity
  8
PREDEFINITO
100
AcDbCircle
 10
-166.5147438051668
 20
-184.5426697115992
 30
-222.578620475941
 40
161.9695856412413
210
6.821210263301938E-13
220
1.0
230
-2.501110429875417E-12
100
AcDbArc
 50
90.00000000000036
 51
179.9999999999886
  0
ARC
  5
3C
330
1F
100
AcDbEntity
  8
PREDEFINITO
100
AcDbCircle
 10
-166.5147438053198
 20
-184.5426697114463
 30
-222.5786204758428
 40
161.9695856412401
210
1.364242052659651E-12
220
1.0
230
-1.818989403545663E-12
100
AcDbArc
 50
179.999999999989
 51
359.9999999999919
  0
LINE
  5
3D
330
1F
100
AcDbEntity
  8
PREDEFINITO
100
AcDbLine
 10
4.545158163776478
 20
-224.0086204763318
 30
-184.5426697110679
 11
4.545158163775909
 21
-222.5786204761847
 31
-184.5426697110645
  0
ARC
  5
3E
330
1F
100
AcDbEntity
  8
PREDEFINITO
100
AcDbCircle
 10
-166.5147438050159
 20
-184.5426697114453
 30
-224.0086204759961
 40
161.9695856412394
210
0.0
220
1.0
230
-1.818989403545856E-12
100
AcDbArc
 50
180.0
 51
359.9999999999894
  0
ARC
  5
3F
330
1F
100
AcDbEntity
  8
PREDEFINITO
100
AcDbCircle
 10
-166.5147438050159
 20
-184.5426697114453
 30
-224.0086204759961
 40
161.9695856412393
210
0.0
220
1.0
230
-1.818989403545856E-12
100
AcDbArc
 50
90.0
 51
180.0
  0
ARC
  5
40
330
1F
100
AcDbEntity
  8
PREDEFINITO
100
AcDbCircle
 10
-166.5147438050159
 20
-184.5426697114454
 30
-224.0086204759961
 40
161.9695856412394
210
3.618915179919496E-25
220
1.0
230
-1.818989403545856E-12
100
AcDbArc
 50
359.9999999999886
 51
89.9999999999992
  0
LINE
  5
41
330
1F
100
AcDbEntity
  8
PREDEFINITO
100
AcDbLine
 10
166.514743805016
 20
-224.0086204760372
 30
-22.57308406979854
 11
166.5147438050159
 21
-222.578620476111
 31
-22.57308406980115
  0
SPLINE
  5
42
330
1F
100
AcDbEntity
  8
PREDEFINITO
100
AcDbSpline
210
6.820816988685718E-13
220
1.0
230
-1.818713582520922E-12
 70
    12
 71
     2
 72
     8
 73
     5
 74
     0
 42
0.0000000001
 43
0.0000000001
 40
-522.3198928394065
 40
-522.3198928394065
 40
-522.3198928394065
 40
-261.1599464197033
 40
-261.1599464197033
 40
0.0
 40
0.0
 40
0.0
 10
0.2551581637746949
 20
-222.5786204761789
 30
-184.5426697110651
 41
1.0
 10
0.255158163836496
 20
-222.5786204764812
 30
-350.8022553523064
 41
0.7071067811865476
 10
166.5147438050777
 20
-222.5786204765946
 30
-350.8022553522785
 41
1.0
 10
332.774329446319
 20
-222.578620476708
 30
-350.8022553522507
 41
0.7071067811865476
 10
332.7743294462572
 20
-222.5786204764057
 30
-184.5426697110095
 41
1.0
  0
ARC
  5
43
330
1F
100
AcDbEntity
  8
PREDEFINITO
100
AcDbCircle
 10
-166.5147438050164
 20
-184.5426697114454
 30
-224.0086204759947
 40
166.2595856412414
210
3.618915179919496E-25
220
1.0
230
-1.818989403545856E-12
100
AcDbArc
 50
359.9999999999886
 51
89.99999999999903
  0
ARC
  5
44
330
1F
100
AcDbEntity
  8
PREDEFINITO
100
AcDbCircle
 10
-166.514743805016
 20
-184.5426697114452
 30
-224.0086204759948
 40
166.2595856412412
210
0.0
220
1.0
230
-1.818989403545856E-12
100
AcDbArc
 50
90.0
 51
180.0
  0
ARC
  5
45
330
1F
100
AcDbEntity
  8
PREDEFINITO
100
AcDbCircle
 10
-166.5147438050161
 20
-184.5426697114452
 30
-224.0086204759948
 40
166.2595856412411
210
0.0
220
1.0
230
-1.818989403545856E-12
100
AcDbArc
 50
180.0
 51
359.9999999999894
  0
LINE
  5
46
330
1F
100
AcDbEntity
  8
PREDEFINITO
100
AcDbLine
 10
0.255158163775036
 20
-224.0086204763304
 30
-184.5426697110686
 11
0.2551581637746949
 21
-222.5786204761789
 31
-184.5426697110651
  0
ARC
  5
47
330
1F
100
AcDbEntity
  8
PREDEFINITO
100
AcDbCircle
 10
-166.5147438050161
 20
-184.5426697117487
 30
-222.5786204758183
 40
166.2595856412411
210
6.333101564859118E-25
220
1.0
230
-3.183231456205249E-12
100
AcDbArc
 50
89.99999999999915
 51
179.9999999999886
  0
ARC
  5
48
330
1F
100
AcDbEntity
  8
PREDEFINITO
100
AcDbCircle
 10
-166.514743805016
 20
-184.5426697114453
 30
-222.5786204758432
 40
166.2595856412413
210
0.0
220
1.0
230
-1.818989403545856E-12
100
AcDbArc
 50
359.9999999999915
 51
90.0
  0
LINE
  5
49
330
1F
100
AcDbEntity
  8
PREDEFINITO
100
AcDbLine
 10
166.5147438050159
 20
-224.0086204760281
 30
-18.28308406979653
 11
166.514743805016
 21
-222.5786204758766
 31
-18.28308406979909
  0
SPLINE
  5
4A
330
1F
100
AcDbEntity
  8
PREDEFINITO
100
AcDbSpline
210
0.0
220
0.0
230
1.0
 70
    12
 71
     2
 72
     6
 73
     3
 74
     0
 42
0.0000000001
 43
0.0000000001
 40
0.0
 40
0.0
 40
0.0
 40
6.904650788385475
 40
6.904650788385475
 40
6.904650788385475
 10
0.255158163775036
 20
-224.0086204763304
 30
-184.5426697110686
 41
1.0
 10
0.2551581637765035
 20
-226.8686204763299
 30
-184.5426697110789
 41
0.707106781186387
 10
-2.604841836222647
 20
-226.8686204763301
 30
-184.5426697110954
 41
1.0
  0
SPLINE
  5
4B
330
1F
100
AcDbEntity
  8
PREDEFINITO
100
AcDbSpline
210
1.474018688419394E-13
220
-1.0
230
1.818632413711549E-12
 70
    12
 71
     2
 72
     8
 73
     5
 74
     0
 42
0.0000000001
 43
0.0000000001
 40
-550.3285067972778
 40
-550.3285067972778
 40
-550.3285067972778
 40
-275.1642533986389
 40
-275.1642533986389
 40
0.0
 40
0.0
 40
0.0
 10
341.6897481673529
 20
-226.8686204762798
 30
-184.5426697109673
 41
1.0
 10
341.6897481672877
 20
-226.8686204759612
 30
-9.367665348630291
 41
0.7071067811865476
 10
166.5147438049507
 20
-226.868620475987
 30
-9.367665348695596
 41
1.0
 10
-8.660260557386307
 20
-226.8686204760128
 30
-9.367665348760802
 41
0.7071067811865476
 10
-8.660260557321067
 20
-226.8686204763314
 30
-184.5426697110977
 41
1.0
  0
SPLINE
  5
4C
330
1F
100
AcDbEntity
  8
PREDEFINITO
100
AcDbSpline
210
1.474018688419400E-13
220
-1.0
230
1.818632413711548E-12
 70
    12
 71
     2
 72
     8
 73
     5
 74
     0
 42
0.0000000001
 43
0.0000000001
 40
-550.3285067972778
 40
-550.3285067972778
 40
-550.3285067972778
 40
-275.1642533986389
 40
-275.1642533986389
 40
0.0
 40
0.0
 40
0.0
 10
-8.660260557321067
 20
-226.8686204763314
 30
-184.5426697110977
 41
1.0
 10
-8.660260557255956
 20
-226.86862047665
 30
-359.7176740734346
 41
0.7071067811865476
 10
166.5147438050811
 20
-226.8686204766242
 30
-359.7176740733696
 41
1.0
 10
341.6897481674181
 20
-226.8686204765984
 30
-359.7176740733044
 41
0.7071067811865476
 10
341.6897481673529
 20
-226.8686204762798
 30
-184.5426697109673
 41
1.0
  0
SPLINE
  5
4D
330
1F
100
AcDbEntity
  8
PREDEFINITO
100
AcDbSpline
210
1.462094831333810E-13
220
-1.0
230
1.818543467808832E-12
 70
    12
 71
     2
 72
     8
 73
     5
 74
     0
 42
0.0000000001
 43
0.0000000001
 40
0.0
 40
0.0
 40
0.0
 40
265.6524239143326
 40
265.6524239143326
 40
531.3048478286652
 40
531.3048478286652
 40
531.3048478286652
 10
335.6343294462546
 20
-226.8686204762807
 30
-184.5426697109696
 41
1.0
 10
335.6343294463175
 20
-226.8686204765882
 30
-353.6622553522083
 41
0.7071067811865476
 10
166.5147438050788
 20
-226.8686204766129
 30
-353.6622553522711
 41
1.0
 10
-2.604841836159932
 20
-226.8686204766377
 30
-353.6622553523339
 41
0.7071067811865476
 10
-2.604841836222647
 20
-226.8686204763301
 30
-184.5426697110954
 41
1.0
  0
SPLINE
  5
4E
330
1F
100
AcDbEntity
  8
PREDEFINITO
100
AcDbSpline
210
1.462935115719632E-13
220
-1.0
230
1.818711524685998E-12
 70
    12
 71
     2
 72
     8
 73
     5
 74
     0
 42
0.0000000001
 43
0.0000000001
 40
0.0
 40
0.0
 40
0.0
 40
265.6524239143326
 40
265.6524239143326
 40
531.3048478286652
 40
531.3048478286652
 40
531.3048478286652
 10
-2.604841836222647
 20
-226.8686204763301
 30
-184.5426697110954
 41
1.0
 10
-2.60484183628574
 20
-226.8686204760226
 30
-15.42308406985687
 41
0.7071067811865476
 10
166.514743804953
 20
-226.8686204759978
 30
-15.42308406979379
 41
1.0
 10
335.6343294461917
 20
-226.8686204759731
 30
-15.42308406973094
 41
0.7071067811865476
 10
335.6343294462546
 20
-226.8686204762807
 30
-184.5426697109696
 41
1.0
  0
SPLINE
  5
4F
330
1F
100
AcDbEntity
  8
PREDEFINITO
100
AcDbSpline
210
-1.139930237288992E-16
220
1.0
230
-1.818644711356514E-12
 70
    15
 71
     2
 72
    12
 73
     9
 74
     0
 42
0.0000000001
 43
0.0000000001
 40
0.0
 40
0.0
 40
0.0
 40
518.6929062221238
 40
518.6929062221238
 40
1037.385812444248
 40
1037.385812444248
 40
1556.078718666372
 40
1556.078718666372
 40
2074.771624888495
 40
2074.771624888495
 40
2074.771624888495
 10
-82.81375308124399
 20
-290.2169240799309
 30
-184.5426697110101
 41
1.0
 10
-82.81375308133657
 20
-290.2169240794774
 30
64.78582717524984
 41
0.707106781186548
 10
166.5147438049233
 20
-290.2169240794774
 30
64.78582717534255
 41
1.0
 10
415.8432406911832
 20
-290.2169240794773
 30
64.7858271754352
 41
0.707106781186548
 10
415.8432406912759
 20
-290.2169240799308
 30
-184.5426697108247
 41
1.0
 10
415.8432406913685
 20
-290.2169240803842
 30
-433.8711665970846
 41
0.707106781186548
 10
166.5147438051086
 20
-290.2169240803843
 30
-433.8711665971773
 41
1.0
 10
-82.81375308115136
 20
-290.2169240803843
 30
-433.87116659727
 41
0.707106781186548
 10
-82.81375308124399
 20
-290.2169240799309
 30
-184.5426697110101
 41
1.0
  0
SPLINE
  5
50
330
1F
100
AcDbEntity
  8
PREDEFINITO
100
AcDbSpline
210
-1.0
220
-1.324178289098360E-16
230
-3.713603078268010E-13
 70
    12
 71
     2
 72
     8
 73
     5
 74
     0
 42
0.0000000001
 43
0.0000000001
 40
0.0
 40
0.0
 40
0.0
 40
154.5219189643178
 40
154.5219189643178
 40
309.0438379286355
 40
309.0438379286355
 40
309.0438379286355
 10
166.5147438049508
 20
-226.8686204760128
 30
-9.367665348695539
 41
1.0
 10
166.514743804927
 20
-226.8686204758962
 30
54.76787095042546
 41
0.760328801642016
 10
166.5147438049233
 20
-290.2169240794774
 30
64.78582717534255
 41
1.0
 10
166.5147438049196
 20
-353.5652276830587
 30
74.80378340025973
 41
0.760328801642016
 10
166.5147438049422
 20
-373.3552089957612
 30
13.79785208191379
 41
1.0
  0
SPLINE
  5
51
330
1F
100
AcDbEntity
  8
PREDEFINITO
100
AcDbSpline
210
0.0
220
0.0
230
1.0
 70
    12
 71
     2
 72
     8
 73
     5
 74
     0
 42
0.0000000001
 43
0.0000000001
 40
0.0
 40
0.0
 40
0.0
 40
154.5219189643178
 40
154.5219189643178
 40
309.0438379286355
 40
309.0438379286355
 40
309.0438379286355
 10
341.689748167353
 20
-226.8686204763314
 30
-184.5426697109675
 41
1.0
 10
405.825284466474
 20
-226.8686204763314
 30
-184.5426697109436
 41
0.760328801642016
 10
415.8432406912759
 20
-290.2169240799308
 30
-184.5426697108247
 41
1.0
 10
425.8611969160779
 20
-353.5652276835303
 30
-184.5426697107058
 41
0.760328801642016
 10
364.855265597696
 20
-373.355208996122
 30
-184.5426697106925
 41
1.0
  0
SPLINE
  5
52
330
1F
100
AcDbEntity
  8
PREDEFINITO
100
AcDbSpline
210
-1.0
220
-3.257076253626450E-16
230
-3.709171571014704E-13
 70
    12
 71
     2
 72
     8
 73
     5
 74
     0
 42
0.0000000001
 43
0.0000000001
 40
0.0
 40
0.0
 40
0.0
 40
154.5219189643178
 40
154.5219189643178
 40
309.0438379286355
 40
309.0438379286355
 40
309.0438379286355
 10
166.5147438050811
 20
-226.86862047665
 30
-359.7176740733697
 41
1.0
 10
166.5147438051049
 20
-226.8686204767666
 30
-423.8532103724907
 41
0.760328801642016
 10
166.5147438051086
 20
-290.2169240803843
 30
-433.8711665971773
 41
1.0
 10
166.5147438051123
 20
-353.565227684002
 30
-443.8891228218641
 41
0.760328801642016
 10
166.5147438050897
 20
-373.3552089964826
 30
-382.8831915034462
 41
1.0
  0
SPLINE
  5
53
330
1F
100
AcDbEntity
  8
PREDEFINITO
100
AcDbSpline
210
-6.746126014481770E-25
220
-1.0
230
1.818567313141717E-12
 70
    15
 71
     2
 72
    12
 73
     9
 74
     0
 42
0.0000000001
 43
0.0000000001
 40
0.0
 40
0.0
 40
0.0
 40
396.6810435853614
 40
396.6810435853614
 40
793.3620871707228
 40
793.3620871707228
 40
1190.043130756084
 40
1190.043130756084
 40
1586.724174341446
 40
1586.724174341446
 40
1586.724174341446
 10
-13.73020643252612
 20
-378.0033285838231
 30
-184.5426697108246
 41
0.99612935931192
 10
-13.73020643259296
 20
-378.0033285834953
 30
-4.297719473282493
 41
0.7043698249084696
 10
166.5147438049491
 20
-378.0033285834953
 30
-4.297719473215674
 41
0.99612935931192
 10
346.7596940424912
 20
-378.0033285834953
 30
-4.297719473148802
 41
0.7043698249084696
 10
346.7596940425581
 20
-378.0033285838231
 30
-184.5426697106909
 41
0.99612935931192
 10
346.7596940426249
 20
-378.0033285841509
 30
-364.787619948233
 41
0.7043698249084696
 10
166.5147438050828
 20
-378.0033285841509
 30
-364.7876199482998
 41
0.99612935931192
 10
-13.7302064324593
 20
-378.0033285841509
 30
-364.7876199483667
 41
0.7043698249084696
 10
-13.73020643252612
 20
-378.0033285838231
 30
-184.5426697108246
 41
0.99612935931192
  0
SPLINE
  5
54
330
1F
100
AcDbEntity
  8
PREDEFINITO
100
AcDbSpline
210
1.0
220
-9.100690959585143E-15
230
3.734222406155182E-13
 70
    12
 71
     2
 72
     6
 73
     3
 74
     0
 42
0.0000000001
 43
0.0000000001
 40
0.0
 40
0.0
 40
0.0
 40
52.4845523723021
 40
52.4845523723021
 40
52.4845523723021
 10
166.5147438049424
 20
-373.3552089957636
 30
13.79785208191453
 41
1.0
 10
166.514743804949
 20
-379.1538518534773
 30
-4.077435535969783
 41
0.99225871862384
 10
166.514743804956
 20
-380.3682146799885
 30
-22.83044834295592
 41
1.0
  0
SPLINE
  5
55
330
1F
100
AcDbEntity
  8
PREDEFINITO
100
AcDbSpline
210
0.0
220
0.0
230
1.0
 70
    12
 71
     2
 72
     6
 73
     3
 74
     0
 42
0.0000000001
 43
0.0000000001
 40
0.0
 40
0.0
 40
0.0
 40
52.4845523723021
 40
52.4845523723021
 40
52.4845523723021
 10
364.8552655976967
 20
-373.3552089961243
 30
-184.5426697106926
 41
1.0
 10
346.9799779798019
 20
-379.1538518538055
 30
-184.5426697106888
 41
0.99225871862384
 10
328.2269651728135
 20
-380.3682146802826
 30
-184.5426697106935
 41
1.0
  0
SPLINE
  5
56
330
1F
100
AcDbEntity
  8
PREDEFINITO
100
AcDbSpline
210
1.0
220
2.106185189051397E-14
230
3.757123738898751E-13
 70
    12
 71
     2
 72
     6
 73
     3
 74
     0
 42
0.0000000001
 43
0.0000000001
 40
0.0
 40
0.0
 40
0.0
 40
52.4845523723021
 40
52.4845523723021
 40
52.4845523723021
 10
166.5147438050895
 20
-373.355208996485
 30
-382.8831915034469
 41
1.0
 10
166.5147438050829
 20
-379.1538518541338
 30
-365.0079038855416
 41
0.99225871862384
 10
166.5147438050759
 20
-380.3682146805767
 30
-346.2548910785509
 41
1.0
  0
SPLINE
  5
57
330
1F
100
AcDbEntity
  8
PREDEFINITO
100
AcDbSpline
210
-6.734180883656827E-25
220
-1.0
230
1.818463423318861E-12
 70
    15
 71
     2
 72
    12
 73
     9
 74
     0
 42
0.0000000001
 43
0.0000000001
 40
0.0
 40
0.0
 40
0.0
 40
323.4244427355957
 40
323.4244427355957
 40
646.8488854711914
 40
646.8488854711914
 40
970.273328206787
 40
970.273328206787
 40
1293.697770942383
 40
1293.697770942383
 40
1293.697770942383
 10
85.61635117016286
 20
-384.2906800298838
 30
-184.5426697107762
 41
0.9997386724903908
 10
85.61635117013293
 20
-384.2906800297367
 30
-103.6442770759216
 41
0.7069219947323923
 10
166.5147438049875
 20
-384.2906800297366
 30
-103.6442770758916
 41
0.9997386724903908
 10
247.4131364398422
 20
-384.2906800297367
 30
-103.6442770758617
 41
0.7069219947323923
 10
247.4131364398721
 20
-384.2906800298838
 30
-184.5426697107163
 41
0.9997386724903908
 10
247.4131364399022
 20
-384.2906800300309
 30
-265.441062345571
 41
0.7069219947323923
 10
166.5147438050475
 20
-384.2906800300309
 30
-265.4410623456009
 41
0.9997386724903908
 10
85.61635117019287
 20
-384.2906800300309
 30
-265.4410623456309
 41
0.7069219947323923
 10
85.61635117016286
 20
-384.2906800298838
 30
-184.5426697107762
 41
0.9997386724903908
  0
SPLINE
  5
58
330
1F
100
AcDbEntity
  8
PREDEFINITO
100
AcDbSpline
210
1.0
220
-1.186419212489388E-12
230
4.477065432230581E-13
 70
    12
 71
     2
 72
     6
 73
     3
 74
     0
 42
0.0000000001
 43
0.0000000001
 40
0.0
 40
0.0
 40
0.0
 40
228.8153019160992
 40
228.8153019160992
 40
228.8153019160992
 10
166.514743804956
 20
-380.3682146799956
 30
-22.83044834295558
 41
1.0
 10
166.514743804986
 20
-385.5986242153303
 30
-103.6019730145036
 41
0.999477344980782
 10
166.5147438050222
 20
-385.5986242154775
 30
-184.5426697107438
 41
1.0
  0
SPLINE
  5
59
330
1F
100
AcDbEntity
  8
PREDEFINITO
100
AcDbSpline
210
0.0
220
0.0
230
1.0
 70
    12
 71
     2
 72
     6
 73
     3
 74
     0
 42
0.0000000001
 43
0.0000000001
 40
0.0
 40
0.0
 40
0.0
 40
228.8153019160992
 40
228.8153019160992
 40
228.8153019160992
 10
328.2269651728138
 20
-380.3682146802897
 30
-184.5426697106935
 41
1.0
 10
247.4554405012563
 20
-385.5986242154775
 30
-184.542669710714
 41
0.999477344980782
 10
166.5147438050222
 20
-385.5986242154775
 30
-184.5426697107438
 41
1.0
  0
SPLINE
  5
5A
330
1F
100
AcDbEntity
  8
PREDEFINITO
100
AcDbSpline
210
1.0
220
-1.210371813962820E-12
230
2.928527506266949E-13
 70
    12
 71
     2
 72
     6
 73
     3
 74
     0
 42
0.0000000001
 43
0.0000000001
 40
0.0
 40
0.0
 40
0.0
 40
228.8153019160992
 40
228.8153019160992
 40
228.8153019160992
 10
166.5147438050759
 20
-380.3682146805838
 30
-346.2548910785513
 41
1.0
 10
166.5147438050459
 20
-385.5986242156247
 30
-265.4833664069843
 41
0.999477344980782
 10
166.5147438050222
 20
-385.5986242154775
 30
-184.5426697107438
 41
1.0
  0
SPLINE
  5
5B
330
1F
100
AcDbEntity
  8
PREDEFINITO
100
AcDbSpline
210
6.740029049805656E-25
220
1.0
230
-1.818770707890862E-12
 70
    15
 71
     2
 72
    12
 73
     9
 74
     0
 42
0.0000000001
 43
0.0000000001
 40
0.0
 40
0.0
 40
0.0
 40
322.8700008332235
 40
322.8700008332235
 40
645.7400016664469
 40
645.7400016664469
 40
968.6100024996704
 40
968.6100024996704
 40
1291.480003332894
 40
1291.480003332894
 40
1291.480003332894
 10
85.75503412910062
 20
-380.0029222199265
 30
-184.542669710784
 41
0.9997386724903915
 10
85.75503412907072
 20
-380.0029222197797
 30
-103.7829600348671
 41
0.706921994732393
 10
166.5147438049876
 20
-380.0029222197796
 30
-103.7829600348372
 41
0.9997386724903915
 10
247.2744534809045
 20
-380.0029222197797
 30
-103.7829600348072
 41
0.706921994732393
 10
247.2744534809344
 20
-380.0029222199265
 30
-184.5426697107242
 41
0.9997386724903915
 10
247.2744534809644
 20
-380.0029222200735
 30
-265.3023793866411
 41
0.706921994732393
 10
166.5147438050474
 20
-380.0029222200734
 30
-265.302379386671
 41
0.9997386724903915
 10
85.75503412913055
 20
-380.0029222200735
 30
-265.3023793867009
 41
0.706921994732393
 10
85.75503412910062
 20
-380.0029222199265
 30
-184.542669710784
 41
0.9997386724903915
  0
SPLINE
  5
5C
330
1F
100
AcDbEntity
  8
PREDEFINITO
100
AcDbSpline
210
1.0
220
-1.161285738533916E-12
230
4.470683766077241E-13
 70
    12
 71
     2
 72
     6
 73
     3
 74
     0
 42
0.0000000001
 43
0.0000000001
 40
0.0
 40
0.0
 40
0.0
 40
228.4230471124322
 40
228.4230471124322
 40
228.4230471124322
 10
166.5147438050222
 20
-381.3086242154835
 30
-184.5426697107516
 41
1.0
 10
166.5147438049861
 20
-381.3086242153365
 30
-103.7407284946974
 41
0.999477344980783
 10
166.5147438049561
 20
-376.0871810963654
 30
-23.10766929414947
 41
1.0
  0
SPLINE
  5
5D
330
1F
100
AcDbEntity
  8
PREDEFINITO
100
AcDbSpline
210
0.0
220
0.0
230
1.0
 70
    12
 71
     2
 72
     6
 73
     3
 74
     0
 42
0.0000000001
 43
0.0000000001
 40
0.0
 40
0.0
 40
0.0
 40
228.4230471124322
 40
228.4230471124322
 40
228.4230471124322
 10
166.5147438050222
 20
-381.3086242154835
 30
-184.5426697107516
 41
1.0
 10
247.3166850210704
 20
-381.3086242154835
 30
-184.5426697107219
 41
0.999477344980783
 10
327.9497442216277
 20
-376.087181096659
 30
-184.5426697107014
 41
1.0
  0
SPLINE
  5
5E
330
1F
100
AcDbEntity
  8
PREDEFINITO
100
AcDbSpline
210
1.0
220
-1.217870813614907E-12
230
2.926521552625368E-13
 70
    12
 71
     2
 72
     6
 73
     3
 74
     0
 42
0.0000000001
 43
0.0000000001
 40
0.0
 40
0.0
 40
0.0
 40
228.4230471124322
 40
228.4230471124322
 40
228.4230471124322
 10
166.5147438050222
 20
-381.3086242154835
 30
-184.5426697107516
 41
1.0
 10
166.5147438050459
 20
-381.3086242156305
 30
-265.3446109268061
 41
0.999477344980783
 10
166.5147438050758
 20
-376.0871810969526
 30
-345.977670127373
 41
1.0
  0
SPLINE
  5
5F
330
1F
100
AcDbEntity
  8
PREDEFINITO
100
AcDbSpline
210
-6.743209396984974E-25
220
-1.0
230
1.818506898777734E-12
 70
    15
 71
     2
 72
    12
 73
     9
 74
     0
 42
0.0000000001
 43
0.0000000001
 40
0.0
 40
0.0
 40
0.0
 40
394.0335559449278
 40
394.0335559449278
 40
788.0671118898556
 40
788.0671118898556
 40
1182.100667834784
 40
1182.100667834784
 40
1576.134223779711
 40
1576.134223779711
 40
1576.134223779711
 10
-12.9234789423322
 20
-373.7898631743926
 30
-184.542669710832
 41
0.996129359311867
 10
-12.92347894239873
 20
-373.7898631740663
 30
-5.104446963483764
 41
0.7043698249084325
 10
166.5147438049495
 20
-373.7898631740663
 30
-5.104446963417236
 41
0.996129359311867
 10
345.9529665522977
 20
-373.7898631740663
 30
-5.104446963350698
 41
0.7043698249084325
 10
345.9529665523642
 20
-373.7898631743926
 30
-184.5426697106989
 41
0.996129359311867
 10
345.9529665524307
 20
-373.789863174719
 30
-363.980892458047
 41
0.7043698249084325
 10
166.5147438050825
 20
-373.7898631747189
 30
-363.9808924581136
 41
0.996129359311867
 10
-12.92347894226565
 20
-373.789863174719
 30
-363.9808924581802
 41
0.7043698249084325
 10
-12.9234789423322
 20
-373.7898631743926
 30
-184.542669710832
 41
0.996129359311867
  0
SPLINE
  5
60
330
1F
100
AcDbEntity
  8
PREDEFINITO
100
AcDbSpline
210
1.0
220
-1.744270136844607E-14
230
3.755671654013856E-13
 70
    12
 71
     2
 72
     6
 73
     3
 74
     0
 42
0.0000000001
 43
0.0000000001
 40
0.0
 40
0.0
 40
0.0
 40
50.98499373345159
 40
50.98499373345159
 40
50.98499373345159
 10
166.5147438049561
 20
-376.0871810963639
 30
-23.10766929414964
 41
1.0
 10
166.5147438049493
 20
-374.9075143506359
 30
-4.890456852947935
 41
0.992258718623734
 10
166.5147438049429
 20
-369.274547003106
 30
12.47410826169033
 41
1.0
  0
SPLINE
  5
61
330
1F
100
AcDbEntity
  8
PREDEFINITO
100
AcDbSpline
210
0.0
220
0.0
230
1.0
 70
    12
 71
     2
 72
     6
 73
     3
 74
     0
 42
0.0000000001
 43
0.0000000001
 40
0.0
 40
0.0
 40
0.0
 40
50.98499373345159
 40
50.98499373345159
 40
50.98499373345159
 10
327.9497442216276
 20
-376.0871810966575
 30
-184.5426697107014
 41
1.0
 10
346.1669566628314
 20
-374.9075143509627
 30
-184.5426697106968
 41
0.992258718623734
 10
363.5315217774799
 20
-369.2745470034642
 30
-184.5426697107006
 41
1.0
  0
SPLINE
  5
62
330
1F
100
AcDbEntity
  8
PREDEFINITO
100
AcDbSpline
210
1.0
220
5.129741589525841E-15
230
3.732096752659630E-13
 70
    12
 71
     2
 72
     6
 73
     3
 74
     0
 42
0.0000000001
 43
0.0000000001
 40
0.0
 40
0.0
 40
0.0
 40
50.98499373345159
 40
50.98499373345159
 40
50.98499373345159
 10
166.5147438050758
 20
-376.0871810969511
 30
-345.9776701273728
 41
1.0
 10
166.5147438050826
 20
-374.9075143512894
 30
-364.1948825685788
 41
0.992258718623734
 10
166.514743805089
 20
-369.2745470038225
 30
-381.5594476832375
 41
1.0
  0
SPLINE
  5
63
330
1F
100
AcDbEntity
  8
PREDEFINITO
100
AcDbSpline
210
6.759590850942204E-25
220
1.0
230
-1.818660774575340E-12
 70
    15
 71
     2
 72
    12
 73
     9
 74
     0
 42
0.0000000001
 43
0.0000000001
 40
0.0
 40
0.0
 40
0.0
 40
509.0733123189748
 40
509.0733123189748
 40
1018.14662463795
 40
1018.14662463795
 40
1527.219936956925
 40
1527.219936956925
 40
2036.293249275899
 40
2036.293249275899
 40
2036.293249275899
 10
-78.57641075683819
 20
-290.8870211070239
 30
-184.5426697110073
 41
1.0
 10
-78.57641075692926
 20
-290.8870211065781
 30
60.54848485084683
 41
0.707106781186548
 10
166.5147438049248
 20
-290.8870211065782
 30
60.54848485093794
 41
1.0
 10
411.605898366779
 20
-290.8870211065781
 30
60.54848485102907
 41
0.707106781186548
 10
411.6058983668701
 20
-290.8870211070239
 30
-184.5426697108251
 41
1.0
 10
411.6058983669612
 20
-290.8870211074696
 30
-429.6338242726791
 41
0.707106781186548
 10
166.5147438051071
 20
-290.8870211074696
 30
-429.6338242727703
 41
1.0
 10
-78.57641075674702
 20
-290.8870211074696
 30
-429.6338242728614
 41
0.707106781186548
 10
-78.57641075683819
 20
-290.8870211070239
 30
-184.5426697110073
 41
1.0
  0
SPLINE
  5
64
330
1F
100
AcDbEntity
  8
PREDEFINITO
100
AcDbSpline
210
-1.0
220
-3.511170791655653E-16
230
-3.717766003711939E-13
 70
    12
 71
     2
 72
     8
 73
     5
 74
     0
 42
0.0000000001
 43
0.0000000001
 40
0.0
 40
0.0
 40
0.0
 40
145.6920952434316
 40
145.6920952434316
 40
291.3841904868631
 40
291.3841904868631
 40
291.3841904868631
 10
166.5147438049427
 20
-369.2745470031017
 30
12.47410826168897
 41
1.0
 10
166.5147438049213
 20
-350.615421737263
 30
69.99398644867985
 41
0.760328801641961
 10
166.5147438049248
 20
-290.8870211065782
 30
60.54848485093794
 41
1.0
 10
166.5147438049283
 20
-231.1586204758934
 30
51.10298325319609
 41
0.760328801641961
 10
166.5147438049508
 20
-231.1586204760034
 30
-9.367665348687922
 41
1.0
  0
SPLINE
  5
65
330
1F
100
AcDbEntity
  8
PREDEFINITO
100
AcDbSpline
210
0.0
220
0.0
230
1.0
 70
    12
 71
     2
 72
     8
 73
     5
 74
     0
 42
0.0000000001
 43
0.0000000001
 40
0.0
 40
0.0
 40
0.0
 40
145.6920952434316
 40
145.6920952434316
 40
291.3841904868631
 40
291.3841904868631
 40
291.3841904868631
 10
363.5315217774785
 20
-369.27454700346
 30
-184.5426697107004
 41
1.0
 10
421.0513999645034
 20
-350.6154217377259
 30
-184.5426697107129
 41
0.760328801641961
 10
411.6058983668701
 20
-290.8870211070239
 30
-184.5426697108251
 41
1.0
 10
402.1603967692369
 20
-231.1586204763219
 30
-184.5426697109372
 41
0.760328801641961
 10
341.6897481673528
 20
-231.158620476322
 30
-184.5426697109597
 41
1.0
  0
SPLINE
  5
66
330
1F
100
AcDbEntity
  8
PREDEFINITO
100
AcDbSpline
210
-1.0
220
-2.091010846387136E-16
230
-3.708365836825186E-13
 70
    12
 71
     2
 72
     8
 73
     5
 74
     0
 42
0.0000000001
 43
0.0000000001
 40
0.0
 40
0.0
 40
0.0
 40
145.6920952434316
 40
145.6920952434316
 40
291.3841904868631
 40
291.3841904868631
 40
291.3841904868631
 10
166.5147438050892
 20
-369.2745470038183
 30
-381.5594476832362
 41
1.0
 10
166.5147438051106
 20
-350.6154217381888
 30
-439.079325870295
 41
0.760328801641961
 10
166.5147438051071
 20
-290.8870211074696
 30
-429.6338242727703
 41
1.0
 10
166.5147438051035
 20
-231.1586204767505
 30
-420.1883226752457
 41
0.760328801641961
 10
166.5147438050811
 20
-231.1586204766406
 30
-359.7176740733617
 41
1.0
  0
LINE
  5
67
330
1F
100
AcDbEntity
  8
PREDEFINITO
100
AcDbLine
 10
166.5147438050864
 20
-231.1586204767816
 30
-359.7176740733725
 11
166.5147438050843
 21
-231.1586204767706
 31
-353.6622553522741
  0
LINE
  5
68
330
1F
100
AcDbEntity
  8
PREDEFINITO
100
AcDbLine
 10
166.5147438049689
 20
-231.1586204761553
 30
-15.42308406979678
 11
166.5147438049669
 21
-231.1586204761443
 31
-9.367665348698669
  0
LINE
  5
69
330
1F
100
AcDbEntity
  8
PREDEFINITO
100
AcDbLine
 10
-8.660260557310266
 20
-231.1586204763285
 30
-184.5426697110954
 11
-2.604841836212017
 21
-231.1586204763332
 31
-184.5426697110933
  0
LINE
  5
6A
330
1F
100
AcDbEntity
  8
PREDEFINITO
100
AcDbLine
 10
335.6343294462653
 20
-231.1586204765927
 30
-184.5426697109779
 11
341.6897481673635
 21
-231.1586204765974
 31
-184.5426697109758
  0
SPLINE
  5
6B
330
1F
100
AcDbEntity
  8
PREDEFINITO
100
AcDbSpline
210
6.750959172150220E-25
220
1.0
230
-1.818628827558101E-12
 70
    15
 71
     2
 72
    12
 73
     9
 74
     0
 42
0.0000000001
 43
0.0000000001
 40
0.0
 40
0.0
 40
0.0
 40
338.2391712824774
 40
338.2391712824774
 40
676.4783425649548
 40
676.4783425649548
 40
1014.717513847432
 40
1014.717513847432
 40
1352.95668512991
 40
1352.95668512991
 40
1352.95668512991
 10
2.450971649260364
 20
-229.0644339618149
 30
-184.5426697110896
 41
0.853553390593274
 10
2.450971649199462
 20
-229.0644339615165
 30
-20.47889755533392
 41
0.603553390593274
 10
166.5147438049551
 20
-229.0644339615166
 30
-20.47889755527303
 41
0.853553390593274
 10
330.5785159607107
 20
-229.0644339615165
 30
-20.47889755521213
 41
0.603553390593274
 10
330.5785159607716
 20
-229.0644339618149
 30
-184.5426697109677
 41
0.853553390593274
 10
330.5785159608325
 20
-229.0644339621132
 30
-348.6064418667233
 41
0.603553390593274
 10
166.5147438050769
 20
-229.0644339621133
 30
-348.6064418667843
 41
0.853553390593274
 10
2.450971649321262
 20
-229.0644339621132
 30
-348.6064418668451
 41
0.603553390593274
 10
2.450971649260364
 20
-229.0644339618149
 30
-184.5426697110896
 41
0.853553390593274
  0
SPLINE
  5
6C
330
1F
100
AcDbEntity
  8
PREDEFINITO
100
AcDbSpline
210
1.0
220
6.795278467707201E-25
230
3.736560400641051E-13
 70
    12
 71
     2
 72
     6
 73
     3
 74
     0
 42
0.0000000001
 43
0.0000000001
 40
0.0
 40
0.0
 40
0.0
 40
17.26162697096528
 40
17.26162697096528
 40
17.26162697096528
 10
166.5147438049532
 20
-231.1586204760232
 30
-15.42308406978611
 41
1.0
 10
166.5147438049558
 20
-231.1586204760362
 30
-22.57308406978511
 41
0.707106781186548
 10
166.5147438049558
 20
-224.0086204760372
 30
-22.57308406979811
 41
1.0
  0
SPLINE
  5
6D
330
1F
100
AcDbEntity
  8
PREDEFINITO
100
AcDbSpline
210
0.0
220
0.0
230
1.0
 70
    12
 71
     2
 72
     6
 73
     3
 74
     0
 42
0.0000000001
 43
0.0000000001
 40
0.0
 40
0.0
 40
0.0
 40
17.26162697096528
 40
17.26162697096528
 40
17.26162697096528
 10
335.6343294462546
 20
-231.1586204763308
 30
-184.542669710962
 41
1.0
 10
328.4843294462556
 20
-231.1586204763307
 30
-184.5426697109647
 41
0.707106781186548
 10
328.4843294462556
 20
-224.0086204763318
 30
-184.5426697109777
 41
1.0
  0
SPLINE
  5
6E
330
1F
100
AcDbEntity
  8
PREDEFINITO
100
AcDbSpline
210
1.0
220
3.975064256674160E-15
230
3.696809758080961E-13
 70
    12
 71
     2
 72
     6
 73
     3
 74
     0
 42
0.0000000001
 43
0.0000000001
 40
0.0
 40
0.0
 40
0.0
 40
17.26162697096528
 40
17.26162697096528
 40
17.26162697096528
 10
166.5147438050787
 20
-231.1586204766383
 30
-353.6622553522635
 41
1.0
 10
166.5147438050761
 20
-231.1586204766253
 30
-346.5122553522645
 41
0.707106781186548
 10
166.5147438050761
 20
-224.0086204766263
 30
-346.5122553522775
 41
1.0
  0
ARC
  5
6F
330
1F
100
AcDbEntity
  8
PREDEFINITO
100
AcDbCircle
 10
-166.514743805016
 20
-184.5426697114453
 30
-223.2936204759226
 40
161.9695856412393
210
0.0
220
1.0
230
-1.818989403545856E-12
100
AcDbArc
 50
90.0
 51
360.0
  0
LINE
  5
70
330
1F
100
AcDbEntity
  8
PREDEFINITO
100
AcDbLine
 10
328.4843294462553
 20
-224.0086204763318
 30
-184.5426697110378
 11
328.4843294462553
 21
-222.5786204766266
 31
-184.5426697110404
  0
LINE
  5
71
330
1F
100
AcDbEntity
  8
PREDEFINITO
100
AcDbLine
 10
166.514743805016
 20
-224.0086204766264
 30
-346.5122553522772
 11
166.514743805016
 21
-222.5786204767003
 31
-346.5122553522797
  0
ARC
  5
72
330
1F
100
AcDbEntity
  8
PREDEFINITO
100
AcDbCircle
 10
-166.514743805016
 20
-184.5426697114453
 30
-223.2936204759226
 40
161.9695856412393
210
0.0
220
1.0
230
-1.818989403545856E-12
100
AcDbArc
 50
360.0
 51
89.99999999999999
  0
LINE
  5
73
330
1F
100
AcDbEntity
  8
PREDEFINITO
100
AcDbLine
 10
166.5147438050828
 20
-222.5786204767079
 30
-350.8022553522714
 11
166.5147438050813
 21
-222.5786204767001
 31
-346.5122553522714
  0
LINE
  5
74
330
1F
100
AcDbEntity
  8
PREDEFINITO
100
AcDbLine
 10
166.5147438049709
 20
-222.5786204761108
 30
-22.57308406978881
 11
166.5147438049694
 21
-222.578620476103
 31
-18.28308406978915
  0
LINE
  5
75
330
1F
100
AcDbEntity
  8
PREDEFINITO
100
AcDbLine
 10
332.7743294462673
 20
-222.5786204766323
 30
-184.5426697109735
 11
328.4843294462673
 21
-222.5786204766264
 31
-184.542669710975
  0
LINE
  5
76
330
1F
100
AcDbEntity
  8
PREDEFINITO
100
AcDbLine
 10
4.545158163784851
 20
-222.5786204761845
 30
-184.5426697110855
 11
0.2551581637848663
 21
-222.5786204761787
 31
-184.5426697110869
  0
ARC
  5
77
330
1F
100
AcDbEntity
  8
PREDEFINITO
100
AcDbCircle
 10
-166.514743805016
 20
-184.5426697114452
 30
-223.2936204759191
 40
166.2595856412412
210
0.0
220
1.0
230
-1.818989403545856E-12
100
AcDbArc
 50
90.0
 51
360.0
  0
LINE
  5
78
330
1F
100
AcDbEntity
  8
PREDEFINITO
100
AcDbLine
 10
332.7743294462572
 20
-224.0086204763305
 30
-184.5426697110378
 11
332.7743294462572
 21
-222.578620476179
 31
-184.5426697110403
  0
LINE
  5
79
330
1F
100
AcDbEntity
  8
PREDEFINITO
100
AcDbLine
 10
166.514743805016
 20
-224.0086204766328
 30
-350.802255352279
 11
166.514743805016
 21
-222.5786204764814
 31
-350.8022553522816
  0
ARC
  5
7A
330
1F
100
AcDbEntity
  8
PREDEFINITO
100
AcDbCircle
 10
-166.514743805016
 20
-184.5426697114452
 30
-223.2936204759191
 40
166.2595856412412
210
0.0
220
1.0
230
-1.818989403545856E-12
100
AcDbArc
 50
360.0
 51
90.0
  0
SPLINE
  5
7B
330
1F
100
AcDbEntity
  8
PREDEFINITO
100
AcDbSpline
210
-6.747441728479461E-25
220
-1.0
230
1.818525964614289E-12
 70
    15
 71
     2
 72
    12
 73
     9
 74
     0
 42
0.0000000001
 43
0.0000000001
 40
0.0
 40
0.0
 40
0.0
 40
338.2391712824774
 40
338.2391712824774
 40
676.4783425649548
 40
676.4783425649548
 40
1014.717513847432
 40
1014.717513847432
 40
1352.95668512991
 40
1352.95668512991
 40
1352.95668512991
 10
-0.5825164420301804
 20
-226.0309458705234
 30
-184.5426697110962
 41
0.8535533905931936
 10
-0.5825164420921927
 20
-226.0309458702196
 30
-17.44540946405005
 41
0.603553390593217
 10
166.5147438049539
 20
-226.0309458702195
 30
-17.44540946398801
 41
0.8535533905931936
 10
333.612004052
 20
-226.0309458702196
 30
-17.44540946392599
 41
0.603553390593217
 10
333.612004052062
 20
-226.0309458705234
 30
-184.5426697109721
 41
0.8535533905931936
 10
333.6120040521241
 20
-226.0309458708273
 30
-351.6399299580182
 41
0.603553390593217
 10
166.514743805078
 20
-226.0309458708273
 30
-351.6399299580802
 41
0.8535533905931936
 10
-0.5825164419681323
 20
-226.0309458708273
 30
-351.6399299581423
 41
0.603553390593217
 10
-0.5825164420301804
 20
-226.0309458705234
 30
-184.5426697110962
 41
0.8535533905931936
  0
SPLINE
  5
7C
330
1F
100
AcDbEntity
  8
PREDEFINITO
100
AcDbSpline
210
1.0
220
5.094384951702468E-25
230
3.776311043201405E-13
 70
    12
 71
     2
 72
     6
 73
     3
 74
     0
 42
0.0000000001
 43
0.0000000001
 40
0.0
 40
0.0
 40
0.0
 40
6.904650788385475
 40
6.904650788385475
 40
6.904650788385475
 10
166.5147438049542
 20
-224.0086204760281
 30
-18.2830840697971
 41
1.0
 10
166.5147438049542
 20
-226.8686204760274
 30
-18.28308406979324
 41
0.707106781186387
 10
166.5147438049532
 20
-226.8686204760222
 30
-15.4230840697939
 41
1.0
  0
SPLINE
  5
7D
330
1F
100
AcDbEntity
  8
PREDEFINITO
100
AcDbSpline
210
0.0
220
0.0
230
1.0
 70
    12
 71
     2
 72
     6
 73
     3
 74
     0
 42
0.0000000001
 43
0.0000000001
 40
0.0
 40
0.0
 40
0.0
 40
6.904650788385475
 40
6.904650788385475
 40
6.904650788385475
 10
332.7743294462566
 20
-224.0086204763305
 30
-184.5426697109761
 41
1.0
 10
332.7743294462553
 20
-226.8686204763298
 30
-184.5426697109709
 41
0.707106781186387
 10
335.6343294462546
 20
-226.8686204763298
 30
-184.5426697109698
 41
1.0
  0
SPLINE
  5
7E
330
1F
100
AcDbEntity
  8
PREDEFINITO
100
AcDbSpline
210
1.0
220
-9.937660639117973E-15
230
3.875687649601635E-13
 70
    12
 71
     2
 72
     6
 73
     3
 74
     0
 42
0.0000000001
 43
0.0000000001
 40
0.0
 40
0.0
 40
0.0
 40
6.904650788385475
 40
6.904650788385475
 40
6.904650788385475
 10
166.5147438050776
 20
-224.0086204766328
 30
-350.8022553522785
 41
1.0
 10
166.5147438050776
 20
-226.8686204766321
 30
-350.802255352272
 41
0.707106781186387
 10
166.5147438050787
 20
-226.8686204766373
 30
-353.6622553522713
 41
1.0
  0
LINE
  5
7F
330
1F
100
AcDbEntity
  8
PREDEFINITO
100
AcDbLine
 10
166.5147438050863
 20
-226.8686204766222
 30
-359.7176740733588
 11
166.5147438050842
 21
-226.8686204766112
 31
-353.6622553522606
  0
LINE
  5
80
330
1F
100
AcDbEntity
  8
PREDEFINITO
100
AcDbLine
 10
166.5147438049688
 20
-226.8686204759959
 30
-15.42308406978316
 11
166.5147438049667
 21
-226.8686204759849
 31
-9.367665348684906
  0
LINE
  5
81
330
1F
100
AcDbEntity
  8
PREDEFINITO
100
AcDbLine
 10
341.6897481673636
 20
-226.8686204762787
 30
-184.542669710962
 11
335.6343294462653
 21
-226.8686204762795
 31
-184.542669710964
  0
LINE
  5
82
330
1F
100
AcDbEntity
  8
PREDEFINITO
100
AcDbLine
 10
-2.604841836211797
 20
-226.8686204763276
 30
-184.5426697110794
 11
-8.660260557310266
 21
-226.8686204763285
 31
-184.5426697110815
  0
SPLINE
  5
83
330
1F
100
AcDbEntity
  8
PREDEFINITO
100
AcDbSpline
210
0.0
220
0.0
230
1.0
 70
    12
 71
     2
 72
     6
 73
     3
 74
     0
 42
0.0000000001
 43
0.0000000001
 40
0.0
 40
0.0
 40
0.0
 40
4.525890943799007
 40
4.525890943799007
 40
4.525890943799007
 10
14.71269038762301
 20
-223.0734542859664
 30
-184.5426697110958
 41
1.0
 10
12.90391209635511
 20
-223.0734140535562
 30
-184.5426697110965
 41
0.845160199331707
 10
12.12872139990657
 20
-221.4391685723874
 30
-184.5426697110997
 41
1.0
  0
SPLINE
  5
84
330
1F
100
AcDbEntity
  8
PREDEFINITO
100
AcDbSpline
210
6.735679776685926E-25
220
1.0
230
-1.818491346430585E-12
 70
    15
 71
     2
 72
    12
 73
     9
 74
     0
 42
0.0000000001
 43
0.0000000001
 40
-1235.08817924088
 40
-1235.08817924088
 40
-1235.08817924088
 40
-926.3161344306598
 40
-926.3161344306598
 40
-617.5440896204399
 40
-617.5440896204399
 40
-308.7720448102199
 40
-308.7720448102199
 40
0.0
 40
0.0
 40
0.0
 10
12.128721399906
 20
-221.4391685723876
 30
-184.5426697110997
 41
1.0
 10
12.12872139996318
 20
-221.4391685726684
 30
-338.9286921162096
 41
0.707106781186548
 10
166.5147438050732
 20
-221.4391685726684
 30
-338.9286921161524
 41
1.0
 10
320.9007662101831
 20
-221.4391685726684
 30
-338.9286921160952
 41
0.707106781186548
 10
320.9007662101259
 20
-221.4391685723876
 30
-184.5426697109853
 41
1.0
 10
320.9007662100687
 20
-221.4391685721069
 30
-30.15664730587531
 41
0.707106781186548
 10
166.5147438049587
 20
-221.4391685721069
 30
-30.15664730593252
 41
1.0
 10
12.12872139984883
 20
-221.4391685721069
 30
-30.15664730598971
 41
0.707106781186548
 10
12.128721399906
 20
-221.4391685723876
 30
-184.5426697110997
 41
1.0
  0
SPLINE
  5
85
330
1F
100
AcDbEntity
  8
PREDEFINITO
100
AcDbSpline
210
0.0
220
0.0
230
1.0
 70
    12
 71
     2
 72
     6
 73
     3
 74
     0
 42
0.0000000001
 43
0.0000000001
 40
0.0
 40
0.0
 40
0.0
 40
11.31500591495937
 40
11.31500591495937
 40
11.31500591495937
 10
12.12872139990657
 20
-221.4391685723874
 30
-184.5426697110997
 41
1.0
 10
10.19069694817147
 20
-217.3534542866869
 30
-184.5426697111079
 41
0.845154254729071
 10
5.668639894142359
 20
-217.3534542866865
 30
-184.5426697111096
 41
1.0
  0
SPLINE
  5
86
330
1F
100
AcDbEntity
  8
PREDEFINITO
100
AcDbSpline
210
3.865000022749476E-12
220
1.0
230
-1.818609075476676E-12
 70
    12
 71
     2
 72
     8
 73
     5
 74
     0
 42
0.0000000001
 43
0.0000000001
 40
-514.2978933942156
 40
-514.2978933942156
 40
-514.2978933942156
 40
-257.1489466971078
 40
-257.1489466971078
 40
0.0
 40
0.0
 40
0.0
 10
330.220847715892
 20
-217.3534542879401
 30
-184.5426697109891
 41
1.0
 10
330.2208477158313
 20
-217.3534542876423
 30
-20.83656580011311
 41
0.7071067811865476
 10
166.5147438049552
 20
-217.3534542870096
 30
-20.83656580017373
 41
1.0
 10
2.808639894079025
 20
-217.3534542863769
 30
-20.83656580023445
 41
0.7071067811865476
 10
2.808639894139787
 20
-217.3534542866746
 30
-184.5426697111106
 41
1.0
  0
SPLINE
  5
87
330
1F
100
AcDbEntity
  8
PREDEFINITO
100
AcDbSpline
210
3.864913215633704E-12
220
1.0
230
-1.818782689708222E-12
 70
    12
 71
     2
 72
     8
 73
     5
 74
     0
 42
0.0000000001
 43
0.0000000001
 40
-514.2978933942156
 40
-514.2978933942156
 40
-514.2978933942156
 40
-257.1489466971078
 40
-257.1489466971078
 40
0.0
 40
0.0
 40
0.0
 10
2.808639894139787
 20
-217.3534542866746
 30
-184.5426697111106
 41
1.0
 10
2.808639894200693
 20
-217.3534542869724
 30
-348.2487736219867
 41
0.7071067811865476
 10
166.5147438050767
 20
-217.353454287605
 30
-348.2487736219259
 41
1.0
 10
330.2208477159528
 20
-217.3534542882378
 30
-348.2487736218652
 41
0.7071067811865476
 10
330.220847715892
 20
-217.3534542879401
 30
-184.5426697109891
 41
1.0
  0
SPLINE
  5
88
330
1F
100
AcDbEntity
  8
PREDEFINITO
100
AcDbSpline
210
-3.862424519333332E-12
220
-1.0
230
1.818609380924599E-12
 70
    12
 71
     2
 72
     8
 73
     5
 74
     0
 42
0.0000000001
 43
0.0000000001
 40
0.0
 40
0.0
 40
0.0
 40
252.6564692024703
 40
252.6564692024703
 40
505.3129384049406
 40
505.3129384049406
 40
505.3129384049406
 10
327.3608477158893
 20
-217.353454287929
 30
-184.54266971099
 41
1.0
 10
327.3608477159491
 20
-217.3534542882215
 30
-345.3887736218634
 41
0.7071067811865476
 10
166.5147438050756
 20
-217.3534542876002
 30
-345.3887736219232
 41
1.0
 10
5.668639894202105
 20
-217.353454286979
 30
-345.388773621983
 41
0.7071067811865476
 10
5.668639894142359
 20
-217.3534542866865
 30
-184.5426697111096
 41
1.0
  0
SPLINE
  5
89
330
1F
100
AcDbEntity
  8
PREDEFINITO
100
AcDbSpline
210
-3.862512869963964E-12
220
-1.0
230
1.818609380924597E-12
 70
    12
 71
     2
 72
     8
 73
     5
 74
     0
 42
0.0000000001
 43
0.0000000001
 40
0.0
 40
0.0
 40
0.0
 40
252.6564692024703
 40
252.6564692024703
 40
505.3129384049406
 40
505.3129384049406
 40
505.3129384049406
 10
5.668639894142359
 20
-217.3534542866865
 30
-184.5426697111096
 41
1.0
 10
5.668639894082527
 20
-217.3534542863939
 30
-23.69656580023611
 41
0.7071067811865476
 10
166.514743804956
 20
-217.3534542870152
 30
-23.69656580017624
 41
1.0
 10
327.3608477158295
 20
-217.3534542876365
 30
-23.69656580011649
 41
0.7071067811865476
 10
327.3608477158893
 20
-217.353454287929
 30
-184.54266971099
 41
1.0
  0
SPLINE
  5
8A
330
1F
100
AcDbEntity
  8
PREDEFINITO
100
AcDbSpline
210
0.0
220
0.0
230
1.0
 70
    12
 71
     2
 72
     6
 73
     3
 74
     0
 42
0.0000000001
 43
0.0000000001
 40
0.0
 40
0.0
 40
0.0
 40
17.26162696928018
 40
17.26162696928018
 40
17.26162696928018
 10
2.808639894139787
 20
-217.3534542866746
 30
-184.5426697111106
 41
1.0
 10
-4.341360105161204
 20
-217.3534542866717
 30
-184.5426697110974
 41
0.707106781221129
 10
-4.341360105863373
 20
-224.5034542859727
 30
-184.5426697110686
 41
1.0
  0
ARC
  5
8B
330
1F
100
AcDbEntity
  8
PREDEFINITO
100
AcDbCircle
 10
-166.5147438609603
 20
-184.5426696555006
 30
-225.9335820198142
 40
170.8561039108777
210
2.476099325576448E-10
220
1.0
230
2.457909431541691E-10
100
AcDbArc
 50
359.9999999999919
 51
90.00000000000048
  0
ARC
  5
8C
330
1F
100
AcDbEntity
  8
PREDEFINITO
100
AcDbCircle
 10
-166.5147438609592
 20
-184.542669767386
 30
-225.9335820130363
 40
170.8561039108764
210
2.476099325576797E-10
220
1.0
230
-2.494289219612256E-10
100
AcDbArc
 50
90.0
 51
179.9999999999902
  0
ARC
  5
8D
330
1F
100
AcDbEntity
  8
PREDEFINITO
100
AcDbCircle
 10
-166.5147439169025
 20
-184.5426697114451
 30
-225.9335819751945
 40
170.8561039108766
210
4.952198651153598E-10
220
1.0
230
-1.818989403447332E-12
100
AcDbArc
 50
179.9999999999886
 51
359.9999999999906
  0
LINE
  5
8E
330
1F
100
AcDbEntity
  8
PREDEFINITO
100
AcDbLine
 10
-4.341360105860872
 20
-225.9335819733802
 30
-184.5426697110597
 11
-4.341360105863373
 21
-224.5034542859727
 31
-184.5426697110686
  0
ARC
  5
8F
330
1F
100
AcDbEntity
  8
PREDEFINITO
100
AcDbCircle
 10
-166.5147438050158
 20
-184.5426697114454
 30
-224.5034542856371
 40
170.8561039108792
210
3.101927297073854E-25
220
1.0
230
-1.818989403545856E-12
100
AcDbArc
 50
180.0000000000008
 51
359.9999999999902
  0
ARC
  5
90
330
1F
100
AcDbEntity
  8
PREDEFINITO
100
AcDbCircle
 10
-166.5147438050159
 20
-184.5426697114453
 30
-224.5034542856371
 40
170.8561039108791
210
0.0
220
1.0
230
-1.818989403545856E-12
100
AcDbArc
 50
90.0
 51
180.0
  0
ARC
  5
91
330
1F
100
AcDbEntity
  8
PREDEFINITO
100
AcDbCircle
 10
-166.514743805016
 20
-184.5426697114455
 30
-224.5034542856371
 40
170.8561039108793
210
0.0
220
1.0
230
-1.818989403545856E-12
100
AcDbArc
 50
359.9999999999894
 51
90.0
  0
LINE
  5
92
330
1F
100
AcDbEntity
  8
PREDEFINITO
100
AcDbLine
 10
166.5147438050159
 20
-225.9335820576809
 30
-13.68656580015528
 11
166.5147438050159
 21
-224.5034542856621
 31
-13.68656580015784
  0
SPLINE
  5
93
330
1F
100
AcDbEntity
  8
PREDEFINITO
100
AcDbSpline
210
2.476099799861827E-10
220
1.0
230
-1.818608495427056E-12
 70
    12
 71
     2
 72
     8
 73
     5
 74
     0
 42
0.0000000001
 43
0.0000000001
 40
-532.2678033727411
 40
-532.2678033727411
 40
-532.2678033727411
 40
-266.1339016863706
 40
-266.1339016863706
 40
0.0
 40
0.0
 40
0.0
 10
-2.911360105857568
 20
-225.9335819740884
 30
-184.5426697110595
 41
1.0
 10
-2.911360105794614
 20
-225.9335819743965
 30
-353.9687736219331
 41
0.7071067811865476
 10
166.5147438050789
 20
-225.9335820163481
 30
-353.9687736219047
 41
1.0
 10
335.9408477159523
 20
-225.9335820582997
 30
-353.9687736218763
 41
0.7071067811865476
 10
335.9408477158894
 20
-225.9335820579915
 30
-184.5426697110028
 41
1.0
  0
ARC
  5
94
330
1F
100
AcDbEntity
  8
PREDEFINITO
100
AcDbCircle
 10
-166.5147438050159
 20
-184.5426697114459
 30
-224.5035819737541
 40
169.4261039108741
210
0.0
220
1.0
230
-1.818989403545856E-12
100
AcDbArc
 50
359.9999999999896
 51
90.0
  0
ARC
  5
95
330
1F
100
AcDbEntity
  8
PREDEFINITO
100
AcDbCircle
 10
-166.5147438050159
 20
-184.5426697114453
 30
-224.5035819737541
 40
169.4261039108735
210
0.0
220
1.0
230
-1.818989403545856E-12
100
AcDbArc
 50
90.0
 51
180.0
  0
ARC
  5
96
330
1F
100
AcDbEntity
  8
PREDEFINITO
100
AcDbCircle
 10
-166.5147438050156
 20
-184.5426697114454
 30
-224.5035819737541
 40
169.4261039108738
210
3.618915179919496E-25
220
1.0
230
-1.818989403545856E-12
100
AcDbArc
 50
179.9999999999991
 51
359.9999999999886
  0
LINE
  5
97
330
1F
100
AcDbEntity
  8
PREDEFINITO
100
AcDbLine
 10
-2.911360105857568
 20
-225.9335819740884
 30
-184.5426697110595
 11
-2.91136010585825
 21
-224.5035819740897
 31
-184.5426697110683
  0
ARC
  5
98
330
1F
100
AcDbEntity
  8
PREDEFINITO
100
AcDbCircle
 10
-166.5147438609737
 20
-184.5426697673743
 30
-225.9335819287791
 40
169.4261039108591
210
2.476099325577010E-10
220
1.0
230
-2.494289219612045E-10
100
AcDbArc
 50
89.99999999999511
 51
179.9999999999943
  0
ARC
  5
99
330
1F
100
AcDbEntity
  8
PREDEFINITO
100
AcDbCircle
 10
-166.514743805017
 20
-184.5426697114464
 30
-225.9335819737527
 40
169.4261039108746
210
2.584939414228211E-25
220
1.0
230
-1.818989403545856E-12
100
AcDbArc
 50
359.9999999999919
 51
89.99999999999962
  0
LINE
  5
9A
330
1F
100
AcDbEntity
  8
PREDEFINITO
100
AcDbLine
 10
166.5147438050159
 20
-225.9335819737803
 30
-15.11656580016086
 11
166.5147438050159
 21
-224.5035819737816
 31
-15.11656580016341
  0
SPLINE
  5
9B
330
1F
100
AcDbEntity
  8
PREDEFINITO
100
AcDbSpline
210
-7.386448003361801E-8
220
-7.386228877944613E-8
230
0.9999999999999947
 70
    12
 71
     2
 72
     6
 73
     3
 74
     0
 42
0.0000000001
 43
0.0000000001
 40
0.0
 40
0.0
 40
0.0
 40
13.80930157677102
 40
13.80930157677102
 40
13.80930157677102
 10
-2.91136010585825
 20
-224.5035819740897
 30
-184.5426697110683
 41
1.0
 10
-2.911360105858562
 20
-218.7835819740907
 30
-184.542669288576
 41
0.707106781186548
 10
2.808639894139901
 20
-218.7835819740904
 30
-184.5426688660712
 41
1.0
  0
SPLINE
  5
9C
330
1F
100
AcDbEntity
  8
PREDEFINITO
100
AcDbSpline
210
4.464594549474256E-5
220
-0.9999999990033699
230
1.818625665694731E-12
 70
    12
 71
     2
 72
     8
 73
     5
 74
     0
 42
0.0000000001
 43
0.0000000001
 40
0.0
 40
0.0
 40
0.0
 40
257.148950239232
 40
257.148950239232
 40
514.2978981319644
 40
514.2978981319644
 40
514.2978981319644
 10
330.220847715892
 20
-218.7689643464911
 30
-184.5426675983946
 41
1.0
 10
330.220847715953
 20
-218.7689643467888
 30
-348.2487758976089
 41
0.7071067766240173
 10
166.514741692485
 20
-218.7762731606828
 30
-348.2487744188554
 41
1.0
 10
2.808637781608861
 20
-218.7835819744824
 30
-348.2487729401018
 41
0.7071067792966856
 10
2.808639894139941
 20
-218.7835819740904
 30
-184.5426688660712
 41
0.9999999946546635
  0
SPLINE
  5
9D
330
1F
100
AcDbEntity
  8
PREDEFINITO
100
AcDbSpline
210
4.464594549478970E-5
220
-0.9999999990033699
230
1.818814149631995E-12
 70
    12
 71
     2
 72
     8
 73
     5
 74
     0
 42
0.0000000001
 43
0.0000000001
 40
0.0
 40
0.0
 40
0.0
 40
257.1489436675485
 40
257.1489436675485
 40
514.2978896815966
 40
514.2978896815966
 40
514.2978896815966
 10
2.808639894139883
 20
-218.7835819740904
 30
-184.5426688660712
 41
0.9999999946546636
 10
2.808642006671056
 20
-218.7835819736984
 30
-20.83656901722433
 41
0.7071067884217459
 10
166.5147416923634
 20
-218.7762731600873
 30
-20.83656627079429
 41
1.0
 10
330.2208434906476
 20
-218.768964346382
 30
-20.83656352436402
 41
0.7071067857490777
 10
330.220847715892
 20
-218.7689643464911
 30
-184.5426675983946
 41
1.0
  0
SPLINE
  5
9E
330
1F
100
AcDbEntity
  8
PREDEFINITO
100
AcDbSpline
210
-4.464594549250110E-5
220
0.9999999990033699
230
-1.818625942058300E-12
 70
    12
 71
     2
 72
     8
 73
     5
 74
     0
 42
0.0000000001
 43
0.0000000001
 40
-505.3129384049407
 40
-505.3129384049407
 40
-505.3129384049407
 40
-252.6564692024703
 40
-252.6564692024703
 40
0.0
 40
0.0
 40
0.0
 10
327.360847074673
 20
-218.7690920339239
 30
-184.5426697109874
 41
1.0
 10
327.3608470746133
 20
-218.7690920336314
 30
-23.69656580011388
 41
0.7071067811865476
 10
166.514743484348
 20
-218.7762731600121
 30
-23.69656580017372
 41
1.0
 10
5.668639894082688
 20
-218.7834542863929
 30
-23.69656580023349
 41
0.7071067811865476
 10
5.668639894142359
 20
-218.7834542866854
 30
-184.542669711107
 41
1.0
  0
SPLINE
  5
9F
330
1F
100
AcDbEntity
  8
PREDEFINITO
100
AcDbSpline
210
4.464594549250110E-5
220
-0.9999999990033699
230
1.818802688877848E-12
 70
    12
 71
     2
 72
     8
 73
     5
 74
     0
 42
0.0000000001
 43
0.0000000001
 40
-505.3129384049407
 40
-505.3129384049407
 40
-505.3129384049407
 40
-252.6564692024703
 40
-252.6564692024703
 40
0.0
 40
0.0
 40
0.0
 10
5.668639894142359
 20
-218.7834542866854
 30
-184.542669711107
 41
1.0
 10
5.668639894202226
 20
-218.7834542869779
 30
-345.3887736219804
 41
0.7071067811865476
 10
166.5147434844675
 20
-218.7762731605972
 30
-345.3887736219207
 41
1.0
 10
327.3608470747328
 20
-218.7690920342165
 30
-345.3887736218609
 41
0.7071067811865476
 10
327.360847074673
 20
-218.7690920339239
 30
-184.5426697109874
 41
1.0
  0
SPLINE
  5
A0
330
1F
100
AcDbEntity
  8
PREDEFINITO
100
AcDbSpline
210
0.0
220
0.0
230
1.0
 70
    12
 71
     2
 72
     6
 73
     3
 74
     0
 42
0.0000000001
 43
0.0000000001
 40
0.0
 40
0.0
 40
0.0
 40
9.052004732008534
 40
9.052004732008534
 40
9.052004732008534
 10
5.668639894142359
 20
-218.7834542866854
 30
-184.542669711107
 41
1.0
 10
9.2862855373847
 20
-218.7834542866854
 30
-184.5426697111056
 41
0.845154254727878
 10
10.83670509876663
 20
-222.0520257152691
 30
-184.5426697110991
 41
1.0
  0
SPLINE
  5
A1
330
1F
100
AcDbEntity
  8
PREDEFINITO
100
AcDbSpline
210
-6.752424658268603E-25
220
-1.0
230
1.818552250458748E-12
 70
    15
 71
     2
 72
    12
 73
     9
 74
     0
 42
0.0000000001
 43
0.0000000001
 40
-1286.768831286988
 40
-1286.768831286988
 40
-1286.768831286988
 40
-965.0766234652413
 40
-965.0766234652413
 40
-643.3844156434942
 40
-643.3844156434942
 40
-321.6922078217471
 40
-321.6922078217471
 40
0.0
 40
0.0
 40
0.0
 10
10.83670509876634
 20
-222.0520257152692
 30
-184.5426697110992
 41
1.0
 10
10.83670509882417
 20
-222.0520257155523
 30
-340.2207084173488
 41
0.707106781186548
 10
166.5147438050737
 20
-222.0520257155523
 30
-340.220708417291
 41
1.0
 10
322.1927825113233
 20
-222.0520257155523
 30
-340.2207084172331
 41
0.707106781186548
 10
322.1927825112655
 20
-222.0520257152692
 30
-184.5426697109835
 41
1.0
 10
322.1927825112077
 20
-222.0520257149861
 30
-28.86463100473393
 41
0.707106781186548
 10
166.5147438049581
 20
-222.0520257149861
 30
-28.86463100479176
 41
1.0
 10
10.83670509870853
 20
-222.0520257149861
 30
-28.86463100484957
 41
0.707106781186548
 10
10.83670509876634
 20
-222.0520257152692
 30
-184.5426697110992
 41
1.0
  0
SPLINE
  5
A2
330
1F
100
AcDbEntity
  8
PREDEFINITO
100
AcDbSpline
210
0.0
220
0.0
230
1.0
 70
    12
 71
     2
 72
     6
 73
     3
 74
     0
 42
0.0000000001
 43
0.0000000001
 40
0.0
 40
0.0
 40
0.0
 40
6.789003548972019
 40
6.789003548972019
 40
6.789003548972019
 10
10.83670509876663
 20
-222.0520257152691
 30
-184.5426697110991
 41
1.0
 10
11.9995197698095
 20
-224.5034542866861
 30
-184.5426697110942
 41
0.845154254729327
 10
14.71275400222549
 20
-224.5034542866859
 30
-184.5426697110931
 41
1.0
  0
SPLINE
  5
A3
330
1F
100
AcDbEntity
  8
PREDEFINITO
100
AcDbSpline
210
0.0
220
0.0
230
1.0
 70
    24
 71
     3
 72
     8
 73
     4
 74
     0
 42
0.0000000001
 43
0.0000000001
 40
0.0
 40
0.0
 40
0.0
 40
0.0
 40
2.022325394193628
 40
2.022325394193628
 40
2.022325394193628
 40
2.022325394193628
 10
33.3348008388819
 20
-224.5034542862097
 30
-180.2526697110864
 10
33.33480083888173
 20
-224.0267876194584
 30
-179.7760030444206
 10
33.33480083888151
 20
-223.5501209527071
 30
-179.2993363777548
 10
33.33480083888134
 20
-223.0734542859557
 30
-178.822669711089
  0
SPLINE
  5
A4
330
1F
100
AcDbEntity
  8
PREDEFINITO
100
AcDbSpline
210
0.0
220
0.0
230
1.0
 70
    24
 71
     3
 72
     8
 73
     4
 74
     0
 42
0.0000000001
 43
0.0000000001
 40
0.0
 40
0.0
 40
0.0
 40
0.0
 40
2.022325394193543
 40
2.022325394193543
 40
2.022325394193543
 40
2.022325394193543
 10
233.1047152881351
 20
-224.5034542860286
 30
-295.5898835942522
 10
233.1047152881349
 20
-224.0267876194076
 30
-295.1132169275864
 10
233.1047152881347
 20
-223.5501209527866
 30
-294.6365502609206
 10
233.1047152881345
 20
-223.0734542861656
 30
-294.1598835942548
  0
SPLINE
  5
A5
330
1F
100
AcDbEntity
  8
PREDEFINITO
100
AcDbSpline
210
-7.489150183399881E-16
220
1.0
230
-1.818552894923385E-12
 70
    12
 71
     2
 72
     8
 73
     5
 74
     0
 42
0.0000000001
 43
0.0000000001
 40
-476.9002158159269
 40
-476.9002158159269
 40
-476.9002158159269
 40
-238.4501079079634
 40
-238.4501079079634
 40
0.0
 40
0.0
 40
0.0
 10
318.3167972224088
 20
-223.0734542859662
 30
-184.5426697109831
 41
1.0
 10
318.3167972223524
 20
-223.0734542856902
 30
-32.74061629359031
 41
0.7071067811865476
 10
166.5147438049595
 20
-223.0734542856903
 30
-32.74061629364661
 41
1.0
 10
14.71269038756676
 20
-223.0734542856904
 30
-32.74061629370298
 41
0.7071067811865476
 10
14.71269038762301
 20
-223.0734542859664
 30
-184.5426697110958
 41
1.0
  0
SPLINE
  5
A6
330
1F
100
AcDbEntity
  8
PREDEFINITO
100
AcDbSpline
210
-8.425293957166804E-16
220
1.0
230
-1.818740123678139E-12
 70
    12
 71
     2
 72
     8
 73
     5
 74
     0
 42
0.0000000001
 43
0.0000000001
 40
-476.9002158159269
 40
-476.9002158159269
 40
-476.9002158159269
 40
-238.4501079079634
 40
-238.4501079079634
 40
0.0
 40
0.0
 40
0.0
 10
14.71269038762301
 20
-223.0734542859664
 30
-184.5426697110958
 41
1.0
 10
14.71269038767943
 20
-223.0734542862425
 30
-336.3447231284887
 41
0.7071067811865476
 10
166.5147438050723
 20
-223.0734542862424
 30
-336.3447231284324
 41
1.0
 10
318.3167972224652
 20
-223.0734542862423
 30
-336.344723128376
 41
0.7071067811865476
 10
318.3167972224088
 20
-223.0734542859662
 30
-184.5426697109831
 41
1.0
  0
SPLINE
  5
A7
330
1F
100
AcDbEntity
  8
PREDEFINITO
100
AcDbSpline
210
4.968830320671151E-15
220
1.0
230
-1.823560727440255E-12
 70
    12
 71
     2
 72
     8
 73
     5
 74
     0
 42
0.0000000001
 43
0.0000000001
 40
0.0
 40
0.0
 40
0.0
 40
8.984954989266814
 40
8.984954989266814
 40
17.96990997853363
 40
17.96990997853363
 40
17.96990997853363
 10
33.33480083888566
 20
-223.0734542859766
 30
-190.262669711089
 41
1.0
 10
27.61480083888559
 20
-223.0734542859766
 30
-190.2626697110911
 41
0.7071067811865476
 10
27.61480083888347
 20
-223.0734542859662
 30
-184.5426697110911
 41
1.0
 10
27.61480083888145
 20
-223.0734542859558
 30
-178.8226697110911
 41
0.7071067811865476
 10
33.33480083888134
 20
-223.0734542859557
 30
-178.822669711089
 41
1.0
  0
SPLINE
  5
A8
330
1F
100
AcDbEntity
  8
PREDEFINITO
100
AcDbSpline
210
-4.968830320689020E-15
220
-1.0
230
1.823560727440255E-12
 70
    12
 71
     2
 72
     8
 73
     5
 74
     0
 42
0.0000000001
 43
0.0000000001
 40
0.0
 40
0.0
 40
0.0
 40
8.984954989266814
 40
8.984954989266814
 40
17.96990997853363
 40
17.96990997853363
 40
17.96990997853363
 10
33.33480083888134
 20
-223.0734542859557
 30
-178.822669711089
 41
1.0
 10
39.05480083888138
 20
-223.0734542859558
 30
-178.8226697110869
 41
0.7071067811865476
 10
39.05480083888352
 20
-223.0734542859662
 30
-184.5426697110869
 41
1.0
 10
39.05480083888569
 20
-223.0734542859766
 30
-190.2626697110869
 41
0.7071067811865476
 10
33.33480083888566
 20
-223.0734542859766
 30
-190.262669711089
 41
1.0
  0
SPLINE
  5
A9
330
1F
100
AcDbEntity
  8
PREDEFINITO
100
AcDbSpline
210
6.677708141350679E-25
220
1.0
230
-1.816107481960257E-12
 70
    12
 71
     2
 72
     8
 73
     5
 74
     0
 42
0.0000000001
 43
0.0000000001
 40
0.0
 40
0.0
 40
0.0
 40
8.984954989266809
 40
8.984954989266809
 40
17.96990997853362
 40
17.96990997853362
 40
17.96990997853362
 10
233.1047152881388
 20
-223.0734542861863
 30
-305.5998835942548
 41
1.0
 10
227.3847152881388
 20
-223.0734542861863
 30
-305.5998835942569
 41
0.7071067811865476
 10
227.3847152881366
 20
-223.0734542861759
 30
-299.8798835942569
 41
1.0
 10
227.3847152881346
 20
-223.0734542861656
 30
-294.1598835942569
 41
0.7071067811865476
 10
233.1047152881345
 20
-223.0734542861656
 30
-294.1598835942548
 41
1.0
  0
SPLINE
  5
AA
330
1F
100
AcDbEntity
  8
PREDEFINITO
100
AcDbSpline
210
-6.857692954270650E-25
220
-1.0
230
1.816107481960256E-12
 70
    12
 71
     2
 72
     8
 73
     5
 74
     0
 42
0.0000000001
 43
0.0000000001
 40
0.0
 40
0.0
 40
0.0
 40
8.984954989266809
 40
8.984954989266809
 40
17.96990997853362
 40
17.96990997853362
 40
17.96990997853362
 10
233.1047152881345
 20
-223.0734542861656
 30
-294.1598835942548
 41
1.0
 10
238.8247152881345
 20
-223.0734542861656
 30
-294.1598835942526
 41
0.7071067811865476
 10
238.8247152881366
 20
-223.0734542861759
 30
-299.8798835942526
 41
1.0
 10
238.8247152881388
 20
-223.0734542861863
 30
-305.5998835942526
 41
0.7071067811865476
 10
233.1047152881388
 20
-223.0734542861863
 30
-305.5998835942548
 41
1.0
  0
SPLINE
  5
AB
330
1F
100
AcDbEntity
  8
PREDEFINITO
100
AcDbSpline
210
-6.786587842993566E-25
220
-1.0
230
1.821076312280253E-12
 70
    12
 71
     2
 72
     8
 73
     5
 74
     0
 42
0.0000000001
 43
0.0000000001
 40
0.0
 40
0.0
 40
0.0
 40
8.984954989266809
 40
8.984954989266809
 40
17.96990997853362
 40
17.96990997853362
 40
17.96990997853362
 10
233.1047152880532
 20
-223.0734542857668
 30
-74.92545582777458
 41
1.0
 10
227.3847152880533
 20
-223.0734542857668
 30
-74.9254558277768
 41
0.7071067811865476
 10
227.384715288051
 20
-223.0734542857564
 30
-69.2054558277768
 41
1.0
 10
227.3847152880489
 20
-223.073454285746
 30
-63.48545582777678
 41
0.7071067811865476
 10
233.104715288049
 20
-223.073454285746
 30
-63.48545582777464
 41
1.0
  0
SPLINE
  5
AC
330
1F
100
AcDbEntity
  8
PREDEFINITO
100
AcDbSpline
210
6.288790340867770E-25
220
1.0
230
-1.821076312280255E-12
 70
    12
 71
     2
 72
     8
 73
     5
 74
     0
 42
0.0000000001
 43
0.0000000001
 40
0.0
 40
0.0
 40
0.0
 40
8.984954989266809
 40
8.984954989266809
 40
17.96990997853362
 40
17.96990997853362
 40
17.96990997853362
 10
233.104715288049
 20
-223.073454285746
 30
-63.48545582777464
 41
1.0
 10
238.8247152880489
 20
-223.073454285746
 30
-63.4854558277726
 41
0.7071067811865476
 10
238.824715288051
 20
-223.0734542857564
 30
-69.20545582777257
 41
1.0
 10
238.8247152880532
 20
-223.0734542857668
 30
-74.92545582777261
 41
0.7071067811865476
 10
233.1047152880532
 20
-223.0734542857668
 30
-74.92545582777458
 41
1.0
  0
SPLINE
  5
AD
330
1F
100
AcDbEntity
  8
PREDEFINITO
100
AcDbSpline
210
-6.760984779417951E-25
220
-1.0
230
1.818591897120256E-12
 70
    12
 71
     2
 72
     8
 73
     5
 74
     0
 42
0.0000000001
 43
0.0000000001
 40
0.0
 40
0.0
 40
0.0
 40
123.5431311024186
 40
123.5431311024186
 40
247.0862622048373
 40
247.0862622048373
 40
247.0862622048373
 10
166.5147438050306
 20
-223.0734542861093
 30
-263.1926697110395
 41
1.0
 10
87.86474380503066
 20
-223.0734542861093
 30
-263.1926697110688
 41
0.7071067811865476
 10
87.86474380501741
 20
-223.0734542859662
 30
-184.5426697110688
 41
1.0
 10
87.86474380500437
 20
-223.0734542858232
 30
-105.8926697110687
 41
0.7071067811865476
 10
166.5147438050043
 20
-223.0734542858232
 30
-105.8926697110395
 41
1.0
  0
SPLINE
  5
AE
330
1F
100
AcDbEntity
  8
PREDEFINITO
100
AcDbSpline
210
6.742703779367133E-25
220
1.0
230
-1.818591897120256E-12
 70
    12
 71
     2
 72
     8
 73
     5
 74
     0
 42
0.0000000001
 43
0.0000000001
 40
0.0
 40
0.0
 40
0.0
 40
123.5431311024186
 40
123.5431311024186
 40
247.0862622048373
 40
247.0862622048373
 40
247.0862622048373
 10
166.5147438050043
 20
-223.0734542858232
 30
-105.8926697110395
 41
1.0
 10
245.1647438050043
 20
-223.0734542858232
 30
-105.8926697110103
 41
0.7071067811865476
 10
245.1647438050175
 20
-223.0734542859662
 30
-184.5426697110103
 41
1.0
 10
245.1647438050306
 20
-223.0734542861093
 30
-263.1926697110104
 41
0.7071067811865476
 10
166.5147438050306
 20
-223.0734542861093
 30
-263.1926697110395
 41
1.0
  0
SPLINE
  5
AF
330
1F
100
AcDbEntity
  8
PREDEFINITO
100
AcDbSpline
210
-3.425737806883046E-15
220
1.0
230
-1.813107886399278E-12
 70
    12
 71
     2
 72
     6
 73
     3
 74
     0
 42
0.0000000001
 43
0.0000000001
 40
0.0
 40
0.0
 40
0.0
 40
35.51203127176933
 40
35.51203127176933
 40
35.51203127176933
 10
242.9089222531994
 20
-223.0734542860714
 30
-242.3584491682767
 41
1.0
 10
232.0693238379859
 20
-223.0734542860974
 30
-256.6812209688504
 41
0.982874835719006
 10
216.7776441605035
 20
-223.0734542861145
 30
-266.1047669307309
 41
1.0
  0
SPLINE
  5
B0
330
1F
100
AcDbEntity
  8
PREDEFINITO
100
AcDbSpline
210
-6.765452579616798E-16
220
-1.0
230
1.822977572333321E-12
 70
    12
 71
     2
 72
     6
 73
     3
 74
     0
 42
0.0000000001
 43
0.0000000001
 40
0.0
 40
0.0
 40
0.0
 40
7.197846534591174
 40
7.197846534591174
 40
7.197846534591174
 10
248.4857195917542
 20
-223.0734542860633
 30
-237.9285875196266
 41
1.0
 10
245.1278074631373
 20
-223.073454286066
 30
-239.4265521277983
 41
0.968497170139783
 10
242.9089222531994
 20
-223.0734542860714
 30
-242.3584491682767
 41
1.0
  0
SPLINE
  5
B1
330
1F
100
AcDbEntity
  8
PREDEFINITO
100
AcDbSpline
210
4.179123659888553E-16
220
-1.0
230
1.819060873283905E-12
 70
    12
 71
     2
 72
    12
 73
     9
 74
     0
 42
0.0000000001
 43
0.0000000001
 40
0.0
 40
0.0
 40
0.0
 40
9.514387137235916
 40
9.514387137235916
 40
19.02877427447183
 40
19.02877427447183
 40
28.54316141170775
 40
28.54316141170775
 40
38.05754854894366
 40
38.05754854894366
 40
38.05754854894366
 10
235.912424482474
 20
-223.0734542860479
 30
-229.4572816534477
 41
1.0
 10
236.0944990559907
 20
-223.0734542860383
 30
-224.1964678133255
 41
0.8616555591778787
 10
240.7837332314091
 20
-223.073454286034
 30
-221.8047328240695
 41
1.0
 10
245.4729674068276
 20
-223.0734542860296
 30
-219.4129978348135
 41
0.8616555591778787
 10
249.8385178136467
 20
-223.073454286035
 30
-222.3543041868049
 41
1.0
 10
254.2040682204659
 20
-223.0734542860403
 30
-225.2956105387962
 41
0.8616555591778787
 10
253.7485501147281
 20
-223.0734542860499
 30
-230.5398279891016
 41
1.0
 10
253.2930320089902
 20
-223.0734542860594
 30
-235.7840454394071
 41
0.8616555591778787
 10
248.4857195917542
 20
-223.0734542860633
 30
-237.9285875196266
 41
1.0
  0
SPLINE
  5
B2
330
1F
100
AcDbEntity
  8
PREDEFINITO
100
AcDbSpline
210
-3.925659427393509E-14
220
1.0
230
-1.805366181320546E-12
 70
    12
 71
     2
 72
     6
 73
     3
 74
     0
 42
0.0000000001
 43
0.0000000001
 40
0.0
 40
0.0
 40
0.0
 40
9.206926477558106
 40
9.206926477558106
 40
9.206926477558106
 10
232.7543135271707
 20
-223.0734542860633
 30
-237.9370082034749
 41
1.0
 10
235.7474574445766
 20
-223.0734542860565
 30
-234.223794952729
 41
0.948629540868338
 10
235.912424482474
 20
-223.0734542860479
 30
-229.4572816534477
 41
1.0
  0
SPLINE
  5
B3
330
1F
100
AcDbEntity
  8
PREDEFINITO
100
AcDbSpline
210
-1.262783414659516E-14
220
1.0
230
-1.804128112177734E-12
 70
    12
 71
     2
 72
     6
 73
     3
 74
     0
 42
0.0000000001
 43
0.0000000001
 40
0.0
 40
0.0
 40
0.0
 40
28.93362527486364
 40
28.93362527486364
 40
28.93362527486364
 10
211.1506649249447
 20
-223.073454286098
 30
-256.9738130528072
 41
1.0
 10
223.5867545595554
 20
-223.073454286084
 30
-249.3100334857724
 41
0.9855784366389222
 10
232.7543135271707
 20
-223.0734542860633
 30
-237.9370082034749
 41
1.0
  0
SPLINE
  5
B4
330
1F
100
AcDbEntity
  8
PREDEFINITO
100
AcDbSpline
210
-1.634223496408550E-15
220
1.0
230
-1.815697742126365E-12
 70
    12
 71
     2
 72
     8
 73
     5
 74
     0
 42
0.0000000001
 43
0.0000000001
 40
0.0
 40
0.0
 40
0.0
 40
8.423819587891856
 40
8.423819587891856
 40
16.84763917578371
 40
16.84763917578371
 40
16.84763917578371
 10
216.7776441605035
 20
-223.0734542861145
 30
-266.1047669307309
 41
1.0
 10
212.2121672485635
 20
-223.0734542861196
 30
-268.9182565161993
 41
0.7071067838207256
 10
209.3986776347462
 20
-223.0734542861114
 30
-264.3527796217295
 41
1.0
 10
206.5851880209287
 20
-223.0734542861031
 30
-259.7873027272598
 41
0.7071067838207256
 10
211.1506649249447
 20
-223.073454286098
 30
-256.9738130528072
 41
1.0
  0
SPLINE
  5
B5
330
1F
100
AcDbEntity
  8
PREDEFINITO
100
AcDbSpline
210
-3.157551837016866E-15
220
1.0
230
-1.834142897677030E-12
 70
    12
 71
     2
 72
     6
 73
     3
 74
     0
 42
0.0000000001
 43
0.0000000001
 40
0.0
 40
0.0
 40
0.0
 40
7.197846534576347
 40
7.197846534576347
 40
7.197846534576347
 10
171.7628169382631
 20
-223.0734542857886
 30
-86.8607634024439
 41
1.0
 10
174.7390484072137
 20
-223.0734542857925
 30
-89.01981830540906
 41
0.968497170139905
 10
178.3875883305095
 20
-223.0734542857933
 30
-89.47548074505727
 41
1.0
  0
SPLINE
  5
B6
330
1F
100
AcDbEntity
  8
PREDEFINITO
100
AcDbSpline
210
-1.051579145227453E-15
220
-1.0
230
1.820378591343578E-12
 70
    12
 71
     2
 72
    12
 73
     9
 74
     0
 42
0.0000000001
 43
0.0000000001
 40
0.0
 40
0.0
 40
0.0
 40
9.514387137240451
 40
9.514387137240451
 40
19.0287742744809
 40
19.0287742744809
 40
28.54316141172136
 40
28.54316141172136
 40
38.0575485489618
 40
38.0575485489618
 40
38.0575485489618
 10
170.7130984095612
 20
-223.0734542858161
 30
-101.9852093094386
 41
1.0
 10
166.0660626926754
 20
-223.0734542858206
 30
-104.4579350234562
 41
0.8616555591777502
 10
161.6501423451471
 20
-223.0734542858154
 30
-101.5928065978771
 41
1.0
 10
157.2342219976188
 20
-223.0734542858102
 30
-98.72767817229811
 41
0.8616555591777502
 10
157.5986928153477
 20
-223.0734542858006
 30
-93.47634744249257
 41
1.0
 10
157.9631636330766
 20
-223.0734542857911
 30
-88.22501671268707
 41
0.8616555591777502
 10
162.7325482208842
 20
-223.073454285787
 30
-85.99739823898943
 41
1.0
 10
167.5019328086918
 20
-223.073454285783
 30
-83.76977976529174
 41
0.8616555591777502
 10
171.7628169382631
 20
-223.0734542857886
 30
-86.8607634024439
 41
1.0
  0
SPLINE
  5
B7
330
1F
100
AcDbEntity
  8
PREDEFINITO
100
AcDbSpline
210
-6.438596233775419E-15
220
-1.0
230
1.813519082349386E-12
 70
    12
 71
     2
 72
     6
 73
     3
 74
     0
 42
0.0000000001
 43
0.0000000001
 40
0.0
 40
0.0
 40
0.0
 40
9.206926477455411
 40
9.206926477455411
 40
9.206926477455411
 10
179.6358124965808
 20
-223.0734542858134
 30
-100.4803503496761
 41
1.0
 10
174.9235035331144
 20
-223.073454285812
 30
-99.74481830543273
 41
0.9486295408694604
 10
170.7130984095612
 20
-223.0734542858161
 30
-101.9852093094386
 41
1.0
  0
SPLINE
  5
B8
330
1F
100
AcDbEntity
  8
PREDEFINITO
100
AcDbSpline
210
-4.318190466005354E-16
220
-1.0
230
1.813940840925553E-12
 70
    12
 71
     2
 72
     6
 73
     3
 74
     0
 42
0.0000000001
 43
0.0000000001
 40
0.0
 40
0.0
 40
0.0
 40
28.93362527495279
 40
28.93362527495279
 40
28.93362527495279
 10
206.9239933807301
 20
-223.0734542858301
 30
-109.6712564163192
 41
0.999999999999948
 10
194.0689207986276
 20
-223.0734542858175
 30
-102.7331766683264
 41
0.9855784366388594
 10
179.6358124965808
 20
-223.0734542858134
 30
-100.4803503496761
 41
1.0
  0
SPLINE
  5
B9
330
1F
100
AcDbEntity
  8
PREDEFINITO
100
AcDbSpline
210
7.208913367649521E-15
220
1.0
230
-1.816648826799022E-12
 70
    12
 71
     2
 72
     8
 73
     5
 74
     0
 42
0.0000000001
 43
0.0000000001
 40
0.0
 40
0.0
 40
0.0
 40
8.423819627875217
 40
8.423819627875217
 40
16.84763925569288
 40
16.84763925569288
 40
16.84763925569288
 10
212.0181418055446
 20
-223.0734542858129
 30
-100.232672525496
 41
1.0
 10
216.7374337509395
 20
-223.0734542858176
 30
-102.7797467379338
 41
0.7071067811865476
 10
214.1903595385095
 20
-223.0734542858261
 30
-107.4990386833329
 41
1.0
 10
211.6432853261041
 20
-223.0734542858347
 30
-112.2183306286864
 41
0.7071067811885485
 10
206.9239933807301
 20
-223.0734542858301
 30
-109.6712564163192
 41
0.9999999999959981
  0
SPLINE
  5
BA
330
1F
100
AcDbEntity
  8
PREDEFINITO
100
AcDbSpline
210
-1.113076404899128E-15
220
-1.0
230
1.816935573978814E-12
 70
    12
 71
     2
 72
     6
 73
     3
 74
     0
 42
0.0000000001
 43
0.0000000001
 40
0.0
 40
0.0
 40
0.0
 40
35.51203127184245
 40
35.51203127184245
 40
35.51203127184245
 10
178.3875883305095
 20
-223.0734542857933
 30
-89.47548074505727
 41
1.0
 10
196.2112717700578
 20
-223.0734542857974
 30
-91.70146243917208
 41
0.9828748357189357
 10
212.0181418055446
 20
-223.0734542858129
 30
-100.232672525496
 41
1.0
  0
SPLINE
  5
BB
330
1F
100
AcDbEntity
  8
PREDEFINITO
100
AcDbSpline
210
-1.413393622308491E-16
220
1.0
230
-1.817335314578814E-12
 70
    12
 71
     2
 72
    12
 73
     9
 74
     0
 42
0.0000000001
 43
0.0000000001
 40
0.0
 40
0.0
 40
0.0
 40
9.514387137241393
 40
9.514387137241393
 40
19.02877427448279
 40
19.02877427448279
 40
28.54316141172418
 40
28.54316141172418
 40
38.05754854896557
 40
38.05754854896557
 40
38.05754854896557
 10
92.91870852304538
 20
-223.0734542860347
 30
-222.1855181702026
 41
1.0
 10
97.38366966642069
 20
-223.0734542860398
 30
-224.9736062963082
 41
0.8616555591777235
 10
97.11035583853041
 20
-223.0734542860493
 30
-230.2304697111466
 41
1.0
 10
96.83704201064015
 20
-223.0734542860589
 30
-235.4873331259849
 41
0.8616555591777235
 10
92.10702078609035
 20
-223.0734542860631
 30
-237.797357503798
 41
1.0
 10
87.3769995615405
 20
-223.0734542860673
 30
-240.107381881611
 41
0.8616555591777235
 10
83.06313307947394
 20
-223.0734542860618
 30
-237.0907829050009
 41
1.0
 10
78.74926659740744
 20
-223.0734542860563
 30
-234.0741839283909
 41
0.8616555591777235
 10
79.29569488507732
 20
-223.0734542860468
 30
-228.8386582110233
 41
1.0
  0
SPLINE
  5
BC
330
1F
100
AcDbEntity
  8
PREDEFINITO
100
AcDbSpline
210
-2.134156559233349E-14
220
-1.0
230
1.799755563493559E-12
 70
    12
 71
     2
 72
     6
 73
     3
 74
     0
 42
0.0000000001
 43
0.0000000001
 40
0.0
 40
0.0
 40
0.0
 40
9.20692647748011
 40
9.20692647748011
 40
9.20692647748011
 10
87.1541053912633
 20
-223.073454286022
 30
-215.2106505799936
 41
1.0
 10
88.87327043737899
 20
-223.0734542860301
 30
-219.659395874975
 41
0.9486295408691824
 10
92.91870852304538
 20
-223.0734542860347
 30
-222.1855181702026
 41
1.0
  0
SPLINE
  5
BD
330
1F
100
AcDbEntity
  8
PREDEFINITO
100
AcDbSpline
210
2.934874415806723E-15
220
-1.0
230
1.820009865745263E-12
 70
    12
 71
     2
 72
     6
 73
     3
 74
     0
 42
0.0000000001
 43
0.0000000001
 40
0.0
 40
0.0
 40
0.0
 40
28.93362527492296
 40
28.93362527492296
 40
28.93362527492296
 10
81.46957308670827
 20
-223.0734542859707
 30
-186.9829396779269
 41
1.0
 10
81.88855606250593
 20
-223.0734542859972
 30
-201.5847989755203
 41
0.9855784366388628
 10
87.1541053912633
 20
-223.073454286022
 30
-215.2106505799936
 41
1.0
  0
SPLINE
  5
BE
330
1F
100
AcDbEntity
  8
PREDEFINITO
100
AcDbSpline
210
3.485968803643225E-15
220
-1.0
230
1.818686029764197E-12
 70
    12
 71
     2
 72
     8
 73
     5
 74
     0
 42
0.0000000001
 43
0.0000000001
 40
0.0
 40
0.0
 40
0.0
 40
8.423819627847472
 40
8.423819627847472
 40
16.84763925569494
 40
16.84763925569494
 40
16.84763925569494
 10
70.74844544910104
 20
-223.0734542859713
 30
-187.2905696769464
 41
1.0
 10
70.59463044959136
 20
-223.0734542859615
 30
-181.9300058581428
 41
0.7071067811865476
 10
75.95519426839502
 20
-223.0734542859612
 30
-181.7761908586328
 41
1.0
 10
81.31575808719867
 20
-223.0734542859609
 30
-181.6223758591229
 41
0.7071067811865476
 10
81.46957308670827
 20
-223.0734542859707
 30
-186.9829396779269
 41
1.0
  0
SPLINE
  5
BF
330
1F
100
AcDbEntity
  8
PREDEFINITO
100
AcDbSpline
210
-8.285967670179457E-15
220
-1.0
230
1.817003443988164E-12
 70
    12
 71
     2
 72
     6
 73
     3
 74
     0
 42
0.0000000001
 43
0.0000000001
 40
0.0
 40
0.0
 40
0.0
 40
35.51203127172005
 40
35.51203127172005
 40
35.51203127172005
 10
78.24772083136506
 20
-223.073454286034
 30
-221.7940792197567
 41
1.0
 10
71.26363580708214
 20
-223.0734542860039
 30
-205.2453257250951
 41
0.9828748357190533
 10
70.74844544910104
 20
-223.0734542859713
 30
-187.2905696769464
 41
1.0
  0
SPLINE
  5
C0
330
1F
100
AcDbEntity
  8
PREDEFINITO
100
AcDbSpline
210
-2.684845013923163E-14
220
1.0
230
-1.823576319914437E-12
 70
    12
 71
     2
 72
     6
 73
     3
 74
     0
 42
0.0000000001
 43
0.0000000001
 40
0.0
 40
0.0
 40
0.0
 40
7.197846534587899
 40
7.197846534587899
 40
7.197846534587899
 10
79.29569488507732
 20
-223.0734542860468
 30
-228.8386582110233
 41
1.0
 10
79.67737554473405
 20
-223.0734542860401
 30
-225.1816386998806
 41
0.968497170139811
 10
78.24772083136506
 20
-223.073454286034
 30
-221.7940792197567
 41
1.0
  0
SPLINE
  5
C1
330
1F
100
AcDbEntity
  8
PREDEFINITO
100
AcDbSpline
210
4.892570255141987E-12
220
-1.0
230
1.818740885846711E-12
 70
    12
 71
     2
 72
     8
 73
     5
 74
     0
 42
0.0000000001
 43
0.0000000001
 40
0.0
 40
0.0
 40
0.0
 40
238.4500079823795
 40
238.4500079823795
 40
476.9000159647591
 40
476.9000159647591
 40
476.9000159647591
 10
318.3167336078063
 20
-224.5034542852005
 30
-184.5426697109802
 41
1.0
 10
318.3167336078627
 20
-224.5034542854766
 30
-336.3446595137707
 41
0.7071067811865476
 10
166.5147438050723
 20
-224.5034542862193
 30
-336.3446595138271
 41
1.0
 10
14.71275400228188
 20
-224.503454286962
 30
-336.3446595138835
 41
0.7071067811865476
 10
14.71275400222549
 20
-224.5034542866859
 30
-184.5426697110931
 41
1.0
  0
SPLINE
  5
C2
330
1F
100
AcDbEntity
  8
PREDEFINITO
100
AcDbSpline
210
4.892476640725378E-12
220
-1.0
230
1.818553657013497E-12
 70
    12
 71
     2
 72
     8
 73
     5
 74
     0
 42
0.0000000001
 43
0.0000000001
 40
0.0
 40
0.0
 40
0.0
 40
238.4500079823795
 40
238.4500079823795
 40
476.9000159647591
 40
476.9000159647591
 40
476.9000159647591
 10
14.71275400222549
 20
-224.5034542866859
 30
-184.5426697110931
 41
1.0
 10
14.71275400216902
 20
-224.5034542864098
 30
-32.74067990830282
 41
0.7071067811865476
 10
166.5147438049595
 20
-224.5034542856671
 30
-32.74067990824631
 41
1.0
 10
318.3167336077499
 20
-224.5034542849244
 30
-32.7406799081898
 41
0.7071067811865476
 10
318.3167336078063
 20
-224.5034542852005
 30
-184.5426697109802
 41
1.0
  0
SPLINE
  5
C3
330
1F
100
AcDbEntity
  8
PREDEFINITO
100
AcDbSpline
210
-4.889329034863351E-12
220
1.0
230
-4.574305192592808E-11
 70
    12
 71
     2
 72
     8
 73
     5
 74
     0
 42
0.0000000001
 43
0.0000000001
 40
-13.47743248390022
 40
-13.47743248390022
 40
-13.47743248390022
 40
-6.738716241950112
 40
-6.738716241950112
 40
0.0
 40
0.0
 40
0.0
 10
33.33480083888509
 20
-224.5034542866022
 30
-188.8326697110864
 41
1.0
 10
37.62480083888514
 20
-224.5034542865812
 30
-188.8326697110848
 41
0.7071067811865476
 10
37.62480083888352
 20
-224.503454286385
 30
-184.5426697110848
 41
1.0
 10
37.62480083888189
 20
-224.5034542861887
 30
-180.2526697110848
 41
0.7071067811865476
 10
33.3348008388819
 20
-224.5034542862097
 30
-180.2526697110864
 41
1.0
  0
SPLINE
  5
C4
330
1F
100
AcDbEntity
  8
PREDEFINITO
100
AcDbSpline
210
4.889329034864339E-12
220
-1.0
230
4.574636447947458E-11
 70
    12
 71
     2
 72
     8
 73
     5
 74
     0
 42
0.0000000001
 43
0.0000000001
 40
-13.47743248390022
 40
-13.47743248390022
 40
-13.47743248390022
 40
-6.738716241950112
 40
-6.738716241950112
 40
0.0
 40
0.0
 40
0.0
 10
33.3348008388819
 20
-224.5034542862097
 30
-180.2526697110864
 41
1.0
 10
29.04480083888191
 20
-224.5034542862307
 30
-180.2526697110879
 41
0.7071067811865476
 10
29.04480083888348
 20
-224.5034542864269
 30
-184.542669711088
 41
1.0
 10
29.04480083888513
 20
-224.5034542866232
 30
-188.832669711088
 41
0.7071067811865476
 10
33.33480083888509
 20
-224.5034542866022
 30
-188.8326697110864
 41
1.0
  0
SPLINE
  5
C5
330
1F
100
AcDbEntity
  8
PREDEFINITO
100
AcDbSpline
210
4.889329034889042E-12
220
-1.0
230
-2.258499008117459E-11
 70
    12
 71
     2
 72
     8
 73
     5
 74
     0
 42
0.0000000001
 43
0.0000000001
 40
-13.47743248390022
 40
-13.47743248390022
 40
-13.47743248390022
 40
-6.738716241950108
 40
-6.738716241950108
 40
0.0
 40
0.0
 40
0.0
 10
233.1047152881383
 20
-224.5034542858348
 30
-304.1698835942523
 41
1.0
 10
237.3947152881383
 20
-224.5034542858139
 30
-304.1698835942507
 41
0.7071067811865476
 10
237.3947152881368
 20
-224.5034542859107
 30
-299.8798835942507
 41
1.0
 10
237.3947152881352
 20
-224.5034542860076
 30
-295.5898835942506
 41
0.7071067811865476
 10
233.1047152881351
 20
-224.5034542860286
 30
-295.5898835942522
 41
1.0
  0
SPLINE
  5
C6
330
1F
100
AcDbEntity
  8
PREDEFINITO
100
AcDbSpline
210
4.889329034889043E-12
220
-1.0
230
-2.258499008117458E-11
 70
    12
 71
     2
 72
     8
 73
     5
 74
     0
 42
0.0000000001
 43
0.0000000001
 40
-13.47743248390022
 40
-13.47743248390022
 40
-13.47743248390022
 40
-6.738716241950108
 40
-6.738716241950108
 40
0.0
 40
0.0
 40
0.0
 10
233.1047152881351
 20
-224.5034542860286
 30
-295.5898835942522
 41
1.0
 10
228.8147152881351
 20
-224.5034542860496
 30
-295.5898835942538
 41
0.7071067811865476
 10
228.8147152881367
 20
-224.5034542859527
 30
-299.8798835942538
 41
1.0
 10
228.8147152881383
 20
-224.5034542858558
 30
-304.1698835942539
 41
0.7071067811865476
 10
233.1047152881383
 20
-224.5034542858348
 30
-304.1698835942523
 41
1.0
  0
SPLINE
  5
C7
330
1F
100
AcDbEntity
  8
PREDEFINITO
100
AcDbSpline
210
4.895954141982429E-12
220
-1.0
230
-2.257836497408156E-11
 70
    12
 71
     2
 72
     8
 73
     5
 74
     0
 42
0.0000000001
 43
0.0000000001
 40
-13.47743248390022
 40
-13.47743248390022
 40
-13.47743248390022
 40
-6.738716241950108
 40
-6.738716241950108
 40
0.0
 40
0.0
 40
0.0
 10
233.1047152880527
 20
-224.5034542854153
 30
-73.49545582777199
 41
1.0
 10
237.3947152880528
 20
-224.5034542853944
 30
-73.49545582777043
 41
0.7071067811865476
 10
237.3947152880511
 20
-224.5034542854912
 30
-69.20545582777044
 41
1.0
 10
237.3947152880496
 20
-224.503454285588
 30
-64.91545582777044
 41
0.7071067811865476
 10
233.1047152880495
 20
-224.5034542856091
 30
-64.91545582777206
 41
1.0
  0
SPLINE
  5
C8
330
1F
100
AcDbEntity
  8
PREDEFINITO
100
AcDbSpline
210
4.895954141982261E-12
220
-1.0
230
-2.258167752762810E-11
 70
    12
 71
     2
 72
     8
 73
     5
 74
     0
 42
0.0000000001
 43
0.0000000001
 40
-13.47743248390022
 40
-13.47743248390022
 40
-13.47743248390022
 40
-6.738716241950108
 40
-6.738716241950108
 40
0.0
 40
0.0
 40
0.0
 10
233.1047152880495
 20
-224.5034542856091
 30
-64.91545582777206
 41
1.0
 10
228.8147152880495
 20
-224.5034542856301
 30
-64.91545582777363
 41
0.7071067811865476
 10
228.8147152880512
 20
-224.5034542855332
 30
-69.20545582777362
 41
1.0
 10
228.8147152880528
 20
-224.5034542854363
 30
-73.4954558277736
 41
0.7071067811865476
 10
233.1047152880527
 20
-224.5034542854153
 30
-73.49545582777199
 41
1.0
  0
SPLINE
  5
C9
330
1F
100
AcDbEntity
  8
PREDEFINITO
100
AcDbSpline
210
4.891135882269104E-12
220
-1.0
230
1.818591897121074E-12
 70
    12
 71
     2
 72
     8
 73
     5
 74
     0
 42
0.0000000001
 43
0.0000000001
 40
-247.0862622048373
 40
-247.0862622048373
 40
-247.0862622048373
 40
-123.5431311024186
 40
-123.5431311024186
 40
0.0
 40
0.0
 40
0.0
 10
166.5147438050306
 20
-224.503454286086
 30
-263.192669711037
 41
1.0
 10
245.1647438050306
 20
-224.5034542857013
 30
-263.1926697110077
 41
0.7071067811865476
 10
245.1647438050174
 20
-224.5034542855583
 30
-184.5426697110077
 41
1.0
 10
245.1647438050043
 20
-224.5034542854153
 30
-105.8926697110077
 41
0.7071067811865476
 10
166.5147438050043
 20
-224.5034542858
 30
-105.8926697110369
 41
1.0
  0
SPLINE
  5
CA
330
1F
100
AcDbEntity
  8
PREDEFINITO
100
AcDbSpline
210
4.891135882269107E-12
220
-1.0
230
1.818591897121075E-12
 70
    12
 71
     2
 72
     8
 73
     5
 74
     0
 42
0.0000000001
 43
0.0000000001
 40
-247.0862622048373
 40
-247.0862622048373
 40
-247.0862622048373
 40
-123.5431311024186
 40
-123.5431311024186
 40
0.0
 40
0.0
 40
0.0
 10
166.5147438050043
 20
-224.5034542858
 30
-105.8926697110369
 41
1.0
 10
87.86474380500432
 20
-224.5034542861846
 30
-105.8926697110661
 41
0.7071067811865476
 10
87.86474380501741
 20
-224.5034542863277
 30
-184.5426697110661
 41
1.0
 10
87.86474380503066
 20
-224.5034542864707
 30
-263.1926697110662
 41
0.7071067811865476
 10
166.5147438050306
 20
-224.503454286086
 30
-263.192669711037
 41
1.0
  0
SPLINE
  5
CB
330
1F
100
AcDbEntity
  8
PREDEFINITO
100
AcDbSpline
210
-4.146686085741599E-12
220
1.0
230
-1.140730560681351E-12
 70
    12
 71
     2
 72
     6
 73
     3
 74
     0
 42
0.0000000001
 43
0.0000000001
 40
-28.93362527486364
 40
-28.93362527486364
 40
-28.93362527486364
 40
0.0
 40
0.0
 40
0.0
 10
232.7543135271708
 20
-224.5034542857792
 30
-237.9370082034723
 41
1.0
 10
223.5867545595554
 20
-224.5034542858301
 30
-249.3100334857698
 41
0.9855784366389222
 10
211.1506649249447
 20
-224.5034542858905
 30
-256.9738130528046
 41
1.0
  0
SPLINE
  5
CC
330
1F
100
AcDbEntity
  8
PREDEFINITO
100
AcDbSpline
210
-7.177436003654798E-12
220
1.0
230
-7.884835087214976E-12
 70
    12
 71
     2
 72
     6
 73
     3
 74
     0
 42
0.0000000001
 43
0.0000000001
 40
-9.206926477558106
 40
-9.206926477558106
 40
-9.206926477558106
 40
0.0
 40
0.0
 40
0.0
 10
235.912424482474
 20
-224.5034542856896
 30
-229.4572816534451
 41
1.0
 10
235.7474574445766
 20
-224.5034542857284
 30
-234.2237949527264
 41
0.948629540868338
 10
232.7543135271708
 20
-224.5034542857792
 30
-237.9370082034723
 41
1.0
  0
SPLINE
  5
CD
330
1F
100
AcDbEntity
  8
PREDEFINITO
100
AcDbSpline
210
5.230123533619656E-12
220
-1.0
230
1.589358418517484E-12
 70
    12
 71
     2
 72
    12
 73
     9
 74
     0
 42
0.0000000001
 43
0.0000000001
 40
-38.05754854894366
 40
-38.05754854894366
 40
-38.05754854894366
 40
-28.54316141170775
 40
-28.54316141170775
 40
-19.02877427447183
 40
-19.02877427447183
 40
-9.514387137235913
 40
-9.514387137235913
 40
0.0
 40
0.0
 40
0.0
 10
248.4857195917542
 20
-224.5034542856373
 30
-237.928587519624
 41
1.0
 10
253.2930320089903
 20
-224.5034542856088
 30
-235.7840454394045
 41
0.8616555591778787
 10
253.7485501147281
 20
-224.5034542855981
 30
-230.539827989099
 41
1.0
 10
254.204068220466
 20
-224.5034542855873
 30
-225.2956105387935
 41
0.8616555591778787
 10
249.8385178136467
 20
-224.5034542856055
 30
-222.3543041868023
 41
1.0
 10
245.4729674068276
 20
-224.5034542856237
 30
-219.4129978348109
 41
0.8616555591778787
 10
240.7837332314092
 20
-224.503454285652
 30
-221.8047328240669
 41
1.0
 10
236.0944990559908
 20
-224.5034542856803
 30
-224.1964678133228
 41
0.8616555591778787
 10
235.912424482474
 20
-224.5034542856896
 30
-229.4572816534451
 41
1.0
  0
SPLINE
  5
CE
330
1F
100
AcDbEntity
  8
PREDEFINITO
100
AcDbSpline
210
1.090948709820962E-11
220
-1.0
230
6.604454630993174E-12
 70
    12
 71
     2
 72
     6
 73
     3
 74
     0
 42
0.0000000001
 43
0.0000000001
 40
-7.197846534591174
 40
-7.197846534591174
 40
-7.197846534591174
 40
0.0
 40
0.0
 40
0.0
 10
242.9089222531994
 20
-224.5034542857274
 30
-242.3584491682741
 41
1.0
 10
245.1278074631373
 20
-224.5034542856839
 30
-239.4265521277956
 41
0.968497170139783
 10
248.4857195917542
 20
-224.5034542856373
 30
-237.928587519624
 41
1.0
  0
SPLINE
  5
CF
330
1F
100
AcDbEntity
  8
PREDEFINITO
100
AcDbSpline
210
-4.694444861646074E-12
220
1.0
230
-1.626414555443509E-12
 70
    12
 71
     2
 72
     6
 73
     3
 74
     0
 42
0.0000000001
 43
0.0000000001
 40
-35.51203127176933
 40
-35.51203127176933
 40
-35.51203127176933
 40
0.0
 40
0.0
 40
0.0
 10
216.7776441605035
 20
-224.5034542858887
 30
-266.1047669307284
 41
1.0
 10
232.0693238379859
 20
-224.5034542858016
 30
-256.6812209688478
 41
0.982874835719006
 10
242.9089222531994
 20
-224.5034542857274
 30
-242.3584491682741
 41
1.0
  0
SPLINE
  5
D0
330
1F
100
AcDbEntity
  8
PREDEFINITO
100
AcDbSpline
210
-4.443284694683793E-12
220
1.0
230
-2.548314968019336E-12
 70
    12
 71
     2
 72
     8
 73
     5
 74
     0
 42
0.0000000001
 43
0.0000000001
 40
-16.84763917578371
 40
-16.84763917578371
 40
-16.84763917578371
 40
-8.423819587891856
 40
-8.423819587891856
 40
0.0
 40
0.0
 40
0.0
 10
211.1506649249447
 20
-224.5034542858905
 30
-256.9738130528046
 41
1.0
 10
206.5851880209288
 20
-224.5034542859179
 30
-259.7873027272573
 41
0.7071067838207256
 10
209.3986776347462
 20
-224.503454285917
 30
-264.3527796217271
 41
1.0
 10
212.2121672485636
 20
-224.5034542859162
 30
-268.9182565161967
 41
0.7071067838207256
 10
216.7776441605035
 20
-224.5034542858887
 30
-266.1047669307284
 41
1.0
  0
SPLINE
  5
D1
330
1F
100
AcDbEntity
  8
PREDEFINITO
100
AcDbSpline
210
3.302872051052435E-12
220
-1.0
230
1.569403942596838E-12
 70
    12
 71
     2
 72
     6
 73
     3
 74
     0
 42
0.0000000001
 43
0.0000000001
 40
-9.206926477455411
 40
-9.206926477455411
 40
-9.206926477455411
 40
0.0
 40
0.0
 40
0.0
 10
170.7130984095612
 20
-224.5034542857703
 30
-101.985209309436
 41
1.0
 10
174.9235035331145
 20
-224.5034542857528
 30
-99.74481830543006
 41
0.9486295408694604
 10
179.6358124965808
 20
-224.5034542857384
 30
-100.4803503496735
 41
1.0
  0
SPLINE
  5
D2
330
1F
100
AcDbEntity
  8
PREDEFINITO
100
AcDbSpline
210
4.889429077504540E-12
220
-1.0
230
1.857378185871906E-12
 70
    12
 71
     2
 72
    12
 73
     9
 74
     0
 42
0.0000000001
 43
0.0000000001
 40
-38.0575485489618
 40
-38.0575485489618
 40
-38.0575485489618
 40
-28.54316141172136
 40
-28.54316141172136
 40
-19.02877427448091
 40
-19.02877427448091
 40
-9.514387137240455
 40
-9.514387137240455
 40
0.0
 40
0.0
 40
0.0
 10
171.7628169382631
 20
-224.5034542857371
 30
-86.86076340244128
 41
1.0
 10
167.5019328086918
 20
-224.5034542857522
 30
-83.76977976528904
 41
0.8616555591777502
 10
162.7325482208843
 20
-224.5034542857796
 30
-85.99739823898673
 41
1.0
 10
157.9631636330767
 20
-224.5034542858072
 30
-88.22501671268438
 41
0.8616555591777502
 10
157.5986928153478
 20
-224.5034542858186
 30
-93.4763474424899
 41
1.0
 10
157.2342219976189
 20
-224.5034542858302
 30
-98.72767817229544
 41
0.8616555591777502
 10
161.6501423451471
 20
-224.5034542858139
 30
-101.5928065978745
 41
1.0
 10
166.0660626926755
 20
-224.5034542857976
 30
-104.4579350234535
 41
0.8616555591777502
 10
170.7130984095612
 20
-224.5034542857703
 30
-101.985209309436
 41
1.0
  0
SPLINE
  5
D3
330
1F
100
AcDbEntity
  8
PREDEFINITO
100
AcDbSpline
210
-3.485212279149284E-12
220
1.0
230
-2.395319187256745E-12
 70
    12
 71
     2
 72
     6
 73
     3
 74
     0
 42
0.0000000001
 43
0.0000000001
 40
-7.197846534576347
 40
-7.197846534576347
 40
-7.197846534576347
 40
0.0
 40
0.0
 40
0.0
 10
178.3875883305095
 20
-224.5034542857202
 30
-89.47548074505465
 41
1.0
 10
174.7390484072137
 20
-224.5034542857319
 30
-89.01981830540645
 41
0.968497170139905
 10
171.7628169382631
 20
-224.5034542857371
 30
-86.86076340244128
 41
1.0
  0
SPLINE
  5
D4
330
1F
100
AcDbEntity
  8
PREDEFINITO
100
AcDbSpline
210
4.055370884880045E-12
220
-1.0
230
2.083565399465699E-12
 70
    12
 71
     2
 72
     6
 73
     3
 74
     0
 42
0.0000000001
 43
0.0000000001
 40
-35.51203127184245
 40
-35.51203127184245
 40
-35.51203127184245
 40
0.0
 40
0.0
 40
0.0
 10
212.0181418055446
 20
-224.5034542856063
 30
-100.2326725254934
 41
1.0
 10
196.2112717700579
 20
-224.5034542856526
 30
-91.70146243916942
 41
0.9828748357189357
 10
178.3875883305095
 20
-224.5034542857202
 30
-89.47548074505465
 41
1.0
  0
SPLINE
  5
D5
330
1F
100
AcDbEntity
  8
PREDEFINITO
100
AcDbSpline
210
-4.518663948248704E-12
220
1.0
230
-1.141555534509332E-12
 70
    12
 71
     2
 72
     8
 73
     5
 74
     0
 42
0.0000000001
 43
0.0000000001
 40
-16.84763925569288
 40
-16.84763925569288
 40
-16.84763925569288
 40
-8.42381962787521
 40
-8.42381962787521
 40
0.0
 40
0.0
 40
0.0
 10
206.9239933807301
 20
-224.50345428564
 30
-109.6712564163166
 41
0.999999999995999
 10
211.6432853261042
 20
-224.5034542856216
 30
-112.2183306286838
 41
0.7071067811885481
 10
214.1903595385095
 20
-224.5034542856047
 30
-107.4990386833303
 41
1.0
 10
216.7374337509395
 20
-224.5034542855878
 30
-102.7797467379312
 41
0.7071067811865476
 10
212.0181418055446
 20
-224.5034542856063
 30
-100.2326725254934
 41
1.0
  0
SPLINE
  5
D6
330
1F
100
AcDbEntity
  8
PREDEFINITO
100
AcDbSpline
210
4.281613398563750E-12
220
-1.0
230
2.009584737723528E-12
 70
    12
 71
     2
 72
     6
 73
     3
 74
     0
 42
0.0000000001
 43
0.0000000001
 40
-28.93362527495279
 40
-28.93362527495279
 40
-28.93362527495279
 40
0.0
 40
0.0
 40
0.0
 10
179.6358124965808
 20
-224.5034542857384
 30
-100.4803503496735
 41
1.0
 10
194.0689207986277
 20
-224.5034542856812
 30
-102.7331766683238
 41
0.9855784366388594
 10
206.9239933807301
 20
-224.5034542856401
 30
-109.6712564163166
 41
0.999999999999948
  0
SPLINE
  5
D7
330
1F
100
AcDbEntity
  8
PREDEFINITO
100
AcDbSpline
210
-5.285787447182187E-12
220
1.0
230
-2.009466976814518E-12
 70
    12
 71
     2
 72
    12
 73
     9
 74
     0
 42
0.0000000001
 43
0.0000000001
 40
-38.05754854896563
 40
-38.05754854896563
 40
-38.05754854896563
 40
-28.54316141172422
 40
-28.54316141172422
 40
-19.02877427448282
 40
-19.02877427448282
 40
-9.514387137241409
 40
-9.514387137241409
 40
0.0
 40
0.0
 40
0.0
 10
79.29569488507735
 20
-224.5034542864545
 30
-228.8386582110208
 41
1.0
 10
78.7492665974075
 20
-224.5034542864678
 30
-234.0741839283883
 41
0.8616555591777231
 10
83.06313307947403
 20
-224.5034542864511
 30
-237.0907829049984
 41
1.0
 10
87.3769995615406
 20
-224.5034542864343
 30
-240.1073818816084
 41
0.8616555591777231
 10
92.1070207860904
 20
-224.5034542864047
 30
-237.7973575037954
 41
1.0
 10
96.83704201064019
 20
-224.503454286375
 30
-235.4873331259824
 41
0.8616555591777231
 10
97.11035583853044
 20
-224.5034542863631
 30
-230.230469711144
 41
1.0
 10
97.38366966642066
 20
-224.503454286351
 30
-224.9736062963056
 41
0.8616555591777231
 10
92.91870852304538
 20
-224.503454286369
 30
-222.1855181702
 41
1.0
  0
SPLINE
  5
D8
330
1F
100
AcDbEntity
  8
PREDEFINITO
100
AcDbSpline
210
-3.553305861675370E-12
220
1.0
230
-1.092160311298125E-11
 70
    12
 71
     2
 72
     6
 73
     3
 74
     0
 42
0.0000000001
 43
0.0000000001
 40
-7.197846534588016
 40
-7.197846534588016
 40
-7.197846534588016
 40
0.0
 40
0.0
 40
0.0
 10
78.24772083136506
 20
-224.5034542863812
 30
-221.7940792197541
 41
1.0
 10
79.67737554473413
 20
-224.5034542864132
 30
-225.181638699878
 41
0.96849717013981
 10
79.29569488507735
 20
-224.5034542864545
 30
-228.8386582110208
 41
1.0
  0
SPLINE
  5
D9
330
1F
100
AcDbEntity
  8
PREDEFINITO
100
AcDbSpline
210
4.766787674338412E-12
220
-1.0
230
2.406745836906945E-12
 70
    12
 71
     2
 72
     6
 73
     3
 74
     0
 42
0.0000000001
 43
0.0000000001
 40
-35.51203127172005
 40
-35.51203127172005
 40
-35.51203127172005
 40
0.0
 40
0.0
 40
0.0
 10
70.74844544910104
 20
-224.5034542863339
 30
-187.2905696769438
 41
1.0
 10
71.26363580708214
 20
-224.5034542863747
 30
-205.2453257250925
 41
0.9828748357190533
 10
78.24772083136506
 20
-224.5034542863812
 30
-221.7940792197541
 41
1.0
  0
SPLINE
  5
DA
330
1F
100
AcDbEntity
  8
PREDEFINITO
100
AcDbSpline
210
3.262836938286554E-12
220
-1.0
230
1.774357226778079E-12
 70
    12
 71
     2
 72
     8
 73
     5
 74
     0
 42
0.0000000001
 43
0.0000000001
 40
-16.84763925569494
 40
-16.84763925569494
 40
-16.84763925569494
 40
-8.423819627847472
 40
-8.423819627847472
 40
0.0
 40
0.0
 40
0.0
 10
81.46957308670827
 20
-224.5034542862984
 30
-186.9829396779244
 41
1.0
 10
81.31575808719876
 20
-224.5034542862894
 30
-181.6223758591202
 41
0.7071067811865476
 10
75.95519426839502
 20
-224.5034542863072
 30
-181.7761908586302
 41
1.0
 10
70.59463044959136
 20
-224.503454286325
 30
-181.9300058581402
 41
0.7071067811865476
 10
70.74844544910104
 20
-224.5034542863339
 30
-187.2905696769438
 41
1.0
  0
SPLINE
  5
DB
330
1F
100
AcDbEntity
  8
PREDEFINITO
100
AcDbSpline
210
4.972819895532037E-12
220
-1.0
230
1.456539219424211E-12
 70
    12
 71
     2
 72
     6
 73
     3
 74
     0
 42
0.0000000001
 43
0.0000000001
 40
-28.93362527492298
 40
-28.93362527492298
 40
-28.93362527492298
 40
0.0
 40
0.0
 40
0.0
 10
87.1541053912633
 20
-224.5034542863113
 30
-215.210650579991
 41
1.0
 10
81.88855606250596
 20
-224.5034542863176
 30
-201.5847989755177
 41
0.9855784366388628
 10
81.46957308670827
 20
-224.5034542862984
 30
-186.9829396779244
 41
1.0
  0
SPLINE
  5
DC
330
1F
100
AcDbEntity
  8
PREDEFINITO
100
AcDbSpline
210
-2.476900880917824E-13
220
-1.0
230
8.075433372258186E-12
 70
    12
 71
     2
 72
     6
 73
     3
 74
     0
 42
0.0000000001
 43
0.0000000001
 40
-9.206926477480154
 40
-9.206926477480154
 40
-9.206926477480154
 40
0.0
 40
0.0
 40
0.0
 10
92.91870852304538
 20
-224.503454286369
 30
-222.1855181702
 41
1.0
 10
88.87327043737902
 20
-224.5034542863476
 30
-219.6593958749725
 41
0.9486295408691819
 10
87.1541053912633
 20
-224.5034542863113
 30
-215.210650579991
 41
1.0
  0
SPLINE
  5
DD
330
1F
100
AcDbEntity
  8
PREDEFINITO
100
AcDbSpline
210
0.0
220
0.0
230
1.0
 70
    24
 71
     3
 72
     8
 73
     4
 74
     0
 42
0.0000000001
 43
0.0000000001
 40
0.0
 40
0.0
 40
0.0
 40
0.0
 40
2.02232539419353
 40
2.02232539419353
 40
2.02232539419353
 40
2.02232539419353
 10
233.1047152880495
 20
-224.5034542856091
 30
-64.91545582777206
 10
233.1047152880493
 20
-224.026787618988
 30
-64.43878916110626
 10
233.1047152880491
 20
-223.550120952367
 30
-63.96212249444045
 10
233.104715288049
 20
-223.073454285746
 30
-63.48545582777464
  0
LINE
  5
DE
330
1F
100
AcDbEntity
  8
PREDEFINITO
100
AcDbLine
 10
166.5147438050043
 20
-224.5034542858
 30
-105.8926697110369
 11
166.5147438050043
 21
-223.0734542858232
 31
-105.8926697110395
  0
LINE
  5
DF
330
1F
100
AcDbEntity
  8
PREDEFINITO
100
AcDbLine
 10
248.4857195917542
 20
-224.5034542856373
 30
-237.928587519624
 11
248.4857195917542
 21
-223.0734542860633
 31
-237.9285875196266
  0
LINE
  5
E0
330
1F
100
AcDbEntity
  8
PREDEFINITO
100
AcDbLine
 10
235.912424482474
 20
-223.0734542860479
 30
-229.4572816534477
 11
235.912424482474
 21
-224.5034542856896
 31
-229.4572816534451
  0
LINE
  5
E1
330
1F
100
AcDbEntity
  8
PREDEFINITO
100
AcDbLine
 10
242.9089222531994
 20
-223.0734542860714
 30
-242.3584491682767
 11
242.9089222531994
 21
-224.5034542857274
 31
-242.3584491682741
  0
LINE
  5
E2
330
1F
100
AcDbEntity
  8
PREDEFINITO
100
AcDbLine
 10
211.1506649249447
 20
-224.5034542858905
 30
-256.9738130528046
 11
211.1506649249447
 21
-223.073454286098
 31
-256.9738130528072
  0
LINE
  5
E3
330
1F
100
AcDbEntity
  8
PREDEFINITO
100
AcDbLine
 10
216.7776441605035
 20
-223.0734542861145
 30
-266.1047669307309
 11
216.7776441605035
 21
-224.5034542858887
 31
-266.1047669307284
  0
LINE
  5
E4
330
1F
100
AcDbEntity
  8
PREDEFINITO
100
AcDbLine
 10
232.7543135271708
 20
-224.5034542857792
 30
-237.9370082034723
 11
232.7543135271707
 21
-223.0734542860633
 31
-237.9370082034749
  0
LINE
  5
E5
330
1F
100
AcDbEntity
  8
PREDEFINITO
100
AcDbLine
 10
171.7628169382631
 20
-224.5034542857371
 30
-86.86076340244128
 11
171.7628169382631
 21
-223.0734542857886
 31
-86.8607634024439
  0
LINE
  5
E6
330
1F
100
AcDbEntity
  8
PREDEFINITO
100
AcDbLine
 10
170.7130984095612
 20
-223.0734542858161
 30
-101.9852093094386
 11
170.7130984095612
 21
-224.5034542857703
 31
-101.985209309436
  0
LINE
  5
E7
330
1F
100
AcDbEntity
  8
PREDEFINITO
100
AcDbLine
 10
178.3875883305095
 20
-223.0734542857933
 30
-89.47548074505727
 11
178.3875883305095
 21
-224.5034542857202
 31
-89.47548074505465
  0
LINE
  5
E8
330
1F
100
AcDbEntity
  8
PREDEFINITO
100
AcDbLine
 10
206.9239933807301
 20
-224.5034542856401
 30
-109.6712564163166
 11
206.9239933807301
 21
-223.0734542858301
 31
-109.6712564163192
  0
LINE
  5
E9
330
1F
100
AcDbEntity
  8
PREDEFINITO
100
AcDbLine
 10
212.0181418055446
 20
-223.0734542858129
 30
-100.232672525496
 11
212.0181418055446
 21
-224.5034542856063
 31
-100.2326725254934
  0
LINE
  5
EA
330
1F
100
AcDbEntity
  8
PREDEFINITO
100
AcDbLine
 10
179.6358124965808
 20
-224.5034542857384
 30
-100.4803503496735
 11
179.6358124965808
 21
-223.0734542858134
 31
-100.4803503496761
  0
LINE
  5
EB
330
1F
100
AcDbEntity
  8
PREDEFINITO
100
AcDbLine
 10
79.29569488507735
 20
-224.5034542864545
 30
-228.8386582110208
 11
79.29569488507732
 21
-223.0734542860468
 31
-228.8386582110233
  0
LINE
  5
EC
330
1F
100
AcDbEntity
  8
PREDEFINITO
100
AcDbLine
 10
92.91870852304538
 20
-223.0734542860347
 30
-222.1855181702026
 11
92.91870852304538
 21
-224.503454286369
 31
-222.1855181702
  0
LINE
  5
ED
330
1F
100
AcDbEntity
  8
PREDEFINITO
100
AcDbLine
 10
78.24772083136506
 20
-223.073454286034
 30
-221.7940792197567
 11
78.24772083136506
 21
-224.5034542863812
 31
-221.7940792197541
  0
LINE
  5
EE
330
1F
100
AcDbEntity
  8
PREDEFINITO
100
AcDbLine
 10
81.46957308670827
 20
-224.5034542862984
 30
-186.9829396779244
 11
81.46957308670827
 21
-223.0734542859707
 31
-186.9829396779269
  0
LINE
  5
EF
330
1F
100
AcDbEntity
  8
PREDEFINITO
100
AcDbLine
 10
70.74844544910104
 20
-223.0734542859713
 30
-187.2905696769464
 11
70.74844544910104
 21
-224.5034542863339
 31
-187.2905696769438
  0
LINE
  5
F0
330
1F
100
AcDbEntity
  8
PREDEFINITO
100
AcDbLine
 10
87.1541053912633
 20
-224.5034542863113
 30
-215.210650579991
 11
87.1541053912633
 21
-223.073454286022
 31
-215.2106505799936
  0
SPLINE
  5
F1
330
1F
100
AcDbEntity
  8
PREDEFINITO
100
AcDbSpline
210
-6.735572372657961E-25
220
-1.0
230
1.818680207842278E-12
 70
    15
 71
     2
 72
    12
 73
     9
 74
     0
 42
0.0000000001
 43
0.0000000001
 40
0.0
 40
0.0
 40
0.0
 40
308.7720448102199
 40
308.7720448102199
 40
617.5440896204399
 40
617.5440896204399
 40
926.3161344306598
 40
926.3161344306598
 40
1235.08817924088
 40
1235.08817924088
 40
1235.08817924088
 10
13.18399281649874
 20
-222.630578453333
 30
-184.5426697110971
 41
0.9225800996658535
 10
13.18399281644199
 20
-222.6305784530542
 30
-31.21191872257995
 41
0.6523626446614861
 10
166.5147438049591
 20
-222.6305784530542
 30
-31.21191872252314
 41
0.9225800996658535
 10
319.8454947934763
 20
-222.6305784530542
 30
-31.21191872246634
 41
0.6523626446614861
 10
319.8454947935331
 20
-222.630578453333
 30
-184.5426697109835
 41
0.9225800996658535
 10
319.8454947935899
 20
-222.6305784536119
 30
-337.8734206995006
 41
0.6523626446614861
 10
166.5147438050727
 20
-222.6305784536119
 30
-337.8734206995575
 41
0.9225800996658535
 10
13.18399281655557
 20
-222.6305784536119
 30
-337.8734206996142
 41
0.6523626446614861
 10
13.18399281649874
 20
-222.630578453333
 30
-184.5426697110971
 41
0.9225800996658535
  0
SPLINE
  5
F2
330
1F
100
AcDbEntity
  8
PREDEFINITO
100
AcDbSpline
210
1.0
220
-4.969005116492993E-15
230
3.771171013814689E-13
 70
    12
 71
     2
 72
     6
 73
     3
 74
     0
 42
0.0000000001
 43
0.0000000001
 40
0.0
 40
0.0
 40
0.0
 40
4.525890943799007
 40
4.525890943799007
 40
4.525890943799007
 10
166.5147438049597
 20
-223.0734542856905
 30
-32.74061629364661
 41
1.0
 10
166.514743804959
 20
-223.073414053277
 30
-30.93183800237848
 41
0.845160199331707
 10
166.5147438049587
 20
-221.4391685721069
 30
-30.15664730593252
 41
1.0
  0
SPLINE
  5
F3
330
1F
100
AcDbEntity
  8
PREDEFINITO
100
AcDbSpline
210
0.0
220
0.0
230
1.0
 70
    12
 71
     2
 72
     6
 73
     3
 74
     0
 42
0.0000000001
 43
0.0000000001
 40
0.0
 40
0.0
 40
0.0
 40
4.525890943799007
 40
4.525890943799007
 40
4.525890943799007
 10
318.3167972224088
 20
-223.0734542859666
 30
-184.5426697109833
 41
1.0
 10
320.1255755136769
 20
-223.0734140535564
 30
-184.5426697109826
 41
0.845160199331707
 10
320.9007662101259
 20
-221.4391685723876
 30
-184.5426697109853
 41
1.0
  0
SPLINE
  5
F4
330
1F
100
AcDbEntity
  8
PREDEFINITO
100
AcDbSpline
210
1.0
220
-4.472104561653616E-14
230
3.456895802277688E-13
 70
    12
 71
     2
 72
     6
 73
     3
 74
     0
 42
0.0000000001
 43
0.0000000001
 40
0.0
 40
0.0
 40
0.0
 40
4.525890943799007
 40
4.525890943799007
 40
4.525890943799007
 10
166.5147438050722
 20
-223.0734542862427
 30
-336.3447231284323
 41
1.0
 10
166.5147438050728
 20
-223.0734140538358
 30
-338.1535014197005
 41
0.845160199331707
 10
166.5147438050732
 20
-221.4391685726684
 30
-338.9286921161524
 41
1.0
  0
SPLINE
  5
F5
330
1F
100
AcDbEntity
  8
PREDEFINITO
100
AcDbSpline
210
-6.752918669640736E-25
220
-1.0
230
1.818708278144020E-12
 70
    15
 71
     2
 72
    12
 73
     9
 74
     0
 42
0.0000000001
 43
0.0000000001
 40
0.0
 40
0.0
 40
0.0
 40
321.6922078217471
 40
321.6922078217471
 40
643.3844156434942
 40
643.3844156434942
 40
965.0766234652413
 40
965.0766234652413
 40
1286.768831286988
 40
1286.768831286988
 40
1286.768831286988
 10
9.490475653482957
 20
-218.4606013653739
 30
-184.5426697111062
 41
0.9225771273645356
 10
9.490475653424658
 20
-218.4606013650884
 30
-27.51840155957321
 41
0.6523605429270685
 10
166.5147438049576
 20
-218.4606013650884
 30
-27.5184015595149
 41
0.9225771273645356
 10
323.5390119564906
 20
-218.4606013650884
 30
-27.51840155945661
 41
0.6523605429270685
 10
323.5390119565488
 20
-218.4606013653739
 30
-184.5426697109896
 41
0.9225771273645356
 10
323.5390119566073
 20
-218.4606013656596
 30
-341.5669378625226
 41
0.6523605429270685
 10
166.5147438050742
 20
-218.4606013656595
 30
-341.5669378625808
 41
0.9225771273645356
 10
9.490475653541266
 20
-218.4606013656596
 30
-341.5669378626392
 41
0.6523605429270685
 10
9.490475653482957
 20
-218.4606013653739
 30
-184.5426697111062
 41
0.9225771273645356
  0
SPLINE
  5
F6
330
1F
100
AcDbEntity
  8
PREDEFINITO
100
AcDbSpline
210
-1.0
220
-7.950128511939706E-15
230
-3.645374499409502E-13
 70
    12
 71
     2
 72
     6
 73
     3
 74
     0
 42
0.0000000001
 43
0.0000000001
 40
0.0
 40
0.0
 40
0.0
 40
11.31500591495937
 40
11.31500591495937
 40
11.31500591495937
 10
166.5147438049586
 20
-221.4391685721063
 30
-30.15664730593366
 41
1.0
 10
166.5147438049579
 20
-217.3534542864028
 30
-28.21862285420577
 41
0.845154254729071
 10
166.5147438049562
 20
-217.3534542863946
 30
-23.69656580017636
 41
1.0
  0
SPLINE
  5
F7
330
1F
100
AcDbEntity
  8
PREDEFINITO
100
AcDbSpline
210
0.0
220
0.0
230
1.0
 70
    12
 71
     2
 72
     6
 73
     3
 74
     0
 42
0.0000000001
 43
0.0000000001
 40
0.0
 40
0.0
 40
0.0
 40
11.31500591495937
 40
11.31500591495937
 40
11.31500591495937
 10
320.9007662101247
 20
-221.4391685723871
 30
-184.5426697109851
 41
1.0
 10
322.83879066186
 20
-217.3534542866871
 30
-184.5426697109919
 41
0.845154254729071
 10
327.3608477158895
 20
-217.3534542866871
 30
-184.5426697109902
 41
1.0
  0
SPLINE
  5
F8
330
1F
100
AcDbEntity
  8
PREDEFINITO
100
AcDbSpline
210
-1.0
220
-1.192519276950351E-14
230
-3.771077068354596E-13
 70
    12
 71
     2
 72
     6
 73
     3
 74
     0
 42
0.0000000001
 43
0.0000000001
 40
0.0
 40
0.0
 40
0.0
 40
11.31500591495937
 40
11.31500591495937
 40
11.31500591495937
 10
166.5147438050733
 20
-221.4391685726678
 30
-338.9286921161513
 41
1.0
 10
166.5147438050739
 20
-217.3534542869714
 30
-340.866716567894
 41
0.845154254729071
 10
166.5147438050757
 20
-217.3534542869796
 30
-345.3887736219234
 41
1.0
  0
LINE
  5
F9
330
1F
100
AcDbEntity
  8
PREDEFINITO
100
AcDbLine
 10
166.5147438050724
 20
-217.3534542876049
 30
-348.2487736219347
 11
166.5147438050713
 21
-217.3534542875997
 31
-345.388773621932
  0
LINE
  5
FA
330
1F
100
AcDbEntity
  8
PREDEFINITO
100
AcDbLine
 10
166.5147438049433
 20
-217.3534542870146
 30
-23.69656580018496
 11
166.5147438049422
 21
-217.3534542870094
 31
-20.83656580018243
  0
LINE
  5
FB
330
1F
100
AcDbEntity
  8
PREDEFINITO
100
AcDbLine
 10
330.2208477158835
 20
-217.3534542879399
 30
-184.5426697109935
 11
327.3608477158807
 21
-217.3534542879289
 31
-184.5426697109946
  0
LINE
  5
FC
330
1F
100
AcDbEntity
  8
PREDEFINITO
100
AcDbLine
 10
5.668639894133712
 20
-217.3534542866854
 30
-184.5426697111226
 11
2.80863989413119
 21
-217.3534542866744
 31
-184.5426697111238
  0
SPLINE
  5
FD
330
1F
100
AcDbEntity
  8
PREDEFINITO
100
AcDbSpline
210
6.735039548000165E-25
220
1.0
230
-1.818608333086438E-12
 70
    15
 71
     2
 72
    12
 73
     9
 74
     0
 42
0.0000000001
 43
0.0000000001
 40
0.0
 40
0.0
 40
0.0
 40
341.712207821759
 40
341.712207821759
 40
683.4244156435179
 40
683.4244156435179
 40
1025.136623465277
 40
1025.136623465277
 40
1366.848831287036
 40
1366.848831287036
 40
1366.848831287036
 10
-2.247173591097904
 20
-219.4476408009416
 30
-184.5426697111086
 41
0.8535533906105646
 10
-2.247173591160393
 20
-219.4476408006347
 30
-15.78075231499476
 41
0.6035533906055005
 10
166.5147438049534
 20
-219.4476408006348
 30
-15.78075231493224
 41
0.8535533906105646
 10
335.2766612010672
 20
-219.4476408006347
 30
-15.78075231486975
 41
0.6035533906055005
 10
335.2766612011297
 20
-219.4476408009416
 30
-184.5426697109836
 41
0.8535533906105646
 10
335.2766612011923
 20
-219.4476408012485
 30
-353.3045871070974
 41
0.6035533906055005
 10
166.5147438050785
 20
-219.4476408012485
 30
-353.3045871071599
 41
0.8535533906105646
 10
-2.24717359103539
 20
-219.4476408012485
 30
-353.3045871072224
 41
0.6035533906055005
 10
-2.247173591097904
 20
-219.4476408009416
 30
-184.5426697111086
 41
0.8535533906105646
  0
SPLINE
  5
FE
330
1F
100
AcDbEntity
  8
PREDEFINITO
100
AcDbSpline
210
-1.0
220
-3.975064294165429E-15
230
-3.776311043569601E-13
 70
    12
 71
     2
 72
     6
 73
     3
 74
     0
 42
0.0000000001
 43
0.0000000001
 40
0.0
 40
0.0
 40
0.0
 40
17.26162696928018
 40
17.26162696928018
 40
17.26162696928018
 10
166.5147438049553
 20
-217.353454286377
 30
-20.83656580017373
 41
1.0
 10
166.5147438049526
 20
-217.353454286361
 30
-13.68656580087269
 41
0.707106781221129
 10
166.5147438049526
 20
-224.503454285662
 30
-13.68656580015744
 41
1.0
  0
SPLINE
  5
FF
330
1F
100
AcDbEntity
  8
PREDEFINITO
100
AcDbSpline
210
0.0
220
0.0
230
1.0
 70
    12
 71
     2
 72
     6
 73
     3
 74
     0
 42
0.0000000001
 43
0.0000000001
 40
0.0
 40
0.0
 40
0.0
 40
17.26162696928018
 40
17.26162696928018
 40
17.26162696928018
 10
330.2208477158921
 20
-217.3534542866747
 30
-184.5426697109893
 41
1.0
 10
337.3708477151931
 20
-217.3534542866717
 30
-184.5426697109866
 41
0.707106781221129
 10
337.3708477158954
 20
-224.5034542859727
 30
-184.5426697109736
 41
1.0
  0
SPLINE
  5
100
330
1F
100
AcDbEntity
  8
PREDEFINITO
100
AcDbSpline
210
-1.0
220
-3.975064220750720E-15
230
-3.696809758441858E-13
 70
    12
 71
     2
 72
     6
 73
     3
 74
     0
 42
0.0000000001
 43
0.0000000001
 40
0.0
 40
0.0
 40
0.0
 40
17.26162696928018
 40
17.26162696928018
 40
17.26162696928018
 10
166.5147438050766
 20
-217.3534542869724
 30
-348.248773621926
 41
1.0
 10
166.5147438050792
 20
-217.3534542869824
 30
-355.3987736212271
 41
0.707106781221129
 10
166.5147438050792
 20
-224.5034542862834
 30
-355.3987736219163
 41
1.0
  0
ARC
  5
101
330
1F
100
AcDbEntity
  8
PREDEFINITO
100
AcDbCircle
 10
-166.5147438050159
 20
-184.5426697114453
 30
-225.2185182139522
 40
170.8561039108791
210
0.0
220
1.0
230
-1.818989403545856E-12
100
AcDbArc
 50
90.0
 51
360.0
  0
LINE
  5
102
330
1F
100
AcDbEntity
  8
PREDEFINITO
100
AcDbLine
 10
337.370847715895
 20
-225.9335821426029
 30
-184.5426697110343
 11
337.370847715895
 21
-224.5034542859728
 31
-184.542669711037
  0
LINE
  5
103
330
1F
100
AcDbEntity
  8
PREDEFINITO
100
AcDbLine
 10
166.5147438050159
 20
-225.9335820583024
 30
-355.3987736219134
 11
166.5147438050159
 21
-224.5034542862835
 31
-355.3987736219161
  0
ARC
  5
104
330
1F
100
AcDbEntity
  8
PREDEFINITO
100
AcDbCircle
 10
-166.5147438050159
 20
-184.5426697114453
 30
-225.2185182139522
 40
170.8561039108791
210
0.0
220
1.0
230
-1.818989403545856E-12
100
AcDbArc
 50
360.0
 51
90.0
  0
LINE
  5
105
330
1F
100
AcDbEntity
  8
PREDEFINITO
100
AcDbLine
 10
166.5147438050749
 20
-225.9335820583022
 30
-355.3987736218986
 11
166.5147438050743
 21
-225.9335820582996
 31
-353.9687736218988
  0
LINE
  5
106
330
1F
100
AcDbEntity
  8
PREDEFINITO
100
AcDbLine
 10
166.5147438049395
 20
-225.9335820576832
 30
-15.11656580015163
 11
166.5147438049389
 21
-225.9335820576806
 31
-13.6865658001516
  0
LINE
  5
107
330
1F
100
AcDbEntity
  8
PREDEFINITO
100
AcDbLine
 10
-4.341360105866557
 20
-225.93358197338
 30
-184.5426697110931
 11
-2.911360105866635
 21
-225.9335819740882
 31
-184.5426697110925
  0
LINE
  5
108
330
1F
100
AcDbEntity
  8
PREDEFINITO
100
AcDbLine
 10
335.9408477158804
 20
-225.9335821418945
 30
-184.5426697109577
 11
337.3708477158804
 21
-225.9335821426027
 31
-184.5426697109571
  0
ARC
  5
109
330
1F
100
AcDbEntity
  8
PREDEFINITO
100
AcDbCircle
 10
-166.5147438050159
 20
-184.5426697114453
 30
-225.2185819737534
 40
169.4261039108735
210
0.0
220
1.0
230
-1.818989403545856E-12
100
AcDbArc
 50
90.0
 51
360.0
  0
LINE
  5
10A
330
1F
100
AcDbEntity
  8
PREDEFINITO
100
AcDbLine
 10
335.9408477158894
 20
-225.9335819740885
 30
-184.5426697110343
 11
335.9408477158893
 21
-224.5035819740897
 31
-184.5426697110369
  0
LINE
  5
10B
330
1F
100
AcDbEntity
  8
PREDEFINITO
100
AcDbLine
 10
166.5147438050159
 20
-225.9335819743966
 30
-353.9687736219078
 11
166.5147438050159
 21
-224.5035819743979
 31
-353.9687736219104
  0
ARC
  5
10C
330
1F
100
AcDbEntity
  8
PREDEFINITO
100
AcDbCircle
 10
-166.5147438050159
 20
-184.5426697114453
 30
-225.2185819737534
 40
169.4261039108735
210
0.0
220
1.0
230
-1.818989403545856E-12
100
AcDbArc
 50
360.0
 51
90.0
  0
SPLINE
  5
10D
330
1F
100
AcDbEntity
  8
PREDEFINITO
100
AcDbSpline
210
-6.734950096296219E-25
220
-1.0
230
1.818472935417845E-12
 70
    15
 71
     2
 72
    12
 73
     9
 74
     0
 42
0.0000000001
 43
0.0000000001
 40
0.0
 40
0.0
 40
0.0
 40
338.8522078217497
 40
338.8522078217497
 40
677.7044156434994
 40
677.7044156434994
 40
1016.556623465249
 40
1016.556623465249
 40
1355.408831286999
 40
1355.408831286999
 40
1355.408831286999
 10
-1.236010894246306
 20
-220.4589311857036
 30
-184.5426697111064
 41
0.853553390593274
 10
-1.236010894308442
 20
-220.4589311853985
 30
-16.79191501184415
 41
0.603553390593274
 10
166.5147438049538
 20
-220.4589311853985
 30
-16.79191501178201
 41
0.853553390593274
 10
334.2654985042161
 20
-220.4589311853985
 30
-16.79191501171989
 41
0.603553390593274
 10
334.2654985042782
 20
-220.4589311857036
 30
-184.5426697109822
 41
0.853553390593274
 10
334.2654985043403
 20
-220.4589311860086
 30
-352.2934244102444
 41
0.603553390593274
 10
166.5147438050781
 20
-220.4589311860087
 30
-352.2934244103066
 41
0.853553390593274
 10
-1.236010894184159
 20
-220.4589311860086
 30
-352.2934244103686
 41
0.603553390593274
 10
-1.236010894246306
 20
-220.4589311857036
 30
-184.5426697111064
 41
0.853553390593274
  0
SPLINE
  5
10E
330
1F
100
AcDbEntity
  8
PREDEFINITO
100
AcDbSpline
210
-1.0
220
-6.813252259725536E-25
230
-3.726622740001377E-13
 70
    12
 71
     2
 72
     6
 73
     3
 74
     0
 42
0.0000000001
 43
0.0000000001
 40
0.0
 40
0.0
 40
0.0
 40
13.80930157677102
 40
13.80930157677102
 40
13.80930157677102
 10
166.5147438049532
 20
-224.5035819737816
 30
-15.11656580016205
 41
1.0
 10
166.5147438049532
 20
-218.7835819737828
 30
-15.11656580017251
 41
0.707106781186548
 10
166.5147438049553
 20
-218.7835819737933
 30
-20.8365658001712
 41
1.0
  0
SPLINE
  5
10F
330
1F
100
AcDbEntity
  8
PREDEFINITO
100
AcDbSpline
210
0.0
220
0.0
230
1.0
 70
    12
 71
     2
 72
     6
 73
     3
 74
     0
 42
0.0000000001
 43
0.0000000001
 40
0.0
 40
0.0
 40
0.0
 40
13.80930157677102
 40
13.80930157677102
 40
13.80930157677102
 10
335.9408477158908
 20
-224.5035819740897
 30
-184.5426697109741
 41
1.0
 10
335.9408477158908
 20
-218.783581974091
 30
-184.5426697109845
 41
0.707106781186548
 10
330.220847715892
 20
-218.783581974091
 30
-184.5426697109867
 41
1.0
  0
SPLINE
  5
110
330
1F
100
AcDbEntity
  8
PREDEFINITO
100
AcDbSpline
210
-1.0
220
-6.777205918592044E-25
230
-3.726622740001359E-13
 70
    12
 71
     2
 72
     6
 73
     3
 74
     0
 42
0.0000000001
 43
0.0000000001
 40
0.0
 40
0.0
 40
0.0
 40
13.80930157677102
 40
13.80930157677102
 40
13.80930157677102
 10
166.5147438050787
 20
-224.5035819743979
 30
-353.9687736219117
 41
1.0
 10
166.5147438050787
 20
-218.7835819743991
 30
-353.9687736219221
 41
0.707106781186548
 10
166.5147438050766
 20
-218.7835819743887
 30
-348.2487736219234
 41
1.0
  0
LINE
  5
111
330
1F
100
AcDbEntity
  8
PREDEFINITO
100
AcDbLine
 10
166.5147416925414
 20
-218.7762731606864
 30
-348.2487737850692
 11
166.5147416925403
 21
-218.7762731606812
 31
-345.3887736219121
  0
LINE
  5
112
330
1F
100
AcDbEntity
  8
PREDEFINITO
100
AcDbLine
 10
166.5147416924123
 20
-218.7762731600961
 30
-23.69656580016497
 11
166.5147416924111
 21
-218.7762731600909
 31
-20.83656563700816
  0
LINE
  5
113
330
1F
100
AcDbEntity
  8
PREDEFINITO
100
AcDbLine
 10
2.808639894131279
 20
-218.7835819740914
 30
-184.5426697110429
 11
5.668639894133758
 21
-218.7834542866872
 31
-184.5426697110418
  0
LINE
  5
114
330
1F
100
AcDbEntity
  8
PREDEFINITO
100
AcDbLine
 10
327.3608470746644
 20
-218.76909203393
 30
-184.5426697109138
 11
330.2208477158835
 21
-218.7689643464972
 31
-184.5426697109127
  0
SPLINE
  5
115
330
1F
100
AcDbEntity
  8
PREDEFINITO
100
AcDbSpline
210
-6.751461439979529E-25
220
-1.0
230
1.818634077874617E-12
 70
    15
 71
     2
 72
    12
 73
     9
 74
     0
 42
0.0000000001
 43
0.0000000001
 40
0.0
 40
0.0
 40
0.0
 40
321.6922078217471
 40
321.6922078217471
 40
643.3844156434942
 40
643.3844156434942
 40
965.0766234652413
 40
965.0766234652413
 40
1286.768831286988
 40
1286.768831286988
 40
1286.768831286988
 10
8.726108501626346
 20
-219.669171949642
 30
-184.5426697111043
 41
0.9225771273639389
 10
8.726108501567754
 20
-219.669171949355
 30
-26.75403440771468
 41
0.6523605429266466
 10
166.5147438049574
 20
-219.669171949355
 30
-26.7540344076561
 41
0.9225771273639389
 10
324.3033791083469
 20
-219.669171949355
 30
-26.75403440759752
 41
0.6523605429266466
 10
324.3033791084056
 20
-219.669171949642
 30
-184.5426697109871
 41
0.9225771273639389
 10
324.3033791084641
 20
-219.669171949929
 30
-342.3313050143767
 41
0.6523605429266466
 10
166.5147438050745
 20
-219.6691719499289
 30
-342.3313050144353
 41
0.9225771273639389
 10
8.72610850168495
 20
-219.669171949929
 30
-342.3313050144939
 41
0.6523605429266466
 10
8.726108501626346
 20
-219.669171949642
 30
-184.5426697111043
 41
0.9225771273639389
  0
SPLINE
  5
116
330
1F
100
AcDbEntity
  8
PREDEFINITO
100
AcDbSpline
210
-1.0
220
2.608635917828310E-14
230
-3.849641173926102E-13
 70
    12
 71
     2
 72
     6
 73
     3
 74
     0
 42
0.0000000001
 43
0.0000000001
 40
0.0
 40
0.0
 40
0.0
 40
9.052004732008534
 40
9.052004732008534
 40
9.052004732008534
 10
166.5147438049562
 20
-218.783454286393
 30
-23.69656580017377
 41
1.0
 10
166.5147438049576
 20
-218.7834542863995
 30
-27.31421144341601
 41
0.845154254727878
 10
166.5147438049581
 20
-222.0520257149861
 30
-28.86463100479176
 41
1.0
  0
SPLINE
  5
117
330
1F
100
AcDbEntity
  8
PREDEFINITO
100
AcDbSpline
210
0.0
220
0.0
230
1.0
 70
    12
 71
     2
 72
     6
 73
     3
 74
     0
 42
0.0000000001
 43
0.0000000001
 40
0.0
 40
0.0
 40
0.0
 40
9.052004732008534
 40
9.052004732008534
 40
9.052004732008534
 10
327.3608477158895
 20
-218.7834542866855
 30
-184.5426697109876
 41
1.0
 10
323.7432020726473
 20
-218.7834542866855
 30
-184.5426697109889
 41
0.845154254727878
 10
322.1927825112655
 20
-222.0520257152692
 30
-184.5426697109835
 41
1.0
  0
SPLINE
  5
118
330
1F
100
AcDbEntity
  8
PREDEFINITO
100
AcDbSpline
210
-1.0
220
1.117986822015960E-14
230
-3.613948857154952E-13
 70
    12
 71
     2
 72
     6
 73
     3
 74
     0
 42
0.0000000001
 43
0.0000000001
 40
0.0
 40
0.0
 40
0.0
 40
9.052004732008534
 40
9.052004732008534
 40
9.052004732008534
 10
166.5147438050757
 20
-218.783454286978
 30
-345.3887736219208
 41
1.0
 10
166.5147438050743
 20
-218.7834542869714
 30
-341.7711279786786
 41
0.845154254727878
 10
166.5147438050737
 20
-222.0520257155523
 30
-340.220708417291
 41
1.0
  0
SPLINE
  5
119
330
1F
100
AcDbEntity
  8
PREDEFINITO
100
AcDbSpline
210
-6.735802977462692E-25
220
-1.0
230
1.818881349555394E-12
 70
    15
 71
     2
 72
    12
 73
     9
 74
     0
 42
0.0000000001
 43
0.0000000001
 40
0.0
 40
0.0
 40
0.0
 40
311.3560774124981
 40
311.3560774124981
 40
622.7121548249961
 40
622.7121548249961
 40
934.0682322374942
 40
934.0682322374942
 40
1245.424309649992
 40
1245.424309649992
 40
1245.424309649992
 10
12.41965254662203
 20
-223.8391660394749
 30
-184.5426697110952
 41
0.9225771273646635
 10
12.41965254656493
 20
-223.8391660391946
 30
-30.44757845270126
 41
0.6523605429271591
 10
166.5147438049589
 20
-223.8391660391947
 30
-30.44757845264419
 41
0.9225771273646635
 10
320.6098350633528
 20
-223.8391660391946
 30
-30.44757845258709
 41
0.6523605429271591
 10
320.6098350634099
 20
-223.8391660394749
 30
-184.542669710981
 41
0.9225771273646635
 10
320.609835063467
 20
-223.8391660397551
 30
-338.6377609693749
 41
0.6523605429271591
 10
166.514743805073
 20
-223.8391660397551
 30
-338.6377609694321
 41
0.9225771273646635
 10
12.4196525466791
 20
-223.8391660397551
 30
-338.6377609694891
 41
0.6523605429271591
 10
12.41965254662203
 20
-223.8391660394749
 30
-184.5426697110952
 41
0.9225771273646635
  0
SPLINE
  5
11A
330
1F
100
AcDbEntity
  8
PREDEFINITO
100
AcDbSpline
210
1.0
220
-4.436531108663229E-25
230
3.666324927569658E-13
 70
    12
 71
     2
 72
     6
 73
     3
 74
     0
 42
0.0000000001
 43
0.0000000001
 40
0.0
 40
0.0
 40
0.0
 40
6.789003548972019
 40
6.789003548972019
 40
6.789003548972019
 10
166.5147438049583
 20
-222.0520257149858
 30
-28.86463100479233
 41
1.0
 10
166.5147438049587
 20
-224.5034542864052
 30
-30.02744567583064
 41
0.845154254729327
 10
166.5147438049597
 20
-224.5034542864101
 30
-32.74067990824645
 41
1.0
  0
SPLINE
  5
11B
330
1F
100
AcDbEntity
  8
PREDEFINITO
100
AcDbSpline
210
0.0
220
0.0
230
1.0
 70
    12
 71
     2
 72
     6
 73
     3
 74
     0
 42
0.0000000001
 43
0.0000000001
 40
0.0
 40
0.0
 40
0.0
 40
6.789003548972019
 40
6.789003548972019
 40
6.789003548972019
 10
322.192782511265
 20
-222.0520257152689
 30
-184.5426697109837
 41
1.0
 10
321.0299678402221
 20
-224.5034542866862
 30
-184.5426697109797
 41
0.845154254729327
 10
318.3167336078064
 20
-224.5034542866862
 30
-184.5426697109806
 41
1.0
  0
SPLINE
  5
11C
330
1F
100
AcDbEntity
  8
PREDEFINITO
100
AcDbSpline
210
1.0
220
-3.312553546514211E-14
230
3.456820645994862E-13
 70
    12
 71
     2
 72
     6
 73
     3
 74
     0
 42
0.0000000001
 43
0.0000000001
 40
0.0
 40
0.0
 40
0.0
 40
6.789003548972019
 40
6.789003548972019
 40
6.789003548972019
 10
166.5147438050736
 20
-222.052025715552
 30
-340.2207084172904
 41
1.0
 10
166.5147438050731
 20
-224.5034542869672
 30
-339.0578937462431
 41
0.845154254729327
 10
166.5147438050722
 20
-224.5034542869622
 30
-336.3446595138273
 41
1.0
  0
SPLINE
  5
11D
330
1F
100
AcDbEntity
  8
PREDEFINITO
100
AcDbSpline
210
0.0
220
0.0
230
1.0
 70
    24
 71
     3
 72
     8
 73
     4
 74
     0
 42
0.0000000001
 43
0.0000000001
 40
0.0
 40
0.0
 40
0.0
 40
0.0
 40
2.022325394193628
 40
2.022325394193628
 40
2.022325394193628
 40
2.022325394193628
 10
34.97651276372823
 20
-224.5034542859591
 30
-180.5792265166124
 10
35.15892519982211
 20
-224.0267876192916
 30
-180.1388439394494
 10
35.34133763591596
 20
-223.550120952624
 30
-179.6984613622865
 10
35.52375007200988
 20
-223.0734542859565
 30
-179.2580787851236
  0
SPLINE
  5
11E
330
1F
100
AcDbEntity
  8
PREDEFINITO
100
AcDbSpline
210
0.0
220
0.0
230
1.0
 70
    24
 71
     3
 72
     8
 73
     4
 74
     0
 42
0.0000000001
 43
0.0000000001
 40
0.0
 40
0.0
 40
0.0
 40
0.0
 40
2.022325394193628
 40
2.022325394193628
 40
2.022325394193628
 40
2.022325394193628
 10
36.36828893017263
 20
-224.5034542859607
 30
-181.509181619795
 10
36.70534316253806
 20
-224.0267876192934
 30
-181.1721273874301
 10
37.04239739490355
 20
-223.5501209526261
 30
-180.8350731550653
 10
37.37945162726899
 20
-223.0734542859588
 30
-180.4980189227005
  0
SPLINE
  5
11F
330
1F
100
AcDbEntity
  8
PREDEFINITO
100
AcDbSpline
210
0.0
220
0.0
230
1.0
 70
    24
 71
     3
 72
     8
 73
     4
 74
     0
 42
0.0000000001
 43
0.0000000001
 40
0.0
 40
0.0
 40
0.0
 40
0.0
 40
2.022325394193628
 40
2.022325394193628
 40
2.022325394193628
 40
2.022325394193628
 10
37.29824403335629
 20
-224.5034542859633
 30
-182.9009577862386
 10
37.7386266105199
 20
-224.0267876192962
 30
-182.7185453501453
 10
38.17900918768359
 20
-223.5501209526291
 30
-182.536132914052
 10
38.61939176484725
 20
-223.0734542859622
 30
-182.3537204779587
  0
SPLINE
  5
120
330
1F
100
AcDbEntity
  8
PREDEFINITO
100
AcDbSpline
210
0.0
220
0.0
230
1.0
 70
    24
 71
     3
 72
     8
 73
     4
 74
     0
 42
0.0000000001
 43
0.0000000001
 40
0.0
 40
0.0
 40
0.0
 40
0.0
 40
2.022325394193628
 40
2.022325394193628
 40
2.022325394193628
 40
2.022325394193628
 10
37.62480083888349
 20
-224.5034542859662
 30
-184.5426697110847
 10
38.10146750555017
 20
-224.0267876192995
 30
-184.5426697110854
 10
38.57813417221682
 20
-223.5501209526328
 30
-184.5426697110861
 10
39.05480083888354
 20
-223.0734542859661
 30
-184.5426697110868
  0
SPLINE
  5
121
330
1F
100
AcDbEntity
  8
PREDEFINITO
100
AcDbSpline
210
0.0
220
0.0
230
1.0
 70
    24
 71
     3
 72
     8
 73
     4
 74
     0
 42
0.0000000001
 43
0.0000000001
 40
0.0
 40
0.0
 40
0.0
 40
0.0
 40
2.022325394193628
 40
2.022325394193628
 40
2.022325394193628
 40
2.022325394193628
 10
37.29824403335751
 20
-224.5034542859692
 30
-186.1843816359311
 10
37.73862661052133
 20
-224.0267876193028
 30
-186.3667940720258
 10
38.17900918768511
 20
-223.5501209526364
 30
-186.5492065081206
 10
38.61939176484891
 20
-223.07345428597
 30
-186.7316189442153
  0
SPLINE
  5
122
330
1F
100
AcDbEntity
  8
PREDEFINITO
100
AcDbSpline
210
0.0
220
0.0
230
1.0
 70
    24
 71
     3
 72
     8
 73
     4
 74
     0
 42
0.0000000001
 43
0.0000000001
 40
0.0
 40
0.0
 40
0.0
 40
0.0
 40
2.022325394193628
 40
2.022325394193628
 40
2.022325394193628
 40
2.022325394193628
 10
36.36828893017489
 20
-224.5034542859718
 30
-187.5761578023755
 10
36.70534316254057
 20
-224.0267876193057
 30
-187.9132120347419
 10
37.04239739490633
 20
-223.5501209526395
 30
-188.2502662671082
 10
37.37945162727205
 20
-223.0734542859734
 30
-188.5873204994745
  0
SPLINE
  5
123
330
1F
100
AcDbEntity
  8
PREDEFINITO
100
AcDbSpline
210
0.0
220
0.0
230
1.0
 70
    24
 71
     3
 72
     8
 73
     4
 74
     0
 42
0.0000000001
 43
0.0000000001
 40
0.0
 40
0.0
 40
0.0
 40
0.0
 40
2.022325394193628
 40
2.022325394193628
 40
2.022325394193628
 40
2.022325394193628
 10
34.97651276373116
 20
-224.5034542859735
 30
-188.5061129055592
 10
35.15892519982534
 20
-224.0267876193076
 30
-188.9464954827237
 10
35.34133763591957
 20
-223.5501209526417
 30
-189.3868780598883
 10
35.52375007201379
 20
-223.0734542859757
 30
-189.8272606370527
  0
SPLINE
  5
124
330
1F
100
AcDbEntity
  8
PREDEFINITO
100
AcDbSpline
210
0.0
220
0.0
230
1.0
 70
    24
 71
     3
 72
     8
 73
     4
 74
     0
 42
0.0000000001
 43
0.0000000001
 40
0.0
 40
0.0
 40
0.0
 40
0.0
 40
2.022325394193628
 40
2.022325394193628
 40
2.022325394193628
 40
2.022325394193628
 10
33.33480083888509
 20
-224.503454285974
 30
-188.8326697110864
 10
33.33480083888523
 20
-224.0267876193082
 30
-189.3093363777539
 10
33.33480083888546
 20
-223.5501209526423
 30
-189.7860030444214
 10
33.33480083888558
 20
-223.0734542859765
 30
-190.262669711089
  0
SPLINE
  5
125
330
1F
100
AcDbEntity
  8
PREDEFINITO
100
AcDbSpline
210
0.0
220
0.0
230
1.0
 70
    24
 71
     3
 72
     8
 73
     4
 74
     0
 42
0.0000000001
 43
0.0000000001
 40
0.0
 40
0.0
 40
0.0
 40
0.0
 40
2.022325394193628
 40
2.022325394193628
 40
2.022325394193628
 40
2.022325394193628
 10
31.69308891403872
 20
-224.5034542859735
 30
-188.5061129055605
 10
31.51067647794486
 20
-224.0267876193076
 30
-188.9464954827251
 10
31.32826404185099
 20
-223.5501209526417
 30
-189.3868780598897
 10
31.14585160575712
 20
-223.0734542859758
 30
-189.8272606370544
  0
SPLINE
  5
126
330
1F
100
AcDbEntity
  8
PREDEFINITO
100
AcDbSpline
210
0.0
220
0.0
230
1.0
 70
    24
 71
     3
 72
     8
 73
     4
 74
     0
 42
0.0000000001
 43
0.0000000001
 40
0.0
 40
0.0
 40
0.0
 40
0.0
 40
2.022325394193628
 40
2.022325394193628
 40
2.022325394193628
 40
2.022325394193628
 10
30.30131274759434
 20
-224.5034542859717
 30
-187.5761578023778
 10
29.96425851522887
 20
-224.0267876193057
 30
-187.9132120347444
 10
29.62720428286343
 20
-223.5501209526396
 30
-188.2502662671109
 10
29.29015005049792
 20
-223.0734542859734
 30
-188.5873204994775
  0
SPLINE
  5
127
330
1F
100
AcDbEntity
  8
PREDEFINITO
100
AcDbSpline
210
0.0
220
0.0
230
1.0
 70
    24
 71
     3
 72
     8
 73
     4
 74
     0
 42
0.0000000001
 43
0.0000000001
 40
0.0
 40
0.0
 40
0.0
 40
0.0
 40
2.022325394193628
 40
2.022325394193628
 40
2.022325394193628
 40
2.022325394193628
 10
29.3713576444107
 20
-224.5034542859692
 30
-186.1843816359341
 10
28.93097506724708
 20
-224.0267876193028
 30
-186.3667940720292
 10
28.49059249008336
 20
-223.5501209526365
 30
-186.5492065081242
 10
28.05020991291972
 20
-223.0734542859701
 30
-186.7316189442193
  0
SPLINE
  5
128
330
1F
100
AcDbEntity
  8
PREDEFINITO
100
AcDbSpline
210
0.0
220
0.0
230
1.0
 70
    24
 71
     3
 72
     8
 73
     4
 74
     0
 42
0.0000000001
 43
0.0000000001
 40
0.0
 40
0.0
 40
0.0
 40
0.0
 40
2.022325394193628
 40
2.022325394193628
 40
2.022325394193628
 40
2.022325394193628
 10
29.04480083888342
 20
-224.5034542859662
 30
-184.5426697110879
 10
28.56813417221677
 20
-224.0267876192995
 30
-184.542669711089
 10
28.09146750555011
 20
-223.5501209526328
 30
-184.54266971109
 10
27.61480083888343
 20
-223.0734542859661
 30
-184.5426697110911
  0
SPLINE
  5
129
330
1F
100
AcDbEntity
  8
PREDEFINITO
100
AcDbSpline
210
0.0
220
0.0
230
1.0
 70
    24
 71
     3
 72
     8
 73
     4
 74
     0
 42
0.0000000001
 43
0.0000000001
 40
0.0
 40
0.0
 40
0.0
 40
0.0
 40
2.022325394193628
 40
2.022325394193628
 40
2.022325394193628
 40
2.022325394193628
 10
29.37135764440945
 20
-224.5034542859632
 30
-182.9009577862416
 10
28.93097506724561
 20
-224.0267876192962
 30
-182.7185453501486
 10
28.49059249008184
 20
-223.5501209526291
 30
-182.5361329140556
 10
28.05020991291804
 20
-223.0734542859621
 30
-182.3537204779626
  0
SPLINE
  5
12A
330
1F
100
AcDbEntity
  8
PREDEFINITO
100
AcDbSpline
210
0.0
220
0.0
230
1.0
 70
    24
 71
     3
 72
     8
 73
     4
 74
     0
 42
0.0000000001
 43
0.0000000001
 40
0.0
 40
0.0
 40
0.0
 40
0.0
 40
2.022325394193628
 40
2.022325394193628
 40
2.022325394193628
 40
2.022325394193628
 10
30.30131274759206
 20
-224.5034542859607
 30
-181.5091816197972
 10
29.96425851522639
 20
-224.0267876192934
 30
-181.1721273874326
 10
29.62720428286063
 20
-223.5501209526261
 30
-180.835073155068
 10
29.29015005049497
 20
-223.0734542859588
 30
-180.4980189227034
  0
SPLINE
  5
12B
330
1F
100
AcDbEntity
  8
PREDEFINITO
100
AcDbSpline
210
0.0
220
0.0
230
1.0
 70
    24
 71
     3
 72
     8
 73
     4
 74
     0
 42
0.0000000001
 43
0.0000000001
 40
0.0
 40
0.0
 40
0.0
 40
0.0
 40
2.022325394193628
 40
2.022325394193628
 40
2.022325394193628
 40
2.022325394193628
 10
31.69308891403583
 20
-224.503454285959
 30
-180.5792265166136
 10
31.51067647794167
 20
-224.0267876192915
 30
-180.1388439394508
 10
31.32826404184741
 20
-223.550120952624
 30
-179.698461362288
 10
31.14585160575324
 20
-223.0734542859565
 30
-179.2580787851252
  0
SPLINE
  5
12C
330
1F
100
AcDbEntity
  8
PREDEFINITO
100
AcDbSpline
210
6.802545325596554E-25
220
1.0
230
-1.820875412904161E-12
 70
    11
 71
     3
 72
    23
 73
    19
 74
     0
 42
0.0000000001
 43
0.0000000001
 40
0.0
 40
0.0
 40
0.0
 40
0.0
 40
1.952854123381436
 40
3.905708246762862
 40
5.858562370144317
 40
7.811416493525764
 40
9.764270616907215
 40
11.71712474028867
 40
13.66997886367011
 40
15.62283298705157
 40
17.57568711043298
 40
19.52854123381443
 40
21.48139535719588
 40
23.43424948057733
 40
25.38710360395878
 40
27.33995772734024
 40
29.29281185072167
 40
31.24566597410314
 40
31.24566597410314
 40
31.24566597410314
 40
31.24566597410314
 10
33.33480083888165
 20
-223.7884542859571
 30
-179.5376697110877
 10
33.98575221334212
 20
-223.7884542859571
 30
-179.5376697110875
 10
35.30190430738543
 20
-223.7884542859576
 30
-179.7982706938188
 10
36.96549511135203
 20
-223.7884542859596
 30
-180.9114639102109
 10
38.07933691953134
 20
-223.7884542859626
 30
-182.5774752928239
 10
38.47006460513314
 20
-223.7884542859662
 30
-184.5426697110858
 10
38.07920969323714
 20
-223.7884542859697
 30
-186.507864129348
 10
36.96600401653769
 20
-223.7884542859728
 30
-188.1738755119618
 10
35.29999591295289
 20
-223.7884542859748
 30
-189.2870687283551
 10
33.33480083888545
 20
-223.7884542859755
 30
-189.6779702024536
 10
31.36960576481749
 20
-223.7884542859748
 30
-189.2870687283565
 10
29.703597661232
 20
-223.7884542859728
 30
-188.1738755119645
 10
28.59039198453138
 20
-223.7884542859697
 30
-186.5078641293515
 10
28.1995370726338
 20
-223.7884542859662
 30
-184.5426697110896
 10
28.59026475823411
 20
-223.7884542859626
 30
-182.5774752928274
 10
29.70410656641221
 20
-223.7884542859596
 30
-180.9114639102136
 10
31.3676973703781
 20
-223.7884542859576
 30
-179.7982706938203
 10
32.68384946442117
 20
-223.7884542859571
 30
-179.5376697110879
 10
33.33480083888165
 20
-223.7884542859571
 30
-179.5376697110877
  0
SPLINE
  5
12D
330
1F
100
AcDbEntity
  8
PREDEFINITO
100
AcDbSpline
210
0.0
220
0.0
230
1.0
 70
    24
 71
     3
 72
     8
 73
     4
 74
     0
 42
0.0000000001
 43
0.0000000001
 40
0.0
 40
0.0
 40
0.0
 40
0.0
 40
2.022325394193543
 40
2.022325394193543
 40
2.022325394193543
 40
2.022325394193543
 10
234.7464272129814
 20
-224.5034542861688
 30
-295.9164403997782
 10
234.9288396490753
 20
-224.0267876195013
 30
-295.4760578226152
 10
235.1112520851692
 20
-223.5501209528339
 30
-295.0356752454523
 10
235.293664521263
 20
-223.0734542861663
 30
-294.5952926682893
  0
SPLINE
  5
12E
330
1F
100
AcDbEntity
  8
PREDEFINITO
100
AcDbSpline
210
0.0
220
0.0
230
1.0
 70
    24
 71
     3
 72
     8
 73
     4
 74
     0
 42
0.0000000001
 43
0.0000000001
 40
0.0
 40
0.0
 40
0.0
 40
0.0
 40
2.022325394193543
 40
2.022325394193543
 40
2.022325394193543
 40
2.022325394193543
 10
236.1382033794259
 20
-224.5034542861704
 30
-296.8463955029608
 10
236.4752576117913
 20
-224.0267876195032
 30
-296.5093412705959
 10
236.8123118441568
 20
-223.5501209528359
 30
-296.1722870382311
 10
237.1493660765223
 20
-223.0734542861686
 30
-295.8352328058662
  0
SPLINE
  5
12F
330
1F
100
AcDbEntity
  8
PREDEFINITO
100
AcDbSpline
210
0.0
220
0.0
230
1.0
 70
    24
 71
     3
 72
     8
 73
     4
 74
     0
 42
0.0000000001
 43
0.0000000001
 40
0.0
 40
0.0
 40
0.0
 40
0.0
 40
2.022325394193543
 40
2.022325394193543
 40
2.022325394193543
 40
2.022325394193543
 10
237.0681584826095
 20
-224.5034542861729
 30
-298.2381716694046
 10
237.5085410597731
 20
-224.026787619506
 30
-298.0557592333112
 10
237.9489236369368
 20
-223.5501209528389
 30
-297.8733467972178
 10
238.3893062141004
 20
-223.073454286172
 30
-297.6909343611244
  0
SPLINE
  5
130
330
1F
100
AcDbEntity
  8
PREDEFINITO
100
AcDbSpline
210
0.0
220
0.0
230
1.0
 70
    24
 71
     3
 72
     8
 73
     4
 74
     0
 42
0.0000000001
 43
0.0000000001
 40
0.0
 40
0.0
 40
0.0
 40
0.0
 40
2.022325394193543
 40
2.022325394193543
 40
2.022325394193543
 40
2.022325394193543
 10
237.3947152881367
 20
-224.503454286176
 30
-299.8798835942506
 10
237.8713819548034
 20
-224.0267876195093
 30
-299.8798835942513
 10
238.34804862147
 20
-223.5501209528426
 30
-299.879883594252
 10
238.8247152881367
 20
-223.073454286176
 30
-299.8798835942526
  0
SPLINE
  5
131
330
1F
100
AcDbEntity
  8
PREDEFINITO
100
AcDbSpline
210
0.0
220
0.0
230
1.0
 70
    24
 71
     3
 72
     8
 73
     4
 74
     0
 42
0.0000000001
 43
0.0000000001
 40
0.0
 40
0.0
 40
0.0
 40
0.0
 40
2.022325394193543
 40
2.022325394193543
 40
2.022325394193543
 40
2.022325394193543
 10
237.0681584826107
 20
-224.5034542861789
 30
-301.521595519097
 10
237.5085410597745
 20
-224.0267876195126
 30
-301.7040079551917
 10
237.9489236369383
 20
-223.5501209528463
 30
-301.8864203912864
 10
238.3893062141021
 20
-223.0734542861799
 30
-302.0688328273811
  0
SPLINE
  5
132
330
1F
100
AcDbEntity
  8
PREDEFINITO
100
AcDbSpline
210
0.0
220
0.0
230
1.0
 70
    24
 71
     3
 72
     8
 73
     4
 74
     0
 42
0.0000000001
 43
0.0000000001
 40
0.0
 40
0.0
 40
0.0
 40
0.0
 40
2.022325394193543
 40
2.022325394193543
 40
2.022325394193543
 40
2.022325394193543
 10
236.1382033794281
 20
-224.5034542861815
 30
-302.9133716855414
 10
236.4752576117938
 20
-224.0267876195154
 30
-303.2504259179076
 10
236.8123118441595
 20
-223.5501209528494
 30
-303.587480150274
 10
237.1493660765252
 20
-223.0734542861833
 30
-303.9245343826403
  0
SPLINE
  5
133
330
1F
100
AcDbEntity
  8
PREDEFINITO
100
AcDbSpline
210
0.0
220
0.0
230
1.0
 70
    24
 71
     3
 72
     8
 73
     4
 74
     0
 42
0.0000000001
 43
0.0000000001
 40
0.0
 40
0.0
 40
0.0
 40
0.0
 40
2.022325394193543
 40
2.022325394193543
 40
2.022325394193543
 40
2.022325394193543
 10
234.7464272129844
 20
-224.5034542861832
 30
-303.8433267887251
 10
234.9288396490786
 20
-224.0267876195173
 30
-304.2837093658895
 10
235.1112520851728
 20
-223.5501209528514
 30
-304.724091943054
 10
235.2936645212669
 20
-223.0734542861856
 30
-305.1644745202184
  0
SPLINE
  5
134
330
1F
100
AcDbEntity
  8
PREDEFINITO
100
AcDbSpline
210
0.0
220
0.0
230
1.0
 70
    24
 71
     3
 72
     8
 73
     4
 74
     0
 42
0.0000000001
 43
0.0000000001
 40
0.0
 40
0.0
 40
0.0
 40
0.0
 40
2.022325394193543
 40
2.022325394193543
 40
2.022325394193543
 40
2.022325394193543
 10
233.1047152881383
 20
-224.5034542861838
 30
-304.1698835942522
 10
233.1047152881384
 20
-224.026787619518
 30
-304.6465502609198
 10
233.1047152881387
 20
-223.5501209528521
 30
-305.1232169275872
 10
233.1047152881388
 20
-223.0734542861863
 30
-305.5998835942547
  0
SPLINE
  5
135
330
1F
100
AcDbEntity
  8
PREDEFINITO
100
AcDbSpline
210
0.0
220
0.0
230
1.0
 70
    24
 71
     3
 72
     8
 73
     4
 74
     0
 42
0.0000000001
 43
0.0000000001
 40
0.0
 40
0.0
 40
0.0
 40
0.0
 40
2.022325394193543
 40
2.022325394193543
 40
2.022325394193543
 40
2.022325394193543
 10
231.4630033632919
 20
-224.5034542861832
 30
-303.8433267887262
 10
231.2805909271981
 20
-224.0267876195173
 30
-304.2837093658909
 10
231.0981784911042
 20
-223.5501209528514
 30
-304.7240919430555
 10
230.9157660550103
 20
-223.0734542861856
 30
-305.1644745202201
  0
SPLINE
  5
136
330
1F
100
AcDbEntity
  8
PREDEFINITO
100
AcDbSpline
210
0.0
220
0.0
230
1.0
 70
    24
 71
     3
 72
     8
 73
     4
 74
     0
 42
0.0000000001
 43
0.0000000001
 40
0.0
 40
0.0
 40
0.0
 40
0.0
 40
2.022325394193543
 40
2.022325394193543
 40
2.022325394193543
 40
2.022325394193543
 10
230.0712271968475
 20
-224.5034542861815
 30
-302.9133716855437
 10
229.7341729644821
 20
-224.0267876195155
 30
-303.2504259179102
 10
229.3971187321166
 20
-223.5501209528494
 30
-303.5874801502767
 10
229.0600644997511
 20
-223.0734542861833
 30
-303.9245343826433
  0
SPLINE
  5
137
330
1F
100
AcDbEntity
  8
PREDEFINITO
100
AcDbSpline
210
0.0
220
0.0
230
1.0
 70
    24
 71
     3
 72
     8
 73
     4
 74
     0
 42
0.0000000001
 43
0.0000000001
 40
0.0
 40
0.0
 40
0.0
 40
0.0
 40
2.022325394193543
 40
2.022325394193543
 40
2.022325394193543
 40
2.022325394193543
 10
229.1412720936639
 20
-224.5034542861789
 30
-301.5215955190998
 10
228.7008895165002
 20
-224.0267876195126
 30
-301.7040079551949
 10
228.2605069393366
 20
-223.5501209528463
 30
-301.88642039129
 10
227.8201243621729
 20
-223.0734542861799
 30
-302.068832827385
  0
SPLINE
  5
138
330
1F
100
AcDbEntity
  8
PREDEFINITO
100
AcDbSpline
210
0.0
220
0.0
230
1.0
 70
    24
 71
     3
 72
     8
 73
     4
 74
     0
 42
0.0000000001
 43
0.0000000001
 40
0.0
 40
0.0
 40
0.0
 40
0.0
 40
2.022325394193543
 40
2.022325394193543
 40
2.022325394193543
 40
2.022325394193543
 10
228.8147152881367
 20
-224.503454286176
 30
-299.8798835942539
 10
228.3380486214701
 20
-224.0267876195093
 30
-299.8798835942549
 10
227.8613819548034
 20
-223.5501209528426
 30
-299.8798835942559
 10
227.3847152881367
 20
-223.073454286176
 30
-299.8798835942569
  0
SPLINE
  5
139
330
1F
100
AcDbEntity
  8
PREDEFINITO
100
AcDbSpline
210
0.0
220
0.0
230
1.0
 70
    24
 71
     3
 72
     8
 73
     4
 74
     0
 42
0.0000000001
 43
0.0000000001
 40
0.0
 40
0.0
 40
0.0
 40
0.0
 40
2.022325394193543
 40
2.022325394193543
 40
2.022325394193543
 40
2.022325394193543
 10
229.1412720936627
 20
-224.503454286173
 30
-298.2381716694075
 10
228.7008895164989
 20
-224.026787619506
 30
-298.0557592333145
 10
228.2605069393351
 20
-223.550120952839
 30
-297.8733467972214
 10
227.8201243621714
 20
-223.073454286172
 30
-297.6909343611284
  0
SPLINE
  5
13A
330
1F
100
AcDbEntity
  8
PREDEFINITO
100
AcDbSpline
210
0.0
220
0.0
230
1.0
 70
    24
 71
     3
 72
     8
 73
     4
 74
     0
 42
0.0000000001
 43
0.0000000001
 40
0.0
 40
0.0
 40
0.0
 40
0.0
 40
2.022325394193543
 40
2.022325394193543
 40
2.022325394193543
 40
2.022325394193543
 10
230.0712271968453
 20
-224.5034542861705
 30
-296.8463955029631
 10
229.7341729644796
 20
-224.0267876195032
 30
-296.5093412705984
 10
229.3971187321139
 20
-223.5501209528359
 30
-296.1722870382338
 10
229.0600644997481
 20
-223.0734542861686
 30
-295.8352328058692
  0
SPLINE
  5
13B
330
1F
100
AcDbEntity
  8
PREDEFINITO
100
AcDbSpline
210
0.0
220
0.0
230
1.0
 70
    24
 71
     3
 72
     8
 73
     4
 74
     0
 42
0.0000000001
 43
0.0000000001
 40
0.0
 40
0.0
 40
0.0
 40
0.0
 40
2.022325394193543
 40
2.022325394193543
 40
2.022325394193543
 40
2.022325394193543
 10
231.463003363289
 20
-224.5034542861687
 30
-295.9164403997794
 10
231.2805909271948
 20
-224.0267876195013
 30
-295.4760578226166
 10
231.0981784911006
 20
-223.5501209528338
 30
-295.0356752454538
 10
230.9157660550064
 20
-223.0734542861663
 30
-294.595292668291
  0
SPLINE
  5
13C
330
1F
100
AcDbEntity
  8
PREDEFINITO
100
AcDbSpline
210
6.731632830138974E-25
220
1.0
230
-1.815340837181053E-12
 70
    11
 71
     3
 72
    23
 73
    19
 74
     0
 42
0.0000000001
 43
0.0000000001
 40
0.0
 40
0.0
 40
0.0
 40
0.0
 40
1.95285412338145
 40
3.90570824676289
 40
5.858562370144335
 40
7.811416493525779
 40
9.764270616907226
 40
11.71712474028867
 40
13.66997886367011
 40
15.62283298705155
 40
17.57568711043299
 40
19.52854123381444
 40
21.48139535719588
 40
23.43424948057733
 40
25.38710360395878
 40
27.33995772734022
 40
29.29281185072166
 40
31.2456659741031
 40
31.2456659741031
 40
31.2456659741031
 40
31.2456659741031
 10
233.1047152881348
 20
-223.7884542861669
 30
-294.8748835942534
 10
233.7556666625953
 20
-223.7884542861669
 30
-294.8748835942533
 10
235.0718187566387
 20
-223.7884542861673
 30
-295.1354845769846
 10
236.7354095606053
 20
-223.7884542861694
 30
-296.2486777933767
 10
237.8492513687845
 20
-223.7884542861724
 30
-297.9146891759897
 10
238.2399790543863
 20
-223.788454286176
 30
-299.8798835942516
 10
237.8491241424903
 20
-223.7884542861796
 30
-301.8450780125138
 10
236.7359184657909
 20
-223.7884542861826
 30
-303.5110893951276
 10
235.0699103622061
 20
-223.7884542861846
 30
-304.6242826115209
 10
233.1047152881386
 20
-223.7884542861853
 30
-305.0151840856195
 10
231.1395202140708
 20
-223.7884542861846
 30
-304.6242826115224
 10
229.4735121104852
 20
-223.7884542861826
 30
-303.5110893951303
 10
228.3603064337846
 20
-223.7884542861796
 30
-301.8450780125173
 10
227.9694515218871
 20
-223.788454286176
 30
-299.8798835942554
 10
228.3601792074874
 20
-223.7884542861724
 30
-297.9146891759932
 10
229.4740210156655
 20
-223.7884542861694
 30
-296.2486777933794
 10
231.1376118196312
 20
-223.7884542861673
 30
-295.1354845769861
 10
232.4537639136744
 20
-223.7884542861669
 30
-294.8748835942538
 10
233.1047152881348
 20
-223.7884542861669
 30
-294.8748835942534
  0
LINE
  5
13D
330
1F
100
AcDbEntity
  8
PREDEFINITO
100
AcDbLine
 10
166.5147438050683
 20
-223.0734542862422
 30
-336.3447231284405
 11
166.5147438050392
 21
-223.0734542861092
 31
-263.1926697110476
  0
LINE
  5
13E
330
1F
100
AcDbEntity
  8
PREDEFINITO
100
AcDbLine
 10
166.5147438049766
 20
-223.073454285823
 30
-105.8926697110475
 11
166.5147438049755
 21
-223.0734542858178
 31
-103.0326697110476
  0
LINE
  5
13F
330
1F
100
AcDbEntity
  8
PREDEFINITO
100
AcDbLine
 10
166.5147438049684
 20
-223.0734542857853
 30
-85.15766971104757
 11
166.5147438049475
 21
-223.07345428569
 31
-32.7406162936547
  0
LINE
  5
140
330
1F
100
AcDbEntity
  8
PREDEFINITO
100
AcDbLine
 10
318.3167972224009
 20
-223.0734542859661
 30
-184.5426697109871
 11
245.1647438050079
 21
-223.0734542859661
 31
-184.5426697110162
  0
LINE
  5
141
330
1F
100
AcDbEntity
  8
PREDEFINITO
100
AcDbLine
 10
87.86474380500795
 20
-223.0734542859661
 30
-184.5426697110788
 11
80.80262479292861
 21
-223.0734542859661
 31
-184.5426697110817
  0
LINE
  5
142
330
1F
100
AcDbEntity
  8
PREDEFINITO
100
AcDbLine
 10
71.41539374286305
 20
-223.0734542859661
 30
-184.5426697110854
 11
39.05480083887551
 21
-223.0734542859661
 31
-184.5426697110983
  0
LINE
  5
143
330
1F
100
AcDbEntity
  8
PREDEFINITO
100
AcDbLine
 10
27.61480083887545
 20
-223.0734542859661
 30
-184.5426697111028
 11
14.712690387615
 21
-223.0734542859661
 31
-184.542669711108
  0
LINE
  5
144
330
1F
100
AcDbEntity
  8
PREDEFINITO
100
AcDbLine
 10
166.5147438050682
 20
-224.5034542862197
 30
-336.3446595138191
 11
166.5147438050392
 21
-224.5034542860867
 31
-263.1926697110289
  0
LINE
  5
145
330
1F
100
AcDbEntity
  8
PREDEFINITO
100
AcDbLine
 10
166.5147438049765
 20
-224.5034542858005
 30
-105.8926697110288
 11
166.5147438049754
 21
-224.5034542857953
 31
-103.0326697110289
  0
LINE
  5
146
330
1F
100
AcDbEntity
  8
PREDEFINITO
100
AcDbLine
 10
166.5147438049683
 20
-224.5034542857628
 30
-85.15766971102896
 11
166.5147438049474
 21
-224.5034542856675
 31
-32.74067990823828
  0
LINE
  5
147
330
1F
100
AcDbEntity
  8
PREDEFINITO
100
AcDbLine
 10
14.7127540022175
 20
-224.5034542866857
 30
-184.542669711089
 11
29.04480083887546
 21
-224.5034542866156
 31
-184.5426697110833
  0
LINE
  5
148
330
1F
100
AcDbEntity
  8
PREDEFINITO
100
AcDbLine
 10
37.62480083887547
 20
-224.5034542865737
 30
-184.5426697110799
 11
71.41539374286322
 21
-224.5034542864085
 31
-184.5426697110664
  0
LINE
  5
149
330
1F
100
AcDbEntity
  8
PREDEFINITO
100
AcDbLine
 10
80.80262479292824
 20
-224.5034542863626
 30
-184.5426697110627
 11
87.864743805008
 21
-224.5034542863281
 31
-184.5426697110599
  0
LINE
  5
14A
330
1F
100
AcDbEntity
  8
PREDEFINITO
100
AcDbLine
 10
245.164743805008
 20
-224.5034542855591
 30
-184.5426697109973
 11
318.3167336077983
 21
-224.5034542852015
 31
-184.5426697109682
  0
SPLINE
  5
14B
330
1F
100
AcDbEntity
  8
PREDEFINITO
100
AcDbSpline
210
0.0
220
0.0
230
1.0
 70
    24
 71
     3
 72
     8
 73
     4
 74
     0
 42
0.0000000001
 43
0.0000000001
 40
0.0
 40
0.0
 40
0.0
 40
0.0
 40
2.02232539419353
 40
2.02232539419353
 40
2.02232539419353
 40
2.02232539419353
 10
234.7464272128958
 20
-224.5034542857492
 30
-65.24201263329799
 10
234.9288396489897
 20
-224.0267876190817
 30
-64.80163005613507
 10
235.1112520850835
 20
-223.5501209524142
 30
-64.36124747897217
 10
235.2936645211774
 20
-223.0734542857467
 30
-63.92086490180925
  0
SPLINE
  5
14C
330
1F
100
AcDbEntity
  8
PREDEFINITO
100
AcDbSpline
210
0.0
220
0.0
230
1.0
 70
    24
 71
     3
 72
     8
 73
     4
 74
     0
 42
0.0000000001
 43
0.0000000001
 40
0.0
 40
0.0
 40
0.0
 40
0.0
 40
2.02232539419353
 40
2.02232539419353
 40
2.02232539419353
 40
2.02232539419353
 10
236.1382033793402
 20
-224.5034542857509
 30
-66.17196773648055
 10
236.4752576117057
 20
-224.0267876190836
 30
-65.83491350411576
 10
236.8123118440711
 20
-223.5501209524163
 30
-65.49785927175094
 10
237.1493660764366
 20
-223.073454285749
 30
-65.1608050393861
  0
SPLINE
  5
14D
330
1F
100
AcDbEntity
  8
PREDEFINITO
100
AcDbSpline
210
0.0
220
0.0
230
1.0
 70
    24
 71
     3
 72
     8
 73
     4
 74
     0
 42
0.0000000001
 43
0.0000000001
 40
0.0
 40
0.0
 40
0.0
 40
0.0
 40
2.02232539419353
 40
2.02232539419353
 40
2.02232539419353
 40
2.02232539419353
 10
237.0681584825239
 20
-224.5034542857534
 30
-67.5637439029243
 10
237.5085410596876
 20
-224.0267876190864
 30
-67.381331466831
 10
237.9489236368512
 20
-223.5501209524194
 30
-67.19891903073768
 10
238.3893062140148
 20
-223.0734542857524
 30
-67.01650659464438
  0
SPLINE
  5
14E
330
1F
100
AcDbEntity
  8
PREDEFINITO
100
AcDbSpline
210
0.0
220
0.0
230
1.0
 70
    24
 71
     3
 72
     8
 73
     4
 74
     0
 42
0.0000000001
 43
0.0000000001
 40
0.0
 40
0.0
 40
0.0
 40
0.0
 40
2.02232539419353
 40
2.02232539419353
 40
2.02232539419353
 40
2.02232539419353
 10
237.3947152880511
 20
-224.5034542857563
 30
-69.20545582777044
 10
237.8713819547177
 20
-224.0267876190897
 30
-69.20545582777116
 10
238.3480486213844
 20
-223.550120952423
 30
-69.20545582777181
 10
238.824715288051
 20
-223.0734542857564
 30
-69.20545582777252
  0
SPLINE
  5
14F
330
1F
100
AcDbEntity
  8
PREDEFINITO
100
AcDbSpline
210
0.0
220
0.0
230
1.0
 70
    24
 71
     3
 72
     8
 73
     4
 74
     0
 42
0.0000000001
 43
0.0000000001
 40
0.0
 40
0.0
 40
0.0
 40
0.0
 40
2.02232539419353
 40
2.02232539419353
 40
2.02232539419353
 40
2.02232539419353
 10
237.0681584825251
 20
-224.5034542857594
 30
-70.84716775261684
 10
237.5085410596889
 20
-224.0267876190931
 30
-71.02958018871155
 10
237.9489236368527
 20
-223.5501209524267
 30
-71.2119926248063
 10
238.3893062140164
 20
-223.0734542857604
 30
-71.39440506090105
  0
SPLINE
  5
150
330
1F
100
AcDbEntity
  8
PREDEFINITO
100
AcDbSpline
210
0.0
220
0.0
230
1.0
 70
    24
 71
     3
 72
     8
 73
     4
 74
     0
 42
0.0000000001
 43
0.0000000001
 40
0.0
 40
0.0
 40
0.0
 40
0.0
 40
2.02232539419353
 40
2.02232539419353
 40
2.02232539419353
 40
2.02232539419353
 10
236.1382033793425
 20
-224.5034542857619
 30
-72.23894391906119
 10
236.4752576117082
 20
-224.0267876190958
 30
-72.57599815142754
 10
236.8123118440739
 20
-223.5501209524298
 30
-72.91305238379383
 10
237.1493660764396
 20
-223.0734542857637
 30
-73.25010661616015
  0
SPLINE
  5
151
330
1F
100
AcDbEntity
  8
PREDEFINITO
100
AcDbSpline
210
0.0
220
0.0
230
1.0
 70
    24
 71
     3
 72
     8
 73
     4
 74
     0
 42
0.0000000001
 43
0.0000000001
 40
0.0
 40
0.0
 40
0.0
 40
0.0
 40
2.02232539419353
 40
2.02232539419353
 40
2.02232539419353
 40
2.02232539419353
 10
234.7464272128989
 20
-224.5034542857636
 30
-73.16889902224486
 10
234.928839648993
 20
-224.0267876190977
 30
-73.60928159940937
 10
235.1112520850872
 20
-223.5501209524319
 30
-74.0496641765739
 10
235.2936645211813
 20
-223.073454285766
 30
-74.49004675373841
  0
SPLINE
  5
152
330
1F
100
AcDbEntity
  8
PREDEFINITO
100
AcDbSpline
210
0.0
220
0.0
230
1.0
 70
    24
 71
     3
 72
     8
 73
     4
 74
     0
 42
0.0000000001
 43
0.0000000001
 40
0.0
 40
0.0
 40
0.0
 40
0.0
 40
2.02232539419353
 40
2.02232539419353
 40
2.02232539419353
 40
2.02232539419353
 10
233.1047152880527
 20
-224.5034542857642
 30
-73.49545582777202
 10
233.1047152880529
 20
-224.0267876190984
 30
-73.97212249443959
 10
233.104715288053
 20
-223.5501209524326
 30
-74.4487891611071
 10
233.1047152880532
 20
-223.0734542857668
 30
-74.92545582777466
  0
SPLINE
  5
153
330
1F
100
AcDbEntity
  8
PREDEFINITO
100
AcDbSpline
210
0.0
220
0.0
230
1.0
 70
    24
 71
     3
 72
     8
 73
     4
 74
     0
 42
0.0000000001
 43
0.0000000001
 40
0.0
 40
0.0
 40
0.0
 40
0.0
 40
2.02232539419353
 40
2.02232539419353
 40
2.02232539419353
 40
2.02232539419353
 10
231.4630033632064
 20
-224.5034542857636
 30
-73.16889902224602
 10
231.2805909271125
 20
-224.0267876190977
 30
-73.6092815994107
 10
231.0981784910186
 20
-223.5501209524319
 30
-74.04966417657533
 10
230.9157660549247
 20
-223.073454285766
 30
-74.49004675373999
  0
SPLINE
  5
154
330
1F
100
AcDbEntity
  8
PREDEFINITO
100
AcDbSpline
210
0.0
220
0.0
230
1.0
 70
    24
 71
     3
 72
     8
 73
     4
 74
     0
 42
0.0000000001
 43
0.0000000001
 40
0.0
 40
0.0
 40
0.0
 40
0.0
 40
2.02232539419353
 40
2.02232539419353
 40
2.02232539419353
 40
2.02232539419353
 10
230.0712271967619
 20
-224.5034542857619
 30
-72.23894391906346
 10
229.7341729643965
 20
-224.0267876190958
 30
-72.57599815143001
 10
229.3971187320309
 20
-223.5501209524298
 30
-72.91305238379658
 10
229.0600644996655
 20
-223.0734542857637
 30
-73.25010661616318
  0
SPLINE
  5
155
330
1F
100
AcDbEntity
  8
PREDEFINITO
100
AcDbSpline
210
0.0
220
0.0
230
1.0
 70
    24
 71
     3
 72
     8
 73
     4
 74
     0
 42
0.0000000001
 43
0.0000000001
 40
0.0
 40
0.0
 40
0.0
 40
0.0
 40
2.02232539419353
 40
2.02232539419353
 40
2.02232539419353
 40
2.02232539419353
 10
229.1412720935783
 20
-224.5034542857594
 30
-70.84716775261973
 10
228.7008895164146
 20
-224.0267876190931
 30
-71.02958018871479
 10
228.260506939251
 20
-223.5501209524267
 30
-71.21199262480985
 10
227.8201243620873
 20
-223.0734542857604
 30
-71.39440506090492
  0
SPLINE
  5
156
330
1F
100
AcDbEntity
  8
PREDEFINITO
100
AcDbSpline
210
0.0
220
0.0
230
1.0
 70
    24
 71
     3
 72
     8
 73
     4
 74
     0
 42
0.0000000001
 43
0.0000000001
 40
0.0
 40
0.0
 40
0.0
 40
0.0
 40
2.02232539419353
 40
2.02232539419353
 40
2.02232539419353
 40
2.02232539419353
 10
228.8147152880511
 20
-224.5034542857564
 30
-69.20545582777362
 10
228.3380486213844
 20
-224.0267876190897
 30
-69.20545582777468
 10
227.8613819547177
 20
-223.550120952423
 30
-69.20545582777575
 10
227.3847152880511
 20
-223.0734542857564
 30
-69.20545582777677
  0
SPLINE
  5
157
330
1F
100
AcDbEntity
  8
PREDEFINITO
100
AcDbSpline
210
0.0
220
0.0
230
1.0
 70
    24
 71
     3
 72
     8
 73
     4
 74
     0
 42
0.0000000001
 43
0.0000000001
 40
0.0
 40
0.0
 40
0.0
 40
0.0
 40
2.02232539419353
 40
2.02232539419353
 40
2.02232539419353
 40
2.02232539419353
 10
229.1412720935771
 20
-224.5034542857534
 30
-67.56374390292726
 10
228.7008895164133
 20
-224.0267876190864
 30
-67.38133146683424
 10
228.2605069392495
 20
-223.5501209524194
 30
-67.19891903074127
 10
227.8201243620857
 20
-223.0734542857524
 30
-67.01650659464828
  0
SPLINE
  5
158
330
1F
100
AcDbEntity
  8
PREDEFINITO
100
AcDbSpline
210
0.0
220
0.0
230
1.0
 70
    24
 71
     3
 72
     8
 73
     4
 74
     0
 42
0.0000000001
 43
0.0000000001
 40
0.0
 40
0.0
 40
0.0
 40
0.0
 40
2.02232539419353
 40
2.02232539419353
 40
2.02232539419353
 40
2.02232539419353
 10
230.0712271967597
 20
-224.5034542857508
 30
-66.1719677364829
 10
229.7341729643939
 20
-224.0267876190836
 30
-65.83491350411828
 10
229.3971187320282
 20
-223.5501209524163
 30
-65.49785927175368
 10
229.0600644996625
 20
-223.0734542857491
 30
-65.1608050393891
  0
SPLINE
  5
159
330
1F
100
AcDbEntity
  8
PREDEFINITO
100
AcDbSpline
210
0.0
220
0.0
230
1.0
 70
    24
 71
     3
 72
     8
 73
     4
 74
     0
 42
0.0000000001
 43
0.0000000001
 40
0.0
 40
0.0
 40
0.0
 40
0.0
 40
2.02232539419353
 40
2.02232539419353
 40
2.02232539419353
 40
2.02232539419353
 10
231.4630033632034
 20
-224.5034542857492
 30
-65.24201263329923
 10
231.2805909271092
 20
-224.0267876190817
 30
-64.80163005613645
 10
231.0981784910149
 20
-223.5501209524142
 30
-64.36124747897367
 10
230.9157660549208
 20
-223.0734542857467
 30
-63.92086490181089
  0
SPLINE
  5
15A
330
1F
100
AcDbEntity
  8
PREDEFINITO
100
AcDbSpline
210
-2.767307651281340E-15
220
1.0
230
-1.823642700765741E-12
 70
    11
 71
     3
 72
    23
 73
    19
 74
     0
 42
0.0000000001
 43
0.0000000001
 40
0.0
 40
0.0
 40
0.0
 40
0.0
 40
1.952854123381443
 40
3.905708246762887
 40
5.85856237014433
 40
7.811416493525778
 40
9.764270616907217
 40
11.71712474028866
 40
13.6699788636701
 40
15.62283298705155
 40
17.57568711043298
 40
19.52854123381443
 40
21.48139535719588
 40
23.43424948057731
 40
25.38710360395876
 40
27.33995772734021
 40
29.29281185072165
 40
31.24566597410309
 40
31.24566597410309
 40
31.24566597410309
 40
31.24566597410309
 10
233.1047152880492
 20
-223.7884542857473
 30
-64.20045582777334
 10
233.7556666625097
 20
-223.7884542857473
 30
-64.20045582777318
 10
235.0718187565531
 20
-223.7884542857478
 30
-64.4610568105044
 10
236.7354095605197
 20
-223.7884542857498
 30
-65.57425002689654
 10
237.849251368699
 20
-223.7884542857528
 30
-67.24026140950951
 10
238.2399790543007
 20
-223.7884542857564
 30
-69.20545582777143
 10
237.8491241424047
 20
-223.78845428576
 30
-71.17065024603369
 10
236.7359184657053
 20
-223.788454285763
 30
-72.83666162864739
 10
235.0699103621205
 20
-223.788454285765
 30
-73.94985484504079
 10
233.104715288053
 20
-223.7884542857657
 30
-74.34075631913925
 10
231.1395202139852
 20
-223.788454285765
 30
-73.94985484504218
 10
229.4735121103996
 20
-223.788454285763
 30
-72.83666162865015
 10
228.360306433699
 20
-223.78845428576
 30
-71.17065024603713
 10
227.9694515218014
 20
-223.7884542857564
 30
-69.20545582777528
 10
228.3601792074018
 20
-223.7884542857528
 30
-67.24026140951301
 10
229.4740210155798
 20
-223.7884542857498
 30
-65.57425002689922
 10
231.1376118195456
 20
-223.7884542857478
 30
-64.46105681050598
 10
232.4537639135887
 20
-223.7884542857473
 30
-64.20045582777351
 10
233.1047152880492
 20
-223.7884542857473
 30
-64.20045582777334
  0
CIRCLE
  5
15B
330
1F
100
AcDbEntity
  8
PREDEFINITO
100
AcDbCircle
 10
-166.514743805016
 20
-184.5426697114453
 30
-223.788454285619
 40
78.65
210
0.0
220
1.0
230
-1.818989403545856E-12
  0
LINE
  5
15C
330
1F
100
AcDbEntity
  8
PREDEFINITO
100
AcDbLine
 10
245.164743805016
 20
-224.503454285943
 30
-184.542669711037
 11
245.164743805016
 21
-223.0734542859663
 31
-184.5426697110395
  0
LINE
  5
15D
330
1F
100
AcDbEntity
  8
PREDEFINITO
100
AcDbLine
 10
166.514743805016
 20
-224.503454286086
 30
-263.192669711037
 11
166.514743805016
 21
-223.0734542861093
 31
-263.1926697110396
  0
LINE
  5
15E
330
1F
100
AcDbEntity
  8
PREDEFINITO
100
AcDbLine
 10
87.86474380501598
 20
-224.503454285943
 30
-184.542669711037
 11
87.86474380501598
 21
-223.0734542859663
 31
-184.5426697110396
  0
ARC
  5
15F
330
1F
100
AcDbEntity
  8
PREDEFINITO
100
AcDbCircle
 10
-244.8445765138368
 20
-229.7664197114084
 30
-223.7884542854416
 40
8.937499999999972
210
0.0
220
1.0
230
-1.818989403545856E-12
100
AcDbArc
 50
1.982191853691353
 51
245.9583496683714
  0
LINE
  5
160
330
1F
100
AcDbEntity
  8
PREDEFINITO
100
AcDbLine
 10
244.8445765138368
 20
-224.5034542856366
 30
-220.828919711
 11
244.8445765138368
 21
-223.0734542860322
 31
-220.8289197110026
  0
LINE
  5
161
330
1F
100
AcDbEntity
  8
PREDEFINITO
100
AcDbLine
 10
253.7820765138368
 20
-224.5034542856415
 30
-229.766419711
 11
253.7820765138368
 21
-223.0734542860485
 31
-229.7664197110026
  0
ARC
  5
162
330
1F
100
AcDbEntity
  8
PREDEFINITO
100
AcDbCircle
 10
-254.3115485163852
 20
-250.9880560138474
 30
-223.7884542854321
 40
14.3000000000003
210
0.0
220
1.0
230
-1.818989403545856E-12
100
AcDbArc
 50
37.11875330385307
 51
65.95834966853347
  0
ARC
  5
163
330
1F
100
AcDbEntity
  8
PREDEFINITO
100
AcDbCircle
 10
-166.5147438050225
 20
-184.5426697114396
 30
-223.788454285619
 40
95.80571410422462
210
0.0
220
1.0
230
-1.818989403545856E-12
100
AcDbArc
 50
217.1187533037938
 51
238.3564167650305
  0
ARC
  5
164
330
1F
100
AcDbEntity
  8
PREDEFINITO
100
AcDbCircle
 10
-213.9641545540724
 20
-261.5392899851811
 30
-223.7884542855028
 40
5.362770133945901
210
0.0
220
1.0
230
-1.818989403545856E-12
100
AcDbArc
 50
238.3564167654174
 51
58.35641633834356
  0
LINE
  5
165
330
1F
100
AcDbEntity
  8
PREDEFINITO
100
AcDbLine
 10
213.9641545540724
 20
-224.5034542858562
 30
-266.9020601187188
 11
213.9641545540724
 21
-223.073454286116
 31
-266.9020601187214
  0
LINE
  5
166
330
1F
100
AcDbEntity
  8
PREDEFINITO
100
AcDbLine
 10
208.6013844201265
 20
-224.5034542858533
 30
-261.5392899847728
 11
208.6013844201265
 21
-223.0734542861062
 31
-261.5392899847753
  0
ARC
  5
167
330
1F
100
AcDbEntity
  8
PREDEFINITO
100
AcDbCircle
 10
-166.5147438050264
 20
-184.5426697114374
 30
-223.7884542856189
 40
85.08017383633154
210
0.0
220
1.0
230
-1.818989403545856E-12
100
AcDbArc
 50
218.8715645425411
 51
238.3564167650082
  0
ARC
  5
168
330
1F
100
AcDbEntity
  8
PREDEFINITO
100
AcDbCircle
 10
-221.6209812322928
 20
-228.9626607617624
 30
-223.7884542854841
 40
14.30000000000109
210
0.0
220
1.0
230
-1.818989403545856E-12
100
AcDbArc
 50
181.9821918537046
 51
218.871564542606
  0
ARC
  5
169
330
1F
100
AcDbEntity
  8
PREDEFINITO
100
AcDbCircle
 10
-166.5147438049928
 20
-94.09516971144531
 30
-223.788454285619
 40
8.9375
210
0.0
220
1.0
230
-1.818989403545856E-12
100
AcDbArc
 50
241.9821918536472
 51
125.9583496684435
  0
LINE
  5
16A
330
1F
100
AcDbEntity
  8
PREDEFINITO
100
AcDbLine
 10
166.5147438049928
 20
-224.5034542857842
 30
-103.0326697110369
 11
166.5147438049928
 21
-223.073454285818
 31
-103.0326697110395
  0
LINE
  5
16B
330
1F
100
AcDbEntity
  8
PREDEFINITO
100
AcDbLine
 10
157.5772438049928
 20
-224.503454285767
 30
-94.09516971103695
 11
157.5772438049928
 21
-223.0734542858017
 31
-94.09516971103953
  0
LINE
  5
16C
330
1F
100
AcDbEntity
  8
PREDEFINITO
100
AcDbLine
 10
166.5147438049928
 20
-224.5034542857498
 30
-85.15766971103693
 11
166.5147438049928
 21
-223.0734542857855
 31
-85.15766971103952
  0
ARC
  5
16D
330
1F
100
AcDbEntity
  8
PREDEFINITO
100
AcDbCircle
 10
-180.1597339515029
 20
-75.28571330910366
 30
-223.7884542856037
 40
14.2999999999987
210
0.0
220
1.0
230
-1.818989403545856E-12
100
AcDbArc
 50
277.1187533038595
 51
305.9583496684839
  0
ARC
  5
16E
330
1F
100
AcDbEntity
  8
PREDEFINITO
100
AcDbCircle
 10
-166.5147438050252
 20
-184.5426697114474
 30
-223.7884542856189
 40
95.8057141042247
210
0.0
220
1.0
230
-1.818989403545856E-12
100
AcDbArc
 50
97.11875330379485
 51
118.3564167650753
  0
ARC
  5
16F
330
1F
100
AcDbEntity
  8
PREDEFINITO
100
AcDbCircle
 10
-209.4710675931069
 20
-104.951964471297
 30
-223.7884542855179
 40
5.362770133945162
210
0.0
220
1.0
230
-1.818989403545856E-12
100
AcDbArc
 50
118.3564167661939
 51
298.3564167656403
  0
LINE
  5
170
330
1F
100
AcDbEntity
  8
PREDEFINITO
100
AcDbLine
 10
214.8338377270521
 20
-224.5034542855862
 30
-104.9519644708886
 11
214.8338377270521
 21
-223.0734542858215
 31
-104.9519644708912
  0
LINE
  5
171
330
1F
100
AcDbEntity
  8
PREDEFINITO
100
AcDbLine
 10
209.4710675931069
 20
-224.5034542856022
 30
-110.3147346048338
 11
209.4710675931069
 21
-223.0734542858313
 31
-110.3147346048364
  0
ARC
  5
172
330
1F
100
AcDbEntity
  8
PREDEFINITO
100
AcDbCircle
 10
-166.5147438050264
 20
-184.5426697114453
 30
-223.7884542856189
 40
85.08017383633103
210
0.0
220
1.0
230
-1.818989403545856E-12
100
AcDbArc
 50
98.87156454247675
 51
118.356416765004
  0
ARC
  5
173
330
1F
100
AcDbEntity
  8
PREDEFINITO
100
AcDbCircle
 10
-177.4304657768516
 20
-114.6092726672917
 30
-223.7884542856087
 40
14.29999999999916
210
0.0
220
1.0
230
-1.818989403545856E-12
100
AcDbArc
 50
61.98219185373063
 51
98.87156454222556
  0
LINE
  5
174
330
1F
100
AcDbEntity
  8
PREDEFINITO
100
AcDbLine
 10
177.4304657768516
 20
-223.0734542858131
 30
-100.3092726668868
 11
177.4304657768516
 21
-224.5034542857363
 31
-100.3092726668842
  0
ARC
  5
175
330
1F
100
AcDbEntity
  8
PREDEFINITO
100
AcDbCircle
 10
-88.18491109625478
 20
-229.7664197114613
 30
-223.788454285822
 40
8.9375
210
0.0
220
1.0
230
-1.818989403545856E-12
100
AcDbArc
 50
121.9821918536193
 51
5.958349668439248
  0
LINE
  5
176
330
1F
100
AcDbEntity
  8
PREDEFINITO
100
AcDbLine
 10
97.12241109625478
 20
-224.5034542864047
 30
-229.7664197110529
 11
97.12241109625475
 21
-223.0734542860485
 31
-229.7664197110555
  0
LINE
  5
177
330
1F
100
AcDbEntity
  8
PREDEFINITO
100
AcDbLine
 10
88.18491109625478
 20
-224.5034542864332
 30
-238.7039197110529
 11
88.18491109625478
 21
-223.0734542860648
 31
-238.7039197110555
  0
LINE
  5
178
330
1F
100
AcDbEntity
  8
PREDEFINITO
100
AcDbLine
 10
79.24741109625478
 20
-224.5034542864292
 30
-229.7664197110529
 11
79.24741109625481
 21
-223.0734542860486
 31
-229.7664197110555
  0
ARC
  5
179
330
1F
100
AcDbEntity
  8
PREDEFINITO
100
AcDbCircle
 10
-65.07294894719371
 20
-227.3542398113732
 30
-223.788454285867
 40
14.30000000000021
210
0.0
220
1.0
230
-1.818989403545856E-12
100
AcDbArc
 50
157.1187533037889
 51
185.9583496684568
  0
LINE
  5
17A
330
1F
100
AcDbEntity
  8
PREDEFINITO
100
AcDbLine
 10
79.37294894719395
 20
-223.0734542860441
 30
-227.3542398109675
 11
79.37294894719392
 21
-224.5034542864827
 31
-227.3542398109649
  0
ARC
  5
17B
330
1F
100
AcDbEntity
  8
PREDEFINITO
100
AcDbCircle
 10
-166.5147438050344
 20
-184.5426697114465
 30
-223.7884542858348
 40
95.8057141042242
210
0.0
220
1.0
230
-1.818989403545856E-12
100
AcDbArc
 50
337.1187533038101
 51
358.3564167650173
  0
ARC
  5
17C
330
1F
100
AcDbEntity
  8
PREDEFINITO
100
AcDbCircle
 10
-76.10900926790504
 20
-187.1367546778422
 30
-223.7884542858532
 40
5.362770133945787
210
0.0
220
1.0
230
-1.818989403545856E-12
100
AcDbArc
 50
358.3564167650432
 51
178.3564167650478
  0
LINE
  5
17D
330
1F
100
AcDbEntity
  8
PREDEFINITO
100
AcDbLine
 10
70.74623913395926
 20
-224.5034542864028
 30
-187.1367546774338
 11
70.74623913395925
 21
-223.073454285971
 31
-187.1367546774364
  0
LINE
  5
17E
330
1F
100
AcDbEntity
  8
PREDEFINITO
100
AcDbLine
 10
76.10900926790504
 20
-224.5034542863799
 30
-181.773984543488
 11
76.10900926790504
 21
-223.0734542859612
 31
-181.7739845434906
  0
ARC
  5
17F
330
1F
100
AcDbEntity
  8
PREDEFINITO
100
AcDbCircle
 10
-166.5147438050316
 20
-184.5426697114322
 30
-223.7884542858129
 40
85.08017383633046
210
0.0
220
1.0
230
-1.818989403545856E-12
100
AcDbArc
 50
338.8715645424966
 51
358.3564167650039
  0
ARC
  5
180
330
1F
100
AcDbEntity
  8
PREDEFINITO
100
AcDbCircle
 10
-100.49278440594
 20
-210.0560757052637
 30
-223.7884542858066
 40
14.29999999999848
210
0.0
220
1.0
230
-1.818989403545856E-12
100
AcDbArc
 50
301.9821918537626
 51
338.8715645423582
  0
ENDSEC
  0
SECTION
  2
OBJECTS
  0
DICTIONARY
  5
C
330
0
100
AcDbDictionary
281
     1
  3
ACAD_GROUP
350
D
  3
ACAD_LAYOUT
350
1A
  3
ACAD_MLINESTYLE
350
17
  3
ACAD_PLOTSETTINGS
350
19
  3
ACAD_PLOTSTYLENAME
350
E
  0
DICTIONARY
  5
D
102
{ACAD_REACTORS
330
C
102
}
330
C
100
AcDbDictionary
281
     1
  0
DICTIONARY
  5
1A
102
{ACAD_REACTORS
330
C
102
}
330
C
100
AcDbDictionary
281
     1
  3
Layout1
350
1E
  3
Layout2
350
26
  3
Model
350
22
  0
DICTIONARY
  5
17
102
{ACAD_REACTORS
330
C
102
}
330
C
100
AcDbDictionary
281
     1
  3
Standard
350
18
  0
DICTIONARY
  5
19
102
{ACAD_REACTORS
330
C
102
}
330
C
100
AcDbDictionary
281
     1
  0
ACDBDICTIONARYWDFLT
  5
E
102
{ACAD_REACTORS
330
C
102
}
330
C
100
AcDbDictionary
281
     1
  3
Normal
350
F
100
AcDbDictionaryWithDefault
340
F
  0
LAYOUT
  5
1E
102
{ACAD_REACTORS
330
1A
102
}
330
1A
100
AcDbPlotSettings
  1

  2
none_device
  4

  6

 40
0.0
 41
0.0
 42
0.0
 43
0.0
 44
0.0
 45
0.0
 46
0.0
 47
0.0
 48
0.0
 49
0.0
140
0.0
141
0.0
142
1.0
143
1.0
 70
   688
 72
     0
 73
     0
 74
     5
  7

 75
    16
 76
     0
 77
     2
 78
   300
147
1.0
148
0.0
149
0.0
100
AcDbLayout
  1
Layout1
 70
     1
 71
     1
 10
0.0
 20
0.0
 11
12.0
 21
9.0
 12
0.0
 22
0.0
 32
0.0
 14
1.000000000000000E+20
 24
1.000000000000000E+20
 34
1.000000000000000E+20
 15
-1.000000000000000E+20
 25
-1.000000000000000E+20
 35
-1.000000000000000E+20
146
0.0
 13
0.0
 23
0.0
 33
0.0
 16
1.0
 26
0.0
 36
0.0
 17
0.0
 27
1.0
 37
0.0
 76
     0
330
1B
  0
LAYOUT
  5
26
102
{ACAD_REACTORS
330
1A
102
}
330
1A
100
AcDbPlotSettings
  1

  2
none_device
  4

  6

 40
0.0
 41
0.0
 42
0.0
 43
0.0
 44
0.0
 45
0.0
 46
0.0
 47
0.0
 48
0.0
 49
0.0
140
0.0
141
0.0
142
1.0
143
1.0
 70
   688
 72
     0
 73
     0
 74
     5
  7

 75
    16
 76
     0
 77
     2
 78
   300
147
1.0
148
0.0
149
0.0
100
AcDbLayout
  1
Layout2
 70
     1
 71
     2
 10
0.0
 20
0.0
 11
0.0
 21
0.0
 12
0.0
 22
0.0
 32
0.0
 14
0.0
 24
0.0
 34
0.0
 15
0.0
 25
0.0
 35
0.0
146
0.0
 13
0.0
 23
0.0
 33
0.0
 16
1.0
 26
0.0
 36
0.0
 17
0.0
 27
1.0
 37
0.0
 76
     0
330
23
  0
LAYOUT
  5
22
102
{ACAD_REACTORS
330
1A
102
}
330
1A
100
AcDbPlotSettings
  1

  2
none_device
  4

  6

 40
0.0
 41
0.0
 42
0.0
 43
0.0
 44
0.0
 45
0.0
 46
0.0
 47
0.0
 48
0.0
 49
0.0
140
0.0
141
0.0
142
1.0
143
1.0
 70
  1712
 72
     0
 73
     0
 74
     0
  7

 75
     0
 76
     0
 77
     2
 78
   300
147
1.0
148
0.0
149
0.0
100
AcDbLayout
  1
Model
 70
     1
 71
     0
 10
0.0
 20
0.0
 11
12.0
 21
9.0
 12
0.0
 22
0.0
 32
0.0
 14
-83.73138121412335
 24
-385.5986242154776
 34
-434.7887947300338
 15
416.760868824155
 25
-217.353454286377
 35
65.70345530824441
146
0.0
 13
0.0
 23
0.0
 33
0.0
 16
1.0
 26
0.0
 36
0.0
 17
0.0
 27
1.0
 37
0.0
 76
     0
330
1F
  0
MLINESTYLE
  5
18
102
{ACAD_REACTORS
330
17
102
}
330
17
100
AcDbMlineStyle
  2
Standard
 70
     0
  3

 62
   256
 51
90.0
 52
90.0
 71
     2
 49
0.5
 62
   256
  6
BYLAYER
 49
-0.5
 62
   256
  6
BYLAYER
  0
ACDBPLACEHOLDER
  5
F
102
{ACAD_REACTORS
330
E
102
}
330
E
  0
ENDSEC
  0
EOF
