  0
SECTION
  2
HEADER
  9
$ACADVER
  1
AC1021
  9
$ACADMAINTVER
 70
    25
  9
$DWGCODEPAGE
  3
ANSI_1252
  9
$LASTSAVEDBY
  1
noseda_d
  9
$INSBASE
 10
0.0
 20
0.0
 30
0.0
  9
$EXTMIN
 10
-157.4850132016969
 20
-157.4850132016971
 30
0.9999999999998801
  9
$EXTMAX
 10
157.4850132016971
 20
157.4850132016969
 30
155.5
  9
$LIMMIN
 10
0.0
 20
0.0
  9
$LIMMAX
 10
12.0
 20
9.0
  9
$ORTHOMODE
 70
     0
  9
$REGENMODE
 70
     1
  9
$FILLMODE
 70
     1
  9
$QTEXTMODE
 70
     0
  9
$MIRRTEXT
 70
     1
  9
$LTSCALE
 40
1.0
  9
$ATTMODE
 70
     1
  9
$TEXTSIZE
 40
0.2
  9
$TRACEWID
 40
0.05
  9
$TEXTSTYLE
  7
Standard
  9
$CLAYER
  8
1
  9
$CELTYPE
  6
ByLayer
  9
$CECOLOR
 62
   256
  9
$CELTSCALE
 40
1.0
  9
$DISPSILH
 70
     0
  9
$DIMSCALE
 40
1.0
  9
$DIMASZ
 40
0.18
  9
$DIMEXO
 40
0.0625
  9
$DIMDLI
 40
0.38
  9
$DIMRND
 40
0.0
  9
$DIMDLE
 40
0.0
  9
$DIMEXE
 40
0.18
  9
$DIMTP
 40
0.0
  9
$DIMTM
 40
0.0
  9
$DIMTXT
 40
0.18
  9
$DIMCEN
 40
0.09
  9
$DIMTSZ
 40
0.0
  9
$DIMTOL
 70
     0
  9
$DIMLIM
 70
     0
  9
$DIMTIH
 70
     1
  9
$DIMTOH
 70
     1
  9
$DIMSE1
 70
     0
  9
$DIMSE2
 70
     0
  9
$DIMTAD
 70
     0
  9
$DIMZIN
 70
     0
  9
$DIMBLK
  1

  9
$DIMASO
 70
     1
  9
$DIMSHO
 70
     1
  9
$DIMPOST
  1

  9
$DIMAPOST
  1

  9
$DIMALT
 70
     0
  9
$DIMALTD
 70
     2
  9
$DIMALTF
 40
25.4
  9
$DIMLFAC
 40
1.0
  9
$DIMTOFL
 70
     0
  9
$DIMTVP
 40
0.0
  9
$DIMTIX
 70
     0
  9
$DIMSOXD
 70
     0
  9
$DIMSAH
 70
     0
  9
$DIMBLK1
  1

  9
$DIMBLK2
  1

  9
$DIMSTYLE
  2
STANDARD_ACAD
  9
$DIMCLRD
 70
     0
  9
$DIMCLRE
 70
     0
  9
$DIMCLRT
 70
     0
  9
$DIMTFAC
 40
1.0
  9
$DIMGAP
 40
0.09
  9
$DIMJUST
 70
     0
  9
$DIMSD1
 70
     0
  9
$DIMSD2
 70
     0
  9
$DIMTOLJ
 70
     1
  9
$DIMTZIN
 70
     0
  9
$DIMALTZ
 70
     0
  9
$DIMALTTZ
 70
     0
  9
$DIMUPT
 70
     0
  9
$DIMDEC
 70
     4
  9
$DIMTDEC
 70
     4
  9
$DIMALTU
 70
     2
  9
$DIMALTTD
 70
     2
  9
$DIMTXSTY
  7
Standard
  9
$DIMAUNIT
 70
     0
  9
$DIMADEC
 70
     0
  9
$DIMALTRND
 40
0.0
  9
$DIMAZIN
 70
     0
  9
$DIMDSEP
 70
    46
  9
$DIMATFIT
 70
     3
  9
$DIMFRAC
 70
     0
  9
$DIMLDRBLK
  1

  9
$DIMLUNIT
 70
     2
  9
$DIMLWD
 70
    -2
  9
$DIMLWE
 70
    -2
  9
$DIMTMOVE
 70
     2
  9
$DIMFXL
 40
1.0
  9
$DIMFXLON
 70
     0
  9
$DIMJOGANG
 40
0.7853981633974483
  9
$DIMTFILL
 70
     0
  9
$DIMTFILLCLR
 70
     0
  9
$DIMARCSYM
 70
     0
  9
$DIMLTYPE
  6

  9
$DIMLTEX1
  6

  9
$DIMLTEX2
  6

  9
$LUNITS
 70
     2
  9
$LUPREC
 70
     3
  9
$SKETCHINC
 40
0.1
  9
$FILLETRAD
 40
0.0
  9
$AUNITS
 70
     0
  9
$AUPREC
 70
     0
  9
$MENU
  1
.
  9
$ELEVATION
 40
0.0
  9
$PELEVATION
 40
0.0
  9
$THICKNESS
 40
0.0
  9
$LIMCHECK
 70
     0
  9
$CHAMFERA
 40
0.0
  9
$CHAMFERB
 40
0.0
  9
$CHAMFERC
 40
0.0
  9
$CHAMFERD
 40
0.0
  9
$SKPOLY
 70
     0
  9
$TDCREATE
 40
2460479.44054559
  9
$TDUCREATE
 40
2460479.398878924
  9
$TDUPDATE
 40
2460479.44055816
  9
$TDUUPDATE
 40
2460479.398891493
  9
$TDINDWG
 40
0.0000000116
  9
$TDUSRTIMER
 40
0.0000000116
  9
$USRTIMER
 70
     1
  9
$ANGBASE
 50
0.0
  9
$ANGDIR
 70
     0
  9
$PDMODE
 70
     0
  9
$PDSIZE
 40
0.0
  9
$PLINEWID
 40
0.0
  9
$SPLFRAME
 70
     0
  9
$SPLINETYPE
 70
     6
  9
$SPLINESEGS
 70
     8
  9
$HANDSEED
  5
1E4
  9
$SURFTAB1
 70
     6
  9
$SURFTAB2
 70
     6
  9
$SURFTYPE
 70
     6
  9
$SURFU
 70
     6
  9
$SURFV
 70
     6
  9
$UCSBASE
  2

  9
$UCSNAME
  2

  9
$UCSORG
 10
0.0
 20
0.0
 30
0.0
  9
$UCSXDIR
 10
1.0
 20
0.0
 30
0.0
  9
$UCSYDIR
 10
0.0
 20
1.0
 30
0.0
  9
$UCSORTHOREF
  2

  9
$UCSORTHOVIEW
 70
     0
  9
$UCSORGTOP
 10
0.0
 20
0.0
 30
0.0
  9
$UCSORGBOTTOM
 10
0.0
 20
0.0
 30
0.0
  9
$UCSORGLEFT
 10
0.0
 20
0.0
 30
0.0
  9
$UCSORGRIGHT
 10
0.0
 20
0.0
 30
0.0
  9
$UCSORGFRONT
 10
0.0
 20
0.0
 30
0.0
  9
$UCSORGBACK
 10
0.0
 20
0.0
 30
0.0
  9
$PUCSBASE
  2

  9
$PUCSNAME
  2

  9
$PUCSORG
 10
0.0
 20
0.0
 30
0.0
  9
$PUCSXDIR
 10
1.0
 20
0.0
 30
0.0
  9
$PUCSYDIR
 10
0.0
 20
1.0
 30
0.0
  9
$PUCSORTHOREF
  2

  9
$PUCSORTHOVIEW
 70
     0
  9
$PUCSORGTOP
 10
0.0
 20
0.0
 30
0.0
  9
$PUCSORGBOTTOM
 10
0.0
 20
0.0
 30
0.0
  9
$PUCSORGLEFT
 10
0.0
 20
0.0
 30
0.0
  9
$PUCSORGRIGHT
 10
0.0
 20
0.0
 30
0.0
  9
$PUCSORGFRONT
 10
0.0
 20
0.0
 30
0.0
  9
$PUCSORGBACK
 10
0.0
 20
0.0
 30
0.0
  9
$USERI1
 70
     0
  9
$USERI2
 70
     0
  9
$USERI3
 70
     0
  9
$USERI4
 70
     0
  9
$USERI5
 70
     0
  9
$USERR1
 40
0.0
  9
$USERR2
 40
0.0
  9
$USERR3
 40
0.0
  9
$USERR4
 40
0.0
  9
$USERR5
 40
0.0
  9
$WORLDVIEW
 70
     1
  9
$SHADEDGE
 70
     3
  9
$SHADEDIF
 70
    70
  9
$TILEMODE
 70
     1
  9
$MAXACTVP
 70
    64
  9
$PINSBASE
 10
0.0
 20
0.0
 30
0.0
  9
$PLIMCHECK
 70
     0
  9
$PEXTMIN
 10
1.000000000000000E+20
 20
1.000000000000000E+20
 30
1.000000000000000E+20
  9
$PEXTMAX
 10
-1.000000000000000E+20
 20
-1.000000000000000E+20
 30
-1.000000000000000E+20
  9
$PLIMMIN
 10
0.0
 20
0.0
  9
$PLIMMAX
 10
12.0
 20
9.0
  9
$UNITMODE
 70
     0
  9
$VISRETAIN
 70
     1
  9
$PLINEGEN
 70
     0
  9
$PSLTSCALE
 70
     1
  9
$TREEDEPTH
 70
  3020
  9
$CMLSTYLE
  2
Standard
  9
$CMLJUST
 70
     0
  9
$CMLSCALE
 40
1.0
  9
$PROXYGRAPHICS
 70
     1
  9
$MEASUREMENT
 70
     1
  9
$CELWEIGHT
370
    -1
  9
$ENDCAPS
280
     0
  9
$JOINSTYLE
280
     0
  9
$LWDISPLAY
290
     0
  9
$INSUNITS
 70
     4
  9
$HYPERLINKBASE
  1

  9
$STYLESHEET
  1

  9
$XEDIT
290
     1
  9
$CEPSNTYPE
380
     0
  9
$PSTYLEMODE
290
     1
  9
$FINGERPRINTGUID
  2
{aa0c2f85-98b5-b547-b1b0-ee8a3aaea4c5}
  9
$VERSIONGUID
  2
{FAEB1C32-E019-11D5-929B-00C0DF256EC4}
  9
$EXTNAMES
290
     1
  9
$PSVPSCALE
 40
0.0
  9
$OLESTARTUP
290
     0
  9
$SORTENTS
280
   127
  9
$INDEXCTL
280
     0
  9
$HIDETEXT
280
     1
  9
$XCLIPFRAME
290
     0
  9
$HALOGAP
280
     0
  9
$OBSCOLOR
 70
   257
  9
$OBSLTYPE
280
     0
  9
$INTERSECTIONDISPLAY
280
     0
  9
$INTERSECTIONCOLOR
 70
   257
  9
$DIMASSOC
280
     2
  9
$PROJECTNAME
  1

  9
$CAMERADISPLAY
290
     0
  9
$LENSLENGTH
 40
50.0
  9
$CAMERAHEIGHT
 40
0.0
  9
$STEPSPERSEC
 40
2.0
  9
$STEPSIZE
 40
6.0
  9
$3DDWFPREC
 40
2.0
  9
$PSOLWIDTH
 40
0.25
  9
$PSOLHEIGHT
 40
4.0
  9
$LOFTANG1
 40
1.570796326794897
  9
$LOFTANG2
 40
1.570796326794897
  9
$LOFTMAG1
 40
0.0
  9
$LOFTMAG2
 40
0.0
  9
$LOFTPARAM
 70
     7
  9
$LOFTNORMALS
280
     1
  9
$LATITUDE
 40
37.795
  9
$LONGITUDE
 40
-122.394
  9
$NORTHDIRECTION
 40
0.0
  9
$TIMEZONE
 70
 -8000
  9
$LIGHTGLYPHDISPLAY
280
     1
  9
$TILEMODELIGHTSYNCH
280
     1
  9
$CMATERIAL
347
44
  9
$SOLIDHIST
280
     0
  9
$SHOWHIST
280
     1
  9
$DWFFRAME
280
     2
  9
$DGNFRAME
280
     2
  9
$REALWORLDSCALE
290
     1
  9
$INTERFERECOLOR
 62
   256
  9
$CSHADOW
280
     0
  9
$SHADOWPLANELOCATION
 40
0.0
  0
ENDSEC
  0
SECTION
  2
CLASSES
  0
CLASS
  1
ACDBDICTIONARYWDFLT
  2
AcDbDictionaryWithDefault
  3
ObjectDBX Classes
 90
        0
 91
        3
280
     0
281
     0
  0
CLASS
  1
VISUALSTYLE
  2
AcDbVisualStyle
  3
ObjectDBX Classes
 90
     4095
 91
        3
280
     0
281
     0
  0
CLASS
  1
MATERIAL
  2
AcDbMaterial
  3
ObjectDBX Classes
 90
     1153
 91
        3
280
     0
281
     0
  0
CLASS
  1
SCALE
  2
AcDbScale
  3
ObjectDBX Classes
 90
     1153
 91
        3
280
     0
281
     0
  0
CLASS
  1
TABLESTYLE
  2
AcDbTableStyle
  3
ObjectDBX Classes
 90
     4095
 91
        3
280
     0
281
     0
  0
CLASS
  1
MLEADERSTYLE
  2
AcDbMLeaderStyle
  3
ACDB_MLEADERSTYLE_CLASS
 90
     4095
 91
        3
280
     0
281
     0
  0
CLASS
  1
SUN
  2
AcDbSun
  3
SCENEOE
 90
     1153
 91
        3
280
     0
281
     0
  0
CLASS
  1
DICTIONARYVAR
  2
AcDbDictionaryVar
  3
ObjectDBX Classes
 90
        0
 91
        3
280
     0
281
     0
  0
CLASS
  1
CELLSTYLEMAP
  2
AcDbCellStyleMap
  3
ObjectDBX Classes
 90
     1152
 91
        3
280
     0
281
     0
  0
ENDSEC
  0
SECTION
  2
TABLES
  0
TABLE
  2
VPORT
  5
8
330
0
100
AcDbSymbolTable
 70
     1
  0
VPORT
  5
29
330
8
100
AcDbSymbolTableRecord
100
AcDbViewportTableRecord
  2
*Active
 70
     0
 10
0.0
 20
0.0
 11
1.0
 21
1.0
 12
10.42990654205607
 22
4.5
 13
0.0
 23
0.0
 14
0.5
 24
0.5
 15
0.5
 25
0.5
 16
0.0
 26
0.0
 36
1.0
 17
0.0
 27
0.0
 37
0.0
 40
9.0
 41
1.972972972850329
 42
50.0
 43
0.0
 44
0.0
 50
0.0
 51
0.0
 71
     0
 72
   100
 73
     1
 74
     3
 75
     0
 76
     0
 77
     0
 78
     0
281
     0
 65
     1
110
0.0
120
0.0
130
0.0
111
1.0
121
0.0
131
0.0
112
0.0
122
1.0
132
0.0
 79
     0
146
0.0
348
2F
 60
     3
 61
     5
292
     1
282
     1
141
0.0
142
0.0
 63
   250
361
5D
  0
ENDTAB
  0
TABLE
  2
LTYPE
  5
5
330
0
100
AcDbSymbolTable
 70
     1
  0
LTYPE
  5
14
330
5
100
AcDbSymbolTableRecord
100
AcDbLinetypeTableRecord
  2
ByBlock
 70
     0
  3

 72
    65
 73
     0
 40
0.0
  0
LTYPE
  5
15
330
5
100
AcDbSymbolTableRecord
100
AcDbLinetypeTableRecord
  2
ByLayer
 70
     0
  3

 72
    65
 73
     0
 40
0.0
  0
LTYPE
  5
16
330
5
100
AcDbSymbolTableRecord
100
AcDbLinetypeTableRecord
  2
Continuous
 70
     0
  3
Solid line
 72
    65
 73
     0
 40
0.0
  0
ENDTAB
  0
TABLE
  2
LAYER
  5
2
330
0
100
AcDbSymbolTable
 70
     2
  0
LAYER
  5
10
330
2
100
AcDbSymbolTableRecord
100
AcDbLayerTableRecord
  2
0
 70
     0
 62
     7
  6
Continuous
370
    -3
390
F
347
46
  0
LAYER
  5
5F
330
2
100
AcDbSymbolTableRecord
100
AcDbLayerTableRecord
  2
1
 70
     0
 62
    18
420
        0
  6
Continuous
370
    -3
390
F
347
46
  0
ENDTAB
  0
TABLE
  2
STYLE
  5
3
330
0
100
AcDbSymbolTable
 70
     1
  0
STYLE
  5
11
330
3
100
AcDbSymbolTableRecord
100
AcDbTextStyleTableRecord
  2
Standard
 70
     0
 40
0.0
 41
1.0
 50
0.0
 71
     0
 42
0.2
  3
txt
  4

  0
ENDTAB
  0
TABLE
  2
VIEW
  5
6
330
0
100
AcDbSymbolTable
 70
     0
  0
ENDTAB
  0
TABLE
  2
UCS
  5
7
330
0
100
AcDbSymbolTable
 70
     0
  0
ENDTAB
  0
TABLE
  2
APPID
  5
9
330
0
100
AcDbSymbolTable
 70
     3
  0
APPID
  5
12
330
9
100
AcDbSymbolTableRecord
100
AcDbRegAppTableRecord
  2
ACAD
 70
     0
  0
APPID
  5
5E
330
9
100
AcDbSymbolTableRecord
100
AcDbRegAppTableRecord
  2
Rhino
 70
     0
  0
APPID
  5
1DC
330
9
100
AcDbSymbolTableRecord
100
AcDbRegAppTableRecord
  2
ACAD_MLEADERVER
 70
     0
  0
ENDTAB
  0
TABLE
  2
DIMSTYLE
  5
A
330
0
100
AcDbSymbolTable
 70
     1
100
AcDbDimStyleTable
  0
DIMSTYLE
105
27
330
A
100
AcDbSymbolTableRecord
100
AcDbDimStyleTableRecord
  2
STANDARD_ACAD
 70
     0
178
     0
340
11
  0
ENDTAB
  0
TABLE
  2
BLOCK_RECORD
  5
1
330
0
100
AcDbSymbolTable
 70
     2
  0
BLOCK_RECORD
  5
1F
330
1
100
AcDbSymbolTableRecord
100
AcDbBlockTableRecord
  2
*Model_Space
340
22
 70
     0
280
     1
281
     0
  0
BLOCK_RECORD
  5
1B
330
1
100
AcDbSymbolTableRecord
100
AcDbBlockTableRecord
  2
*Paper_Space
340
1E
 70
     0
280
     1
281
     0
  0
BLOCK_RECORD
  5
23
330
1
100
AcDbSymbolTableRecord
100
AcDbBlockTableRecord
  2
*Paper_Space0
340
26
 70
     0
280
     1
281
     0
  0
BLOCK_RECORD
  5
60
330
1
100
AcDbSymbolTableRecord
100
AcDbBlockTableRecord
  2
Blocco 01
340
0
102
{BLKREFS
331
AD
102
}
 70
     0
280
     1
281
     0
  0
ENDTAB
  0
ENDSEC
  0
SECTION
  2
BLOCKS
  0
BLOCK
  5
20
330
1F
100
AcDbEntity
  8
0
100
AcDbBlockBegin
  2
*Model_Space
 70
     0
 10
0.0
 20
0.0
 30
0.0
  3
*Model_Space
  1

  0
ENDBLK
  5
21
330
1F
100
AcDbEntity
  8
0
100
AcDbBlockEnd
  0
BLOCK
  5
1C
330
1B
100
AcDbEntity
 67
     1
  8
0
100
AcDbBlockBegin
  2
*Paper_Space
 70
     0
 10
0.0
 20
0.0
 30
0.0
  3
*Paper_Space
  1

  0
ENDBLK
  5
1D
330
1B
100
AcDbEntity
 67
     1
  8
0
100
AcDbBlockEnd
  0
BLOCK
  5
24
330
23
100
AcDbEntity
  8
0
100
AcDbBlockBegin
  2
*Paper_Space0
 70
     0
 10
0.0
 20
0.0
 30
0.0
  3
*Paper_Space0
  1

  0
ENDBLK
  5
25
330
23
100
AcDbEntity
  8
0
100
AcDbBlockEnd
  0
BLOCK
  5
AB
330
60
100
AcDbEntity
  8
0
100
AcDbBlockBegin
  2
Blocco 01
 70
     0
 10
0.0
 20
0.0
 30
0.0
  3
Blocco 01
  1

  0
SPLINE
  5
61
330
60
100
AcDbEntity
  8
1
 62
   253
420
 10066329
100
AcDbSpline
210
1.0
220
0.0
230
0.0
 70
     8
 71
     2
 72
     7
 73
     4
 74
     0
 42
0.0000000001
 43
0.0000000001
 40
0.0
 40
0.0
 40
0.0
 40
96.55804480767573
 40
190.8516035972048
 40
190.8516035972048
 40
190.8516035972048
 10
0.0000000000000568
 20
-0.0000000000000046
 30
155.5
 10
0.0000000000000568
 20
101.901615822705
 30
155.5
 10
0.0000000000000568
 20
156.848051403424
 30
120.713607072478
 10
0.0000000000000568
 20
157.484710455929
 30
89.03013545499203
  0
CIRCLE
  5
62
330
60
100
AcDbEntity
  8
1
 62
   253
420
 10066329
100
AcDbCircle
 10
0.0000000000000568
 20
-0.000000000000117
 30
89.0301354549923
 40
157.484710455929
  0
CIRCLE
  5
63
330
60
100
AcDbEntity
  8
1
 62
   253
420
 10066329
100
AcDbCircle
 10
0.0000000000000568
 20
-0.0000000000000343
 30
137.9004303674492
 40
129.7008079113527
  0
SPLINE
  5
64
330
60
100
AcDbEntity
  8
1
 62
   253
420
 10066329
100
AcDbSpline
210
-2.385198467391428E-31
220
-1.0
230
1.691279822072971E-15
 70
     8
 71
     2
 72
     7
 73
     4
 74
     0
 42
0.0000000001
 43
0.0000000001
 40
0.0
 40
0.0
 40
0.0
 40
96.55804480767573
 40
190.8516035972048
 40
190.8516035972048
 40
190.8516035972048
 10
0.0000000000000568
 20
-0.0000000000000046
 30
155.5
 10
-101.9016158227049
 20
-0.0000000000000046
 30
155.5000000000002
 10
-156.848051403424
 20
-0.0000000000000634
 30
120.7136070724783
 10
-157.484710455929
 20
-0.000000000000117
 30
89.03013545499228
  0
SPLINE
  5
65
330
60
100
AcDbEntity
  8
1
 62
   253
420
 10066329
100
AcDbSpline
210
1.0
220
0.0
230
0.0
 70
     8
 71
     2
 72
     7
 73
     4
 74
     0
 42
0.0000000001
 43
0.0000000001
 40
0.0
 40
0.0
 40
0.0
 40
96.55804480767573
 40
190.8516035972048
 40
190.8516035972048
 40
190.8516035972048
 10
0.0000000000000568
 20
-0.0000000000000046
 30
155.5
 10
0.0000000000000568
 20
-101.901615822705
 30
155.5000000000003
 10
0.0000000000000568
 20
-156.8480514034241
 30
120.7136070724786
 10
0.0000000000000568
 20
-157.4847104559292
 30
89.03013545499253
  0
SPLINE
  5
66
330
60
100
AcDbEntity
  8
1
 62
   253
420
 10066329
100
AcDbSpline
210
1.423746373102727E-31
220
-1.0
230
1.691279822072971E-15
 70
     8
 71
     2
 72
     7
 73
     4
 74
     0
 42
0.0000000001
 43
0.0000000001
 40
0.0
 40
0.0
 40
0.0
 40
96.55804480767573
 40
190.8516035972048
 40
190.8516035972048
 40
190.8516035972048
 10
0.0000000000000568
 20
-0.0000000000000046
 30
155.5
 10
101.9016158227051
 20
-0.0000000000000046
 30
155.5000000000002
 10
156.8480514034241
 20
-0.0000000000000634
 30
120.7136070724783
 10
157.4847104559292
 20
-0.000000000000117
 30
89.03013545499228
  0
CIRCLE
  5
67
330
60
100
AcDbEntity
  8
1
 62
   253
420
 10066329
100
AcDbCircle
 10
0.0000000000000568
 20
-0.0000000000001196
 30
87.5000000000001
 40
154.22445141513
  0
CIRCLE
  5
68
330
60
100
AcDbEntity
  8
1
 62
   253
420
 10066329
100
AcDbCircle
 10
0.0000000000000568
 20
-0.0000000000001196
 30
87.5000000000001
 40
155.985013201697
  0
LINE
  5
69
330
60
100
AcDbEntity
  8
1
 62
   253
420
 10066329
100
AcDbLine
 10
0.0000000000000568
 20
-155.9850132016971
 30
87.50000000000031
 11
0.0000000000000568
 21
-154.2244514151301
 31
87.50000000000031
  0
LINE
  5
6A
330
60
100
AcDbEntity
  8
1
 62
   253
420
 10066329
100
AcDbLine
 10
0.0000000000000568
 20
154.2244514151299
 30
87.4999999999998
 11
0.0000000000000568
 21
155.9850132016969
 31
87.49999999999979
  0
LINE
  5
6B
330
60
100
AcDbEntity
  8
1
 62
   253
420
 10066329
100
AcDbLine
 10
-155.9850132016969
 20
-0.0000000000001421
 30
87.50000000000007
 11
-154.2244514151299
 21
-0.0000000000001421
 31
87.50000000000007
  0
LINE
  5
6C
330
60
100
AcDbEntity
  8
1
 62
   253
420
 10066329
100
AcDbLine
 10
154.2244514151301
 20
-0.0000000000001421
 30
87.50000000000007
 11
155.9850132016971
 21
-0.0000000000001421
 31
87.50000000000007
  0
CIRCLE
  5
6D
330
60
100
AcDbEntity
  8
1
 62
   253
420
 10066329
100
AcDbCircle
 10
0.0000000000000568
 20
-0.000000000000117
 30
89.0420068151841
 40
154.678941882019
  0
CIRCLE
  5
6E
330
60
100
AcDbEntity
  8
1
 62
   253
420
 10066329
100
AcDbCircle
 10
0.0000000000000568
 20
-0.000000000000117
 30
89.0420068151841
 40
155.47192215846
  0
LINE
  5
6F
330
60
100
AcDbEntity
  8
1
 62
   253
420
 10066329
100
AcDbLine
 10
0.0000000000000426
 20
155.47192215846
 30
89.04200681518374
 11
0.0000000000000426
 21
154.6789418820189
 31
89.04200681518375
  0
LINE
  5
70
330
60
100
AcDbEntity
  8
1
 62
   253
420
 10066329
100
AcDbLine
 10
0.0000000000000426
 20
-154.6789418820191
 30
89.0420068151843
 11
0.0000000000000426
 21
-155.4719221584601
 31
89.0420068151843
  0
LINE
  5
71
330
60
100
AcDbEntity
  8
1
 62
   253
420
 10066329
100
AcDbLine
 10
-155.4719221584599
 20
-0.0000000000000853
 30
89.04200681518404
 11
-154.6789418820189
 21
-0.0000000000000853
 31
89.04200681518404
  0
LINE
  5
72
330
60
100
AcDbEntity
  8
1
 62
   253
420
 10066329
100
AcDbLine
 10
154.678941882019
 20
-0.0000000000000853
 30
89.04200681518404
 11
155.4719221584601
 21
-0.0000000000000853
 31
89.04200681518404
  0
CIRCLE
  5
73
330
60
100
AcDbEntity
  8
1
 62
   253
420
 10066329
100
AcDbCircle
 10
0.0000000000000568
 20
-0.0000000000001172
 30
88.8692663858785
 40
152.730159367992
  0
CIRCLE
  5
74
330
60
100
AcDbEntity
  8
1
 62
   253
420
 10066329
100
AcDbCircle
 10
0.0000000000000568
 20
-0.0000000000001128
 30
91.4999999999996
 40
152.5
  0
LINE
  5
75
330
60
100
AcDbEntity
  8
1
 62
   253
420
 10066329
100
AcDbLine
 10
0.0000000000000568
 20
152.5000000000002
 30
91.49999999999937
 11
0.0000000000000568
 21
152.7301593679924
 31
88.86926638587829
  0
CIRCLE
  5
76
330
60
100
AcDbEntity
  8
1
 62
   253
420
 10066329
100
AcDbCircle
 10
0.0000000000000568
 20
-0.000000000000115
 30
90.18463319293892
 40
152.6150796839964
  0
LINE
  5
77
330
60
100
AcDbEntity
  8
1
 62
   253
420
 10066329
100
AcDbLine
 10
152.5000000000004
 20
-0.0000000000001128
 30
91.49999999999963
 11
152.7301593679926
 21
-0.0000000000001172
 31
88.86926638587856
  0
LINE
  5
78
330
60
100
AcDbEntity
  8
1
 62
   253
420
 10066329
100
AcDbLine
 10
0.0000000000000568
 20
-152.5000000000005
 30
91.49999999999989
 11
0.0000000000000568
 21
-152.7301593679927
 31
88.8692663858788
  0
LINE
  5
79
330
60
100
AcDbEntity
  8
1
 62
   253
420
 10066329
100
AcDbLine
 10
-152.5000000000003
 20
-0.0000000000001128
 30
91.49999999999963
 11
-152.7301593679925
 21
-0.0000000000001172
 31
88.86926638587856
  0
CIRCLE
  5
7A
330
60
100
AcDbEntity
  8
1
 62
   253
420
 10066329
100
AcDbCircle
 10
0.0000000000000568
 20
-0.0000000000001126
 30
91.6307336141214
 40
153.994292047137
  0
CIRCLE
  5
7B
330
60
100
AcDbEntity
  8
1
 62
   253
420
 10066329
100
AcDbCircle
 10
0.0000000000000568
 20
-0.0000000000001128
 30
91.4999999999996
 40
152.5
  0
LINE
  5
7C
330
60
100
AcDbEntity
  8
1
 62
   253
420
 10066329
100
AcDbLine
 10
0.0000000000000568
 20
-152.5000000000002
 30
91.49999999999986
 11
0.0000000000000568
 21
-153.9942920471372
 31
91.63073361412158
  0
LINE
  5
7D
330
60
100
AcDbEntity
  8
1
 62
   253
420
 10066329
100
AcDbLine
 10
152.5000000000001
 20
-0.0000000000001128
 30
91.4999999999996
 11
153.9942920471371
 21
-0.0000000000001126
 31
91.63073361412131
  0
LINE
  5
7E
330
60
100
AcDbEntity
  8
1
 62
   253
420
 10066329
100
AcDbLine
 10
0.0000000000000568
 20
152.4999999999999
 30
91.49999999999933
 11
0.0000000000000568
 21
153.9942920471369
 31
91.63073361412104
  0
LINE
  5
7F
330
60
100
AcDbEntity
  8
1
 62
   253
420
 10066329
100
AcDbLine
 10
-152.5
 20
-0.0000000000001128
 30
91.4999999999996
 11
-153.994292047137
 21
-0.0000000000001126
 31
91.63073361412131
  0
CIRCLE
  5
80
330
60
100
AcDbEntity
  8
1
 62
   253
420
 10066329
100
AcDbCircle
 10
0.0000000000000568
 20
-0.0000000000001162
 30
89.4984289438102
 40
154.180844532973
  0
CIRCLE
  5
81
330
60
100
AcDbEntity
  8
1
 62
   253
420
 10066329
100
AcDbCircle
 10
0.0000000000000568
 20
-0.0000000000001126
 30
91.6307336141214
 40
153.994292047137
  0
LINE
  5
82
330
60
100
AcDbEntity
  8
1
 62
   253
420
 10066329
100
AcDbLine
 10
0.0000000000000568
 20
153.9942920471369
 30
91.63073361412114
 11
0.0000000000000568
 21
154.1808445329725
 31
89.4984289438099
  0
CIRCLE
  5
83
330
60
100
AcDbEntity
  8
1
 62
   253
420
 10066329
100
AcDbCircle
 10
0.0000000000000568
 20
-0.0000000000001144
 30
90.56458127896587
 40
154.0875682900548
  0
LINE
  5
84
330
60
100
AcDbEntity
  8
1
 62
   253
420
 10066329
100
AcDbLine
 10
153.994292047137
 20
-0.0000000000001126
 30
91.6307336141214
 11
154.1808445329727
 21
-0.0000000000001162
 31
89.49842894381017
  0
LINE
  5
85
330
60
100
AcDbEntity
  8
1
 62
   253
420
 10066329
100
AcDbLine
 10
0.0000000000000568
 20
-153.9942920471371
 30
91.63073361412167
 11
0.0000000000000568
 21
-154.1808445329727
 31
89.49842894381044
  0
LINE
  5
86
330
60
100
AcDbEntity
  8
1
 62
   253
420
 10066329
100
AcDbLine
 10
-153.9942920471369
 20
-0.0000000000001126
 30
91.6307336141214
 11
-154.1808445329726
 21
-0.0000000000001162
 31
89.49842894381017
  0
CIRCLE
  5
87
330
60
100
AcDbEntity
  8
1
 62
   253
420
 10066329
100
AcDbCircle
 10
0.0000000000000568
 20
-0.0000000000001161
 30
89.5558585844873
 40
155.971730250119
  0
SPLINE
  5
88
330
60
100
AcDbEntity
  8
1
 62
   253
420
 10066329
100
AcDbSpline
210
1.0
220
0.0
230
0.0
 70
    12
 71
     3
 72
    20
 73
    16
 74
     0
 42
0.0000000001
 43
0.0000000001
 40
0.0000000000076135
 40
0.0000000000076135
 40
0.0000000000076135
 40
0.0000000000076135
 40
93.01992014859805
 40
93.01992014859805
 40
139.5298802228969
 40
139.5298802228969
 40
162.7848602600461
 40
162.7848602600461
 40
174.4123502786213
 40
174.4123502786213
 40
186.0398402971961
 40
186.0398402971961
 40
279.0597604457949
 40
279.0597604457949
 40
372.0796805943937
 40
372.0796805943937
 40
372.0796805943937
 40
372.0796805943937
 10
0.0000000000000568
 20
155.9717302501189
 30
89.55585858448704
 41
1.0
 10
0.0000000000000568
 20
155.6839922024836
 30
99.93820045990277
 41
1.0
 10
0.0000000000000568
 20
153.2105557102286
 30
109.0391994459997
 41
1.0
 10
0.0000000000000568
 20
146.247679321135
 30
120.905675571181
 41
1.0
 10
0.0000000000000568
 20
143.381683884914
 30
124.565698478741
 41
1.0
 10
0.0000000000000568
 20
138.248274715415
 30
129.623525279574
 41
1.0
 10
0.0000000000000568
 20
136.398004322286
 30
131.237245302798
 41
1.0
 10
0.0000000000000568
 20
133.4119367382
 30
133.549354044364
 41
1.0
 10
0.0000000000000568
 20
132.381475433298
 30
134.301969297496
 41
1.0
 10
0.0000000000000568
 20
130.25008513612
 30
135.770914833936
 41
1.0
 10
0.0000000000000568
 20
129.16402257152
 30
136.489903300065
 41
1.0
 10
0.0000000000000568
 20
118.840476081738
 30
142.655718989026
 41
1.0
 10
0.0000000000000568
 20
103.493997232056
 30
146.927392304681
 41
1.0
 10
0.0000000000000568
 20
60.7659811334326
 30
152.579913760363
 41
1.0
 10
0.0000000000000568
 20
33.3776406637882
 30
154.0
 41
1.0
 10
0.0000000000000568
 20
0.0
 30
154.0
 41
1.0
  0
SPLINE
  5
89
330
60
100
AcDbEntity
  8
1
 62
   253
420
 10066329
100
AcDbSpline
210
1.0
220
0.0
230
0.0
 70
    12
 71
     3
 72
    20
 73
    16
 74
     0
 42
0.0000000001
 43
0.0000000001
 40
0.0
 40
0.0
 40
0.0
 40
0.0
 40
93.01992014859805
 40
93.01992014859805
 40
139.5298802228969
 40
139.5298802228969
 40
162.7848602600461
 40
162.7848602600461
 40
174.4123502786213
 40
174.4123502786213
 40
186.0398402971961
 40
186.0398402971961
 40
279.0597604457949
 40
279.0597604457949
 40
372.0796805943937
 40
372.0796805943937
 40
372.0796805943937
 40
372.0796805943937
 10
0.0000000000000568
 20
-155.971730250119
 30
89.555858584485
 41
1.0
 10
0.0000000000000568
 20
-155.683992202484
 30
99.93820045990178
 41
1.0
 10
0.0000000000000568
 20
-153.21055571023
 30
109.039199445999
 41
1.0
 10
0.0000000000000568
 20
-146.247679321135
 30
120.905675571182
 41
1.0
 10
0.0000000000000568
 20
-143.381683884914
 30
124.565698478742
 41
1.0
 10
0.0000000000000568
 20
-138.248274715415
 30
129.623525279574
 41
1.0
 10
0.0000000000000568
 20
-136.398004322286
 30
131.237245302798
 41
1.0
 10
0.0000000000000568
 20
-133.4119367382
 30
133.549354044364
 41
1.0
 10
0.0000000000000568
 20
-132.381475433298
 30
134.301969297497
 41
1.0
 10
0.0000000000000568
 20
-130.25008513612
 30
135.770914833937
 41
1.0
 10
0.0000000000000568
 20
-129.16402257152
 30
136.489903300066
 41
1.0
 10
0.0000000000000568
 20
-118.840476081738
 30
142.655718989026
 41
1.0
 10
0.0000000000000568
 20
-103.493997232056
 30
146.927392304682
 41
1.0
 10
0.0000000000000568
 20
-60.7659811334326
 30
152.579913760363
 41
1.0
 10
0.0000000000000568
 20
-33.3776406637882
 30
154.0
 41
1.0
 10
0.0000000000000568
 20
0.0
 30
154.0
 41
1.0
  0
SPLINE
  5
8A
330
60
100
AcDbEntity
  8
1
 62
   253
420
 10066329
100
AcDbSpline
210
0.0
220
0.0
230
1.0
 70
    15
 71
     3
 72
    11
 73
     7
 74
     0
 42
0.0000000001
 43
0.0000000001
 40
0.0
 40
0.0
 40
0.0
 40
0.0
 40
935.8303815007121
 40
935.8303815007121
 40
935.8303815007121
 40
1871.660763001424
 40
1871.660763001424
 40
1871.660763001424
 40
1871.660763001424
 10
0.0000000000000568
 20
148.5686381174997
 30
116.9501835294537
 41
1.0
 10
-297.137276234999
 20
148.5686381174996
 30
116.9501835294537
 41
0.333333333333333
 10
-297.137276234999
 20
-148.5686381175
 30
116.9501835294543
 41
0.333333333333333
 10
0.0000000000000568
 20
-148.5686381175
 30
116.9501835294543
 41
1.0
 10
297.137276234999
 20
-148.5686381175
 30
116.9501835294543
 41
0.333333333333333
 10
297.137276234999
 20
148.5686381174996
 30
116.9501835294537
 41
0.333333333333333
 10
0.0000000000000568
 20
148.5686381174997
 30
116.9501835294537
 41
1.0
  0
SPLINE
  5
8B
330
60
100
AcDbEntity
  8
1
 62
   253
420
 10066329
100
AcDbSpline
210
0.0
220
0.0
230
1.0
 70
    15
 71
     3
 72
    11
 73
     7
 74
     0
 42
0.0000000001
 43
0.0000000001
 40
0.0
 40
0.0
 40
0.0
 40
0.0
 40
935.8303815007121
 40
935.8303815007121
 40
935.8303815007121
 40
1871.660763001424
 40
1871.660763001424
 40
1871.660763001424
 40
1871.660763001424
 10
0.0000000000000568
 20
139.959411105248
 30
127.9375830126297
 41
1.0
 10
-279.9188222104959
 20
139.959411105248
 30
127.9375830126297
 41
0.333333333333333
 10
-279.9188222104959
 20
-139.959411105248
 30
127.93758301263
 41
0.333333333333333
 10
0.0000000000000568
 20
-139.959411105248
 30
127.93758301263
 41
1.0
 10
279.9188222104959
 20
-139.959411105248
 30
127.93758301263
 41
0.333333333333333
 10
279.9188222104966
 20
139.959411105248
 30
127.9375830126297
 41
0.333333333333333
 10
0.0000000000000568
 20
139.959411105248
 30
127.9375830126297
 41
1.0
  0
SPLINE
  5
8C
330
60
100
AcDbEntity
  8
1
 62
   253
420
 10066329
100
AcDbSpline
210
0.0
220
0.0
230
1.0
 70
    15
 71
     3
 72
    11
 73
     7
 74
     0
 42
0.0000000001
 43
0.0000000001
 40
0.0
 40
0.0
 40
0.0
 40
0.0
 40
935.8303815007121
 40
935.8303815007121
 40
935.8303815007121
 40
1871.660763001424
 40
1871.660763001424
 40
1871.660763001424
 40
1871.660763001424
 10
0.0000000000000568
 20
134.407292599562
 30
132.7786511305086
 41
1.0
 10
-268.8145851991247
 20
134.4072925995621
 30
132.7786511305086
 41
0.333333333333333
 10
-268.8145851991247
 20
-134.4072925995621
 30
132.7786511305086
 41
0.333333333333333
 10
0.0000000000000568
 20
-134.407292599562
 30
132.7786511305086
 41
1.0
 10
268.8145851991247
 20
-134.4072925995621
 30
132.7786511305086
 41
0.333333333333333
 10
268.8145851991247
 20
134.4072925995621
 30
132.7786511305086
 41
0.333333333333333
 10
0.0000000000000568
 20
134.407292599562
 30
132.7786511305086
 41
1.0
  0
SPLINE
  5
8D
330
60
100
AcDbEntity
  8
1
 62
   253
420
 10066329
100
AcDbSpline
210
0.0
220
0.0
230
1.0
 70
    15
 71
     3
 72
    11
 73
     7
 74
     0
 42
0.0000000001
 43
0.0000000001
 40
0.0
 40
0.0
 40
0.0
 40
0.0
 40
935.8303815007121
 40
935.8303815007121
 40
935.8303815007121
 40
1871.660763001424
 40
1871.660763001424
 40
1871.660763001424
 40
1871.660763001424
 10
0.0000000000000568
 20
131.315780284709
 30
135.036442065716
 41
1.0
 10
-262.631560569418
 20
131.315780284709
 30
135.036442065716
 41
0.333333333333333
 10
-262.631560569418
 20
-131.315780284709
 30
135.036442065717
 41
0.333333333333333
 10
0.0000000000000568
 20
-131.315780284709
 30
135.036442065717
 41
1.0
 10
262.631560569418
 20
-131.315780284709
 30
135.036442065717
 41
0.333333333333333
 10
262.631560569418
 20
131.315780284709
 30
135.036442065716
 41
0.333333333333333
 10
0.0000000000000568
 20
131.315780284709
 30
135.036442065716
 41
1.0
  0
SPLINE
  5
8E
330
60
100
AcDbEntity
  8
1
 62
   253
420
 10066329
100
AcDbSpline
210
0.0
220
0.0
230
1.0
 70
    15
 71
     3
 72
    11
 73
     7
 74
     0
 42
0.0000000001
 43
0.0000000001
 40
0.0
 40
0.0
 40
0.0
 40
0.0
 40
935.8303815007121
 40
935.8303815007121
 40
935.8303815007121
 40
1871.660763001424
 40
1871.660763001424
 40
1871.660763001424
 40
1871.660763001424
 10
0.0000000000000568
 20
128.0169618504331
 30
137.1749939321718
 41
1.0
 10
-256.0339237008664
 20
128.0169618504331
 30
137.1749939321718
 41
0.333333333333333
 10
-256.0339237008664
 20
-128.0169618504331
 30
137.1749939321727
 41
0.333333333333333
 10
0.0000000000000568
 20
-128.0169618504331
 30
137.1749939321727
 41
1.0
 10
256.0339237008664
 20
-128.0169618504331
 30
137.1749939321727
 41
0.333333333333333
 10
256.0339237008664
 20
128.0169618504331
 30
137.1749939321718
 41
0.333333333333333
 10
0.0000000000000568
 20
128.0169618504331
 30
137.1749939321718
 41
1.0
  0
SPLINE
  5
8F
330
60
100
AcDbEntity
  8
1
 62
   253
420
 10066329
100
AcDbSpline
210
0.0
220
0.0
230
1.0
 70
    15
 71
     3
 72
    11
 73
     7
 74
     0
 42
0.0000000001
 43
0.0000000001
 40
0.0
 40
0.0
 40
0.0
 40
0.0
 40
935.8303815007121
 40
935.8303815007121
 40
935.8303815007121
 40
1871.660763001424
 40
1871.660763001424
 40
1871.660763001424
 40
1871.660763001424
 10
0.0000000000000568
 20
82.1299891827443
 30
149.753653032522
 41
1.0
 10
-164.259978365489
 20
82.1299891827443
 30
149.753653032522
 41
0.333333333333333
 10
-164.259978365489
 20
-82.1299891827443
 30
149.7536530325225
 41
0.333333333333333
 10
0.0000000000000568
 20
-82.1299891827443
 30
149.7536530325225
 41
1.0
 10
164.259978365489
 20
-82.1299891827443
 30
149.7536530325225
 41
0.333333333333333
 10
164.259978365489
 20
82.1299891827443
 30
149.753653032522
 41
0.333333333333333
 10
0.0000000000000568
 20
82.1299891827443
 30
149.753653032522
 41
1.0
  0
CIRCLE
  5
90
330
60
100
AcDbEntity
  8
1
 62
   253
420
 10066329
100
AcDbCircle
 10
0.0000000000000568
 20
-0.000000000000117
 30
89.0420068151841
 40
154.678941882019
  0
CIRCLE
  5
91
330
60
100
AcDbEntity
  8
1
 62
   253
420
 10066329
100
AcDbCircle
 10
0.0000000000000568
 20
-0.0000000000001162
 30
89.4984289438102
 40
154.180844532973
  0
ARC
  5
92
330
60
100
AcDbEntity
  8
1
 62
   253
420
 10066329
100
AcDbCircle
 10
-154.6789418820191
 20
89.54200681518435
 30
0.0000000000000568
 40
0.5
210
1.0
220
0.0
230
0.0
100
AcDbArc
 50
270.0
 51
354.9999999999937
  0
ARC
  5
93
330
60
100
AcDbEntity
  8
1
 62
   253
420
 10066329
100
AcDbCircle
 10
-154.678941882019
 20
89.5420068151841
 30
-0.0000000000001161
 40
0.5
210
0.0
220
1.0
230
0.0
100
AcDbArc
 50
270.0
 51
354.9999999999937
  0
ARC
  5
94
330
60
100
AcDbEntity
  8
1
 62
   253
420
 10066329
100
AcDbCircle
 10
154.6789418820189
 20
89.54200681518383
 30
0.0000000000000568
 40
0.5
210
1.0
220
0.0
230
0.0
100
AcDbArc
 50
185.0000000000062
 51
270.0
  0
ARC
  5
95
330
60
100
AcDbEntity
  8
1
 62
   253
420
 10066329
100
AcDbCircle
 10
154.6789418820189
 20
89.5420068151841
 30
-0.0000000000001161
 40
0.5
210
0.0
220
1.0
230
0.0
100
AcDbArc
 50
185.0000000000062
 51
270.0
  0
CIRCLE
  5
96
330
60
100
AcDbEntity
  8
1
 62
   253
420
 10066329
100
AcDbCircle
 10
0.0000000000000568
 20
-0.0000000000001161
 30
89.5558585844873
 40
155.971730250119
  0
CIRCLE
  5
97
330
60
100
AcDbEntity
  8
1
 62
   253
420
 10066329
100
AcDbCircle
 10
0.0000000000000568
 20
-0.000000000000117
 30
89.0420068151841
 40
155.47192215846
  0
ARC
  5
98
330
60
100
AcDbEntity
  8
1
 62
   253
420
 10066329
100
AcDbCircle
 10
-155.4719221584601
 20
89.54200681518435
 30
0.0000000000000568
 40
0.5
210
1.0
220
0.0
230
0.0
100
AcDbArc
 50
180.0
 51
270.0
  0
CIRCLE
  5
99
330
60
100
AcDbEntity
  8
1
 62
   253
420
 10066329
100
AcDbCircle
 10
0.0000000000000568
 20
-0.000000000000117
 30
89.04200681518407
 40
155.47192215846
  0
ARC
  5
9A
330
60
100
AcDbEntity
  8
1
 62
   253
420
 10066329
100
AcDbCircle
 10
-155.47192215846
 20
89.54200681518408
 30
-0.0000000000001161
 40
0.5
210
0.0
220
1.0
230
0.0
100
AcDbArc
 50
180.0
 51
270.0
  0
ARC
  5
9B
330
60
100
AcDbEntity
  8
1
 62
   253
420
 10066329
100
AcDbCircle
 10
155.4719221584599
 20
89.54200681518383
 30
0.0000000000000568
 40
0.5
210
1.0
220
0.0
230
0.0
100
AcDbArc
 50
270.0
 51
0.0
  0
ARC
  5
9C
330
60
100
AcDbEntity
  8
1
 62
   253
420
 10066329
100
AcDbCircle
 10
155.4719221584599
 20
89.54200681518408
 30
-0.0000000000001161
 40
0.5
210
0.0
220
1.0
230
0.0
100
AcDbArc
 50
270.0
 51
0.0
  0
CIRCLE
  5
9D
330
60
100
AcDbEntity
  8
1
 62
   253
420
 10066329
100
AcDbCircle
 10
0.0000000000000568
 20
-0.0000000000001172
 30
88.8692663858785
 40
152.730159367992
  0
CIRCLE
  5
9E
330
60
100
AcDbEntity
  8
1
 62
   253
420
 10066329
100
AcDbCircle
 10
0.0000000000000568
 20
-0.0000000000001196
 30
87.5000000000001
 40
154.22445141513
  0
ARC
  5
9F
330
60
100
AcDbEntity
  8
1
 62
   253
420
 10066329
100
AcDbCircle
 10
154.2244514151299
 20
88.99999999999984
 30
0.0000000000000568
 40
1.5
210
1.0
220
0.0
230
0.0
100
AcDbArc
 50
185.0000000000031
 51
270.0
  0
CIRCLE
  5
A0
330
60
100
AcDbEntity
  8
1
 62
   253
420
 10066329
100
AcDbCircle
 10
0.0000000000000568
 20
-0.0000000000001196
 30
87.50000000000009
 40
154.22445141513
  0
ARC
  5
A1
330
60
100
AcDbEntity
  8
1
 62
   253
420
 10066329
100
AcDbCircle
 10
-154.2244514151301
 20
89.0000000000001
 30
-0.000000000000117
 40
1.5
210
0.0
220
1.0
230
0.0
100
AcDbArc
 50
270.0
 51
354.9999999999969
  0
ARC
  5
A2
330
60
100
AcDbEntity
  8
1
 62
   253
420
 10066329
100
AcDbCircle
 10
-154.2244514151301
 20
89.00000000000037
 30
0.0000000000000568
 40
1.5
210
1.0
220
0.0
230
0.0
100
AcDbArc
 50
270.0
 51
354.9999999999969
  0
ARC
  5
A3
330
60
100
AcDbEntity
  8
1
 62
   253
420
 10066329
100
AcDbCircle
 10
154.2244514151299
 20
89.0000000000001
 30
-0.000000000000117
 40
1.5
210
0.0
220
1.0
230
0.0
100
AcDbArc
 50
185.0000000000031
 51
270.0
  0
CIRCLE
  5
A4
330
60
100
AcDbEntity
  8
1
 62
   253
420
 10066329
100
AcDbCircle
 10
0.0000000000000568
 20
-0.000000000000117
 30
89.0301354549923
 40
157.484710455929
  0
CIRCLE
  5
A5
330
60
100
AcDbEntity
  8
1
 62
   253
420
 10066329
100
AcDbCircle
 10
0.0000000000000568
 20
-0.0000000000001196
 30
87.5000000000001
 40
155.985013201697
  0
ARC
  5
A6
330
60
100
AcDbEntity
  8
1
 62
   253
420
 10066329
100
AcDbCircle
 10
-155.9850132016971
 20
89.00000000000036
 30
0.0000000000000568
 40
1.5
210
1.0
220
0.0
230
0.0
100
AcDbArc
 50
180.0
 51
270.0
  0
CIRCLE
  5
A7
330
60
100
AcDbEntity
  8
1
 62
   253
420
 10066329
100
AcDbCircle
 10
0.0000000000000568
 20
-0.0000000000001196
 30
87.50000000000009
 40
155.985013201697
  0
ARC
  5
A8
330
60
100
AcDbEntity
  8
1
 62
   253
420
 10066329
100
AcDbCircle
 10
-155.9850132016971
 20
89.00000000000009
 30
-0.000000000000117
 40
1.5
210
0.0
220
1.0
230
0.0
100
AcDbArc
 50
180.0
 51
270.0
  0
ARC
  5
A9
330
60
100
AcDbEntity
  8
1
 62
   253
420
 10066329
100
AcDbCircle
 10
155.9850132016969
 20
88.99999999999983
 30
0.0000000000000568
 40
1.5
210
1.0
220
0.0
230
0.0
100
AcDbArc
 50
270.0
 51
0.0
  0
ARC
  5
AA
330
60
100
AcDbEntity
  8
1
 62
   253
420
 10066329
100
AcDbCircle
 10
155.9850132016969
 20
89.00000000000009
 30
-0.000000000000117
 40
1.5
210
0.0
220
1.0
230
0.0
100
AcDbArc
 50
270.0
 51
0.0
  0
ENDBLK
  5
AC
330
60
100
AcDbEntity
  8
0
100
AcDbBlockEnd
  0
ENDSEC
  0
SECTION
  2
ENTITIES
  0
INSERT
  5
AD
330
1F
100
AcDbEntity
  8
1
 62
   253
420
 10066329
100
AcDbBlockReference
  2
Blocco 01
 10
0.0
 20
0.0
 30
0.0
  0
SPLINE
  5
AE
330
1F
100
AcDbEntity
  8
1
 62
     7
420
 15921906
100
AcDbSpline
210
1.0
220
-1.027748863269484E-29
230
-1.791360193389625E-28
 70
    12
 71
     3
 72
     8
 73
     4
 74
     0
 42
0.0000000001
 43
0.0000000001
 40
0.0000000000000009
 40
0.0000000000000009
 40
0.0000000000000009
 40
0.0000000000000009
 40
1.000000000000001
 40
1.000000000000001
 40
1.000000000000001
 40
1.000000000000001
 10
0.0000000000000568
 20
1.50000000000161
 30
103.730979449339
 41
1.0
 10
0.0000000000000568
 20
1.03333410899574
 30
103.7577532573525
 41
1.0
 10
0.0000000000000568
 20
0.566667100276086
 30
103.7727388556259
 41
1.0
 10
0.0000000000000568
 20
0.100000000001608
 30
103.776071423995
 41
1.0
  0
SPLINE
  5
AF
330
1F
100
AcDbEntity
  8
1
 62
     7
420
 15921906
100
AcDbSpline
210
0.0
220
-1.0
230
0.0
 70
     8
 71
     3
 72
    66
 73
    62
 74
     0
 42
0.0000000001
 43
0.0000000001
 40
-0.0000000000000001
 40
-0.0000000000000001
 40
-0.0000000000000001
 40
-0.0000000000000001
 40
0.0066233173897529
 40
0.0066233173897529
 40
0.0409441438644624
 40
0.0409441438644624
 40
0.0752649703391718
 40
0.0752649703391718
 40
0.109585796813881
 40
0.109585796813881
 40
0.143906623288591
 40
0.143906623288591
 40
0.1782274497633
 40
0.1782274497633
 40
0.21254827623801
 40
0.21254827623801
 40
0.246869102712719
 40
0.246869102712719
 40
0.281189929187429
 40
0.281189929187429
 40
0.315510755662138
 40
0.315510755662138
 40
0.349831582136847
 40
0.349831582136847
 40
0.384152408611557
 40
0.384152408611557
 40
0.418473235086266
 40
0.418473235086266
 40
0.452794061560976
 40
0.452794061560976
 40
0.487114888035685
 40
0.487114888035685
 40
0.521435714510395
 40
0.521435714510395
 40
0.555756540985104
 40
0.555756540985104
 40
0.590077367459814
 40
0.590077367459814
 40
0.624398193934523
 40
0.624398193934523
 40
0.658719020409232
 40
0.658719020409232
 40
0.693039846883942
 40
0.693039846883942
 40
0.727360673358651
 40
0.727360673358651
 40
0.761681499833361
 40
0.761681499833361
 40
0.79600232630807
 40
0.79600232630807
 40
0.83032315278278
 40
0.83032315278278
 40
0.864643979257489
 40
0.864643979257489
 40
0.898964805732199
 40
0.898964805732199
 40
0.933285632206908
 40
0.933285632206908
 40
0.967606458681618
 40
0.967606458681618
 40
1.000000000000002
 40
1.000000000000002
 40
1.000000000000002
 40
1.000000000000002
 10
1.500000000001667
 20
0.0
 30
103.740993905072
 10
1.534375000001127
 20
0.0
 30
103.739145248194
 10
1.568750000000598
 20
0.0
 30
103.737232552777
 10
1.781250000000058
 20
0.0
 30
103.725012181268
 10
1.959375000000058
 20
0.0
 30
103.713046696408
 10
2.315625000000057
 20
0.0
 30
103.685635930079
 10
2.493750000000057
 20
0.0
 30
103.670190669952
 10
2.850000000000056
 20
0.0
 30
103.635773286746
 10
3.028125000000056
 20
0.0
 30
103.616801191743
 10
3.384375000000055
 20
0.0
 30
103.575271157751
 10
3.562500000000055
 20
0.0
 30
103.552713254642
 10
3.918750000000054
 20
0.0
 30
103.5039397531831
 10
4.096875000000053
 20
0.0
 30
103.4777242000121
 10
4.453125000000053
 20
0.0
 30
103.4215494662841
 10
4.631250000000052
 20
0.0
 30
103.3915903421631
 10
4.987500000000052
 20
0.0
 30
103.3278269375621
 10
5.165625000000052
 20
0.0
 30
103.2940227272801
 10
5.521875000000051
 20
0.0
 30
103.2224501363481
 10
5.700000000000051
 20
0.0
 30
103.1846818430931
 10
6.056250000000051
 20
0.0
 30
103.1050422377011
 10
6.23437500000005
 20
0.0
 30
103.0631710348591
 10
6.59062500000005
 20
0.0
 30
102.9751639980931
 10
6.768750000000049
 20
0.0
 30
102.9290283014821
 10
7.125000000000049
 20
0.0
 30
102.8323042302191
 10
7.303125000000048
 20
0.0
 30
102.7817160296231
 10
7.659375000000048
 20
0.0
 30
102.6758678362031
 10
7.837500000000047
 20
0.0
 30
102.6206080661581
 10
8.193750000000046
 20
0.0
 30
102.5051606517251
 10
8.371875000000045
 20
0.0
 30
102.4449732962061
 10
8.728125000000045
 20
0.0
 30
102.3193700609101
 10
8.906250000000044
 20
0.0
 30
102.2539545609671
 10
9.262500000000044
 20
0.0
 30
102.1175398999032
 10
9.440625000000045
 20
0.0
 30
102.0465412463052
 10
9.796875000000043
 20
0.0
 30
101.8985375029412
 10
9.975000000000042
 20
0.0
 30
101.8215331052102
 10
10.33125000000004
 20
0.0
 30
101.6610097094052
 10
10.50937500000004
 20
0.0
 30
101.5774916766072
 10
10.86562500000004
 20
0.0
 30
101.4033229878902
 10
11.04375000000004
 20
0.0
 30
101.3126737140732
 10
11.40000000000004
 20
0.0
 30
101.1234800902652
 10
11.57812500000004
 20
0.0
 30
101.0249377826542
 10
11.93437500000004
 20
0.0
 30
100.8190009320212
 10
12.11250000000004
 20
0.0
 30
100.7116095227712
 10
12.46875000000004
 20
0.0
 30
100.4867469280312
 10
12.64687500000004
 20
0.0
 30
100.3692807749712
 10
13.00312500000004
 20
0.0
 30
100.1226520166672
 10
13.18125000000004
 20
0.0
 30
99.99349796542792
 10
13.53750000000004
 20
0.0
 30
99.72129144007843
 10
13.71562500000003
 20
0.0
 30
99.57825459940612
 10
14.07187500000003
 20
0.0
 30
99.27514954361874
 10
14.25000000000003
 20
0.0
 30
99.11511276799165
 10
14.60625000000003
 20
0.0
 30
98.77328109646605
 10
14.78437500000003
 20
0.0
 30
98.59155837227365
 10
15.14062500000003
 20
0.0
 30
98.19860875407058
 10
15.31875000000003
 20
0.0
 30
97.98758339525847
 10
15.67500000000003
 20
0.0
 30
97.52164174173728
 10
15.85312500000003
 20
0.0
 30
97.26750294729338
 10
16.20937500000003
 20
0.0
 30
96.6822837903689
 10
16.38750000000003
 20
0.0
 30
96.35699561843741
 10
16.73374739505914
 20
0.0
 30
95.53384515790111
 10
16.90186979011835
 20
0.0
 30
96.08916535968098
 10
17.06999218517746
 20
0.0
 30
93.9606301072543
  0
ARC
  5
B0
330
1F
100
AcDbEntity
  8
1
 62
     7
420
 15921906
100
AcDbCircle
 10
0.3462761954514397
 20
-0.3462890515718472
 30
103.7348307396447
 40
1.500016714795753
210
-0.003338114713729489
220
0.003338114713729489
230
0.999988856928074
100
AcDbArc
 50
0.0003192272746724
 51
90.00031922727467
  0
CIRCLE
  5
B1
330
1F
100
AcDbEntity
  8
1
 62
     7
420
 15921906
100
AcDbCircle
 10
0.0000000000000568
 20
0.0
 30
88.4999999999996
 40
26.5
  0
LINE
  5
B2
330
1F
100
AcDbEntity
  8
1
 62
     7
420
 15921906
100
AcDbLine
 10
26.50000000000006
 20
0.0
 30
88.4999999999996
 11
26.50000000000006
 21
0.0
 31
89.4999999999999
  0
CIRCLE
  5
B3
330
1F
100
AcDbEntity
  8
1
 62
     7
420
 15921906
100
AcDbCircle
 10
0.0000000000000568
 20
0.0
 30
89.9999999999999
 40
22.4750404267478
  0
CIRCLE
  5
B4
330
1F
100
AcDbEntity
  8
1
 62
     7
420
 15921906
100
AcDbCircle
 10
0.0000000000000568
 20
0.0
 30
89.521966941476
 40
21.9755232063417
  0
ARC
  5
B5
330
1F
100
AcDbEntity
  8
1
 62
     7
420
 15921906
100
AcDbCircle
 10
22.47504042674774
 20
89.49999999999986
 30
0.0
 40
0.5000000000000426
210
0.0
220
1.0
230
0.0
100
AcDbArc
 50
90.0
 51
177.4819634392523
  0
ARC
  5
B6
330
1F
100
AcDbEntity
  8
1
 62
     7
420
 15921906
100
AcDbCircle
 10
0.0000000000000568
 20
0.0
 30
89.4999999999999
 40
26.5
100
AcDbArc
 50
0.0
 51
180.0
  0
CIRCLE
  5
B7
330
1F
100
AcDbEntity
  8
1
 62
     7
420
 15921906
100
AcDbCircle
 10
0.0000000000000568
 20
0.0
 30
89.9999999999999
 40
26.0
  0
ARC
  5
B8
330
1F
100
AcDbEntity
  8
1
 62
     7
420
 15921906
100
AcDbCircle
 10
25.99999999999992
 20
89.4999999999999
 30
0.0
 40
0.5000000000000213
210
0.0
220
1.0
230
0.0
100
AcDbArc
 50
0.0
 51
89.99999999999756
  0
ARC
  5
B9
330
1F
100
AcDbEntity
  8
1
 62
     7
420
 15921906
100
AcDbCircle
 10
0.0000000000000568
 20
0.0
 30
89.4999999999999
 40
26.5
100
AcDbArc
 50
180.0
 51
0.0
  0
CIRCLE
  5
BA
330
1F
100
AcDbEntity
  8
1
 62
     7
420
 15921906
100
AcDbCircle
 10
0.0000000000000568
 20
0.0
 30
87.9999999999996
 40
27.0
  0
ARC
  5
BB
330
1F
100
AcDbEntity
  8
1
 62
     7
420
 15921906
100
AcDbCircle
 10
-27.00000000000006
 20
88.4999999999996
 30
0.0
 40
0.5
210
0.0
220
1.0
230
0.0
100
AcDbArc
 50
270.0
 51
0.0
  0
ARC
  5
BC
330
1F
100
AcDbEntity
  8
1
 62
     7
420
 15921906
100
AcDbCircle
 10
0.0000000000000568
 20
0.0
 30
88.4738320218785
 40
152.02483248402
100
AcDbArc
 50
180.0
 51
0.0
  0
CIRCLE
  5
BD
330
1F
100
AcDbEntity
  8
1
 62
     7
420
 15921906
100
AcDbCircle
 10
0.0000000000000568
 20
0.0
 30
92.4999999999999
 40
152.235835006774
  0
LINE
  5
BE
330
1F
100
AcDbEntity
  8
1
 62
     7
420
 15921906
100
AcDbLine
 10
-152.02483248402
 20
0.0
 30
88.4738320218785
 11
-152.235835006774
 21
0.0
 31
92.49999999999991
  0
ARC
  5
BF
330
1F
100
AcDbEntity
  8
1
 62
     7
420
 15921906
100
AcDbCircle
 10
0.0000000000000568
 20
0.0
 30
88.4738320218785
 40
152.02483248402
100
AcDbArc
 50
0.0
 51
180.0
  0
ARC
  5
C0
330
1F
100
AcDbEntity
  8
1
 62
     7
420
 15921906
100
AcDbCircle
 10
0.0000000000000568
 20
0.0
 30
91.6947646103381
 40
150.400356404534
100
AcDbArc
 50
0.000000000000014
 51
180.0
  0
LINE
  5
C1
330
1F
100
AcDbEntity
  8
1
 62
     7
420
 15921906
100
AcDbLine
 10
150.4003564045341
 20
0.0
 30
91.6947646103381
 11
150.4163421444821
 21
0.0
 31
92.3052353896616
  0
ARC
  5
C2
330
1F
100
AcDbEntity
  8
1
 62
     7
420
 15921906
100
AcDbCircle
 10
0.0000000000000568
 20
0.0
 30
91.6947646103381
 40
150.400356404534
100
AcDbArc
 50
180.0
 51
0.0
  0
ARC
  5
C3
330
1F
100
AcDbEntity
  8
1
 62
     7
420
 15921906
100
AcDbCircle
 10
0.0000000000000568
 20
0.0
 30
91.6947646103385
 40
145.600356404534
100
AcDbArc
 50
0.000000000000014
 51
180.0
  0
CIRCLE
  5
C4
330
1F
100
AcDbEntity
  8
1
 62
     7
420
 15921906
100
AcDbCircle
 10
0.0000000000000568
 20
0.0
 30
95.3052353896626
 40
145.694899909189
  0
LINE
  5
C5
330
1F
100
AcDbEntity
  8
1
 62
     7
420
 15921906
100
AcDbLine
 10
145.6003564045341
 20
0.0
 30
91.6947646103385
 11
145.694899909189
 21
0.0
 31
95.3052353896626
  0
ARC
  5
C6
330
1F
100
AcDbEntity
  8
1
 62
     7
420
 15921906
100
AcDbCircle
 10
0.0000000000000568
 20
0.0
 30
91.6947646103385
 40
145.600356404534
100
AcDbArc
 50
180.0
 51
0.0
  0
CIRCLE
  5
C7
330
1F
100
AcDbEntity
  8
1
 62
     7
420
 15921906
100
AcDbCircle
 10
0.0000000000000568
 20
0.0
 30
95.3052353896608
 40
146.505100090811
  0
LINE
  5
C8
330
1F
100
AcDbEntity
  8
1
 62
     7
420
 15921906
100
AcDbLine
 10
146.505100090811
 20
0.0
 30
95.3052353896608
 11
146.5996435954661
 21
0.0
 31
91.6947646103385
  0
CIRCLE
  5
C9
330
1F
100
AcDbEntity
  8
1
 62
     7
420
 15921906
100
AcDbCircle
 10
0.0000000000000568
 20
0.0
 30
93.4999999999999
 40
17.5684397867818
  0
ARC
  5
CA
330
1F
100
AcDbEntity
  8
1
 62
     7
420
 15921906
100
AcDbCircle
 10
0.0000000000000568
 20
0.0
 30
93.9606301072543
 40
17.0699921851774
100
AcDbArc
 50
180.0
 51
0.0
  0
ARC
  5
CB
330
1F
100
AcDbEntity
  8
1
 62
     7
420
 15921906
100
AcDbCircle
 10
17.56843978678172
 20
93.9999999999999
 30
0.0
 40
0.4999999999999827
210
0.0
220
1.0
230
0.0
100
AcDbArc
 50
184.5161322475292
 51
270.0000000000024
  0
ARC
  5
CC
330
1F
100
AcDbEntity
  8
1
 62
     7
420
 15921906
100
AcDbCircle
 10
0.0000000000000568
 20
0.0
 30
93.9606301072543
 40
17.0699921851774
100
AcDbArc
 50
0.0
 51
180.0
  0
CIRCLE
  5
CD
330
1F
100
AcDbEntity
  8
1
 62
     7
420
 15921906
100
AcDbCircle
 10
0.0000000000000568
 20
0.0
 30
92.9999999999999
 40
30.0
  0
CIRCLE
  5
CE
330
1F
100
AcDbEntity
  8
1
 62
     7
420
 15921906
100
AcDbCircle
 10
0.0000000000000568
 20
0.0
 30
93.4999999999999
 40
29.5
  0
ARC
  5
CF
330
1F
100
AcDbEntity
  8
1
 62
     7
420
 15921906
100
AcDbCircle
 10
29.49999999999992
 20
92.9999999999999
 30
0.0
 40
0.5000000000000213
210
0.0
220
1.0
230
0.0
100
AcDbArc
 50
0.0
 51
89.99999999999756
  0
CIRCLE
  5
D0
330
1F
100
AcDbEntity
  8
1
 62
     7
420
 15921906
100
AcDbCircle
 10
0.0000000000000568
 20
0.0
 30
91.9999999999997
 40
30.0
  0
LINE
  5
D1
330
1F
100
AcDbEntity
  8
1
 62
     7
420
 15921906
100
AcDbLine
 10
-29.99999999999994
 20
0.0
 30
91.99999999999969
 11
-29.99999999999994
 21
0.0
 31
92.9999999999999
  0
CIRCLE
  5
D2
330
1F
100
AcDbEntity
  8
1
 62
     7
420
 15921906
100
AcDbCircle
 10
0.0000000000000568
 20
0.0
 30
91.4999999999997
 40
30.5
  0
ARC
  5
D3
330
1F
100
AcDbEntity
  8
1
 62
     7
420
 15921906
100
AcDbCircle
 10
30.49999999999992
 20
91.9999999999997
 30
0.0
 40
0.4999999999999787
210
0.0
220
1.0
230
0.0
100
AcDbArc
 50
180.0
 51
270.0000000000024
  0
ARC
  5
D4
330
1F
100
AcDbEntity
  8
1
 62
     7
420
 15921906
100
AcDbCircle
 10
0.0000000000000568
 20
0.0
 30
92.3052353896616
 40
150.416342144482
100
AcDbArc
 50
0.0
 51
180.0
  0
CIRCLE
  5
D5
330
1F
100
AcDbEntity
  8
1
 62
     7
420
 15921906
100
AcDbCircle
 10
0.0000000000000568
 20
0.0
 30
92.4999999999999
 40
150.616273609477
  0
ARC
  5
D6
330
1F
100
AcDbEntity
  8
1
 62
     7
420
 15921906
100
AcDbCircle
 10
150.6162736094769
 20
92.30000000000004
 30
0.0
 40
0.1999999999998607
210
0.0
220
1.0
230
0.0
100
AcDbArc
 50
90.0
 51
178.5000000000018
  0
ARC
  5
D7
330
1F
100
AcDbEntity
  8
1
 62
     7
420
 15921906
100
AcDbCircle
 10
0.0000000000000568
 20
0.0
 30
92.3052353896616
 40
150.416342144482
100
AcDbArc
 50
180.0
 51
0.0
  0
ARC
  5
D8
330
1F
100
AcDbEntity
  8
1
 62
     7
420
 15921906
100
AcDbCircle
 10
150.2030083668672
 20
91.6973480376664
 30
0.0
 40
0.1973649464004535
210
0.0
220
1.0
230
0.0
100
AcDbArc
 50
269.2500000000152
 51
359.2500000000111
  0
CIRCLE
  5
D9
330
1F
100
AcDbEntity
  8
1
 62
     7
420
 15921906
100
AcDbCircle
 10
0.0000000000000568
 20
0.0
 30
91.4999999999997
 40
150.200424939539
  0
ARC
  5
DA
330
1F
100
AcDbEntity
  8
1
 62
     7
420
 15921906
100
AcDbCircle
 10
0.0000000000000568
 20
0.0
 30
91.6947646103385
 40
146.599643595466
100
AcDbArc
 50
180.0
 51
0.0
  0
CIRCLE
  5
DB
330
1F
100
AcDbEntity
  8
1
 62
     7
420
 15921906
100
AcDbCircle
 10
0.0000000000000568
 20
0.0
 30
91.4999999999997
 40
146.799575060461
  0
ARC
  5
DC
330
1F
100
AcDbEntity
  8
1
 62
     7
420
 15921906
100
AcDbCircle
 10
146.7995750604609
 20
91.6999999999997
 30
0.0
 40
0.1999999999999821
210
0.0
220
1.0
230
0.0
100
AcDbArc
 50
181.4999999998953
 51
270.0000000000081
  0
ARC
  5
DD
330
1F
100
AcDbEntity
  8
1
 62
     7
420
 15921906
100
AcDbCircle
 10
0.0000000000000568
 20
0.0
 30
91.6947646103385
 40
146.599643595466
100
AcDbArc
 50
0.0
 51
180.0
  0
ARC
  5
DE
330
1F
100
AcDbEntity
  8
1
 62
     7
420
 15921906
100
AcDbCircle
 10
145.4030083668671
 20
91.69734803766661
 30
0.0
 40
0.1973649464006603
210
0.0
220
1.0
230
0.0
100
AcDbArc
 50
269.2500000000572
 51
359.2500000000655
  0
CIRCLE
  5
DF
330
1F
100
AcDbEntity
  8
1
 62
     7
420
 15921906
100
AcDbCircle
 10
0.0000000000000568
 20
0.0
 30
91.4999999999997
 40
145.400424939539
  0
ARC
  5
E0
330
1F
100
AcDbEntity
  8
1
 62
     7
420
 15921906
100
AcDbCircle
 10
-146.307752053144
 20
95.30265196233287
 30
0.0
 40
0.1973649464007893
210
0.0
220
1.0
230
0.0
100
AcDbArc
 50
89.25000000012373
 51
179.2500000001238
  0
CIRCLE
  5
E1
330
1F
100
AcDbEntity
  8
1
 62
     7
420
 15921906
100
AcDbCircle
 10
0.0000000000000568
 20
0.0
 30
95.4999999999999
 40
146.305168625816
  0
CIRCLE
  5
E2
330
1F
100
AcDbEntity
  8
1
 62
     7
420
 15921906
100
AcDbCircle
 10
0.0000000000000568
 20
0.0
 30
95.4999999999999
 40
145.894831374185
  0
ARC
  5
E3
330
1F
100
AcDbEntity
  8
1
 62
     7
420
 15921906
100
AcDbCircle
 10
-145.8948313741851
 20
95.2999999999999
 30
0.0
 40
0.199999999999992
210
0.0
220
1.0
230
0.0
100
AcDbArc
 50
1.500000000314734
 51
90.0
  0
CIRCLE
  5
E4
330
1F
100
AcDbEntity
  8
1
 62
     7
420
 15921906
100
AcDbCircle
 10
0.0000000000000568
 20
0.0
 30
87.9999999999996
 40
151.525517716642
  0
ARC
  5
E5
330
1F
100
AcDbEntity
  8
1
 62
     7
420
 15921906
100
AcDbCircle
 10
-151.5382590893916
 20
88.48657339462804
 30
0.0
 40
0.4867401883343752
210
0.0
220
1.0
230
0.0
100
AcDbArc
 50
181.5000000000178
 51
271.5000000000196
  0
ARC
  5
E6
330
1F
100
AcDbEntity
  8
1
 62
     7
420
 15921906
100
AcDbCircle
 10
0.0000000000000568
 20
0.0
 30
103.730979449339
 40
1.50000000000161
100
AcDbArc
 50
180.0
 51
0.000000000000007
  0
ARC
  5
E7
330
1F
100
AcDbEntity
  8
1
 62
     7
420
 15921906
100
AcDbCircle
 10
-0.3462761954513261
 20
-0.346289051571847
 30
103.7348307396447
 40
1.500016714795753
210
0.003338114713729489
220
0.003338114713729489
230
0.999988856928074
100
AcDbArc
 50
89.99968077272533
 51
179.9996807727253
  0
LINE
  5
E8
330
1F
100
AcDbEntity
  8
1
 62
     7
420
 15921906
100
AcDbLine
 10
-1.500000000001553
 20
0.0
 30
103.740993905072
 11
-1.500000000001553
 21
0.0
 31
103.730979449339
  0
ARC
  5
E9
330
1F
100
AcDbEntity
  8
1
 62
     7
420
 15921906
100
AcDbCircle
 10
0.0000000000000568
 20
0.0
 30
103.730979449339
 40
1.50000000000161
100
AcDbArc
 50
90.0
 51
180.0
  0
ARC
  5
EA
330
1F
100
AcDbEntity
  8
1
 62
     7
420
 15921906
100
AcDbCircle
 10
0.0000000000000568
 20
0.0
 30
103.740993905072
 40
1.50000000000161
100
AcDbArc
 50
180.0
 51
0.0
  0
ARC
  5
EB
330
1F
100
AcDbEntity
  8
1
 62
     7
420
 15921906
100
AcDbCircle
 10
0.0000441809352349
 20
3.666682214576594
 30
103.7087728416394
 40
0.1000624812793585
210
-0.02498454879410745
220
-0.02498454879410735
230
0.9993755773697443
100
AcDbArc
 50
225.0000000000002
 51
135.0000000000001
  0
CIRCLE
  5
EC
330
1F
100
AcDbEntity
  8
1
 62
     7
420
 15921906
100
AcDbCircle
 10
0.0000000000000568
 20
0.0
 30
103.781071455887
 40
0.100000000001608
  0
LINE
  5
ED
330
1F
100
AcDbEntity
  8
1
 62
     7
420
 15921906
100
AcDbLine
 10
-0.1000000000015512
 20
0.0
 30
103.781071455887
 11
-0.1000000000015512
 21
0.0
 31
103.771071392103
  0
ARC
  5
EE
330
1F
100
AcDbEntity
  8
1
 62
     7
420
 15921906
100
AcDbCircle
 10
0.0000441809352356
 20
3.666682214607832
 30
103.7087728416383
 40
0.1000624812793594
210
-0.02498454879439127
220
-0.02498454879424924
230
0.9993755773697336
100
AcDbArc
 50
135.0000000001629
 51
225.0000000001626
  0
ARC
  5
EF
330
1F
100
AcDbEntity
  8
1
 62
     7
420
 15921906
100
AcDbCircle
 10
0.0000000000000568
 20
0.0
 30
103.730979449339
 40
1.50000000000161
100
AcDbArc
 50
0.000000000000007
 51
90.0
  0
SPLINE
  5
F0
330
1F
100
AcDbEntity
  8
1
 62
     7
420
 15921906
100
AcDbSpline
210
1.0
220
0.0
230
0.0
 70
    12
 71
     3
 72
     8
 73
     4
 74
     0
 42
0.0000000001
 43
0.0000000001
 40
0.0
 40
0.0
 40
0.0
 40
0.0
 40
1.0
 40
1.0
 40
1.0
 40
1.0
 10
0.0000000000000568
 20
-1.50000000000161
 30
103.730979449339
 41
1.0
 10
0.0000000000000568
 20
-1.03333410899574
 30
103.756085382887
 41
1.0
 10
0.0000000000000568
 20
-0.5666671002760859
 30
103.769404307247
 41
1.0
 10
0.0000000000000568
 20
-0.1000000000016077
 30
103.771071392103
 41
1.0
  0
SPLINE
  5
F1
330
1F
100
AcDbEntity
  8
1
 62
     7
420
 15921906
100
AcDbSpline
210
0.0
220
0.0
230
1.0
 70
    15
 71
     3
 72
    11
 73
     7
 74
     0
 42
0.0000000001
 43
0.0000000001
 40
0.0
 40
0.0
 40
0.0
 40
0.0
 40
0.5
 40
0.5
 40
0.5
 40
1.0
 40
1.0
 40
1.0
 40
1.0
 10
0.0000000000000568
 20
0.800000453477337
 30
103.7598149889805
 41
1.0
 10
1.600000906954731
 20
0.8000004534773366
 30
103.7598149889805
 41
0.333333333333333
 10
1.600000906954731
 20
-0.8000004534773366
 30
103.7598149889805
 41
0.333333333333333
 10
0.0000000000000568
 20
-0.800000453477337
 30
103.7598149889805
 41
1.0
 10
-1.600000906954613
 20
-0.8000004534773366
 30
103.7598149889805
 41
0.333333333333333
 10
-1.600000906954613
 20
0.8000004534773366
 30
103.7598149889805
 41
0.333333333333333
 10
0.0000000000000568
 20
0.800000453477337
 30
103.7598149889805
 41
1.0
  0
CIRCLE
  5
F2
330
1F
100
AcDbEntity
  8
1
 62
     7
420
 15921906
100
AcDbCircle
 10
0.0000000000000568
 20
0.0
 30
103.7352557279741
 40
1.603125000000003
  0
CIRCLE
  5
F3
330
1F
100
AcDbEntity
  8
1
 62
     7
420
 15921906
100
AcDbCircle
 10
0.0000000000000568
 20
0.0
 30
103.6993413132435
 40
2.1375
  0
CIRCLE
  5
F4
330
1F
100
AcDbEntity
  8
1
 62
     7
420
 15921906
100
AcDbCircle
 10
0.0000000000000568
 20
0.0
 30
103.652981978349
 40
2.671875000000001
  0
CIRCLE
  5
F5
330
1F
100
AcDbEntity
  8
1
 62
     7
420
 15921906
100
AcDbCircle
 10
0.0000000000000568
 20
0.0
 30
103.596036174747
 40
3.206249999999998
  0
CIRCLE
  5
F6
330
1F
100
AcDbEntity
  8
1
 62
     7
420
 15921906
100
AcDbCircle
 10
0.0000000000000568
 20
0.0
 30
103.5283265039125
 40
3.740625000000002
  0
CIRCLE
  5
F7
330
1F
100
AcDbEntity
  8
1
 62
     7
420
 15921906
100
AcDbCircle
 10
0.0000000000000568
 20
0.0
 30
103.449636833148
 40
4.274999999999997
  0
CIRCLE
  5
F8
330
1F
100
AcDbEntity
  8
1
 62
     7
420
 15921906
100
AcDbCircle
 10
0.0000000000000568
 20
0.0
 30
103.3597086398625
 40
4.809375000000003
  0
CIRCLE
  5
F9
330
1F
100
AcDbEntity
  8
1
 62
     7
420
 15921906
100
AcDbCircle
 10
0.0000000000000568
 20
0.0
 30
103.258236431814
 40
5.343749999999997
  0
CIRCLE
  5
FA
330
1F
100
AcDbEntity
  8
1
 62
     7
420
 15921906
100
AcDbCircle
 10
0.0000000000000568
 20
0.0
 30
103.144862040397
 40
5.878125000000002
  0
CIRCLE
  5
FB
330
1F
100
AcDbEntity
  8
1
 62
     7
420
 15921906
100
AcDbCircle
 10
0.0000000000000568
 20
0.0
 30
103.019167516476
 40
6.4125
  0
CIRCLE
  5
FC
330
1F
100
AcDbEntity
  8
1
 62
     7
420
 15921906
100
AcDbCircle
 10
0.0000000000000568
 20
0.0
 30
102.8806662658505
 40
6.946874999999998
  0
CIRCLE
  5
FD
330
1F
100
AcDbEntity
  8
1
 62
     7
420
 15921906
100
AcDbCircle
 10
0.0000000000000568
 20
0.0
 30
102.728791932913
 40
7.481250000000003
  0
CIRCLE
  5
FE
330
1F
100
AcDbEntity
  8
1
 62
     7
420
 15921906
100
AcDbCircle
 10
0.0000000000000568
 20
0.0
 30
102.5628843589415
 40
8.015624999999998
  0
CIRCLE
  5
FF
330
1F
100
AcDbEntity
  8
1
 62
     7
420
 15921906
100
AcDbCircle
 10
0.0000000000000568
 20
0.0
 30
102.382171678558
 40
8.55
  0
CIRCLE
  5
100
330
1F
100
AcDbEntity
  8
1
 62
     7
420
 15921906
100
AcDbCircle
 10
0.0000000000000568
 20
0.0
 30
102.185747230435
 40
9.084374999999998
  0
CIRCLE
  5
101
330
1F
100
AcDbEntity
  8
1
 62
     7
420
 15921906
100
AcDbCircle
 10
0.0000000000000568
 20
0.0
 30
101.972539374623
 40
9.618750000000002
  0
CIRCLE
  5
102
330
1F
100
AcDbEntity
  8
1
 62
     7
420
 15921906
100
AcDbCircle
 10
0.0000000000000568
 20
0.0
 30
101.7412714073075
 40
10.153125
  0
CIRCLE
  5
103
330
1F
100
AcDbEntity
  8
1
 62
     7
420
 15921906
100
AcDbCircle
 10
0.0000000000000568
 20
0.0
 30
101.4904073322485
 40
10.6875
  0
CIRCLE
  5
104
330
1F
100
AcDbEntity
  8
1
 62
     7
420
 15921906
100
AcDbCircle
 10
0.0000000000000568
 20
0.0
 30
101.218076902169
 40
11.221875
  0
CIRCLE
  5
105
330
1F
100
AcDbEntity
  8
1
 62
     7
420
 15921906
100
AcDbCircle
 10
0.0000000000000568
 20
0.0
 30
100.9219693573375
 40
11.75625
  0
CIRCLE
  5
106
330
1F
100
AcDbEntity
  8
1
 62
     7
420
 15921906
100
AcDbCircle
 10
0.0000000000000568
 20
0.0
 30
100.599178225401
 40
12.290625
  0
CIRCLE
  5
107
330
1F
100
AcDbEntity
  8
1
 62
     7
420
 15921906
100
AcDbCircle
 10
0.0000000000000568
 20
0.0
 30
100.245966395819
 40
12.825
  0
CIRCLE
  5
108
330
1F
100
AcDbEntity
  8
1
 62
     7
420
 15921906
100
AcDbCircle
 10
0.0000000000000568
 20
0.0
 30
99.85739470275297
 40
13.359375
  0
CIRCLE
  5
109
330
1F
100
AcDbEntity
  8
1
 62
     7
420
 15921906
100
AcDbCircle
 10
0.0000000000000568
 20
0.0
 30
99.42670207151218
 40
13.89375
  0
CIRCLE
  5
10A
330
1F
100
AcDbEntity
  8
1
 62
     7
420
 15921906
100
AcDbCircle
 10
0.0000000000000568
 20
0.0
 30
98.94419693222858
 40
14.428125
  0
CIRCLE
  5
10B
330
1F
100
AcDbEntity
  8
1
 62
     7
420
 15921906
100
AcDbCircle
 10
0.0000000000000568
 20
0.0
 30
98.39508356317191
 40
14.9625
  0
CIRCLE
  5
10C
330
1F
100
AcDbEntity
  8
1
 62
     7
420
 15921906
100
AcDbCircle
 10
0.0000000000000568
 20
0.0
 30
97.75461256849758
 40
15.496875
  0
CIRCLE
  5
10D
330
1F
100
AcDbEntity
  8
1
 62
     7
420
 15921906
100
AcDbCircle
 10
0.0000000000000568
 20
0.0
 30
96.97489336883086
 40
16.03125
  0
CIRCLE
  5
10E
330
1F
100
AcDbEntity
  8
1
 62
     7
420
 15921906
100
AcDbCircle
 10
0.0000000000000568
 20
0.0
 30
95.93353055306682
 40
16.56562499999999
  0
SPLINE
  5
10F
330
1F
100
AcDbEntity
  8
1
 62
     7
420
 15921906
100
AcDbSpline
210
1.0
220
0.0
230
0.0
 70
     8
 71
     3
 72
    66
 73
    62
 74
     0
 42
0.0000000001
 43
0.0000000001
 40
-0.0000000000000001
 40
-0.0000000000000001
 40
-0.0000000000000001
 40
-0.0000000000000001
 40
0.0066233173897529
 40
0.0066233173897529
 40
0.0409441438644624
 40
0.0409441438644624
 40
0.0752649703391718
 40
0.0752649703391718
 40
0.109585796813881
 40
0.109585796813881
 40
0.143906623288591
 40
0.143906623288591
 40
0.1782274497633
 40
0.1782274497633
 40
0.21254827623801
 40
0.21254827623801
 40
0.246869102712719
 40
0.246869102712719
 40
0.281189929187429
 40
0.281189929187429
 40
0.315510755662138
 40
0.315510755662138
 40
0.349831582136847
 40
0.349831582136847
 40
0.384152408611557
 40
0.384152408611557
 40
0.418473235086266
 40
0.418473235086266
 40
0.452794061560976
 40
0.452794061560976
 40
0.487114888035685
 40
0.487114888035685
 40
0.521435714510395
 40
0.521435714510395
 40
0.555756540985104
 40
0.555756540985104
 40
0.590077367459814
 40
0.590077367459814
 40
0.624398193934523
 40
0.624398193934523
 40
0.658719020409232
 40
0.658719020409232
 40
0.693039846883942
 40
0.693039846883942
 40
0.727360673358651
 40
0.727360673358651
 40
0.761681499833361
 40
0.761681499833361
 40
0.79600232630807
 40
0.79600232630807
 40
0.83032315278278
 40
0.83032315278278
 40
0.864643979257489
 40
0.864643979257489
 40
0.898964805732199
 40
0.898964805732199
 40
0.933285632206908
 40
0.933285632206908
 40
0.967606458681618
 40
0.967606458681618
 40
1.000000000000002
 40
1.000000000000002
 40
1.000000000000002
 40
1.000000000000002
 10
0.0000000000000568
 20
-1.500000000001608
 30
103.740993905072
 10
0.0000000000000568
 20
-1.534375000001069
 30
103.739145248194
 10
0.0000000000000568
 20
-1.568750000000539
 30
103.737232552777
 10
0.0000000000000568
 20
-1.78125
 30
103.725012181268
 10
0.0000000000000568
 20
-1.959375
 30
103.713046696408
 10
0.0000000000000568
 20
-2.315625
 30
103.685635930079
 10
0.0000000000000568
 20
-2.49375
 30
103.670190669952
 10
0.0000000000000568
 20
-2.85
 30
103.635773286746
 10
0.0000000000000568
 20
-3.028125
 30
103.616801191743
 10
0.0000000000000568
 20
-3.384375
 30
103.575271157751
 10
0.0000000000000568
 20
-3.5625
 30
103.552713254642
 10
0.0000000000000568
 20
-3.91875
 30
103.503939753183
 10
0.0000000000000568
 20
-4.096875
 30
103.477724200012
 10
0.0000000000000568
 20
-4.453125
 30
103.421549466284
 10
0.0000000000000568
 20
-4.63125
 30
103.391590342163
 10
0.0000000000000568
 20
-4.9875
 30
103.327826937562
 10
0.0000000000000568
 20
-5.165625
 30
103.29402272728
 10
0.0000000000000568
 20
-5.521875
 30
103.222450136348
 10
0.0000000000000568
 20
-5.7
 30
103.184681843093
 10
0.0000000000000568
 20
-6.05625
 30
103.105042237701
 10
0.0000000000000568
 20
-6.234375
 30
103.063171034859
 10
0.0000000000000568
 20
-6.590625
 30
102.975163998093
 10
0.0000000000000568
 20
-6.76875
 30
102.929028301482
 10
0.0000000000000568
 20
-7.125
 30
102.832304230219
 10
0.0000000000000568
 20
-7.303125
 30
102.781716029623
 10
0.0000000000000568
 20
-7.659375
 30
102.675867836203
 10
0.0000000000000568
 20
-7.8375
 30
102.620608066158
 10
0.0000000000000568
 20
-8.19375
 30
102.505160651725
 10
0.0000000000000568
 20
-8.371875
 30
102.444973296206
 10
0.0000000000000568
 20
-8.728125
 30
102.31937006091
 10
0.0000000000000568
 20
-8.90625
 30
102.253954560967
 10
0.0000000000000568
 20
-9.2625
 30
102.117539899903
 10
0.0000000000000568
 20
-9.440625
 30
102.046541246305
 10
0.0000000000000568
 20
-9.796875
 30
101.898537502941
 10
0.0000000000000568
 20
-9.975
 30
101.82153310521
 10
0.0000000000000568
 20
-10.33125
 30
101.661009709405
 10
0.0000000000000568
 20
-10.509375
 30
101.577491676607
 10
0.0000000000000568
 20
-10.865625
 30
101.40332298789
 10
0.0000000000000568
 20
-11.04375
 30
101.312673714073
 10
0.0000000000000568
 20
-11.4
 30
101.123480090265
 10
0.0000000000000568
 20
-11.578125
 30
101.024937782654
 10
0.0000000000000568
 20
-11.934375
 30
100.819000932021
 10
0.0000000000000568
 20
-12.1125
 30
100.711609522771
 10
0.0000000000000568
 20
-12.46875
 30
100.486746928031
 10
0.0000000000000568
 20
-12.646875
 30
100.369280774971
 10
0.0000000000000568
 20
-13.003125
 30
100.122652016667
 10
0.0000000000000568
 20
-13.18125
 30
99.9934979654277
 10
0.0000000000000568
 20
-13.5375
 30
99.7212914400782
 10
0.0000000000000568
 20
-13.715625
 30
99.5782545994059
 10
0.0000000000000568
 20
-14.071875
 30
99.2751495436185
 10
0.0000000000000568
 20
-14.25
 30
99.1151127679914
 10
0.0000000000000568
 20
-14.60625
 30
98.7732810964658
 10
0.0000000000000568
 20
-14.784375
 30
98.5915583722734
 10
0.0000000000000568
 20
-15.140625
 30
98.1986087540703
 10
0.0000000000000568
 20
-15.31875
 30
97.9875833952582
 10
0.0000000000000568
 20
-15.675
 30
97.521641741737
 10
0.0000000000000568
 20
-15.853125
 30
97.2675029472931
 10
0.0000000000000568
 20
-16.209375
 30
96.6822837903686
 10
0.0000000000000568
 20
-16.3875
 30
96.3569956184371
 10
0.0000000000000568
 20
-16.73374739505911
 30
95.53384515790079
 10
0.0000000000000568
 20
-16.90186979011832
 30
96.08916535968066
 10
0.0000000000000568
 20
-17.06999218517743
 30
93.96063010725396
  0
SPLINE
  5
110
330
1F
100
AcDbEntity
  8
1
 62
     7
420
 15921906
100
AcDbSpline
210
0.0
220
-1.0
230
0.0
 70
     8
 71
     3
 72
    66
 73
    62
 74
     0
 42
0.0000000001
 43
0.0000000001
 40
-0.0000000000000001
 40
-0.0000000000000001
 40
-0.0000000000000001
 40
-0.0000000000000001
 40
0.0066233173897529
 40
0.0066233173897529
 40
0.0409441438644624
 40
0.0409441438644624
 40
0.0752649703391718
 40
0.0752649703391718
 40
0.109585796813881
 40
0.109585796813881
 40
0.143906623288591
 40
0.143906623288591
 40
0.1782274497633
 40
0.1782274497633
 40
0.21254827623801
 40
0.21254827623801
 40
0.246869102712719
 40
0.246869102712719
 40
0.281189929187429
 40
0.281189929187429
 40
0.315510755662138
 40
0.315510755662138
 40
0.349831582136847
 40
0.349831582136847
 40
0.384152408611557
 40
0.384152408611557
 40
0.418473235086266
 40
0.418473235086266
 40
0.452794061560976
 40
0.452794061560976
 40
0.487114888035685
 40
0.487114888035685
 40
0.521435714510395
 40
0.521435714510395
 40
0.555756540985104
 40
0.555756540985104
 40
0.590077367459814
 40
0.590077367459814
 40
0.624398193934523
 40
0.624398193934523
 40
0.658719020409232
 40
0.658719020409232
 40
0.693039846883942
 40
0.693039846883942
 40
0.727360673358651
 40
0.727360673358651
 40
0.761681499833361
 40
0.761681499833361
 40
0.79600232630807
 40
0.79600232630807
 40
0.83032315278278
 40
0.83032315278278
 40
0.864643979257489
 40
0.864643979257489
 40
0.898964805732199
 40
0.898964805732199
 40
0.933285632206908
 40
0.933285632206908
 40
0.967606458681618
 40
0.967606458681618
 40
1.000000000000002
 40
1.000000000000002
 40
1.000000000000002
 40
1.000000000000002
 10
-1.500000000001552
 20
0.0
 30
103.740993905072
 10
-1.534375000001012
 20
0.0
 30
103.739145248194
 10
-1.568750000000482
 20
0.0
 30
103.737232552777
 10
-1.781249999999943
 20
0.0
 30
103.725012181268
 10
-1.959374999999943
 20
0.0
 30
103.713046696408
 10
-2.315624999999943
 20
0.0
 30
103.685635930079
 10
-2.493749999999943
 20
0.0
 30
103.670190669952
 10
-2.849999999999943
 20
0.0
 30
103.635773286746
 10
-3.028124999999943
 20
0.0
 30
103.616801191743
 10
-3.384374999999943
 20
0.0
 30
103.575271157751
 10
-3.562499999999943
 20
0.0
 30
103.552713254642
 10
-3.918749999999943
 20
0.0
 30
103.503939753183
 10
-4.096874999999943
 20
0.0
 30
103.477724200012
 10
-4.453124999999943
 20
0.0
 30
103.421549466284
 10
-4.631249999999943
 20
0.0
 30
103.391590342163
 10
-4.987499999999943
 20
0.0
 30
103.327826937562
 10
-5.165624999999944
 20
0.0
 30
103.29402272728
 10
-5.521874999999943
 20
0.0
 30
103.222450136348
 10
-5.699999999999943
 20
0.0
 30
103.184681843093
 10
-6.056249999999944
 20
0.0
 30
103.105042237701
 10
-6.234374999999943
 20
0.0
 30
103.063171034859
 10
-6.590624999999943
 20
0.0
 30
102.975163998093
 10
-6.768749999999943
 20
0.0
 30
102.929028301482
 10
-7.124999999999943
 20
0.0
 30
102.832304230219
 10
-7.303124999999943
 20
0.0
 30
102.781716029623
 10
-7.659374999999943
 20
0.0
 30
102.675867836203
 10
-7.837499999999944
 20
0.0
 30
102.620608066158
 10
-8.193749999999943
 20
0.0
 30
102.505160651725
 10
-8.371874999999942
 20
0.0
 30
102.444973296206
 10
-8.728124999999944
 20
0.0
 30
102.31937006091
 10
-8.906249999999943
 20
0.0
 30
102.253954560967
 10
-9.262499999999942
 20
0.0
 30
102.117539899903
 10
-9.440624999999944
 20
0.0
 30
102.046541246305
 10
-9.796874999999943
 20
0.0
 30
101.898537502941
 10
-9.974999999999943
 20
0.0
 30
101.82153310521
 10
-10.33124999999994
 20
0.0
 30
101.661009709405
 10
-10.50937499999994
 20
0.0
 30
101.577491676607
 10
-10.86562499999994
 20
0.0
 30
101.40332298789
 10
-11.04374999999994
 20
0.0
 30
101.312673714073
 10
-11.39999999999994
 20
0.0
 30
101.123480090265
 10
-11.57812499999994
 20
0.0
 30
101.024937782654
 10
-11.93437499999994
 20
0.0
 30
100.819000932021
 10
-12.11249999999994
 20
0.0
 30
100.711609522771
 10
-12.46874999999994
 20
0.0
 30
100.486746928031
 10
-12.64687499999994
 20
0.0
 30
100.369280774971
 10
-13.00312499999994
 20
0.0
 30
100.122652016667
 10
-13.18124999999994
 20
0.0
 30
99.9934979654277
 10
-13.53749999999994
 20
0.0
 30
99.7212914400782
 10
-13.71562499999994
 20
0.0
 30
99.5782545994059
 10
-14.07187499999994
 20
0.0
 30
99.2751495436185
 10
-14.24999999999994
 20
0.0
 30
99.1151127679914
 10
-14.60624999999994
 20
0.0
 30
98.7732810964658
 10
-14.78437499999994
 20
0.0
 30
98.5915583722734
 10
-15.14062499999994
 20
0.0
 30
98.1986087540703
 10
-15.31874999999994
 20
0.0
 30
97.9875833952582
 10
-15.67499999999994
 20
0.0
 30
97.521641741737
 10
-15.85312499999994
 20
0.0
 30
97.2675029472931
 10
-16.20937499999994
 20
0.0
 30
96.6822837903686
 10
-16.38749999999994
 20
0.0
 30
96.3569956184371
 10
-16.73374739505905
 20
0.0
 30
95.53384515790079
 10
-16.90186979011827
 20
0.0
 30
96.08916535968066
 10
-17.06999218517738
 20
0.0
 30
93.96063010725396
  0
SPLINE
  5
111
330
1F
100
AcDbEntity
  8
1
 62
     7
420
 15921906
100
AcDbSpline
210
1.0
220
0.0
230
0.0
 70
     8
 71
     3
 72
    66
 73
    62
 74
     0
 42
0.0000000001
 43
0.0000000001
 40
-0.0000000000000001
 40
-0.0000000000000001
 40
-0.0000000000000001
 40
-0.0000000000000001
 40
0.0066233173897529
 40
0.0066233173897529
 40
0.0409441438644624
 40
0.0409441438644624
 40
0.0752649703391718
 40
0.0752649703391718
 40
0.109585796813881
 40
0.109585796813881
 40
0.143906623288591
 40
0.143906623288591
 40
0.1782274497633
 40
0.1782274497633
 40
0.21254827623801
 40
0.21254827623801
 40
0.246869102712719
 40
0.246869102712719
 40
0.281189929187429
 40
0.281189929187429
 40
0.315510755662138
 40
0.315510755662138
 40
0.349831582136847
 40
0.349831582136847
 40
0.384152408611557
 40
0.384152408611557
 40
0.418473235086266
 40
0.418473235086266
 40
0.452794061560976
 40
0.452794061560976
 40
0.487114888035685
 40
0.487114888035685
 40
0.521435714510395
 40
0.521435714510395
 40
0.555756540985104
 40
0.555756540985104
 40
0.590077367459814
 40
0.590077367459814
 40
0.624398193934523
 40
0.624398193934523
 40
0.658719020409232
 40
0.658719020409232
 40
0.693039846883942
 40
0.693039846883942
 40
0.727360673358651
 40
0.727360673358651
 40
0.761681499833361
 40
0.761681499833361
 40
0.79600232630807
 40
0.79600232630807
 40
0.83032315278278
 40
0.83032315278278
 40
0.864643979257489
 40
0.864643979257489
 40
0.898964805732199
 40
0.898964805732199
 40
0.933285632206908
 40
0.933285632206908
 40
0.967606458681618
 40
0.967606458681618
 40
1.000000000000002
 40
1.000000000000002
 40
1.000000000000002
 40
1.000000000000002
 10
0.0000000000000568
 20
1.500000000001608
 30
103.740993905072
 10
0.0000000000000568
 20
1.534375000001069
 30
103.739145248194
 10
0.0000000000000568
 20
1.568750000000539
 30
103.737232552777
 10
0.0000000000000568
 20
1.78125
 30
103.725012181268
 10
0.0000000000000568
 20
1.959375
 30
103.713046696408
 10
0.0000000000000568
 20
2.315625
 30
103.685635930079
 10
0.0000000000000568
 20
2.49375
 30
103.670190669952
 10
0.0000000000000568
 20
2.85
 30
103.635773286746
 10
0.0000000000000568
 20
3.028125
 30
103.616801191743
 10
0.0000000000000568
 20
3.384375
 30
103.575271157751
 10
0.0000000000000568
 20
3.5625
 30
103.552713254642
 10
0.0000000000000568
 20
3.91875
 30
103.503939753183
 10
0.0000000000000568
 20
4.096875
 30
103.477724200012
 10
0.0000000000000568
 20
4.453125
 30
103.421549466284
 10
0.0000000000000568
 20
4.63125
 30
103.391590342163
 10
0.0000000000000568
 20
4.9875
 30
103.327826937562
 10
0.0000000000000568
 20
5.165625
 30
103.29402272728
 10
0.0000000000000568
 20
5.521875
 30
103.222450136348
 10
0.0000000000000568
 20
5.7
 30
103.184681843093
 10
0.0000000000000568
 20
6.05625
 30
103.105042237701
 10
0.0000000000000568
 20
6.234375
 30
103.063171034859
 10
0.0000000000000568
 20
6.590625
 30
102.975163998093
 10
0.0000000000000568
 20
6.76875
 30
102.929028301482
 10
0.0000000000000568
 20
7.125
 30
102.832304230219
 10
0.0000000000000568
 20
7.303125
 30
102.781716029623
 10
0.0000000000000568
 20
7.659375
 30
102.675867836203
 10
0.0000000000000568
 20
7.8375
 30
102.620608066158
 10
0.0000000000000568
 20
8.19375
 30
102.505160651725
 10
0.0000000000000568
 20
8.371875
 30
102.444973296206
 10
0.0000000000000568
 20
8.728125
 30
102.31937006091
 10
0.0000000000000568
 20
8.90625
 30
102.253954560967
 10
0.0000000000000568
 20
9.2625
 30
102.117539899903
 10
0.0000000000000568
 20
9.440625
 30
102.046541246305
 10
0.0000000000000568
 20
9.796875
 30
101.898537502941
 10
0.0000000000000568
 20
9.975
 30
101.82153310521
 10
0.0000000000000568
 20
10.33125
 30
101.661009709405
 10
0.0000000000000568
 20
10.509375
 30
101.577491676607
 10
0.0000000000000568
 20
10.865625
 30
101.40332298789
 10
0.0000000000000568
 20
11.04375
 30
101.312673714073
 10
0.0000000000000568
 20
11.4
 30
101.123480090265
 10
0.0000000000000568
 20
11.578125
 30
101.024937782654
 10
0.0000000000000568
 20
11.934375
 30
100.819000932021
 10
0.0000000000000568
 20
12.1125
 30
100.711609522771
 10
0.0000000000000568
 20
12.46875
 30
100.486746928031
 10
0.0000000000000568
 20
12.646875
 30
100.369280774971
 10
0.0000000000000568
 20
13.003125
 30
100.122652016667
 10
0.0000000000000568
 20
13.18125
 30
99.9934979654277
 10
0.0000000000000568
 20
13.5375
 30
99.7212914400782
 10
0.0000000000000568
 20
13.715625
 30
99.5782545994059
 10
0.0000000000000568
 20
14.071875
 30
99.2751495436185
 10
0.0000000000000568
 20
14.25
 30
99.1151127679914
 10
0.0000000000000568
 20
14.60625
 30
98.7732810964658
 10
0.0000000000000568
 20
14.784375
 30
98.5915583722734
 10
0.0000000000000568
 20
15.140625
 30
98.1986087540703
 10
0.0000000000000568
 20
15.31875
 30
97.9875833952582
 10
0.0000000000000568
 20
15.675
 30
97.521641741737
 10
0.0000000000000568
 20
15.853125
 30
97.2675029472931
 10
0.0000000000000568
 20
16.209375
 30
96.6822837903686
 10
0.0000000000000568
 20
16.3875
 30
96.3569956184371
 10
0.0000000000000568
 20
16.73374739505911
 30
95.53384515790079
 10
0.0000000000000568
 20
16.90186979011832
 30
96.08916535968066
 10
0.0000000000000568
 20
17.06999218517743
 30
93.96063010725396
  0
LINE
  5
112
330
1F
100
AcDbEntity
  8
1
 62
     7
420
 15921906
100
AcDbLine
 10
-151.5255177166419
 20
0.0
 30
87.9999999999996
 11
-26.99999999999994
 21
0.0
 31
87.9999999999996
  0
LINE
  5
113
330
1F
100
AcDbEntity
  8
1
 62
     7
420
 15921906
100
AcDbLine
 10
27.00000000000006
 20
0.0
 30
87.9999999999996
 11
151.5255177166421
 21
0.0
 31
87.9999999999996
  0
LINE
  5
114
330
1F
100
AcDbEntity
  8
1
 62
     7
420
 15921906
100
AcDbLine
 10
0.0000000000000568
 20
-151.525517716642
 30
87.9999999999996
 11
0.0000000000000568
 21
-27.0
 31
87.9999999999996
  0
LINE
  5
115
330
1F
100
AcDbEntity
  8
1
 62
     7
420
 15921906
100
AcDbLine
 10
0.0000000000000568
 20
27.0
 30
87.9999999999996
 11
0.0000000000000568
 21
151.525517716642
 31
87.9999999999996
  0
LINE
  5
116
330
1F
100
AcDbEntity
  8
1
 62
     7
420
 15921906
100
AcDbLine
 10
26.00000000000006
 20
0.0
 30
89.9999999999999
 11
22.47504042674786
 21
0.0
 31
89.9999999999999
  0
LINE
  5
117
330
1F
100
AcDbEntity
  8
1
 62
     7
420
 15921906
100
AcDbLine
 10
-22.47504042674775
 20
0.0
 30
89.9999999999999
 11
-25.99999999999994
 21
0.0
 31
89.9999999999999
  0
LINE
  5
118
330
1F
100
AcDbEntity
  8
1
 62
     7
420
 15921906
100
AcDbLine
 10
0.0000000000000551
 20
-26.00000000000001
 30
89.9999999999999
 11
0.0000000000000551
 21
-22.4750404267478
 31
89.9999999999999
  0
LINE
  5
119
330
1F
100
AcDbEntity
  8
1
 62
     7
420
 15921906
100
AcDbLine
 10
0.0000000000000551
 20
22.4750404267478
 30
89.9999999999999
 11
0.0000000000000551
 21
26.0
 31
89.9999999999999
  0
CIRCLE
  5
11A
330
1F
100
AcDbEntity
  8
1
 62
     7
420
 15921906
100
AcDbCircle
 10
0.0000000000000568
 20
0.0
 30
88.99999999999974
 40
26.5
  0
LINE
  5
11B
330
1F
100
AcDbEntity
  8
1
 62
     7
420
 15921906
100
AcDbLine
 10
0.0000000000000568
 20
26.5
 30
88.4999999999996
 11
0.0000000000000568
 21
26.5
 31
89.4999999999999
  0
LINE
  5
11C
330
1F
100
AcDbEntity
  8
1
 62
     7
420
 15921906
100
AcDbLine
 10
-26.49999999999994
 20
0.0
 30
88.4999999999996
 11
-26.49999999999994
 21
0.0
 31
89.4999999999999
  0
LINE
  5
11D
330
1F
100
AcDbEntity
  8
1
 62
     7
420
 15921906
100
AcDbLine
 10
0.0000000000000568
 20
-26.5
 30
88.4999999999996
 11
0.0000000000000568
 21
-26.5
 31
89.4999999999999
  0
ARC
  5
11E
330
1F
100
AcDbEntity
  8
1
 62
     7
420
 15921906
100
AcDbCircle
 10
22.4750404267478
 20
89.4999999999999
 30
0.0000000000000568
 40
0.5
210
1.0
220
0.0
230
0.0
100
AcDbArc
 50
90.0
 51
177.4819634392585
  0
ARC
  5
11F
330
1F
100
AcDbEntity
  8
1
 62
     7
420
 15921906
100
AcDbCircle
 10
-22.47504042674786
 20
89.4999999999999
 30
0.0
 40
0.5
210
0.0
220
1.0
230
0.0
100
AcDbArc
 50
2.518036560741448
 51
90.0
  0
ARC
  5
120
330
1F
100
AcDbEntity
  8
1
 62
     7
420
 15921906
100
AcDbCircle
 10
-22.4750404267478
 20
89.4999999999999
 30
0.0000000000000568
 40
0.5
210
1.0
220
0.0
230
0.0
100
AcDbArc
 50
2.518036560741448
 51
90.0
  0
ARC
  5
121
330
1F
100
AcDbEntity
  8
1
 62
     7
420
 15921906
100
AcDbCircle
 10
26.0
 20
89.4999999999999
 30
0.0000000000000568
 40
0.5
210
1.0
220
0.0
230
0.0
100
AcDbArc
 50
0.0
 51
90.0
  0
ARC
  5
122
330
1F
100
AcDbEntity
  8
1
 62
     7
420
 15921906
100
AcDbCircle
 10
-26.00000000000006
 20
89.4999999999999
 30
0.0
 40
0.5
210
0.0
220
1.0
230
0.0
100
AcDbArc
 50
90.0
 51
180.0
  0
ARC
  5
123
330
1F
100
AcDbEntity
  8
1
 62
     7
420
 15921906
100
AcDbCircle
 10
-26.0
 20
89.4999999999999
 30
0.0000000000000568
 40
0.5
210
1.0
220
0.0
230
0.0
100
AcDbArc
 50
90.0
 51
180.0
  0
ARC
  5
124
330
1F
100
AcDbEntity
  8
1
 62
     7
420
 15921906
100
AcDbCircle
 10
27.0
 20
88.4999999999996
 30
0.0000000000000568
 40
0.5
210
1.0
220
0.0
230
0.0
100
AcDbArc
 50
180.0
 51
270.0
  0
ARC
  5
125
330
1F
100
AcDbEntity
  8
1
 62
     7
420
 15921906
100
AcDbCircle
 10
26.99999999999994
 20
88.4999999999996
 30
0.0
 40
0.5
210
0.0
220
1.0
230
0.0
100
AcDbArc
 50
180.0
 51
270.0
  0
ARC
  5
126
330
1F
100
AcDbEntity
  8
1
 62
     7
420
 15921906
100
AcDbCircle
 10
-27.0
 20
88.4999999999996
 30
0.0000000000000568
 40
0.5
210
1.0
220
0.0
230
0.0
100
AcDbArc
 50
270.0
 51
0.0
  0
CIRCLE
  5
127
330
1F
100
AcDbEntity
  8
1
 62
     7
420
 15921906
100
AcDbCircle
 10
0.0000000000000568
 20
0.0
 30
90.48691601093924
 40
152.1303337453968
  0
LINE
  5
128
330
1F
100
AcDbEntity
  8
1
 62
     7
420
 15921906
100
AcDbLine
 10
0.0000000000000568
 20
-152.0248324840199
 30
88.47383202187851
 11
0.0000000000000568
 21
-152.2358350067737
 31
92.49999999999991
  0
LINE
  5
129
330
1F
100
AcDbEntity
  8
1
 62
     7
420
 15921906
100
AcDbLine
 10
152.02483248402
 20
0.0
 30
88.47383202187851
 11
152.2358350067738
 21
0.0
 31
92.49999999999991
  0
LINE
  5
12A
330
1F
100
AcDbEntity
  8
1
 62
     7
420
 15921906
100
AcDbLine
 10
0.0000000000000568
 20
152.0248324840199
 30
88.47383202187851
 11
0.0000000000000568
 21
152.2358350067737
 31
92.49999999999991
  0
CIRCLE
  5
12B
330
1F
100
AcDbEntity
  8
1
 62
     7
420
 15921906
100
AcDbCircle
 10
0.0000000000000568
 20
0.0
 30
92.0
 40
150.4083492745079
  0
LINE
  5
12C
330
1F
100
AcDbEntity
  8
1
 62
     7
420
 15921906
100
AcDbLine
 10
0.0000000000000568
 20
150.400356404534
 30
91.6947646103381
 11
0.0000000000000568
 21
150.4163421444817
 31
92.30523538966162
  0
LINE
  5
12D
330
1F
100
AcDbEntity
  8
1
 62
     7
420
 15921906
100
AcDbLine
 10
-150.400356404534
 20
0.0
 30
91.6947646103381
 11
-150.4163421444816
 21
0.0
 31
92.30523538966162
  0
LINE
  5
12E
330
1F
100
AcDbEntity
  8
1
 62
     7
420
 15921906
100
AcDbLine
 10
0.0000000000000568
 20
-150.400356404534
 30
91.6947646103381
 11
0.0000000000000568
 21
-150.4163421444817
 31
92.30523538966162
  0
LINE
  5
12F
330
1F
100
AcDbEntity
  8
1
 62
     7
420
 15921906
100
AcDbLine
 10
152.2358350067741
 20
-0.0000000000000142
 30
92.4999999999999
 11
150.616273609477
 21
-0.0000000000000142
 31
92.4999999999999
  0
LINE
  5
130
330
1F
100
AcDbEntity
  8
1
 62
     7
420
 15921906
100
AcDbLine
 10
-150.6162736094769
 20
-0.0000000000000142
 30
92.4999999999999
 11
-152.235835006774
 21
-0.0000000000000142
 31
92.4999999999999
  0
LINE
  5
131
330
1F
100
AcDbEntity
  8
1
 62
     7
420
 15921906
100
AcDbLine
 10
0.0000000000000853
 20
-152.235835006774
 30
92.4999999999999
 11
0.0000000000000853
 21
-150.616273609477
 31
92.4999999999999
  0
LINE
  5
132
330
1F
100
AcDbEntity
  8
1
 62
     7
420
 15921906
100
AcDbLine
 10
0.0000000000000853
 20
150.616273609477
 30
92.4999999999999
 11
0.0000000000000853
 21
152.235835006774
 31
92.4999999999999
  0
LINE
  5
133
330
1F
100
AcDbEntity
  8
1
 62
     7
420
 15921906
100
AcDbLine
 10
150.200424939539
 20
0.0000000000000284
 30
91.4999999999997
 11
146.7995750604611
 21
0.0000000000000284
 31
91.4999999999997
  0
LINE
  5
134
330
1F
100
AcDbEntity
  8
1
 62
     7
420
 15921906
100
AcDbLine
 10
-146.799575060461
 20
0.0000000000000284
 30
91.4999999999997
 11
-150.2004249395389
 21
0.0000000000000284
 31
91.4999999999997
  0
LINE
  5
135
330
1F
100
AcDbEntity
  8
1
 62
     7
420
 15921906
100
AcDbLine
 10
0.0000000000000711
 20
-150.2004249395389
 30
91.4999999999997
 11
0.0000000000000711
 21
-146.799575060461
 31
91.4999999999997
  0
LINE
  5
136
330
1F
100
AcDbEntity
  8
1
 62
     7
420
 15921906
100
AcDbLine
 10
0.0000000000000711
 20
146.799575060461
 30
91.4999999999997
 11
0.0000000000000711
 21
150.200424939539
 31
91.4999999999997
  0
CIRCLE
  5
137
330
1F
100
AcDbEntity
  8
1
 62
     7
420
 15921906
100
AcDbCircle
 10
0.0000000000000568
 20
0.0
 30
93.50000000000045
 40
145.6476281568616
  0
LINE
  5
138
330
1F
100
AcDbEntity
  8
1
 62
     7
420
 15921906
100
AcDbLine
 10
0.0000000000000568
 20
145.600356404534
 30
91.6947646103385
 11
0.0000000000000568
 21
145.6948999091892
 31
95.3052353896626
  0
LINE
  5
139
330
1F
100
AcDbEntity
  8
1
 62
     7
420
 15921906
100
AcDbLine
 10
-145.600356404534
 20
0.0
 30
91.6947646103385
 11
-145.6948999091892
 21
0.0
 31
95.3052353896626
  0
LINE
  5
13A
330
1F
100
AcDbEntity
  8
1
 62
     7
420
 15921906
100
AcDbLine
 10
0.0000000000000568
 20
-145.600356404534
 30
91.6947646103385
 11
0.0000000000000568
 21
-145.6948999091892
 31
95.3052353896626
  0
CIRCLE
  5
13B
330
1F
100
AcDbEntity
  8
1
 62
     7
420
 15921906
100
AcDbCircle
 10
0.0000000000000568
 20
0.0
 30
93.49999999999955
 40
146.5523718431384
  0
LINE
  5
13C
330
1F
100
AcDbEntity
  8
1
 62
     7
420
 15921906
100
AcDbLine
 10
0.0000000000000568
 20
-146.5051000908108
 30
95.3052353896608
 11
0.0000000000000568
 21
-146.599643595466
 31
91.6947646103385
  0
LINE
  5
13D
330
1F
100
AcDbEntity
  8
1
 62
     7
420
 15921906
100
AcDbLine
 10
-146.5051000908107
 20
0.0
 30
95.3052353896608
 11
-146.5996435954659
 21
0.0
 31
91.6947646103385
  0
LINE
  5
13E
330
1F
100
AcDbEntity
  8
1
 62
     7
420
 15921906
100
AcDbLine
 10
0.0000000000000568
 20
146.5051000908108
 30
95.3052353896608
 11
0.0000000000000568
 21
146.599643595466
 31
91.6947646103385
  0
LINE
  5
13F
330
1F
100
AcDbEntity
  8
1
 62
     7
420
 15921906
100
AcDbLine
 10
-146.305168625816
 20
-0.0000000000000142
 30
95.4999999999999
 11
-145.8948313741849
 21
-0.0000000000000142
 31
95.4999999999999
  0
LINE
  5
140
330
1F
100
AcDbEntity
  8
1
 62
     7
420
 15921906
100
AcDbLine
 10
145.8948313741851
 20
-0.0000000000000142
 30
95.4999999999999
 11
146.3051686258161
 21
-0.0000000000000142
 31
95.4999999999999
  0
LINE
  5
141
330
1F
100
AcDbEntity
  8
1
 62
     7
420
 15921906
100
AcDbLine
 10
0.0000000000000284
 20
-146.305168625816
 30
95.4999999999999
 11
0.0000000000000284
 21
-145.894831374185
 31
95.4999999999999
  0
LINE
  5
142
330
1F
100
AcDbEntity
  8
1
 62
     7
420
 15921906
100
AcDbLine
 10
0.0000000000000284
 20
145.894831374185
 30
95.4999999999999
 11
0.0000000000000284
 21
146.305168625816
 31
95.4999999999999
  0
ARC
  5
143
330
1F
100
AcDbEntity
  8
1
 62
     7
420
 15921906
100
AcDbCircle
 10
17.5684397867818
 20
93.9999999999999
 30
0.0000000000000568
 40
0.5
210
1.0
220
0.0
230
0.0
100
AcDbArc
 50
184.516132247529
 51
270.0
  0
ARC
  5
144
330
1F
100
AcDbEntity
  8
1
 62
     7
420
 15921906
100
AcDbCircle
 10
-17.56843978678186
 20
93.9999999999999
 30
0.0
 40
0.5
210
0.0
220
1.0
230
0.0
100
AcDbArc
 50
270.0
 51
355.483867752471
  0
ARC
  5
145
330
1F
100
AcDbEntity
  8
1
 62
     7
420
 15921906
100
AcDbCircle
 10
-17.5684397867818
 20
93.9999999999999
 30
0.0000000000000568
 40
0.5
210
1.0
220
0.0
230
0.0
100
AcDbArc
 50
270.0
 51
355.483867752471
  0
LINE
  5
146
330
1F
100
AcDbEntity
  8
1
 62
     7
420
 15921906
100
AcDbLine
 10
29.50000000000006
 20
0.0000000000000071
 30
93.4999999999999
 11
17.56843978678186
 21
0.0000000000000071
 31
93.4999999999999
  0
LINE
  5
147
330
1F
100
AcDbEntity
  8
1
 62
     7
420
 15921906
100
AcDbLine
 10
-17.56843978678173
 20
0.0000000000000071
 30
93.4999999999999
 11
-29.49999999999994
 21
0.0000000000000071
 31
93.4999999999999
  0
LINE
  5
148
330
1F
100
AcDbEntity
  8
1
 62
     7
420
 15921906
100
AcDbLine
 10
0.0000000000000604
 20
-29.5
 30
93.4999999999999
 11
0.0000000000000604
 21
-17.56843978678179
 31
93.4999999999999
  0
LINE
  5
149
330
1F
100
AcDbEntity
  8
1
 62
     7
420
 15921906
100
AcDbLine
 10
0.0000000000000604
 20
17.5684397867818
 30
93.4999999999999
 11
0.0000000000000604
 21
29.5
 31
93.4999999999999
  0
ARC
  5
14A
330
1F
100
AcDbEntity
  8
1
 62
     7
420
 15921906
100
AcDbCircle
 10
29.5
 20
92.9999999999999
 30
0.0000000000000568
 40
0.5
210
1.0
220
0.0
230
0.0
100
AcDbArc
 50
0.0
 51
90.0
  0
ARC
  5
14B
330
1F
100
AcDbEntity
  8
1
 62
     7
420
 15921906
100
AcDbCircle
 10
-29.50000000000006
 20
92.9999999999999
 30
0.0
 40
0.5
210
0.0
220
1.0
230
0.0
100
AcDbArc
 50
90.0
 51
180.0
  0
ARC
  5
14C
330
1F
100
AcDbEntity
  8
1
 62
     7
420
 15921906
100
AcDbCircle
 10
-29.5
 20
92.9999999999999
 30
0.0000000000000568
 40
0.5
210
1.0
220
0.0
230
0.0
100
AcDbArc
 50
90.0
 51
180.0
  0
CIRCLE
  5
14D
330
1F
100
AcDbEntity
  8
1
 62
     7
420
 15921906
100
AcDbCircle
 10
0.0000000000000574
 20
0.0
 30
92.4999999999998
 40
30.0
  0
LINE
  5
14E
330
1F
100
AcDbEntity
  8
1
 62
     7
420
 15921906
100
AcDbLine
 10
0.0000000000000572
 20
-30.0
 30
91.99999999999969
 11
0.0000000000000577
 21
-30.0
 31
92.99999999999989
  0
LINE
  5
14F
330
1F
100
AcDbEntity
  8
1
 62
     7
420
 15921906
100
AcDbLine
 10
30.00000000000006
 20
0.0
 30
91.99999999999967
 11
30.00000000000006
 21
0.0
 31
92.99999999999987
  0
LINE
  5
150
330
1F
100
AcDbEntity
  8
1
 62
     7
420
 15921906
100
AcDbLine
 10
0.0000000000000572
 20
30.0
 30
91.99999999999969
 11
0.0000000000000577
 21
30.0
 31
92.99999999999989
  0
ARC
  5
151
330
1F
100
AcDbEntity
  8
1
 62
     7
420
 15921906
100
AcDbCircle
 10
30.5
 20
91.9999999999997
 30
0.0000000000000568
 40
0.5
210
1.0
220
0.0
230
0.0
100
AcDbArc
 50
180.0
 51
270.0
  0
ARC
  5
152
330
1F
100
AcDbEntity
  8
1
 62
     7
420
 15921906
100
AcDbCircle
 10
-30.50000000000006
 20
91.9999999999997
 30
0.0
 40
0.5
210
0.0
220
1.0
230
0.0
100
AcDbArc
 50
270.0
 51
0.0
  0
ARC
  5
153
330
1F
100
AcDbEntity
  8
1
 62
     7
420
 15921906
100
AcDbCircle
 10
-30.5
 20
91.9999999999997
 30
0.0000000000000568
 40
0.5
210
1.0
220
0.0
230
0.0
100
AcDbArc
 50
270.0
 51
0.0
  0
LINE
  5
154
330
1F
100
AcDbEntity
  8
1
 62
     7
420
 15921906
100
AcDbLine
 10
145.4004249395391
 20
0.0
 30
91.4999999999997
 11
30.50000000000004
 21
0.0
 31
91.4999999999997
  0
LINE
  5
155
330
1F
100
AcDbEntity
  8
1
 62
     7
420
 15921906
100
AcDbLine
 10
-30.49999999999995
 20
0.0
 30
91.4999999999997
 11
-145.4004249395389
 21
0.0
 31
91.4999999999997
  0
LINE
  5
156
330
1F
100
AcDbEntity
  8
1
 62
     7
420
 15921906
100
AcDbLine
 10
0.0000000000000711
 20
-145.4004249395389
 30
91.4999999999997
 11
0.0000000000000711
 21
-30.50000000000001
 31
91.4999999999997
  0
LINE
  5
157
330
1F
100
AcDbEntity
  8
1
 62
     7
420
 15921906
100
AcDbLine
 10
0.0000000000000711
 20
30.49999999999999
 30
91.4999999999997
 11
0.0000000000000711
 21
145.400424939539
 31
91.4999999999997
  0
ARC
  5
158
330
1F
100
AcDbEntity
  8
1
 62
     7
420
 15921906
100
AcDbCircle
 10
150.616273609477
 20
92.2999999999999
 30
0.0000000000000568
 40
0.2
210
1.0
220
0.0
230
0.0
100
AcDbArc
 50
90.0
 51
178.4999999999622
  0
ARC
  5
159
330
1F
100
AcDbEntity
  8
1
 62
     7
420
 15921906
100
AcDbCircle
 10
-150.616273609477
 20
92.2999999999999
 30
0.0
 40
0.2
210
0.0
220
1.0
230
0.0
100
AcDbArc
 50
1.50000000003778
 51
90.0
  0
ARC
  5
15A
330
1F
100
AcDbEntity
  8
1
 62
     7
420
 15921906
100
AcDbCircle
 10
-150.616273609477
 20
92.2999999999999
 30
0.0000000000000568
 40
0.2
210
1.0
220
0.0
230
0.0
100
AcDbArc
 50
1.50000000003778
 51
90.0
  0
ARC
  5
15B
330
1F
100
AcDbEntity
  8
1
 62
     7
420
 15921906
100
AcDbCircle
 10
150.200424939539
 20
91.6999999999997
 30
0.0000000000000568
 40
0.2
210
1.0
220
0.0
230
0.0
100
AcDbArc
 50
270.0
 51
0.0
  0
ARC
  5
15C
330
1F
100
AcDbEntity
  8
1
 62
     7
420
 15921906
100
AcDbCircle
 10
-150.2004249395391
 20
91.6999999999997
 30
0.0
 40
0.2
210
0.0
220
1.0
230
0.0
100
AcDbArc
 50
180.0
 51
270.0
  0
ARC
  5
15D
330
1F
100
AcDbEntity
  8
1
 62
     7
420
 15921906
100
AcDbCircle
 10
-150.200424939539
 20
91.6999999999997
 30
0.0000000000000568
 40
0.2
210
1.0
220
0.0
230
0.0
100
AcDbArc
 50
180.0
 51
270.0
  0
ARC
  5
15E
330
1F
100
AcDbEntity
  8
1
 62
     7
420
 15921906
100
AcDbCircle
 10
146.799575060461
 20
91.6999999999997
 30
0.0000000000000568
 40
0.2
210
1.0
220
0.0
230
0.0
100
AcDbArc
 50
181.4999999998951
 51
270.0
  0
ARC
  5
15F
330
1F
100
AcDbEntity
  8
1
 62
     7
420
 15921906
100
AcDbCircle
 10
-146.7995750604611
 20
91.6999999999997
 30
0.0
 40
0.2
210
0.0
220
1.0
230
0.0
100
AcDbArc
 50
270.0
 51
358.5000000001049
  0
ARC
  5
160
330
1F
100
AcDbEntity
  8
1
 62
     7
420
 15921906
100
AcDbCircle
 10
-146.799575060461
 20
91.6999999999997
 30
0.0000000000000568
 40
0.2
210
1.0
220
0.0
230
0.0
100
AcDbArc
 50
270.0
 51
358.5000000001049
  0
ARC
  5
161
330
1F
100
AcDbEntity
  8
1
 62
     7
420
 15921906
100
AcDbCircle
 10
145.400424939539
 20
91.6999999999997
 30
0.0000000000000568
 40
0.2
210
1.0
220
0.0
230
0.0
100
AcDbArc
 50
270.0
 51
0.0
  0
ARC
  5
162
330
1F
100
AcDbEntity
  8
1
 62
     7
420
 15921906
100
AcDbCircle
 10
-145.4004249395391
 20
91.6999999999997
 30
0.0
 40
0.2
210
0.0
220
1.0
230
0.0
100
AcDbArc
 50
180.0
 51
270.0
  0
ARC
  5
163
330
1F
100
AcDbEntity
  8
1
 62
     7
420
 15921906
100
AcDbCircle
 10
-145.400424939539
 20
91.6999999999997
 30
0.0000000000000568
 40
0.2
210
1.0
220
0.0
230
0.0
100
AcDbArc
 50
180.0
 51
270.0
  0
ARC
  5
164
330
1F
100
AcDbEntity
  8
1
 62
     7
420
 15921906
100
AcDbCircle
 10
146.305168625816
 20
95.2999999999999
 30
0.0000000000000568
 40
0.2
210
1.0
220
0.0
230
0.0
100
AcDbArc
 50
0.0
 51
90.0
  0
ARC
  5
165
330
1F
100
AcDbEntity
  8
1
 62
     7
420
 15921906
100
AcDbCircle
 10
146.305168625816
 20
95.2999999999999
 30
0.0
 40
0.2
210
0.0
220
1.0
230
0.0
100
AcDbArc
 50
0.0
 51
90.0
  0
ARC
  5
166
330
1F
100
AcDbEntity
  8
1
 62
     7
420
 15921906
100
AcDbCircle
 10
-146.305168625816
 20
95.2999999999999
 30
0.0000000000000568
 40
0.2
210
1.0
220
0.0
230
0.0
100
AcDbArc
 50
90.0
 51
180.0
  0
ARC
  5
167
330
1F
100
AcDbEntity
  8
1
 62
     7
420
 15921906
100
AcDbCircle
 10
145.894831374185
 20
95.2999999999999
 30
0.0000000000000568
 40
0.2
210
1.0
220
0.0
230
0.0
100
AcDbArc
 50
90.0
 51
178.4999999996853
  0
ARC
  5
168
330
1F
100
AcDbEntity
  8
1
 62
     7
420
 15921906
100
AcDbCircle
 10
145.8948313741849
 20
95.2999999999999
 30
0.0
 40
0.2
210
0.0
220
1.0
230
0.0
100
AcDbArc
 50
90.0
 51
178.4999999996853
  0
ARC
  5
169
330
1F
100
AcDbEntity
  8
1
 62
     7
420
 15921906
100
AcDbCircle
 10
-145.894831374185
 20
95.2999999999999
 30
0.0000000000000568
 40
0.2
210
1.0
220
0.0
230
0.0
100
AcDbArc
 50
1.500000000314734
 51
90.0
  0
ARC
  5
16A
330
1F
100
AcDbEntity
  8
1
 62
     7
420
 15921906
100
AcDbCircle
 10
151.525517716642
 20
88.4999999999996
 30
0.0000000000000568
 40
0.5
210
1.0
220
0.0
230
0.0
100
AcDbArc
 50
270.0
 51
0.0
  0
ARC
  5
16B
330
1F
100
AcDbEntity
  8
1
 62
     7
420
 15921906
100
AcDbCircle
 10
151.525517716642
 20
88.4999999999996
 30
0.0
 40
0.5
210
0.0
220
1.0
230
0.0
100
AcDbArc
 50
270.0
 51
0.0
  0
ARC
  5
16C
330
1F
100
AcDbEntity
  8
1
 62
     7
420
 15921906
100
AcDbCircle
 10
-151.525517716642
 20
88.4999999999996
 30
0.0000000000000568
 40
0.5
210
1.0
220
0.0
230
0.0
100
AcDbArc
 50
180.0
 51
270.0
  0
CIRCLE
  5
16D
330
1F
100
AcDbEntity
  8
1
 62
     7
420
 15921906
100
AcDbCircle
 10
0.0000000000000685
 20
0.0
 30
103.7359866772055
 40
1.50000000000161
  0
LINE
  5
16E
330
1F
100
AcDbEntity
  8
1
 62
     7
420
 15921906
100
AcDbLine
 10
0.0000000000000684
 20
1.50000000000161
 30
103.740993905072
 11
0.0000000000000686
 21
1.50000000000161
 31
103.730979449339
  0
LINE
  5
16F
330
1F
100
AcDbEntity
  8
1
 62
     7
420
 15921906
100
AcDbLine
 10
1.500000000001678
 20
0.0
 30
103.7409939050721
 11
1.500000000001679
 21
0.0
 31
103.7309794493391
  0
LINE
  5
170
330
1F
100
AcDbEntity
  8
1
 62
     7
420
 15921906
100
AcDbLine
 10
0.0000000000000684
 20
-1.50000000000161
 30
103.740993905072
 11
0.0000000000000686
 21
-1.50000000000161
 31
103.730979449339
  0
CIRCLE
  5
171
330
1F
100
AcDbEntity
  8
1
 62
     7
420
 15921906
100
AcDbCircle
 10
0.0000000000000568
 20
0.0
 30
103.776071423995
 40
0.100000000001608
  0
LINE
  5
172
330
1F
100
AcDbEntity
  8
1
 62
     7
420
 15921906
100
AcDbLine
 10
0.0000000000000568
 20
0.100000000001608
 30
103.781071455887
 11
0.0000000000000568
 21
0.100000000001608
 31
103.771071392103
  0
LINE
  5
173
330
1F
100
AcDbEntity
  8
1
 62
     7
420
 15921906
100
AcDbLine
 10
0.1000000000016648
 20
0.0
 30
103.781071455887
 11
0.1000000000016648
 21
0.0
 31
103.771071392103
  0
LINE
  5
174
330
1F
100
AcDbEntity
  8
1
 62
     7
420
 15921906
100
AcDbLine
 10
0.0000000000000568
 20
-0.100000000001608
 30
103.781071455887
 11
0.0000000000000568
 21
-0.100000000001608
 31
103.771071392103
  0
LINE
  5
175
330
1F
100
AcDbEntity
  8
1
 62
     7
420
 15921906
100
AcDbLine
 10
-21.97552320634164
 20
-0.0000000000000018
 30
89.521966941476
 11
21.97552320634176
 21
-0.0000000000000018
 31
89.521966941476
  0
LINE
  5
176
330
1F
100
AcDbEntity
  8
1
 62
     7
420
 15921906
100
AcDbLine
 10
0.0000000000000604
 20
21.9755232063417
 30
89.521966941476
 11
0.0000000000000604
 21
-21.9755232063417
 31
89.521966941476
  0
CIRCLE
  5
177
330
1F
100
AcDbEntity
  8
1
 62
   253
420
 10266795
100
AcDbCircle
 10
0.000000000000058
 20
0.0
 30
88.9999999999999
 40
26.0
  0
ARC
  5
178
330
1F
100
AcDbEntity
  8
1
 62
   253
420
 10266795
100
AcDbCircle
 10
24.99999999999994
 20
88.99999999999986
 30
0.0
 40
1.000000000000014
210
0.0
220
1.0
230
0.0
100
AcDbArc
 50
0.0
 51
90.0
  0
CIRCLE
  5
179
330
1F
100
AcDbEntity
  8
1
 62
   253
420
 10266795
100
AcDbCircle
 10
0.0000000000000568
 20
0.0
 30
89.9999999999999
 40
25.0
  0
CIRCLE
  5
17A
330
1F
100
AcDbEntity
  8
1
 62
   253
420
 10266795
100
AcDbCircle
 10
0.000000000000106
 20
0.0
 30
32.3627467023553
 40
73.900377853967
  0
CIRCLE
  5
17B
330
1F
100
AcDbEntity
  8
1
 62
   253
420
 10266795
100
AcDbCircle
 10
0.000000000000106
 20
0.0
 30
22.4943761477001
 40
77.7731204682214
  0
ARC
  5
17C
330
1F
100
AcDbEntity
  8
1
 62
   253
420
 10266795
100
AcDbCircle
 10
-44.76218268569789
 20
15.23366084420385
 30
0.0
 40
33.80000000000105
210
0.0
220
1.0
230
0.0
100
AcDbArc
 50
149.5505694789538
 51
167.5953810227875
  0
CIRCLE
  5
17D
330
1F
100
AcDbEntity
  8
1
 62
   253
420
 10266795
100
AcDbCircle
 10
0.000000000000106
 20
0.0
 30
59.9079970002453
 40
52.5920029997545
  0
LINE
  5
17E
330
1F
100
AcDbEntity
  8
1
 62
   253
420
 10266795
100
AcDbLine
 10
26.14644660940689
 20
0.0
 30
86.3535533905931
 11
52.5920029997546
 21
0.0
 31
59.9079970002453
  0
SPLINE
  5
17F
330
1F
100
AcDbEntity
  8
1
 62
   253
420
 10266795
100
AcDbSpline
210
0.0
220
1.0
230
0.0
 70
    12
 71
     3
 72
     8
 73
     4
 74
     0
 42
0.0000000001
 43
0.0000000001
 40
-0.0000000000000136
 40
-0.0000000000000136
 40
-0.0000000000000136
 40
-0.0000000000000136
 40
55.2766905904794
 40
55.2766905904794
 40
55.2766905904794
 40
55.2766905904794
 10
73.9003778539671
 20
0.0
 30
32.3627467023553
 41
0.9999999999999999
 10
67.98577145101589
 20
0.0
 30
42.42405161610624
 41
0.9946327741564032
 10
60.84465183116915
 20
0.0
 30
51.65534816883061
 41
0.9946327741564028
 10
52.59200299975461
 20
0.0
 30
59.90799700024531
 41
0.9999999999999999
  0
CIRCLE
  5
180
330
1F
100
AcDbEntity
  8
1
 62
   253
420
 10266795
100
AcDbCircle
 10
0.0000000000000607
 20
0.0
 30
86.7071067811864
 40
26.0
  0
LINE
  5
181
330
1F
100
AcDbEntity
  8
1
 62
   253
420
 10266795
100
AcDbLine
 10
-25.99999999999994
 20
0.0
 30
88.99999999999986
 11
-25.99999999999994
 21
0.0
 31
86.70710678118638
  0
ARC
  5
182
330
1F
100
AcDbEntity
  8
1
 62
   253
420
 10266795
100
AcDbCircle
 10
0.0000000000000871
 20
0.0
 30
86.3535533905931
 40
26.1464466094068
100
AcDbArc
 50
0.000000000000007
 51
180.0
  0
ARC
  5
183
330
1F
100
AcDbEntity
  8
1
 62
   253
420
 10266795
100
AcDbCircle
 10
26.49999999999988
 20
86.70710678118634
 30
0.0
 40
0.4999999999999438
210
0.0
220
1.0
230
0.0
100
AcDbArc
 50
179.9999999999951
 51
225.0000000000046
  0
ARC
  5
184
330
1F
100
AcDbEntity
  8
1
 62
   253
420
 10266795
100
AcDbCircle
 10
0.0000000000000871
 20
0.0
 30
86.3535533905931
 40
26.1464466094068
100
AcDbArc
 50
180.0
 51
0.000000000000007
  0
SPLINE
  5
185
330
1F
100
AcDbEntity
  8
1
 62
   253
420
 10266795
100
AcDbSpline
 70
     3
 71
     3
 72
    62
 73
    58
 74
     0
 42
0.0000000001
 43
0.0000000001
 40
0.0
 40
0.0
 40
0.0
 40
0.0
 40
0.5031349750598217
 40
0.5031349750598217
 40
0.5031349750598217
 40
1.200352656562375
 40
1.200352656562375
 40
1.200352656562375
 40
1.897285515108849
 40
1.897285515108849
 40
1.897285515108849
 40
2.595563818653388
 40
2.595563818653388
 40
2.595563818653388
 40
3.29617451037158
 40
3.29617451037158
 40
3.29617451037158
 40
3.998998166169175
 40
3.998998166169175
 40
3.998998166169175
 40
4.702914884835651
 40
4.702914884835651
 40
4.702914884835651
 40
5.406383670372428
 40
5.406383670372428
 40
5.406383670372428
 40
6.108148463624988
 40
6.108148463624988
 40
6.108148463624988
 40
6.807730181909023
 40
6.807730181909023
 40
6.807730181909023
 40
7.505551157267291
 40
7.505551157267291
 40
7.505551157267291
 40
8.202721051415997
 40
8.202721051415997
 40
8.202721051415997
 40
8.900601489631283
 40
8.900601489631283
 40
8.900601489631283
 40
9.600289014810285
 40
9.600289014810285
 40
9.600289014810285
 40
10.30216867139769
 40
10.30216867139769
 40
10.30216867139769
 40
11.0057040504903
 40
11.0057040504903
 40
11.0057040504903
 40
11.7095967107476
 40
11.7095967107476
 40
11.7095967107476
 40
12.41241763430283
 40
12.41241763430283
 40
12.41241763430283
 40
13.04394368457366
 40
13.04394368457366
 40
13.04394368457366
 40
13.04394368457366
 10
1.72127786669246
 20
-79.830822534593
 30
5.7706744863105
 10
1.62948896434965
 20
-79.8370559265537
 30
5.63142818679429
 10
1.51993875675666
 20
-79.8428728467403
 30
5.50241908244078
 10
1.39735062878173
 20
-79.847998278898
 30
5.38928433743992
 10
1.22823392117968
 20
-79.8550690795202
 30
5.23320906403451
 10
1.02993295514511
 20
-79.8609729323231
 30
5.10402837954014
 10
0.81871734505505
 20
-79.8651688539016
 30
5.01248435583265
 10
0.607596494948571
 20
-79.8693628930177
 30
4.92098140252795
 10
0.377768941111784
 20
-79.8719633281877
 30
4.86457860902379
 10
0.148232363480401
 20
-79.8727269378824
 30
4.8480024150464
 10
-0.0817369135696479
 20
-79.8734919870577
 30
4.83139497328457
 10
-0.317763986078145
 20
-79.8724336971988
 30
4.85431263686503
 10
-0.540233824218835
 20
-79.8696518089013
 30
4.91482456150961
 10
-0.763440436620011
 20
-79.866860707563
 30
4.97553688917917
 10
-0.979191913076933
 20
-79.8622585730803
 30
5.07577546750278
 10
-1.16954769268779
 20
-79.8562757242964
 30
5.20709131379148
 10
-1.36050514566541
 20
-79.850273965024
 30
5.33882222101245
 10
-1.53121883955461
 20
-79.8427188001479
 30
5.50548103690706
 10
-1.66755433145281
 20
-79.8343000613807
 30
5.69308583526193
 10
-1.80410596095705
 20
-79.8258679760812
 30
5.88098805031611
 10
-1.90996925609149
 20
-79.8163384579141
 30
6.09511007022914
 10
-1.97643711045805
 20
-79.8065499283936
 30
6.31762051724402
 10
-2.04286546892901
 20
-79.7967672153199
 30
6.53999874621957
 10
-2.07178932837597
 20
-79.786457056133
 30
6.77689774449533
 10
-2.06083762681415
 20
-79.7764862476191
 30
7.00871911585055
 10
-2.04991207048173
 20
-79.7665392426279
 30
7.23998705512939
 10
-1.9990030622265
 20
-79.7566561945033
 30
7.47256127942374
 10
-1.91224854416818
 20
-79.7476292297176
 30
7.68725952797499
 10
-1.82576266948332
 20
-79.7386302177616
 30
7.90129294358084
 10
-1.70127845991011
 20
-79.7302336072433
 30
8.10342531534266
 10
-1.54894677599339
 20
-79.7230833841691
 30
8.27696212445582
 10
-1.3970000714936
 20
-79.7159512314571
 30
8.45006036361512
 10
-1.21317763991071
 20
-79.709861431587
 30
8.59944294345169
 10
-1.01255233517809
 20
-79.7052650413516
 30
8.71271266274352
 10
-0.812120208447359
 20
-79.7006730768862
 30
8.82587331693971
 10
-0.589410128537213
 20
-79.6974436233195
 30
8.90608876100127
 10
-0.362803244671706
 20
-79.6958108438372
 30
8.94666105989463
 10
-0.135973945545348
 20
-79.6941764617776
 30
8.98727318060755
 10
0.101013872590508
 20
-79.6940961534013
 30
8.98927700151648
 10
0.328498222932202
 20
-79.6955757126278
 30
8.95250435203638
 10
0.556564565214269
 20
-79.6970590571324
 30
8.91563762405993
 10
0.78139265594286
 20
-79.7001522426106
 30
8.83877374053839
 10
0.98429205826303
 20
-79.7046295638269
 30
8.72837718915487
 10
1.18782480540926
 20
-79.7091208608765
 30
8.61763603801485
 10
1.3749450090022
 20
-79.7151317876348
 30
8.47008230849363
 10
1.53013064310192
 20
-79.7222126082303
 30
8.29810372141181
 10
1.68568452803122
 20
-79.7293102313994
 30
8.12571703432945
 10
1.81347865259796
 20
-79.7376823727553
 30
7.92400913290199
 10
1.90297459988494
 20
-79.7466807532818
 30
7.70982682312457
 10
1.99251914310716
 20
-79.7556840198922
 30
7.49552821322442
 10
2.04621318521075
 20
-79.7655652295304
 30
7.26281163137694
 10
2.05966561872442
 20
-79.7755288674467
 30
7.03098640369947
 10
2.07309809815645
 20
-79.7854777262344
 30
6.79950504388156
 10
2.04678505813059
 20
-79.7957832716388
 30
6.56253133544853
 10
1.9828804390086
 20
-79.8055818689977
 30
6.33963400845089
 10
1.92535702275389
 20
-79.8144020263248
 30
6.13899411889186
 10
1.83617452670987
 20
-79.8230198930473
 30
5.94497589243478
 10
1.72127786669246
 20
-79.830822534593
 30
5.7706744863105
  0
CIRCLE
  5
186
330
1F
100
AcDbEntity
  8
1
 62
   253
420
 10266795
100
AcDbCircle
 10
0.000000000000106
 20
0.0
 30
2.99999999999989
 40
79.8916824870402
  0
SPLINE
  5
187
330
1F
100
AcDbEntity
  8
1
 62
   253
420
 10266795
100
AcDbSpline
210
0.0
220
1.0
230
0.0
 70
    12
 71
     3
 72
     8
 73
     4
 74
     0
 42
0.0000000001
 43
0.0000000001
 40
-0.0000000000000118
 40
-0.0000000000000118
 40
-0.0000000000000118
 40
-0.0000000000000118
 40
20.41739526797723
 40
20.41739526797723
 40
20.41739526797723
 40
20.41739526797723
 10
79.8916824870403
 20
0.0
 30
2.99999999999989
 41
0.9999999999999999
 10
79.89168248704021
 20
0.0
 30
9.561991995376648
 41
0.996097739938134
 10
79.18272862509279
 20
0.0
 30
16.08557409181869
 41
0.9960977399381341
 10
77.77312046822149
 20
0.0
 30
22.4943761477001
 41
0.9999999999999999
  0
ARC
  5
188
330
1F
100
AcDbEntity
  8
1
 62
   253
420
 10266795
100
AcDbCircle
 10
-77.8916824870403
 20
2.999999999999878
 30
0.0
 40
1.999999999999998
210
0.0
220
1.0
230
0.0
100
AcDbArc
 50
179.9999999999996
 51
270.0
  0
CIRCLE
  5
189
330
1F
100
AcDbEntity
  8
1
 62
   253
420
 10266795
100
AcDbCircle
 10
0.000000000000106
 20
0.0
 30
0.999999999999883
 40
77.8916824870402
  0
CIRCLE
  5
18A
330
1F
100
AcDbEntity
  8
1
 62
   253
420
 10266795
100
AcDbCircle
 10
0.0000000000000568
 20
0.0
 30
89.9999999999999
 40
25.0
  0
ARC
  5
18B
330
1F
100
AcDbEntity
  8
1
 62
   253
420
 10266795
100
AcDbCircle
 10
-25.0
 20
88.9999999999999
 30
0.000000000000058
 40
1.0
210
1.0
220
0.0
230
0.0
100
AcDbArc
 50
90.0
 51
180.0
  0
ARC
  5
18C
330
1F
100
AcDbEntity
  8
1
 62
   253
420
 10266795
100
AcDbCircle
 10
-25.00000000000006
 20
88.99999999999993
 30
0.0
 40
1.0
210
0.0
220
1.0
230
0.0
100
AcDbArc
 50
90.0
 51
180.0
  0
ARC
  5
18D
330
1F
100
AcDbEntity
  8
1
 62
   253
420
 10266795
100
AcDbCircle
 10
25.0
 20
88.9999999999999
 30
0.000000000000058
 40
1.0
210
1.0
220
0.0
230
0.0
100
AcDbArc
 50
0.0
 51
90.0
  0
ARC
  5
18E
330
1F
100
AcDbEntity
  8
1
 62
   253
420
 10266795
100
AcDbCircle
 10
-44.7621826856988
 20
15.2336608442041
 30
0.000000000000106
 40
33.8
210
1.0
220
0.0
230
0.0
100
AcDbArc
 50
149.5505694789533
 51
167.5953810227876
  0
ARC
  5
18F
330
1F
100
AcDbEntity
  8
1
 62
   253
420
 10266795
100
AcDbCircle
 10
44.76218268569869
 20
15.2336608442041
 30
0.0
 40
33.8
210
0.0
220
1.0
230
0.0
100
AcDbArc
 50
12.40461897721245
 51
30.44943052104675
  0
ARC
  5
190
330
1F
100
AcDbEntity
  8
1
 62
   253
420
 10266795
100
AcDbCircle
 10
44.7621826856988
 20
15.2336608442041
 30
0.000000000000106
 40
33.8
210
1.0
220
0.0
230
0.0
100
AcDbArc
 50
12.40461897721245
 51
30.44943052104675
  0
CIRCLE
  5
191
330
1F
100
AcDbEntity
  8
1
 62
   253
420
 10266795
100
AcDbCircle
 10
0.000000000000106
 20
0.0
 30
83.2695983501349
 40
29.23040164986497
  0
LINE
  5
192
330
1F
100
AcDbEntity
  8
1
 62
   253
420
 10266795
100
AcDbLine
 10
0.000000000000106
 20
-26.14644660940678
 30
86.3535533905931
 11
0.000000000000106
 21
-52.59200299975449
 31
59.9079970002453
  0
LINE
  5
193
330
1F
100
AcDbEntity
  8
1
 62
   253
420
 10266795
100
AcDbLine
 10
-26.14644660940667
 20
0.0
 30
86.3535533905931
 11
-52.59200299975438
 21
0.0
 31
59.9079970002453
  0
LINE
  5
194
330
1F
100
AcDbEntity
  8
1
 62
   253
420
 10266795
100
AcDbLine
 10
0.000000000000106
 20
26.14644660940678
 30
86.3535533905931
 11
0.000000000000106
 21
52.59200299975449
 31
59.9079970002453
  0
SPLINE
  5
195
330
1F
100
AcDbEntity
  8
1
 62
   253
420
 10266795
100
AcDbSpline
210
0.0
220
-1.0
230
0.0
 70
    12
 71
     3
 72
     8
 73
     4
 74
     0
 42
0.0000000001
 43
0.0000000001
 40
0.0
 40
0.0
 40
0.0
 40
0.0
 40
55.27669059047952
 40
55.27669059047952
 40
55.27669059047952
 40
55.27669059047952
 10
-73.9003778539669
 20
0.0
 30
32.3627467023553
 41
0.9999999999999999
 10
-67.98577145101568
 20
0.0
 30
42.4240516161063
 41
0.9946327741564032
 10
-60.84465183116902
 20
0.0
 30
51.65534816883071
 41
0.9946327741564028
 10
-52.59200299975431
 20
0.0
 30
59.90799700024542
 41
0.9999999999999999
  0
SPLINE
  5
196
330
1F
100
AcDbEntity
  8
1
 62
   253
420
 10266795
100
AcDbSpline
210
0.0
220
0.0
230
1.0
 70
    15
 71
     3
 72
    11
 73
     7
 74
     0
 42
0.0000000001
 43
0.0000000001
 40
0.0
 40
0.0
 40
0.0
 40
0.0
 40
443.4022671238021
 40
443.4022671238021
 40
443.4022671238021
 40
886.8045342476041
 40
886.8045342476041
 40
886.8045342476041
 40
886.8045342476041
 10
64.12177513252546
 20
0.0
 30
46.81270412903052
 41
0.9959745806173022
 10
64.12177513252544
 20
-128.2435502650508
 30
46.81270412903051
 41
0.3319915268724337
 10
-64.12177513252523
 20
-128.2435502650508
 30
46.81270412903051
 41
0.3319915268724337
 10
-64.12177513252523
 20
0.0
 30
46.81270412903053
 41
0.9959745806173022
 10
-64.12177513252523
 20
128.2435502650508
 30
46.81270412903051
 41
0.3319915268724337
 10
64.12177513252544
 20
128.2435502650508
 30
46.81270412903051
 41
0.3319915268724337
 10
64.12177513252546
 20
0.0
 30
46.81270412903052
 41
0.9959745806173022
  0
CIRCLE
  5
197
330
1F
100
AcDbEntity
  8
1
 62
   253
420
 10266795
100
AcDbCircle
 10
0.0000000000000668
 20
0.0
 30
87.85355339059316
 40
26.0
  0
LINE
  5
198
330
1F
100
AcDbEntity
  8
1
 62
   253
420
 10266795
100
AcDbLine
 10
0.0000000000000612
 20
26.0
 30
89.0
 11
0.0000000000000724
 21
26.0
 31
86.70710678118651
  0
LINE
  5
199
330
1F
100
AcDbEntity
  8
1
 62
   253
420
 10266795
100
AcDbLine
 10
26.00000000000006
 20
0.0
 30
89.00000000000013
 11
26.00000000000007
 21
0.0
 31
86.70710678118664
  0
LINE
  5
19A
330
1F
100
AcDbEntity
  8
1
 62
   253
420
 10266795
100
AcDbLine
 10
0.0000000000000612
 20
-26.0
 30
89.0
 11
0.0000000000000724
 21
-26.0
 31
86.70710678118651
  0
ARC
  5
19B
330
1F
100
AcDbEntity
  8
1
 62
   253
420
 10266795
100
AcDbCircle
 10
-26.5
 20
86.7071067811864
 30
0.0000000000000869
 40
0.5
210
1.0
220
0.0
230
0.0
100
AcDbArc
 50
314.9999999999945
 51
0.0
  0
ARC
  5
19C
330
1F
100
AcDbEntity
  8
1
 62
   253
420
 10266795
100
AcDbCircle
 10
-26.50000000000009
 20
86.70710678118641
 30
0.0
 40
0.5
210
0.0
220
1.0
230
0.0
100
AcDbArc
 50
314.9999999999945
 51
0.0
  0
ARC
  5
19D
330
1F
100
AcDbEntity
  8
1
 62
   253
420
 10266795
100
AcDbCircle
 10
26.5
 20
86.7071067811864
 30
0.0000000000000869
 40
0.5
210
1.0
220
0.0
230
0.0
100
AcDbArc
 50
180.0
 51
225.0000000000055
  0
SPLINE
  5
19E
330
1F
100
AcDbEntity
  8
1
 62
   253
420
 10266795
100
AcDbSpline
210
0.0
220
-1.0
230
0.0
 70
    12
 71
     3
 72
     8
 73
     4
 74
     0
 42
0.0000000001
 43
0.0000000001
 40
-0.0000000000000104
 40
-0.0000000000000104
 40
-0.0000000000000104
 40
-0.0000000000000104
 40
20.41739526797723
 40
20.41739526797723
 40
20.41739526797723
 40
20.41739526797723
 10
-79.89168248704011
 20
0.0
 30
2.99999999999989
 41
0.9999999999999999
 10
-79.89168248704007
 20
0.0
 30
9.56199199537665
 41
0.996097739938134
 10
-79.1827286250926
 20
0.0
 30
16.08557409181869
 41
0.9960977399381341
 10
-77.77312046822131
 20
0.0
 30
22.49437614770009
 41
0.9999999999999999
  0
SPLINE
  5
19F
330
1F
100
AcDbEntity
  8
1
 62
   253
420
 10266795
100
AcDbSpline
210
0.0
220
0.0
230
1.0
 70
    15
 71
     3
 72
    11
 73
     7
 74
     0
 42
0.0000000001
 43
0.0000000001
 40
0.0
 40
0.0
 40
0.0
 40
0.0
 40
479.3500949222404
 40
479.3500949222404
 40
479.3500949222404
 40
958.7001898444807
 40
958.7001898444807
 40
958.7001898444807
 40
958.7001898444807
 10
79.36048733611871
 20
0.0
 30
12.80457809413029
 41
0.9970733049536005
 10
79.36048733611871
 20
-158.7209746722369
 30
12.80457809413028
 41
0.3323577683178667
 10
-79.3604873361185
 20
-158.7209746722373
 30
12.80457809413028
 41
0.3323577683178667
 10
-79.36048733611851
 20
0.0
 30
12.80457809413029
 41
0.9970733049536005
 10
-79.3604873361185
 20
158.7209746722373
 30
12.80457809413028
 41
0.3323577683178667
 10
79.36048733611871
 20
158.7209746722369
 30
12.80457809413028
 41
0.3323577683178667
 10
79.36048733611871
 20
0.0
 30
12.80457809413029
 41
0.9970733049536005
  0
ARC
  5
1A0
330
1F
100
AcDbEntity
  8
1
 62
   253
420
 10266795
100
AcDbCircle
 10
-77.8916824870402
 20
2.99999999999988
 30
0.000000000000106
 40
2.0
210
1.0
220
0.0
230
0.0
100
AcDbArc
 50
180.0
 51
270.0
  0
ARC
  5
1A1
330
1F
100
AcDbEntity
  8
1
 62
   253
420
 10266795
100
AcDbCircle
 10
77.89168248704009
 20
2.99999999999988
 30
0.0
 40
2.0
210
0.0
220
1.0
230
0.0
100
AcDbArc
 50
270.0
 51
0.0
  0
ARC
  5
1A2
330
1F
100
AcDbEntity
  8
1
 62
   253
420
 10266795
100
AcDbCircle
 10
77.8916824870402
 20
2.99999999999988
 30
0.000000000000106
 40
2.0
210
1.0
220
0.0
230
0.0
100
AcDbArc
 50
270.0
 51
0.0
  0
LINE
  5
1A3
330
1F
100
AcDbEntity
  8
1
 62
   253
420
 10266795
100
AcDbLine
 10
-24.99999999999994
 20
0.0000000000000026
 30
89.99999999999987
 11
25.00000000000006
 21
0.0000000000000026
 31
89.99999999999987
  0
LINE
  5
1A4
330
1F
100
AcDbEntity
  8
1
 62
   253
420
 10266795
100
AcDbLine
 10
0.0000000000000568
 20
25.0
 30
89.99999999999987
 11
0.0000000000000568
 21
-25.0
 31
89.99999999999987
  0
LINE
  5
1A5
330
1F
100
AcDbEntity
  8
1
 62
   253
420
 10266795
100
AcDbLine
 10
-77.8916824870401
 20
0.0000000000000049
 30
0.999999999999883
 11
77.8916824870403
 21
0.0000000000000049
 31
0.999999999999883
  0
LINE
  5
1A6
330
1F
100
AcDbEntity
  8
1
 62
   253
420
 10266795
100
AcDbLine
 10
0.0000000000000995
 20
-77.89168248704021
 30
0.999999999999883
 11
0.0000000000000995
 21
77.89168248704019
 31
0.999999999999883
  0
ENDSEC
  0
SECTION
  2
OBJECTS
  0
DICTIONARY
  5
C
330
0
100
AcDbDictionary
281
     1
  3
ACAD_DETAILVIEWSTYLE
350
1E2
  3
ACAD_GROUP
350
D
  3
ACAD_LAYOUT
350
1A
  3
ACAD_MATERIAL
350
43
  3
ACAD_MLEADERSTYLE
350
5B
  3
ACAD_MLINESTYLE
350
17
  3
ACAD_PLOTSETTINGS
350
19
  3
ACAD_PLOTSTYLENAME
350
E
  3
ACAD_SCALELIST
350
47
  3
ACAD_SECTIONVIEWSTYLE
350
1E3
  3
ACAD_TABLESTYLE
350
59
  3
ACAD_VISUALSTYLE
350
2A
  3
AcDbVariableDictionary
350
1A7
  3
ACDB_RECOMPOSE_DATA
350
1DF
  0
SUN
  5
5D
330
29
100
AcDbSun
 90
        1
290
     0
 63
     7
421
 16777215
 40
1.0
291
     1
 91
  2455826
 92
 54000000
292
     0
 70
     2
 71
   256
280
     1
  0
DICTIONARY
  5
1E2
102
{ACAD_REACTORS
330
C
102
}
330
C
100
AcDbDictionary
281
     1
  0
DICTIONARY
  5
D
102
{ACAD_REACTORS
330
C
102
}
330
C
100
AcDbDictionary
281
     1
  0
DICTIONARY
  5
1A
102
{ACAD_REACTORS
330
C
102
}
330
C
100
AcDbDictionary
281
     1
  3
Layout1
350
1E
  3
Layout2
350
26
  3
Model
350
22
  0
DICTIONARY
  5
43
102
{ACAD_REACTORS
330
C
102
}
330
C
100
AcDbDictionary
281
     1
  3
ByBlock
350
45
  3
ByLayer
350
44
  3
Global
350
46
  0
DICTIONARY
  5
5B
102
{ACAD_REACTORS
330
C
102
}
330
C
100
AcDbDictionary
281
     1
  3
Standard
350
5C
  0
DICTIONARY
  5
17
102
{ACAD_REACTORS
330
C
102
}
330
C
100
AcDbDictionary
281
     1
  3
Standard
350
18
  0
DICTIONARY
  5
19
102
{ACAD_REACTORS
330
C
102
}
330
C
100
AcDbDictionary
281
     1
  0
ACDBDICTIONARYWDFLT
  5
E
102
{ACAD_REACTORS
330
C
102
}
330
C
100
AcDbDictionary
281
     1
  3
Normal
350
F
100
AcDbDictionaryWithDefault
340
F
  0
DICTIONARY
  5
47
102
{ACAD_REACTORS
330
C
102
}
330
C
100
AcDbDictionary
281
     1
  3
A0
350
48
  3
A1
350
49
  3
A2
350
4A
  3
A3
350
4B
  3
A4
350
4C
  3
A5
350
4D
  3
A6
350
4E
  3
A7
350
4F
  3
A8
350
50
  3
A9
350
51
  3
B1
350
52
  3
B2
350
53
  3
B3
350
54
  3
B4
350
55
  3
B5
350
56
  3
B6
350
57
  3
B7
350
58
  0
DICTIONARY
  5
1E3
102
{ACAD_REACTORS
330
C
102
}
330
C
100
AcDbDictionary
281
     1
  0
DICTIONARY
  5
59
102
{ACAD_REACTORS
330
C
102
}
330
C
100
AcDbDictionary
281
     1
  3
Standard
350
5A
  0
DICTIONARY
  5
2A
102
{ACAD_REACTORS
330
C
102
}
330
C
100
AcDbDictionary
281
     1
  3
2dWireframe
350
2F
  3
Basic
350
32
  3
Brighten
350
36
  3
ColorChange
350
3A
  3
Conceptual
350
34
  3
Dim
350
35
  3
EdgeColorOff
350
3D
  3
Facepattern
350
39
  3
Flat
350
2B
  3
FlatWithEdges
350
2C
  3
Gouraud
350
2D
  3
GouraudWithEdges
350
2E
  3
Hidden
350
31
  3
JitterOff
350
3B
  3
Linepattern
350
38
  3
OverhangOff
350
3C
  3
Realistic
350
33
  3
Shaded
350
42
  3
Shaded with edges
350
41
  3
Shades of Gray
350
3E
  3
Sketchy
350
3F
  3
Thicken
350
37
  3
Wireframe
350
30
  3
X-Ray
350
40
  0
DICTIONARY
  5
1A7
102
{ACAD_REACTORS
330
C
102
}
330
C
100
AcDbDictionary
281
     1
  3
CANNOSCALE
350
1A8
  3
CMLEADERSTYLE
350
1E1
  3
CTABLESTYLE
350
1E0
  3
XCLIPFRAME
350
1A9
  0
XRECORD
  5
1DF
102
{ACAD_REACTORS
330
C
102
}
330
C
100
AcDbXrecord
280
     1
 90
        1
330
5A
  0
LAYOUT
  5
1E
102
{ACAD_REACTORS
330
1A
102
}
330
1A
100
AcDbPlotSettings
  1

  2
none_device
  4

  6

 40
0.0
 41
0.0
 42
0.0
 43
0.0
 44
0.0
 45
0.0
 46
0.0
 47
0.0
 48
0.0
 49
0.0
140
0.0
141
0.0
142
1.0
143
1.0
 70
   688
 72
     0
 73
     0
 74
     5
  7

 75
    16
 76
     0
 77
     2
 78
   300
147
1.0
148
0.0
149
0.0
100
AcDbLayout
  1
Layout1
 70
     1
 71
     1
 10
0.0
 20
0.0
 11
12.0
 21
9.0
 12
0.0
 22
0.0
 32
0.0
 14
1.000000000000000E+20
 24
1.000000000000000E+20
 34
1.000000000000000E+20
 15
-1.000000000000000E+20
 25
-1.000000000000000E+20
 35
-1.000000000000000E+20
146
0.0
 13
0.0
 23
0.0
 33
0.0
 16
1.0
 26
0.0
 36
0.0
 17
0.0
 27
1.0
 37
0.0
 76
     0
330
1B
  0
LAYOUT
  5
26
102
{ACAD_REACTORS
330
1A
102
}
330
1A
100
AcDbPlotSettings
  1

  2
none_device
  4

  6

 40
0.0
 41
0.0
 42
0.0
 43
0.0
 44
0.0
 45
0.0
 46
0.0
 47
0.0
 48
0.0
 49
0.0
140
0.0
141
0.0
142
1.0
143
1.0
 70
   688
 72
     0
 73
     0
 74
     5
  7

 75
    16
 76
     0
 77
     2
 78
   300
147
1.0
148
0.0
149
0.0
100
AcDbLayout
  1
Layout2
 70
     1
 71
     2
 10
0.0
 20
0.0
 11
0.0
 21
0.0
 12
0.0
 22
0.0
 32
0.0
 14
0.0
 24
0.0
 34
0.0
 15
0.0
 25
0.0
 35
0.0
146
0.0
 13
0.0
 23
0.0
 33
0.0
 16
1.0
 26
0.0
 36
0.0
 17
0.0
 27
1.0
 37
0.0
 76
     0
330
23
  0
LAYOUT
  5
22
102
{ACAD_REACTORS
330
1A
102
}
330
1A
100
AcDbPlotSettings
  1

  2
none_device
  4
Letter_(8.50_x_11.00_Inches)
  6

 40
6.35
 41
6.35
 42
6.35000508
 43
6.35000508
 44
215.9
 45
279.4
 46
0.0
 47
0.0
 48
0.0
 49
0.0
140
0.0
141
0.0
142
1.0
143
1.0
 70
  1712
 72
     0
 73
     0
 74
     0
  7

 75
     0
 76
     0
 77
     2
 78
   300
147
1.0
148
0.0
149
0.0
100
AcDbLayout
  1
Model
 70
     1
 71
     0
 10
0.0
 20
0.0
 11
12.0
 21
9.0
 12
0.0
 22
0.0
 32
0.0
 14
-157.4850132016969
 24
-157.4850132016971
 34
0.9999999999998801
 15
157.4850132016971
 25
157.4850132016969
 35
155.5
146
0.0
 13
0.0
 23
0.0
 33
0.0
 16
1.0
 26
0.0
 36
0.0
 17
0.0
 27
1.0
 37
0.0
 76
     0
330
1F
331
29
  0
MATERIAL
  5
45
102
{ACAD_REACTORS
330
43
102
}
330
43
100
AcDbMaterial
  1
ByBlock
 72
     1
 94
      127
  0
MATERIAL
  5
44
102
{ACAD_REACTORS
330
43
102
}
330
43
100
AcDbMaterial
  1
ByLayer
 72
     1
 94
      127
  0
MATERIAL
  5
46
102
{ACAD_REACTORS
330
43
102
}
330
43
100
AcDbMaterial
  1
Global
 72
     1
 94
      127
  0
MLEADERSTYLE
  5
5C
102
{ACAD_REACTORS
330
5B
102
}
102
{ACAD_XDICTIONARY
360
1DD
102
}
330
5B
100
AcDbMLeaderStyle
170
     2
171
     1
172
     0
 90
        2
 40
0.0
 41
0.0
173
     1
 91
-1056964608
340
14
 92
       -2
290
     1
 42
0.09
291
     1
 43
0.36
  3
Standard
341
0
 44
0.18
300

342
11
174
     1
178
     6
175
     1
176
     0
 93
-1056964608
 45
0.18
292
     0
297
     0
 46
0.18
343
0
 94
-1056964608
 47
1.0
 49
1.0
140
1.0
293
     1
141
0.0
294
     1
177
     0
142
1.0
295
     0
296
     0
143
0.125
1001
ACAD_MLEADERVER
1070
     2
  0
MLINESTYLE
  5
18
102
{ACAD_REACTORS
330
17
102
}
330
17
100
AcDbMlineStyle
  2
Standard
 70
     0
  3

 62
   256
 51
90.0
 52
90.0
 71
     2
 49
0.5
 62
   256
  6
BYLAYER
 49
-0.5
 62
   256
  6
BYLAYER
  0
ACDBPLACEHOLDER
  5
F
102
{ACAD_REACTORS
330
E
102
}
330
E
  0
SCALE
  5
48
102
{ACAD_REACTORS
330
47
102
}
330
47
100
AcDbScale
 70
     0
300
1:1
140
1.0
141
1.0
290
     1
  0
SCALE
  5
49
102
{ACAD_REACTORS
330
47
102
}
330
47
100
AcDbScale
 70
     0
300
1/128" = 1'-0"
140
0.0078125
141
12.0
290
     0
  0
SCALE
  5
4A
102
{ACAD_REACTORS
330
47
102
}
330
47
100
AcDbScale
 70
     0
300
1/64" = 1'-0"
140
0.015625
141
12.0
290
     0
  0
SCALE
  5
4B
102
{ACAD_REACTORS
330
47
102
}
330
47
100
AcDbScale
 70
     0
300
1/32" = 1'-0"
140
0.03125
141
12.0
290
     0
  0
SCALE
  5
4C
102
{ACAD_REACTORS
330
47
102
}
330
47
100
AcDbScale
 70
     0
300
1/16" = 1'-0"
140
0.0625
141
12.0
290
     0
  0
SCALE
  5
4D
102
{ACAD_REACTORS
330
47
102
}
330
47
100
AcDbScale
 70
     0
300
3/32" = 1'-0"
140
0.09375
141
12.0
290
     0
  0
SCALE
  5
4E
102
{ACAD_REACTORS
330
47
102
}
330
47
100
AcDbScale
 70
     0
300
1/8" = 1'-0"
140
0.125
141
12.0
290
     0
  0
SCALE
  5
4F
102
{ACAD_REACTORS
330
47
102
}
330
47
100
AcDbScale
 70
     0
300
3/16" = 1'-0"
140
0.1875
141
12.0
290
     0
  0
SCALE
  5
50
102
{ACAD_REACTORS
330
47
102
}
330
47
100
AcDbScale
 70
     0
300
1/4" = 1'-0"
140
0.25
141
12.0
290
     0
  0
SCALE
  5
51
102
{ACAD_REACTORS
330
47
102
}
330
47
100
AcDbScale
 70
     0
300
3/8" = 1'-0"
140
0.375
141
12.0
290
     0
  0
SCALE
  5
52
102
{ACAD_REACTORS
330
47
102
}
330
47
100
AcDbScale
 70
     0
300
1/2" = 1'-0"
140
0.5
141
12.0
290
     0
  0
SCALE
  5
53
102
{ACAD_REACTORS
330
47
102
}
330
47
100
AcDbScale
 70
     0
300
3/4" = 1'-0"
140
0.75
141
12.0
290
     0
  0
SCALE
  5
54
102
{ACAD_REACTORS
330
47
102
}
330
47
100
AcDbScale
 70
     0
300
1" = 1'-0"
140
1.0
141
12.0
290
     0
  0
SCALE
  5
55
102
{ACAD_REACTORS
330
47
102
}
330
47
100
AcDbScale
 70
     0
300
1-1/2" = 1'-0"
140
1.5
141
12.0
290
     0
  0
SCALE
  5
56
102
{ACAD_REACTORS
330
47
102
}
330
47
100
AcDbScale
 70
     0
300
3" = 1'-0"
140
3.0
141
12.0
290
     0
  0
SCALE
  5
57
102
{ACAD_REACTORS
330
47
102
}
330
47
100
AcDbScale
 70
     0
300
6" = 1'-0"
140
6.0
141
12.0
290
     0
  0
SCALE
  5
58
102
{ACAD_REACTORS
330
47
102
}
330
47
100
AcDbScale
 70
     0
300
1'-0" = 1'-0"
140
12.0
141
12.0
290
     0
  0
TABLESTYLE
  5
5A
102
{ACAD_REACTORS
330
59
102
}
102
{ACAD_XDICTIONARY
360
1DA
102
}
330
59
100
AcDbTableStyle
  3
Standard
 70
     0
 71
     0
 40
0.06
 41
0.06
280
     0
281
     0
  7
Standard
140
0.18
170
     2
 62
     0
 63
   257
283
     0
 90
        4
 91
        0
  1

274
    -2
284
     1
 64
     0
275
    -2
285
     1
 65
     0
276
    -2
286
     1
 66
     0
277
    -2
287
     1
 67
     0
278
    -2
288
     1
 68
     0
279
    -2
289
     1
 69
     0
  7
Standard
140
0.25
170
     5
 62
     0
 63
   257
283
     0
 90
        4
 91
        0
  1

274
    -2
284
     1
 64
     0
275
    -2
285
     1
 65
     0
276
    -2
286
     1
 66
     0
277
    -2
287
     1
 67
     0
278
    -2
288
     1
 68
     0
279
    -2
289
     1
 69
     0
  7
Standard
140
0.18
170
     5
 62
     0
 63
   257
283
     0
 90
        4
 91
        0
  1

274
    -2
284
     1
 64
     0
275
    -2
285
     1
 65
     0
276
    -2
286
     1
 66
     0
277
    -2
287
     1
 67
     0
278
    -2
288
     1
 68
     0
279
    -2
289
     1
 69
     0
  0
VISUALSTYLE
  5
2F
102
{ACAD_REACTORS
330
2A
102
}
102
{ACAD_XDICTIONARY
360
1B2
102
}
330
2A
100
AcDbVisualStyle
  2
2dWireframe
 70
     4
 71
     0
 72
     2
 73
     0
 90
        0
 40
0.6
 41
30.0
 62
     5
 63
     7
421
 16777215
 74
     1
 91
        4
 64
     7
 65
   257
 75
     1
175
     1
 42
1.0
 92
        0
 66
   257
 43
1.0
 76
     1
 77
     6
 78
     2
 67
     7
 79
     5
170
     0
171
     0
290
     0
174
     0
 93
        1
 44
0.0
173
     0
291
     0
 45
0.0
  0
VISUALSTYLE
  5
32
102
{ACAD_REACTORS
330
2A
102
}
102
{ACAD_XDICTIONARY
360
1B8
102
}
330
2A
100
AcDbVisualStyle
  2
Basic
 70
     7
 71
     1
 72
     0
 73
     1
 90
        0
 40
0.6
 41
30.0
 62
     5
 63
     7
421
 16777215
 74
     0
 91
        4
 64
     7
 65
   257
 75
     1
175
     1
 42
1.0
 92
        8
 66
     7
 43
1.0
 76
     1
 77
     6
 78
     2
 67
     7
 79
     5
170
     0
171
     0
290
     0
174
     0
 93
        1
 44
0.0
173
     0
291
     1
 45
0.0
  0
VISUALSTYLE
  5
36
102
{ACAD_REACTORS
330
2A
102
}
102
{ACAD_XDICTIONARY
360
1C0
102
}
330
2A
100
AcDbVisualStyle
  2
Brighten
 70
    12
 71
     2
 72
     2
 73
     0
 90
        0
 40
0.6
 41
30.0
 62
     5
 63
     7
421
 16777215
 74
     1
 91
        4
 64
     7
 65
   257
 75
     1
175
     1
 42
1.0
 92
        8
 66
     7
 43
1.0
 76
     1
 77
     6
 78
     2
 67
     7
 79
     5
170
     0
171
     0
290
     0
174
     0
 93
        1
 44
50.0
173
     0
291
     1
 45
0.0
  0
VISUALSTYLE
  5
3A
102
{ACAD_REACTORS
330
2A
102
}
102
{ACAD_XDICTIONARY
360
1C8
102
}
330
2A
100
AcDbVisualStyle
  2
ColorChange
 70
    16
 71
     2
 72
     2
 73
     3
 90
        0
 40
0.6
 41
30.0
 62
     5
 63
     8
421
  8421504
 74
     1
 91
        4
 64
     7
 65
   257
 75
     1
175
     1
 42
1.0
 92
        8
 66
     8
424
  8421504
 43
1.0
 76
     1
 77
     6
 78
     2
 67
     7
 79
     5
170
     0
171
     0
290
     0
174
     0
 93
        1
 44
0.0
173
     0
291
     1
 45
0.0
  0
VISUALSTYLE
  5
34
102
{ACAD_REACTORS
330
2A
102
}
102
{ACAD_XDICTIONARY
360
1BC
102
}
330
2A
100
AcDbVisualStyle
  2
Conceptual
 70
     9
 71
     3
 72
     2
 73
     0
 90
        0
 40
0.6
 41
30.0
 62
     5
 63
     7
421
 16777215
 74
     2
 91
        2
 64
     7
 65
   257
 75
     1
175
     1
 42
179.0
 92
        8
 66
     7
 43
1.0
 76
     1
 77
     6
 78
     2
 67
     7
 79
     3
170
     0
171
     0
290
     0
174
     0
 93
        1
 44
0.0
173
     0
291
     0
 45
0.0
  0
VISUALSTYLE
  5
35
102
{ACAD_REACTORS
330
2A
102
}
102
{ACAD_XDICTIONARY
360
1BE
102
}
330
2A
100
AcDbVisualStyle
  2
Dim
 70
    11
 71
     2
 72
     2
 73
     0
 90
        0
 40
0.6
 41
30.0
 62
     5
 63
     7
421
 16777215
 74
     1
 91
        4
 64
     7
 65
   257
 75
     1
175
     1
 42
1.0
 92
        8
 66
     7
 43
1.0
 76
     1
 77
     6
 78
     2
 67
     7
 79
     5
170
     0
171
     0
290
     0
174
     0
 93
        1
 44
-50.0
173
     0
291
     1
 45
0.0
  0
VISUALSTYLE
  5
3D
102
{ACAD_REACTORS
330
2A
102
}
102
{ACAD_XDICTIONARY
360
1CE
102
}
330
2A
100
AcDbVisualStyle
  2
EdgeColorOff
 70
    22
 71
     2
 72
     2
 73
     0
 90
        0
 40
0.6
 41
30.0
 62
     5
 63
     7
421
 16777215
 74
     1
 91
        4
 64
     7
 65
   257
 75
     1
175
     1
 42
1.0
 92
        8
 66
     7
 43
1.0
 76
     1
 77
     6
 78
     2
 67
     7
 79
     5
170
     0
171
     0
290
     0
174
     0
 93
        1
 44
0.0
173
     0
291
     1
 45
0.0
  0
VISUALSTYLE
  5
39
102
{ACAD_REACTORS
330
2A
102
}
102
{ACAD_XDICTIONARY
360
1C6
102
}
330
2A
100
AcDbVisualStyle
  2
Facepattern
 70
    15
 71
     2
 72
     2
 73
     0
 90
        0
 40
0.6
 41
30.0
 62
     5
 63
     7
421
 16777215
 74
     1
 91
        4
 64
     7
 65
   257
 75
     1
175
     1
 42
1.0
 92
        8
 66
     7
 43
1.0
 76
     1
 77
     6
 78
     2
 67
     7
 79
     5
170
     0
171
     0
290
     0
174
     0
 93
        1
 44
0.0
173
     0
291
     1
 45
0.0
  0
VISUALSTYLE
  5
2B
102
{ACAD_REACTORS
330
2A
102
}
102
{ACAD_XDICTIONARY
360
1AA
102
}
330
2A
100
AcDbVisualStyle
  2
Flat
 70
     0
 71
     2
 72
     1
 73
     1
 90
        2
 40
0.6
 41
30.0
 62
     5
 63
     7
421
 16777215
 74
     0
 91
        0
 64
     7
 65
   257
 75
     1
175
     1
 42
1.0
 92
        8
 66
     7
 43
1.0
 76
     1
 77
     6
 78
     2
 67
     7
 79
     5
170
     0
171
     0
290
     0
174
     0
 93
       13
 44
0.0
173
     0
291
     1
 45
0.0
  0
VISUALSTYLE
  5
2C
102
{ACAD_REACTORS
330
2A
102
}
102
{ACAD_XDICTIONARY
360
1AC
102
}
330
2A
100
AcDbVisualStyle
  2
FlatWithEdges
 70
     1
 71
     2
 72
     1
 73
     1
 90
        2
 40
0.6
 41
30.0
 62
     5
 63
     7
421
 16777215
 74
     1
 91
        0
 64
     7
 65
   257
 75
     1
175
     1
 42
1.0
 92
        0
 66
   257
 43
1.0
 76
     1
 77
     6
 78
     2
 67
     7
 79
     5
170
     0
171
     0
290
     0
174
     0
 93
       13
 44
0.0
173
     0
291
     1
 45
0.0
  0
VISUALSTYLE
  5
2D
102
{ACAD_REACTORS
330
2A
102
}
102
{ACAD_XDICTIONARY
360
1AE
102
}
330
2A
100
AcDbVisualStyle
  2
Gouraud
 70
     2
 71
     2
 72
     2
 73
     1
 90
        2
 40
0.6
 41
30.0
 62
     5
 63
     7
421
 16777215
 74
     0
 91
        0
 64
     7
 65
   257
 75
     1
175
     1
 42
1.0
 92
        0
 66
     7
 43
1.0
 76
     1
 77
     6
 78
     2
 67
     7
 79
     5
170
     0
171
     0
290
     0
174
     0
 93
       13
 44
0.0
173
     0
291
     1
 45
0.0
  0
VISUALSTYLE
  5
2E
102
{ACAD_REACTORS
330
2A
102
}
102
{ACAD_XDICTIONARY
360
1B0
102
}
330
2A
100
AcDbVisualStyle
  2
GouraudWithEdges
 70
     3
 71
     2
 72
     2
 73
     1
 90
        2
 40
0.6
 41
30.0
 62
     5
 63
     7
421
 16777215
 74
     1
 91
        0
 64
     7
 65
   257
 75
     1
175
     1
 42
1.0
 92
        0
 66
   257
 43
1.0
 76
     1
 77
     6
 78
     2
 67
     7
 79
     5
170
     0
171
     0
290
     0
174
     0
 93
       13
 44
0.0
173
     0
291
     1
 45
0.0
  0
VISUALSTYLE
  5
31
102
{ACAD_REACTORS
330
2A
102
}
102
{ACAD_XDICTIONARY
360
1B6
102
}
330
2A
100
AcDbVisualStyle
  2
Hidden
 70
     6
 71
     1
 72
     2
 73
     2
 90
        0
 40
0.6
 41
30.0
 62
     5
 63
     7
421
 16777215
 74
     2
 91
        2
 64
     7
 65
   257
 75
     2
175
     1
 42
40.0
 92
        0
 66
   257
 43
1.0
 76
     1
 77
     6
 78
     2
 67
     7
 79
     3
170
     0
171
     0
290
     0
174
     0
 93
        1
 44
0.0
173
     0
291
     0
 45
0.0
  0
VISUALSTYLE
  5
3B
102
{ACAD_REACTORS
330
2A
102
}
102
{ACAD_XDICTIONARY
360
1CA
102
}
330
2A
100
AcDbVisualStyle
  2
JitterOff
 70
    20
 71
     2
 72
     2
 73
     0
 90
        0
 40
0.6
 41
30.0
 62
     5
 63
     7
421
 16777215
 74
     1
 91
        4
 64
     7
 65
   257
 75
     1
175
     1
 42
1.0
 92
       10
 66
     7
 43
1.0
 76
     1
 77
     6
 78
     2
 67
     7
 79
     5
170
     0
171
     0
290
     0
174
     0
 93
        1
 44
0.0
173
     0
291
     1
 45
0.0
  0
VISUALSTYLE
  5
38
102
{ACAD_REACTORS
330
2A
102
}
102
{ACAD_XDICTIONARY
360
1C4
102
}
330
2A
100
AcDbVisualStyle
  2
Linepattern
 70
    14
 71
     2
 72
     2
 73
     0
 90
        0
 40
0.6
 41
30.0
 62
     5
 63
     7
421
 16777215
 74
     1
 91
        4
 64
     7
 65
   257
 75
     7
175
     7
 42
1.0
 92
        8
 66
     7
 43
1.0
 76
     1
 77
     6
 78
     2
 67
     7
 79
     5
170
     0
171
     0
290
     0
174
     0
 93
        1
 44
0.0
173
     0
291
     1
 45
0.0
  0
VISUALSTYLE
  5
3C
102
{ACAD_REACTORS
330
2A
102
}
102
{ACAD_XDICTIONARY
360
1CC
102
}
330
2A
100
AcDbVisualStyle
  2
OverhangOff
 70
    21
 71
     2
 72
     2
 73
     0
 90
        0
 40
0.6
 41
30.0
 62
     5
 63
     7
421
 16777215
 74
     1
 91
        4
 64
     7
 65
   257
 75
     1
175
     1
 42
1.0
 92
        9
 66
     7
 43
1.0
 76
     1
 77
     6
 78
     2
 67
     7
 79
     5
170
     0
171
     0
290
     0
174
     0
 93
        1
 44
0.0
173
     0
291
     1
 45
0.0
  0
VISUALSTYLE
  5
33
102
{ACAD_REACTORS
330
2A
102
}
102
{ACAD_XDICTIONARY
360
1BA
102
}
330
2A
100
AcDbVisualStyle
  2
Realistic
 70
     8
 71
     2
 72
     3
 73
     0
 90
        2
 40
0.6
 41
30.0
 62
     5
 63
     7
421
 16777215
 74
     0
 91
        0
 64
     7
 65
   257
 75
     1
175
     1
 42
1.0
 92
        8
 66
   257
 43
1.0
 76
     1
 77
     6
 78
     2
 67
     7
 79
     3
170
     0
171
     0
290
     0
174
     0
 93
       13
 44
0.0
173
     0
291
     0
 45
0.0
  0
VISUALSTYLE
  5
42
102
{ACAD_REACTORS
330
2A
102
}
102
{ACAD_XDICTIONARY
360
1D8
102
}
330
2A
100
AcDbVisualStyle
  2
Shaded
 70
    27
 71
     2
 72
     2
 73
     1
 90
        2
 40
0.6
 41
30.0
 62
     5
 63
     7
421
 16777215
 74
     0
 91
        4
 64
     7
 65
   257
 75
     1
175
     1
 42
1.0
 92
        8
 66
   257
 43
1.0
 76
     1
 77
     6
 78
     2
 67
     8
425
  7895160
 79
     3
170
     0
171
     0
290
     0
174
     0
 93
        5
 44
0.0
173
     0
291
     0
 45
0.0
  0
VISUALSTYLE
  5
41
102
{ACAD_REACTORS
330
2A
102
}
102
{ACAD_XDICTIONARY
360
1D6
102
}
330
2A
100
AcDbVisualStyle
  2
Shaded with edges
 70
    26
 71
     2
 72
     2
 73
     1
 90
        2
 40
0.6
 41
30.0
 62
     5
 63
     7
421
 16777215
 74
     1
 91
       10
 64
     7
 65
   257
 75
     2
175
     1
 42
1.0
 92
        8
 66
   257
 43
1.0
 76
     1
 77
     6
 78
     2
 67
     7
 79
     3
170
     0
171
     0
290
     0
174
     0
 93
        5
 44
0.0
173
     0
291
     0
 45
0.0
  0
VISUALSTYLE
  5
3E
102
{ACAD_REACTORS
330
2A
102
}
102
{ACAD_XDICTIONARY
360
1D0
102
}
330
2A
100
AcDbVisualStyle
  2
Shades of Gray
 70
    23
 71
     2
 72
     2
 73
     3
 90
        0
 40
0.6
 41
30.0
 62
     5
 63
     7
421
 16777215
 74
     2
 91
        2
 64
     7
 65
     7
 75
     1
175
     1
 42
40.0
 92
        8
 66
     7
 43
1.0
 76
     1
 77
     6
 78
     2
 67
     7
 79
     3
170
     0
171
     0
290
     0
174
     0
 93
        1
 44
0.0
173
     0
291
     0
 45
0.0
  0
VISUALSTYLE
  5
3F
102
{ACAD_REACTORS
330
2A
102
}
102
{ACAD_XDICTIONARY
360
1D2
102
}
330
2A
100
AcDbVisualStyle
  2
Sketchy
 70
    24
 71
     1
 72
     2
 73
     2
 90
        0
 40
0.6
 41
30.0
 62
     5
 63
     7
421
 16777215
 74
     2
 91
        2
 64
     7
 65
     7
 75
     1
175
     1
 42
40.0
 92
       11
 66
     7
 43
1.0
 76
     1
 77
     6
 78
     2
 67
     7
 79
     6
170
     0
171
     0
290
     0
174
     0
 93
        1
 44
0.0
173
     0
291
     0
 45
0.0
  0
VISUALSTYLE
  5
37
102
{ACAD_REACTORS
330
2A
102
}
102
{ACAD_XDICTIONARY
360
1C2
102
}
330
2A
100
AcDbVisualStyle
  2
Thicken
 70
    13
 71
     2
 72
     2
 73
     0
 90
        0
 40
0.6
 41
30.0
 62
     5
 63
     7
421
 16777215
 74
     1
 91
        4
 64
     7
 65
   257
 75
     1
175
     1
 42
1.0
 92
       12
 66
     7
 43
1.0
 76
     1
 77
     6
 78
     2
 67
     7
 79
     5
170
     0
171
     0
290
     0
174
     0
 93
        1
 44
0.0
173
     0
291
     1
 45
0.0
  0
VISUALSTYLE
  5
30
102
{ACAD_REACTORS
330
2A
102
}
102
{ACAD_XDICTIONARY
360
1B4
102
}
330
2A
100
AcDbVisualStyle
  2
Wireframe
 70
     5
 71
     0
 72
     2
 73
     0
 90
        0
 40
0.6
 41
30.0
 62
     5
 63
     7
421
 16777215
 74
     1
 91
        4
 64
     7
 65
   257
 75
     1
175
     1
 42
1.0
 92
        0
 66
   257
 43
1.0
 76
     1
 77
     6
 78
     2
 67
     7
 79
     3
170
     0
171
     0
290
     0
174
     0
 93
        1
 44
0.0
173
     0
291
     0
 45
0.0
  0
VISUALSTYLE
  5
40
102
{ACAD_REACTORS
330
2A
102
}
102
{ACAD_XDICTIONARY
360
1D4
102
}
330
2A
100
AcDbVisualStyle
  2
X-Ray
 70
    25
 71
     2
 72
     2
 73
     1
 90
        1
 40
0.5
 41
30.0
 62
     5
 63
     7
421
 16777215
 74
     1
 91
        0
 64
     7
 65
   257
 75
     1
175
     1
 42
1.0
 92
        8
 66
     7
 43
1.0
 76
     1
 77
     6
 78
     2
 67
     7
 79
     3
170
     0
171
     0
290
     0
174
     0
 93
       13
 44
0.0
173
     0
291
     0
 45
0.0
  0
DICTIONARYVAR
  5
1A8
102
{ACAD_REACTORS
330
1A7
102
}
330
1A7
100
DictionaryVariables
280
     0
  1
1:1
  0
DICTIONARYVAR
  5
1E1
102
{ACAD_REACTORS
330
1A7
102
}
330
1A7
100
DictionaryVariables
280
     0
  1
Standard
  0
DICTIONARYVAR
  5
1E0
102
{ACAD_REACTORS
330
1A7
102
}
330
1A7
100
DictionaryVariables
280
     0
  1
Standard
  0
DICTIONARYVAR
  5
1A9
102
{ACAD_REACTORS
330
1A7
102
}
330
1A7
100
DictionaryVariables
280
     0
  1
2
  0
DICTIONARY
  5
1DD
330
5C
100
AcDbDictionary
280
     1
281
     1
  3
ACAD_XREC_ROUNDTRIP
360
1DE
  0
DICTIONARY
  5
1DA
330
5A
100
AcDbDictionary
280
     1
281
     1
  3
ACAD_ROUNDTRIP_2008_TABLESTYLE_CELLSTYLEMAP
360
1DB
  0
DICTIONARY
  5
1B2
330
2F
100
AcDbDictionary
280
     1
281
     1
  3
ACAD_XREC_ROUNDTRIP
360
1B3
  0
DICTIONARY
  5
1B8
330
32
100
AcDbDictionary
280
     1
281
     1
  3
ACAD_XREC_ROUNDTRIP
360
1B9
  0
DICTIONARY
  5
1C0
330
36
100
AcDbDictionary
280
     1
281
     1
  3
ACAD_XREC_ROUNDTRIP
360
1C1
  0
DICTIONARY
  5
1C8
330
3A
100
AcDbDictionary
280
     1
281
     1
  3
ACAD_XREC_ROUNDTRIP
360
1C9
  0
DICTIONARY
  5
1BC
330
34
100
AcDbDictionary
280
     1
281
     1
  3
ACAD_XREC_ROUNDTRIP
360
1BD
  0
DICTIONARY
  5
1BE
330
35
100
AcDbDictionary
280
     1
281
     1
  3
ACAD_XREC_ROUNDTRIP
360
1BF
  0
DICTIONARY
  5
1CE
330
3D
100
AcDbDictionary
280
     1
281
     1
  3
ACAD_XREC_ROUNDTRIP
360
1CF
  0
DICTIONARY
  5
1C6
330
39
100
AcDbDictionary
280
     1
281
     1
  3
ACAD_XREC_ROUNDTRIP
360
1C7
  0
DICTIONARY
  5
1AA
330
2B
100
AcDbDictionary
280
     1
281
     1
  3
ACAD_XREC_ROUNDTRIP
360
1AB
  0
DICTIONARY
  5
1AC
330
2C
100
AcDbDictionary
280
     1
281
     1
  3
ACAD_XREC_ROUNDTRIP
360
1AD
  0
DICTIONARY
  5
1AE
330
2D
100
AcDbDictionary
280
     1
281
     1
  3
ACAD_XREC_ROUNDTRIP
360
1AF
  0
DICTIONARY
  5
1B0
330
2E
100
AcDbDictionary
280
     1
281
     1
  3
ACAD_XREC_ROUNDTRIP
360
1B1
  0
DICTIONARY
  5
1B6
330
31
100
AcDbDictionary
280
     1
281
     1
  3
ACAD_XREC_ROUNDTRIP
360
1B7
  0
DICTIONARY
  5
1CA
330
3B
100
AcDbDictionary
280
     1
281
     1
  3
ACAD_XREC_ROUNDTRIP
360
1CB
  0
DICTIONARY
  5
1C4
330
38
100
AcDbDictionary
280
     1
281
     1
  3
ACAD_XREC_ROUNDTRIP
360
1C5
  0
DICTIONARY
  5
1CC
330
3C
100
AcDbDictionary
280
     1
281
     1
  3
ACAD_XREC_ROUNDTRIP
360
1CD
  0
DICTIONARY
  5
1BA
330
33
100
AcDbDictionary
280
     1
281
     1
  3
ACAD_XREC_ROUNDTRIP
360
1BB
  0
DICTIONARY
  5
1D8
330
42
100
AcDbDictionary
280
     1
281
     1
  3
ACAD_XREC_ROUNDTRIP
360
1D9
  0
DICTIONARY
  5
1D6
330
41
100
AcDbDictionary
280
     1
281
     1
  3
ACAD_XREC_ROUNDTRIP
360
1D7
  0
DICTIONARY
  5
1D0
330
3E
100
AcDbDictionary
280
     1
281
     1
  3
ACAD_XREC_ROUNDTRIP
360
1D1
  0
DICTIONARY
  5
1D2
330
3F
100
AcDbDictionary
280
     1
281
     1
  3
ACAD_XREC_ROUNDTRIP
360
1D3
  0
DICTIONARY
  5
1C2
330
37
100
AcDbDictionary
280
     1
281
     1
  3
ACAD_XREC_ROUNDTRIP
360
1C3
  0
DICTIONARY
  5
1B4
330
30
100
AcDbDictionary
280
     1
281
     1
  3
ACAD_XREC_ROUNDTRIP
360
1B5
  0
DICTIONARY
  5
1D4
330
40
100
AcDbDictionary
280
     1
281
     1
  3
ACAD_XREC_ROUNDTRIP
360
1D5
  0
XRECORD
  5
1DE
102
{ACAD_REACTORS
330
1DD
102
}
330
1DD
100
AcDbXrecord
280
     1
102
ACAD_ROUNDTRIP_2010_MLEADER_STYLE
  0
CELLSTYLEMAP
  5
1DB
102
{ACAD_REACTORS
330
1DA
102
}
330
1DA
100
AcDbCellStyleMap
 90
        3
300
CELLSTYLE
  1
TABLEFORMAT_BEGIN
 90
        5
170
     1
 91
        0
 92
    32768
 62
   257
 93
        1
300
CONTENTFORMAT
  1
CONTENTFORMAT_BEGIN
 90
        0
 91
        0
 92
        4
 93
        0
300

 40
0.0
140
1.0
 94
        5
 62
     0
340
11
144
0.25
309
CONTENTFORMAT_END
171
     1
301
MARGIN
  1
CELLMARGIN_BEGIN
 40
0.06
 40
0.06
 40
0.06
 40
0.06
 40
0.06
 40
0.06
309
CELLMARGIN_END
 94
        6
 95
        1
302
GRIDFORMAT
  1
GRIDFORMAT_BEGIN
 90
        0
 91
        1
 62
     0
 92
       -2
340
14
 93
        0
 40
0.045
309
GRIDFORMAT_END
 95
        2
302
GRIDFORMAT
  1
GRIDFORMAT_BEGIN
 90
        0
 91
        1
 62
     0
 92
       -2
340
14
 93
        0
 40
0.045
309
GRIDFORMAT_END
 95
        4
302
GRIDFORMAT
  1
GRIDFORMAT_BEGIN
 90
        0
 91
        1
 62
     0
 92
       -2
340
14
 93
        0
 40
0.045
309
GRIDFORMAT_END
 95
        8
302
GRIDFORMAT
  1
GRIDFORMAT_BEGIN
 90
        0
 91
        1
 62
     0
 92
       -2
340
14
 93
        0
 40
0.045
309
GRIDFORMAT_END
 95
       16
302
GRIDFORMAT
  1
GRIDFORMAT_BEGIN
 90
        0
 91
        1
 62
     0
 92
       -2
340
14
 93
        0
 40
0.045
309
GRIDFORMAT_END
 95
       32
302
GRIDFORMAT
  1
GRIDFORMAT_BEGIN
 90
        0
 91
        1
 62
     0
 92
       -2
340
14
 93
        0
 40
0.045
309
GRIDFORMAT_END
309
TABLEFORMAT_END
  1
CELLSTYLE_BEGIN
 90
        1
 91
        1
300
_TITLE
309
CELLSTYLE_END
300
CELLSTYLE
  1
TABLEFORMAT_BEGIN
 90
        5
170
     1
 91
        0
 92
        0
 62
   257
 93
        1
300
CONTENTFORMAT
  1
CONTENTFORMAT_BEGIN
 90
        0
 91
        0
 92
        4
 93
        0
300

 40
0.0
140
1.0
 94
        5
 62
     0
340
11
144
0.18
309
CONTENTFORMAT_END
171
     1
301
MARGIN
  1
CELLMARGIN_BEGIN
 40
0.06
 40
0.06
 40
0.06
 40
0.06
 40
0.06
 40
0.06
309
CELLMARGIN_END
 94
        6
 95
        1
302
GRIDFORMAT
  1
GRIDFORMAT_BEGIN
 90
        0
 91
        1
 62
     0
 92
       -2
340
14
 93
        0
 40
0.045
309
GRIDFORMAT_END
 95
        2
302
GRIDFORMAT
  1
GRIDFORMAT_BEGIN
 90
        0
 91
        1
 62
     0
 92
       -2
340
14
 93
        0
 40
0.045
309
GRIDFORMAT_END
 95
        4
302
GRIDFORMAT
  1
GRIDFORMAT_BEGIN
 90
        0
 91
        1
 62
     0
 92
       -2
340
14
 93
        0
 40
0.045
309
GRIDFORMAT_END
 95
        8
302
GRIDFORMAT
  1
GRIDFORMAT_BEGIN
 90
        0
 91
        1
 62
     0
 92
       -2
340
14
 93
        0
 40
0.045
309
GRIDFORMAT_END
 95
       16
302
GRIDFORMAT
  1
GRIDFORMAT_BEGIN
 90
        0
 91
        1
 62
     0
 92
       -2
340
14
 93
        0
 40
0.045
309
GRIDFORMAT_END
 95
       32
302
GRIDFORMAT
  1
GRIDFORMAT_BEGIN
 90
        0
 91
        1
 62
     0
 92
       -2
340
14
 93
        0
 40
0.045
309
GRIDFORMAT_END
309
TABLEFORMAT_END
  1
CELLSTYLE_BEGIN
 90
        2
 91
        1
300
_HEADER
309
CELLSTYLE_END
300
CELLSTYLE
  1
TABLEFORMAT_BEGIN
 90
        5
170
     1
 91
        0
 92
        0
 62
   257
 93
        1
300
CONTENTFORMAT
  1
CONTENTFORMAT_BEGIN
 90
        0
 91
        0
 92
        4
 93
        0
300

 40
0.0
140
1.0
 94
        2
 62
     0
340
11
144
0.18
309
CONTENTFORMAT_END
171
     1
301
MARGIN
  1
CELLMARGIN_BEGIN
 40
0.06
 40
0.06
 40
0.06
 40
0.06
 40
0.06
 40
0.06
309
CELLMARGIN_END
 94
        6
 95
        1
302
GRIDFORMAT
  1
GRIDFORMAT_BEGIN
 90
        0
 91
        1
 62
     0
 92
       -2
340
14
 93
        0
 40
0.045
309
GRIDFORMAT_END
 95
        2
302
GRIDFORMAT
  1
GRIDFORMAT_BEGIN
 90
        0
 91
        1
 62
     0
 92
       -2
340
14
 93
        0
 40
0.045
309
GRIDFORMAT_END
 95
        4
302
GRIDFORMAT
  1
GRIDFORMAT_BEGIN
 90
        0
 91
        1
 62
     0
 92
       -2
340
14
 93
        0
 40
0.045
309
GRIDFORMAT_END
 95
        8
302
GRIDFORMAT
  1
GRIDFORMAT_BEGIN
 90
        0
 91
        1
 62
     0
 92
       -2
340
14
 93
        0
 40
0.045
309
GRIDFORMAT_END
 95
       16
302
GRIDFORMAT
  1
GRIDFORMAT_BEGIN
 90
        0
 91
        1
 62
     0
 92
       -2
340
14
 93
        0
 40
0.045
309
GRIDFORMAT_END
 95
       32
302
GRIDFORMAT
  1
GRIDFORMAT_BEGIN
 90
        0
 91
        1
 62
     0
 92
       -2
340
14
 93
        0
 40
0.045
309
GRIDFORMAT_END
309
TABLEFORMAT_END
  1
CELLSTYLE_BEGIN
 90
        3
 91
        2
300
_DATA
309
CELLSTYLE_END
  0
XRECORD
  5
1B3
102
{ACAD_REACTORS
330
1B2
102
}
330
1B2
100
AcDbXrecord
280
     1
102
RTVSPropertyOp0
 70
     1
102
RTVSPropertyOp1
 70
     1
102
RTVSPropertyOp2
 70
     1
102
RTVSPropertyOp3
 70
     1
102
RTVSPropertyOp4
 70
     1
102
RTVSPropertyOp5
 70
     1
102
RTVSPropertyOp6
 70
     1
102
RTVSPropertyOp7
 70
     1
102
RTVSPropertyOp8
 70
     1
102
RTVSPropertyOp9
 70
     1
102
RTVSPropertyOp10
 70
     1
102
RTVSPropertyOp11
 70
     1
102
RTVSPropertyOp12
 70
     1
102
RTVSPropertyOp13
 70
     1
102
RTVSPropertyOp14
 70
     1
102
RTVSPropertyOp15
 70
     1
102
RTVSPropertyOp16
 70
     1
102
RTVSPropertyOp17
 70
     1
102
RTVSPropertyOp18
 70
     1
102
RTVSPropertyOp19
 70
     1
102
RTVSPropertyOp20
 70
     1
102
RTVSPropertyOp21
 70
     1
102
RTVSPropertyOp22
 70
     1
102
RTVSPropertyOp23
 70
     1
102
RTVSPropertyOp24
 70
     1
102
RTVSPropertyOp25
 70
     1
102
RTVSPropertyOp26
 70
     1
102
RTVSPropertyOp27
 70
     1
102
RTVSPropertyOp28
 70
     1
102
RTVSPropertyOp29
 70
     1
102
RTVSPropertyOp30
 70
     1
102
RTVSPropertyOp31
 70
     1
102
RTVSPropertyOp32
 70
     1
102
RTVSPropertyOp33
 70
     1
102
RTVSPropertyOp34
 70
     1
102
RTVSPropertyOp35
 70
     1
102
RTVSPropertyOp36
 70
     1
102
RTVSPropertyOp37
 70
     1
102
RTVSPropertyOp38
 70
     1
102
RTVSPropertyOp39
 70
     1
102
RTVSPropertyOp40
 70
     1
102
RTVSPropertyOp41
 70
     1
102
RTVSPropertyOp42
 70
     1
102
RTVSPropertyOp43
 70
     1
102
RTVSPropertyOp44
 70
     1
102
RTVSPropertyOp45
 70
     1
102
RTVSPropertyOp46
 70
     1
102
RTVSPropertyOp47
 70
     1
102
RTVSPropertyOp48
 70
     1
102
RTVSPropertyOp49
 70
     1
102
RTVSPropertyOp50
 70
     1
102
RTVSPropertyOp51
 70
     0
102
RTVSPropertyOp52
 70
     0
102
RTVSPropertyOp53
 70
     1
102
RTVSPropertyOp54
 70
     1
102
RTVSPropertyOp55
 70
     1
102
RTVSPropertyOp56
 70
     1
102
RTVSPropertyOp57
 70
     1
102
RTVSPost2010Prop28
280
     1
102
RTVSPost2010PropOp28
 70
     1
102
RTVSPost2010Prop29
280
     1
102
RTVSPost2010PropOp29
 70
     1
102
RTVSPost2010Prop30
280
     0
102
RTVSPost2010PropOp30
 70
     1
102
RTVSPost2010Prop31
280
     0
102
RTVSPost2010PropOp31
 70
     1
102
RTVSPost2010Prop32
280
     0
102
RTVSPost2010PropOp32
 70
     1
102
RTVSPost2010Prop33
280
     0
102
RTVSPost2010PropOp33
 70
     1
102
RTVSPost2010Prop34
280
     0
102
RTVSPost2010PropOp34
 70
     1
102
RTVSPost2010Prop35
280
     0
102
RTVSPost2010PropOp35
 70
     1
102
RTVSPost2010Prop36
280
     0
102
RTVSPost2010PropOp36
 70
     1
102
RTVSPost2010Prop37
 90
       50
102
RTVSPost2010PropOp37
 70
     1
102
RTVSPost2010Prop38
140
0.0
102
RTVSPost2010PropOp38
 70
     1
102
RTVSPost2010Prop39
140
1.0
102
RTVSPost2010PropOp39
 70
     1
102
RTVSPost2010Prop40
 90
        0
102
RTVSPost2010PropOp40
 70
     1
102
RTVSPost2010Prop41ColorIndex
 90
       18
102
RTVSPost2010Prop41ColorRGB
 90
        0
102
RTVSPost2010PropOp41
 70
     1
102
RTVSPost2010Prop42
 90
       50
102
RTVSPost2010PropOp42
 70
     1
102
RTVSPost2010Prop43
 90
        3
102
RTVSPost2010PropOp43
 70
     1
102
RTVSPost2010Prop44ColorIndex
 90
        5
102
RTVSPost2010Prop44ColorRGB
 90
      255
102
RTVSPost2010PropOp44
 70
     1
102
RTVSPost2010Prop45
280
     0
102
RTVSPost2010PropOp45
 70
     1
102
RTVSPost2010Prop46
 90
       50
102
RTVSPost2010PropOp46
 70
     1
102
RTVSPost2010Prop47
 90
       50
102
RTVSPost2010PropOp47
 70
     1
102
RTVSPost2010Prop48
 90
       50
102
RTVSPost2010PropOp48
 70
     1
102
RTVSPost2010Prop49
280
     0
102
RTVSPost2010PropOp49
 70
     1
102
RTVSPost2010Prop50
 90
       50
102
RTVSPost2010PropOp50
 70
     1
102
RTVSPost2010Prop51ColorIndex
 90
      256
102
RTVSPost2010Prop51ColorRGB
 90
-16777216
102
RTVSPost2010PropOp51
 70
     0
102
RTVSPost2010Prop52
140
1.0
102
RTVSPost2010PropOp52
 70
     0
102
RTVSPost2010Prop53
 90
        2
102
RTVSPost2010PropOp53
 70
     1
102
RTVSPost2010Prop54
  1
strokes_ogs.tif
102
RTVSPost2010PropOp54
 70
     1
102
RTVSPost2010Prop55
280
     0
102
RTVSPost2010PropOp55
 70
     1
102
RTVSPost2010Prop56
140
1.0
102
RTVSPost2010PropOp56
 70
     1
102
RTVSPost2010Prop57
140
1.0
102
RTVSPost2010PropOp57
 70
     1
  0
XRECORD
  5
1B9
102
{ACAD_REACTORS
330
1B8
102
}
330
1B8
100
AcDbXrecord
280
     1
102
RTVSPropertyOp0
 70
     1
102
RTVSPropertyOp1
 70
     1
102
RTVSPropertyOp2
 70
     1
102
RTVSPropertyOp3
 70
     1
102
RTVSPropertyOp4
 70
     1
102
RTVSPropertyOp5
 70
     1
102
RTVSPropertyOp6
 70
     1
102
RTVSPropertyOp7
 70
     1
102
RTVSPropertyOp8
 70
     1
102
RTVSPropertyOp9
 70
     1
102
RTVSPropertyOp10
 70
     1
102
RTVSPropertyOp11
 70
     1
102
RTVSPropertyOp12
 70
     1
102
RTVSPropertyOp13
 70
     1
102
RTVSPropertyOp14
 70
     1
102
RTVSPropertyOp15
 70
     1
102
RTVSPropertyOp16
 70
     1
102
RTVSPropertyOp17
 70
     1
102
RTVSPropertyOp18
 70
     1
102
RTVSPropertyOp19
 70
     1
102
RTVSPropertyOp20
 70
     1
102
RTVSPropertyOp21
 70
     1
102
RTVSPropertyOp22
 70
     1
102
RTVSPropertyOp23
 70
     1
102
RTVSPropertyOp24
 70
     1
102
RTVSPropertyOp25
 70
     1
102
RTVSPropertyOp26
 70
     1
102
RTVSPropertyOp27
 70
     1
102
RTVSPropertyOp28
 70
     1
102
RTVSPropertyOp29
 70
     1
102
RTVSPropertyOp30
 70
     1
102
RTVSPropertyOp31
 70
     1
102
RTVSPropertyOp32
 70
     1
102
RTVSPropertyOp33
 70
     1
102
RTVSPropertyOp34
 70
     1
102
RTVSPropertyOp35
 70
     1
102
RTVSPropertyOp36
 70
     1
102
RTVSPropertyOp37
 70
     1
102
RTVSPropertyOp38
 70
     1
102
RTVSPropertyOp39
 70
     1
102
RTVSPropertyOp40
 70
     1
102
RTVSPropertyOp41
 70
     1
102
RTVSPropertyOp42
 70
     1
102
RTVSPropertyOp43
 70
     1
102
RTVSPropertyOp44
 70
     1
102
RTVSPropertyOp45
 70
     1
102
RTVSPropertyOp46
 70
     1
102
RTVSPropertyOp47
 70
     1
102
RTVSPropertyOp48
 70
     1
102
RTVSPropertyOp49
 70
     1
102
RTVSPropertyOp50
 70
     1
102
RTVSPropertyOp51
 70
     0
102
RTVSPropertyOp52
 70
     0
102
RTVSPropertyOp53
 70
     1
102
RTVSPropertyOp54
 70
     1
102
RTVSPropertyOp55
 70
     1
102
RTVSPropertyOp56
 70
     1
102
RTVSPropertyOp57
 70
     1
102
RTVSPost2010Prop28
280
     0
102
RTVSPost2010PropOp28
 70
     1
102
RTVSPost2010Prop29
280
     1
102
RTVSPost2010PropOp29
 70
     1
102
RTVSPost2010Prop30
280
     1
102
RTVSPost2010PropOp30
 70
     1
102
RTVSPost2010Prop31
280
     0
102
RTVSPost2010PropOp31
 70
     1
102
RTVSPost2010Prop32
280
     0
102
RTVSPost2010PropOp32
 70
     1
102
RTVSPost2010Prop33
280
     0
102
RTVSPost2010PropOp33
 70
     1
102
RTVSPost2010Prop34
280
     0
102
RTVSPost2010PropOp34
 70
     1
102
RTVSPost2010Prop35
280
     0
102
RTVSPost2010PropOp35
 70
     1
102
RTVSPost2010Prop36
280
     0
102
RTVSPost2010PropOp36
 70
     1
102
RTVSPost2010Prop37
 90
       50
102
RTVSPost2010PropOp37
 70
     1
102
RTVSPost2010Prop38
140
0.0
102
RTVSPost2010PropOp38
 70
     1
102
RTVSPost2010Prop39
140
1.0
102
RTVSPost2010PropOp39
 70
     1
102
RTVSPost2010Prop40
 90
        0
102
RTVSPost2010PropOp40
 70
     1
102
RTVSPost2010Prop41ColorIndex
 90
       18
102
RTVSPost2010Prop41ColorRGB
 90
        0
102
RTVSPost2010PropOp41
 70
     1
102
RTVSPost2010Prop42
 90
       50
102
RTVSPost2010PropOp42
 70
     1
102
RTVSPost2010Prop43
 90
        3
102
RTVSPost2010PropOp43
 70
     1
102
RTVSPost2010Prop44ColorIndex
 90
        5
102
RTVSPost2010Prop44ColorRGB
 90
      255
102
RTVSPost2010PropOp44
 70
     1
102
RTVSPost2010Prop45
280
     0
102
RTVSPost2010PropOp45
 70
     1
102
RTVSPost2010Prop46
 90
       50
102
RTVSPost2010PropOp46
 70
     1
102
RTVSPost2010Prop47
 90
       50
102
RTVSPost2010PropOp47
 70
     1
102
RTVSPost2010Prop48
 90
       50
102
RTVSPost2010PropOp48
 70
     1
102
RTVSPost2010Prop49
280
     0
102
RTVSPost2010PropOp49
 70
     1
102
RTVSPost2010Prop50
 90
       50
102
RTVSPost2010PropOp50
 70
     1
102
RTVSPost2010Prop51ColorIndex
 90
      256
102
RTVSPost2010Prop51ColorRGB
 90
-16777216
102
RTVSPost2010PropOp51
 70
     0
102
RTVSPost2010Prop52
140
1.0
102
RTVSPost2010PropOp52
 70
     0
102
RTVSPost2010Prop53
 90
        2
102
RTVSPost2010PropOp53
 70
     1
102
RTVSPost2010Prop54
  1
strokes_ogs.tif
102
RTVSPost2010PropOp54
 70
     1
102
RTVSPost2010Prop55
280
     0
102
RTVSPost2010PropOp55
 70
     1
102
RTVSPost2010Prop56
140
1.0
102
RTVSPost2010PropOp56
 70
     1
102
RTVSPost2010Prop57
140
1.0
102
RTVSPost2010PropOp57
 70
     1
  0
XRECORD
  5
1C1
102
{ACAD_REACTORS
330
1C0
102
}
330
1C0
100
AcDbXrecord
280
     1
102
RTVSPropertyOp0
 70
     1
102
RTVSPropertyOp1
 70
     1
102
RTVSPropertyOp2
 70
     1
102
RTVSPropertyOp3
 70
     1
102
RTVSPropertyOp4
 70
     1
102
RTVSPropertyOp5
 70
     1
102
RTVSPropertyOp6
 70
     1
102
RTVSPropertyOp7
 70
     1
102
RTVSPropertyOp8
 70
     1
102
RTVSPropertyOp9
 70
     1
102
RTVSPropertyOp10
 70
     1
102
RTVSPropertyOp11
 70
     1
102
RTVSPropertyOp12
 70
     1
102
RTVSPropertyOp13
 70
     1
102
RTVSPropertyOp14
 70
     1
102
RTVSPropertyOp15
 70
     1
102
RTVSPropertyOp16
 70
     1
102
RTVSPropertyOp17
 70
     1
102
RTVSPropertyOp18
 70
     1
102
RTVSPropertyOp19
 70
     1
102
RTVSPropertyOp20
 70
     1
102
RTVSPropertyOp21
 70
     1
102
RTVSPropertyOp22
 70
     1
102
RTVSPropertyOp23
 70
     1
102
RTVSPropertyOp24
 70
     1
102
RTVSPropertyOp25
 70
     1
102
RTVSPropertyOp26
 70
     1
102
RTVSPropertyOp27
 70
     1
102
RTVSPropertyOp28
 70
     1
102
RTVSPropertyOp29
 70
     1
102
RTVSPropertyOp30
 70
     1
102
RTVSPropertyOp31
 70
     1
102
RTVSPropertyOp32
 70
     1
102
RTVSPropertyOp33
 70
     1
102
RTVSPropertyOp34
 70
     1
102
RTVSPropertyOp35
 70
     1
102
RTVSPropertyOp36
 70
     1
102
RTVSPropertyOp37
 70
     1
102
RTVSPropertyOp38
 70
     1
102
RTVSPropertyOp39
 70
     1
102
RTVSPropertyOp40
 70
     1
102
RTVSPropertyOp41
 70
     1
102
RTVSPropertyOp42
 70
     1
102
RTVSPropertyOp43
 70
     1
102
RTVSPropertyOp44
 70
     1
102
RTVSPropertyOp45
 70
     1
102
RTVSPropertyOp46
 70
     1
102
RTVSPropertyOp47
 70
     1
102
RTVSPropertyOp48
 70
     1
102
RTVSPropertyOp49
 70
     1
102
RTVSPropertyOp50
 70
     1
102
RTVSPropertyOp51
 70
     0
102
RTVSPropertyOp52
 70
     0
102
RTVSPropertyOp53
 70
     1
102
RTVSPropertyOp54
 70
     1
102
RTVSPropertyOp55
 70
     1
102
RTVSPropertyOp56
 70
     1
102
RTVSPropertyOp57
 70
     1
102
RTVSPost2010Prop28
280
     0
102
RTVSPost2010PropOp28
 70
     1
102
RTVSPost2010Prop29
280
     1
102
RTVSPost2010PropOp29
 70
     1
102
RTVSPost2010Prop30
280
     1
102
RTVSPost2010PropOp30
 70
     1
102
RTVSPost2010Prop31
280
     0
102
RTVSPost2010PropOp31
 70
     1
102
RTVSPost2010Prop32
280
     0
102
RTVSPost2010PropOp32
 70
     1
102
RTVSPost2010Prop33
280
     0
102
RTVSPost2010PropOp33
 70
     1
102
RTVSPost2010Prop34
280
     0
102
RTVSPost2010PropOp34
 70
     1
102
RTVSPost2010Prop35
280
     0
102
RTVSPost2010PropOp35
 70
     1
102
RTVSPost2010Prop36
280
     0
102
RTVSPost2010PropOp36
 70
     1
102
RTVSPost2010Prop37
 90
       50
102
RTVSPost2010PropOp37
 70
     1
102
RTVSPost2010Prop38
140
0.0
102
RTVSPost2010PropOp38
 70
     1
102
RTVSPost2010Prop39
140
1.0
102
RTVSPost2010PropOp39
 70
     1
102
RTVSPost2010Prop40
 90
        0
102
RTVSPost2010PropOp40
 70
     1
102
RTVSPost2010Prop41ColorIndex
 90
       18
102
RTVSPost2010Prop41ColorRGB
 90
        0
102
RTVSPost2010PropOp41
 70
     1
102
RTVSPost2010Prop42
 90
       50
102
RTVSPost2010PropOp42
 70
     1
102
RTVSPost2010Prop43
 90
        3
102
RTVSPost2010PropOp43
 70
     1
102
RTVSPost2010Prop44ColorIndex
 90
        5
102
RTVSPost2010Prop44ColorRGB
 90
      255
102
RTVSPost2010PropOp44
 70
     1
102
RTVSPost2010Prop45
280
     0
102
RTVSPost2010PropOp45
 70
     1
102
RTVSPost2010Prop46
 90
       50
102
RTVSPost2010PropOp46
 70
     1
102
RTVSPost2010Prop47
 90
       50
102
RTVSPost2010PropOp47
 70
     1
102
RTVSPost2010Prop48
 90
       50
102
RTVSPost2010PropOp48
 70
     1
102
RTVSPost2010Prop49
280
     0
102
RTVSPost2010PropOp49
 70
     1
102
RTVSPost2010Prop50
 90
       50
102
RTVSPost2010PropOp50
 70
     1
102
RTVSPost2010Prop51ColorIndex
 90
      256
102
RTVSPost2010Prop51ColorRGB
 90
-16777216
102
RTVSPost2010PropOp51
 70
     0
102
RTVSPost2010Prop52
140
1.0
102
RTVSPost2010PropOp52
 70
     0
102
RTVSPost2010Prop53
 90
        2
102
RTVSPost2010PropOp53
 70
     1
102
RTVSPost2010Prop54
  1
strokes_ogs.tif
102
RTVSPost2010PropOp54
 70
     1
102
RTVSPost2010Prop55
280
     0
102
RTVSPost2010PropOp55
 70
     1
102
RTVSPost2010Prop56
140
1.0
102
RTVSPost2010PropOp56
 70
     1
102
RTVSPost2010Prop57
140
1.0
102
RTVSPost2010PropOp57
 70
     1
  0
XRECORD
  5
1C9
102
{ACAD_REACTORS
330
1C8
102
}
330
1C8
100
AcDbXrecord
280
     1
102
RTVSPropertyOp0
 70
     1
102
RTVSPropertyOp1
 70
     1
102
RTVSPropertyOp2
 70
     1
102
RTVSPropertyOp3
 70
     1
102
RTVSPropertyOp4
 70
     1
102
RTVSPropertyOp5
 70
     1
102
RTVSPropertyOp6
 70
     1
102
RTVSPropertyOp7
 70
     1
102
RTVSPropertyOp8
 70
     1
102
RTVSPropertyOp9
 70
     1
102
RTVSPropertyOp10
 70
     1
102
RTVSPropertyOp11
 70
     1
102
RTVSPropertyOp12
 70
     1
102
RTVSPropertyOp13
 70
     1
102
RTVSPropertyOp14
 70
     1
102
RTVSPropertyOp15
 70
     1
102
RTVSPropertyOp16
 70
     1
102
RTVSPropertyOp17
 70
     1
102
RTVSPropertyOp18
 70
     1
102
RTVSPropertyOp19
 70
     1
102
RTVSPropertyOp20
 70
     1
102
RTVSPropertyOp21
 70
     1
102
RTVSPropertyOp22
 70
     1
102
RTVSPropertyOp23
 70
     1
102
RTVSPropertyOp24
 70
     1
102
RTVSPropertyOp25
 70
     1
102
RTVSPropertyOp26
 70
     1
102
RTVSPropertyOp27
 70
     1
102
RTVSPropertyOp28
 70
     1
102
RTVSPropertyOp29
 70
     1
102
RTVSPropertyOp30
 70
     1
102
RTVSPropertyOp31
 70
     1
102
RTVSPropertyOp32
 70
     1
102
RTVSPropertyOp33
 70
     1
102
RTVSPropertyOp34
 70
     1
102
RTVSPropertyOp35
 70
     1
102
RTVSPropertyOp36
 70
     1
102
RTVSPropertyOp37
 70
     1
102
RTVSPropertyOp38
 70
     1
102
RTVSPropertyOp39
 70
     1
102
RTVSPropertyOp40
 70
     1
102
RTVSPropertyOp41
 70
     1
102
RTVSPropertyOp42
 70
     1
102
RTVSPropertyOp43
 70
     1
102
RTVSPropertyOp44
 70
     1
102
RTVSPropertyOp45
 70
     1
102
RTVSPropertyOp46
 70
     1
102
RTVSPropertyOp47
 70
     1
102
RTVSPropertyOp48
 70
     1
102
RTVSPropertyOp49
 70
     1
102
RTVSPropertyOp50
 70
     1
102
RTVSPropertyOp51
 70
     0
102
RTVSPropertyOp52
 70
     0
102
RTVSPropertyOp53
 70
     1
102
RTVSPropertyOp54
 70
     1
102
RTVSPropertyOp55
 70
     1
102
RTVSPropertyOp56
 70
     1
102
RTVSPropertyOp57
 70
     1
102
RTVSPost2010Prop28
280
     0
102
RTVSPost2010PropOp28
 70
     1
102
RTVSPost2010Prop29
280
     1
102
RTVSPost2010PropOp29
 70
     1
102
RTVSPost2010Prop30
280
     1
102
RTVSPost2010PropOp30
 70
     1
102
RTVSPost2010Prop31
280
     0
102
RTVSPost2010PropOp31
 70
     1
102
RTVSPost2010Prop32
280
     0
102
RTVSPost2010PropOp32
 70
     1
102
RTVSPost2010Prop33
280
     0
102
RTVSPost2010PropOp33
 70
     1
102
RTVSPost2010Prop34
280
     0
102
RTVSPost2010PropOp34
 70
     1
102
RTVSPost2010Prop35
280
     0
102
RTVSPost2010PropOp35
 70
     1
102
RTVSPost2010Prop36
280
     0
102
RTVSPost2010PropOp36
 70
     1
102
RTVSPost2010Prop37
 90
       50
102
RTVSPost2010PropOp37
 70
     1
102
RTVSPost2010Prop38
140
0.0
102
RTVSPost2010PropOp38
 70
     1
102
RTVSPost2010Prop39
140
1.0
102
RTVSPost2010PropOp39
 70
     1
102
RTVSPost2010Prop40
 90
        0
102
RTVSPost2010PropOp40
 70
     1
102
RTVSPost2010Prop41ColorIndex
 90
       18
102
RTVSPost2010Prop41ColorRGB
 90
        0
102
RTVSPost2010PropOp41
 70
     1
102
RTVSPost2010Prop42
 90
       50
102
RTVSPost2010PropOp42
 70
     1
102
RTVSPost2010Prop43
 90
        3
102
RTVSPost2010PropOp43
 70
     1
102
RTVSPost2010Prop44ColorIndex
 90
        5
102
RTVSPost2010Prop44ColorRGB
 90
      255
102
RTVSPost2010PropOp44
 70
     1
102
RTVSPost2010Prop45
280
     0
102
RTVSPost2010PropOp45
 70
     1
102
RTVSPost2010Prop46
 90
       50
102
RTVSPost2010PropOp46
 70
     1
102
RTVSPost2010Prop47
 90
       50
102
RTVSPost2010PropOp47
 70
     1
102
RTVSPost2010Prop48
 90
       50
102
RTVSPost2010PropOp48
 70
     1
102
RTVSPost2010Prop49
280
     0
102
RTVSPost2010PropOp49
 70
     1
102
RTVSPost2010Prop50
 90
       50
102
RTVSPost2010PropOp50
 70
     1
102
RTVSPost2010Prop51ColorIndex
 90
      256
102
RTVSPost2010Prop51ColorRGB
 90
-16777216
102
RTVSPost2010PropOp51
 70
     0
102
RTVSPost2010Prop52
140
1.0
102
RTVSPost2010PropOp52
 70
     0
102
RTVSPost2010Prop53
 90
        2
102
RTVSPost2010PropOp53
 70
     1
102
RTVSPost2010Prop54
  1
strokes_ogs.tif
102
RTVSPost2010PropOp54
 70
     1
102
RTVSPost2010Prop55
280
     0
102
RTVSPost2010PropOp55
 70
     1
102
RTVSPost2010Prop56
140
1.0
102
RTVSPost2010PropOp56
 70
     1
102
RTVSPost2010Prop57
140
1.0
102
RTVSPost2010PropOp57
 70
     1
  0
XRECORD
  5
1BD
102
{ACAD_REACTORS
330
1BC
102
}
330
1BC
100
AcDbXrecord
280
     1
102
RTVSPropertyOp0
 70
     1
102
RTVSPropertyOp1
 70
     1
102
RTVSPropertyOp2
 70
     1
102
RTVSPropertyOp3
 70
     1
102
RTVSPropertyOp4
 70
     1
102
RTVSPropertyOp5
 70
     1
102
RTVSPropertyOp6
 70
     1
102
RTVSPropertyOp7
 70
     1
102
RTVSPropertyOp8
 70
     1
102
RTVSPropertyOp9
 70
     1
102
RTVSPropertyOp10
 70
     1
102
RTVSPropertyOp11
 70
     1
102
RTVSPropertyOp12
 70
     1
102
RTVSPropertyOp13
 70
     1
102
RTVSPropertyOp14
 70
     1
102
RTVSPropertyOp15
 70
     1
102
RTVSPropertyOp16
 70
     1
102
RTVSPropertyOp17
 70
     1
102
RTVSPropertyOp18
 70
     1
102
RTVSPropertyOp19
 70
     1
102
RTVSPropertyOp20
 70
     1
102
RTVSPropertyOp21
 70
     1
102
RTVSPropertyOp22
 70
     1
102
RTVSPropertyOp23
 70
     1
102
RTVSPropertyOp24
 70
     1
102
RTVSPropertyOp25
 70
     1
102
RTVSPropertyOp26
 70
     1
102
RTVSPropertyOp27
 70
     1
102
RTVSPropertyOp28
 70
     1
102
RTVSPropertyOp29
 70
     1
102
RTVSPropertyOp30
 70
     1
102
RTVSPropertyOp31
 70
     1
102
RTVSPropertyOp32
 70
     1
102
RTVSPropertyOp33
 70
     1
102
RTVSPropertyOp34
 70
     1
102
RTVSPropertyOp35
 70
     1
102
RTVSPropertyOp36
 70
     1
102
RTVSPropertyOp37
 70
     1
102
RTVSPropertyOp38
 70
     1
102
RTVSPropertyOp39
 70
     1
102
RTVSPropertyOp40
 70
     1
102
RTVSPropertyOp41
 70
     1
102
RTVSPropertyOp42
 70
     1
102
RTVSPropertyOp43
 70
     1
102
RTVSPropertyOp44
 70
     1
102
RTVSPropertyOp45
 70
     1
102
RTVSPropertyOp46
 70
     1
102
RTVSPropertyOp47
 70
     1
102
RTVSPropertyOp48
 70
     1
102
RTVSPropertyOp49
 70
     1
102
RTVSPropertyOp50
 70
     1
102
RTVSPropertyOp51
 70
     0
102
RTVSPropertyOp52
 70
     0
102
RTVSPropertyOp53
 70
     1
102
RTVSPropertyOp54
 70
     1
102
RTVSPropertyOp55
 70
     1
102
RTVSPropertyOp56
 70
     1
102
RTVSPropertyOp57
 70
     1
102
RTVSPost2010Prop28
280
     0
102
RTVSPost2010PropOp28
 70
     1
102
RTVSPost2010Prop29
280
     1
102
RTVSPost2010PropOp29
 70
     1
102
RTVSPost2010Prop30
280
     1
102
RTVSPost2010PropOp30
 70
     1
102
RTVSPost2010Prop31
280
     0
102
RTVSPost2010PropOp31
 70
     1
102
RTVSPost2010Prop32
280
     0
102
RTVSPost2010PropOp32
 70
     1
102
RTVSPost2010Prop33
280
     0
102
RTVSPost2010PropOp33
 70
     1
102
RTVSPost2010Prop34
280
     0
102
RTVSPost2010PropOp34
 70
     1
102
RTVSPost2010Prop35
280
     0
102
RTVSPost2010PropOp35
 70
     1
102
RTVSPost2010Prop36
280
     0
102
RTVSPost2010PropOp36
 70
     1
102
RTVSPost2010Prop37
 90
       50
102
RTVSPost2010PropOp37
 70
     1
102
RTVSPost2010Prop38
140
0.0
102
RTVSPost2010PropOp38
 70
     1
102
RTVSPost2010Prop39
140
1.0
102
RTVSPost2010PropOp39
 70
     1
102
RTVSPost2010Prop40
 90
        0
102
RTVSPost2010PropOp40
 70
     1
102
RTVSPost2010Prop41ColorIndex
 90
       18
102
RTVSPost2010Prop41ColorRGB
 90
        0
102
RTVSPost2010PropOp41
 70
     1
102
RTVSPost2010Prop42
 90
       50
102
RTVSPost2010PropOp42
 70
     1
102
RTVSPost2010Prop43
 90
        3
102
RTVSPost2010PropOp43
 70
     1
102
RTVSPost2010Prop44ColorIndex
 90
        5
102
RTVSPost2010Prop44ColorRGB
 90
      255
102
RTVSPost2010PropOp44
 70
     1
102
RTVSPost2010Prop45
280
     0
102
RTVSPost2010PropOp45
 70
     1
102
RTVSPost2010Prop46
 90
       50
102
RTVSPost2010PropOp46
 70
     1
102
RTVSPost2010Prop47
 90
       50
102
RTVSPost2010PropOp47
 70
     1
102
RTVSPost2010Prop48
 90
       50
102
RTVSPost2010PropOp48
 70
     1
102
RTVSPost2010Prop49
280
     0
102
RTVSPost2010PropOp49
 70
     1
102
RTVSPost2010Prop50
 90
       50
102
RTVSPost2010PropOp50
 70
     1
102
RTVSPost2010Prop51ColorIndex
 90
      256
102
RTVSPost2010Prop51ColorRGB
 90
-16777216
102
RTVSPost2010PropOp51
 70
     0
102
RTVSPost2010Prop52
140
1.0
102
RTVSPost2010PropOp52
 70
     0
102
RTVSPost2010Prop53
 90
        2
102
RTVSPost2010PropOp53
 70
     1
102
RTVSPost2010Prop54
  1
strokes_ogs.tif
102
RTVSPost2010PropOp54
 70
     1
102
RTVSPost2010Prop55
280
     0
102
RTVSPost2010PropOp55
 70
     1
102
RTVSPost2010Prop56
140
1.0
102
RTVSPost2010PropOp56
 70
     1
102
RTVSPost2010Prop57
140
1.0
102
RTVSPost2010PropOp57
 70
     1
  0
XRECORD
  5
1BF
102
{ACAD_REACTORS
330
1BE
102
}
330
1BE
100
AcDbXrecord
280
     1
102
RTVSPropertyOp0
 70
     1
102
RTVSPropertyOp1
 70
     1
102
RTVSPropertyOp2
 70
     1
102
RTVSPropertyOp3
 70
     1
102
RTVSPropertyOp4
 70
     1
102
RTVSPropertyOp5
 70
     1
102
RTVSPropertyOp6
 70
     1
102
RTVSPropertyOp7
 70
     1
102
RTVSPropertyOp8
 70
     1
102
RTVSPropertyOp9
 70
     1
102
RTVSPropertyOp10
 70
     1
102
RTVSPropertyOp11
 70
     1
102
RTVSPropertyOp12
 70
     1
102
RTVSPropertyOp13
 70
     1
102
RTVSPropertyOp14
 70
     1
102
RTVSPropertyOp15
 70
     1
102
RTVSPropertyOp16
 70
     1
102
RTVSPropertyOp17
 70
     1
102
RTVSPropertyOp18
 70
     1
102
RTVSPropertyOp19
 70
     1
102
RTVSPropertyOp20
 70
     1
102
RTVSPropertyOp21
 70
     1
102
RTVSPropertyOp22
 70
     1
102
RTVSPropertyOp23
 70
     1
102
RTVSPropertyOp24
 70
     1
102
RTVSPropertyOp25
 70
     1
102
RTVSPropertyOp26
 70
     1
102
RTVSPropertyOp27
 70
     1
102
RTVSPropertyOp28
 70
     1
102
RTVSPropertyOp29
 70
     1
102
RTVSPropertyOp30
 70
     1
102
RTVSPropertyOp31
 70
     1
102
RTVSPropertyOp32
 70
     1
102
RTVSPropertyOp33
 70
     1
102
RTVSPropertyOp34
 70
     1
102
RTVSPropertyOp35
 70
     1
102
RTVSPropertyOp36
 70
     1
102
RTVSPropertyOp37
 70
     1
102
RTVSPropertyOp38
 70
     1
102
RTVSPropertyOp39
 70
     1
102
RTVSPropertyOp40
 70
     1
102
RTVSPropertyOp41
 70
     1
102
RTVSPropertyOp42
 70
     1
102
RTVSPropertyOp43
 70
     1
102
RTVSPropertyOp44
 70
     1
102
RTVSPropertyOp45
 70
     1
102
RTVSPropertyOp46
 70
     1
102
RTVSPropertyOp47
 70
     1
102
RTVSPropertyOp48
 70
     1
102
RTVSPropertyOp49
 70
     1
102
RTVSPropertyOp50
 70
     1
102
RTVSPropertyOp51
 70
     0
102
RTVSPropertyOp52
 70
     0
102
RTVSPropertyOp53
 70
     1
102
RTVSPropertyOp54
 70
     1
102
RTVSPropertyOp55
 70
     1
102
RTVSPropertyOp56
 70
     1
102
RTVSPropertyOp57
 70
     1
102
RTVSPost2010Prop28
280
     0
102
RTVSPost2010PropOp28
 70
     1
102
RTVSPost2010Prop29
280
     1
102
RTVSPost2010PropOp29
 70
     1
102
RTVSPost2010Prop30
280
     1
102
RTVSPost2010PropOp30
 70
     1
102
RTVSPost2010Prop31
280
     0
102
RTVSPost2010PropOp31
 70
     1
102
RTVSPost2010Prop32
280
     0
102
RTVSPost2010PropOp32
 70
     1
102
RTVSPost2010Prop33
280
     0
102
RTVSPost2010PropOp33
 70
     1
102
RTVSPost2010Prop34
280
     0
102
RTVSPost2010PropOp34
 70
     1
102
RTVSPost2010Prop35
280
     0
102
RTVSPost2010PropOp35
 70
     1
102
RTVSPost2010Prop36
280
     0
102
RTVSPost2010PropOp36
 70
     1
102
RTVSPost2010Prop37
 90
       50
102
RTVSPost2010PropOp37
 70
     1
102
RTVSPost2010Prop38
140
0.0
102
RTVSPost2010PropOp38
 70
     1
102
RTVSPost2010Prop39
140
1.0
102
RTVSPost2010PropOp39
 70
     1
102
RTVSPost2010Prop40
 90
        0
102
RTVSPost2010PropOp40
 70
     1
102
RTVSPost2010Prop41ColorIndex
 90
       18
102
RTVSPost2010Prop41ColorRGB
 90
        0
102
RTVSPost2010PropOp41
 70
     1
102
RTVSPost2010Prop42
 90
       50
102
RTVSPost2010PropOp42
 70
     1
102
RTVSPost2010Prop43
 90
        3
102
RTVSPost2010PropOp43
 70
     1
102
RTVSPost2010Prop44ColorIndex
 90
        5
102
RTVSPost2010Prop44ColorRGB
 90
      255
102
RTVSPost2010PropOp44
 70
     1
102
RTVSPost2010Prop45
280
     0
102
RTVSPost2010PropOp45
 70
     1
102
RTVSPost2010Prop46
 90
       50
102
RTVSPost2010PropOp46
 70
     1
102
RTVSPost2010Prop47
 90
       50
102
RTVSPost2010PropOp47
 70
     1
102
RTVSPost2010Prop48
 90
       50
102
RTVSPost2010PropOp48
 70
     1
102
RTVSPost2010Prop49
280
     0
102
RTVSPost2010PropOp49
 70
     1
102
RTVSPost2010Prop50
 90
       50
102
RTVSPost2010PropOp50
 70
     1
102
RTVSPost2010Prop51ColorIndex
 90
      256
102
RTVSPost2010Prop51ColorRGB
 90
-16777216
102
RTVSPost2010PropOp51
 70
     0
102
RTVSPost2010Prop52
140
1.0
102
RTVSPost2010PropOp52
 70
     0
102
RTVSPost2010Prop53
 90
        2
102
RTVSPost2010PropOp53
 70
     1
102
RTVSPost2010Prop54
  1
strokes_ogs.tif
102
RTVSPost2010PropOp54
 70
     1
102
RTVSPost2010Prop55
280
     0
102
RTVSPost2010PropOp55
 70
     1
102
RTVSPost2010Prop56
140
1.0
102
RTVSPost2010PropOp56
 70
     1
102
RTVSPost2010Prop57
140
1.0
102
RTVSPost2010PropOp57
 70
     1
  0
XRECORD
  5
1CF
102
{ACAD_REACTORS
330
1CE
102
}
330
1CE
100
AcDbXrecord
280
     1
102
RTVSPropertyOp0
 70
     0
102
RTVSPropertyOp1
 70
     0
102
RTVSPropertyOp2
 70
     0
102
RTVSPropertyOp3
 70
     0
102
RTVSPropertyOp4
 70
     0
102
RTVSPropertyOp5
 70
     0
102
RTVSPropertyOp6
 70
     0
102
RTVSPropertyOp7
 70
     0
102
RTVSPropertyOp8
 70
     0
102
RTVSPropertyOp9
 70
     0
102
RTVSPropertyOp10
 70
     0
102
RTVSPropertyOp11
 70
     0
102
RTVSPropertyOp12
 70
     0
102
RTVSPropertyOp13
 70
     0
102
RTVSPropertyOp14
 70
     2
102
RTVSPropertyOp15
 70
     0
102
RTVSPropertyOp16
 70
     0
102
RTVSPropertyOp17
 70
     0
102
RTVSPropertyOp18
 70
     0
102
RTVSPropertyOp19
 70
     0
102
RTVSPropertyOp20
 70
     0
102
RTVSPropertyOp21
 70
     0
102
RTVSPropertyOp22
 70
     0
102
RTVSPropertyOp23
 70
     0
102
RTVSPropertyOp24
 70
     0
102
RTVSPropertyOp25
 70
     0
102
RTVSPropertyOp26
 70
     0
102
RTVSPropertyOp27
 70
     0
102
RTVSPropertyOp28
 70
     0
102
RTVSPropertyOp29
 70
     0
102
RTVSPropertyOp30
 70
     0
102
RTVSPropertyOp31
 70
     0
102
RTVSPropertyOp32
 70
     0
102
RTVSPropertyOp33
 70
     0
102
RTVSPropertyOp34
 70
     0
102
RTVSPropertyOp35
 70
     0
102
RTVSPropertyOp36
 70
     0
102
RTVSPropertyOp37
 70
     0
102
RTVSPropertyOp38
 70
     0
102
RTVSPropertyOp39
 70
     0
102
RTVSPropertyOp40
 70
     0
102
RTVSPropertyOp41
 70
     0
102
RTVSPropertyOp42
 70
     0
102
RTVSPropertyOp43
 70
     0
102
RTVSPropertyOp44
 70
     0
102
RTVSPropertyOp45
 70
     0
102
RTVSPropertyOp46
 70
     0
102
RTVSPropertyOp47
 70
     0
102
RTVSPropertyOp48
 70
     0
102
RTVSPropertyOp49
 70
     0
102
RTVSPropertyOp50
 70
     0
102
RTVSPropertyOp51
 70
     0
102
RTVSPropertyOp52
 70
     0
102
RTVSPropertyOp53
 70
     0
102
RTVSPropertyOp54
 70
     0
102
RTVSPropertyOp55
 70
     0
102
RTVSPropertyOp56
 70
     0
102
RTVSPropertyOp57
 70
     0
102
RTVSPost2010Prop28
280
     0
102
RTVSPost2010PropOp28
 70
     0
102
RTVSPost2010Prop29
280
     1
102
RTVSPost2010PropOp29
 70
     0
102
RTVSPost2010Prop30
280
     1
102
RTVSPost2010PropOp30
 70
     0
102
RTVSPost2010Prop31
280
     0
102
RTVSPost2010PropOp31
 70
     0
102
RTVSPost2010Prop32
280
     0
102
RTVSPost2010PropOp32
 70
     0
102
RTVSPost2010Prop33
280
     0
102
RTVSPost2010PropOp33
 70
     0
102
RTVSPost2010Prop34
280
     0
102
RTVSPost2010PropOp34
 70
     0
102
RTVSPost2010Prop35
280
     0
102
RTVSPost2010PropOp35
 70
     0
102
RTVSPost2010Prop36
280
     0
102
RTVSPost2010PropOp36
 70
     0
102
RTVSPost2010Prop37
 90
       50
102
RTVSPost2010PropOp37
 70
     0
102
RTVSPost2010Prop38
140
0.0
102
RTVSPost2010PropOp38
 70
     0
102
RTVSPost2010Prop39
140
1.0
102
RTVSPost2010PropOp39
 70
     0
102
RTVSPost2010Prop40
 90
        0
102
RTVSPost2010PropOp40
 70
     0
102
RTVSPost2010Prop41ColorIndex
 90
       18
102
RTVSPost2010Prop41ColorRGB
 90
        0
102
RTVSPost2010PropOp41
 70
     0
102
RTVSPost2010Prop42
 90
       50
102
RTVSPost2010PropOp42
 70
     0
102
RTVSPost2010Prop43
 90
        3
102
RTVSPost2010PropOp43
 70
     0
102
RTVSPost2010Prop44ColorIndex
 90
        5
102
RTVSPost2010Prop44ColorRGB
 90
      255
102
RTVSPost2010PropOp44
 70
     0
102
RTVSPost2010Prop45
280
     0
102
RTVSPost2010PropOp45
 70
     0
102
RTVSPost2010Prop46
 90
       50
102
RTVSPost2010PropOp46
 70
     0
102
RTVSPost2010Prop47
 90
       50
102
RTVSPost2010PropOp47
 70
     0
102
RTVSPost2010Prop48
 90
       50
102
RTVSPost2010PropOp48
 70
     0
102
RTVSPost2010Prop49
280
     0
102
RTVSPost2010PropOp49
 70
     0
102
RTVSPost2010Prop50
 90
       50
102
RTVSPost2010PropOp50
 70
     0
102
RTVSPost2010Prop51ColorIndex
 90
      256
102
RTVSPost2010Prop51ColorRGB
 90
-16777216
102
RTVSPost2010PropOp51
 70
     0
102
RTVSPost2010Prop52
140
1.0
102
RTVSPost2010PropOp52
 70
     0
102
RTVSPost2010Prop53
 90
        2
102
RTVSPost2010PropOp53
 70
     0
102
RTVSPost2010Prop54
  1
strokes_ogs.tif
102
RTVSPost2010PropOp54
 70
     0
102
RTVSPost2010Prop55
280
     0
102
RTVSPost2010PropOp55
 70
     0
102
RTVSPost2010Prop56
140
1.0
102
RTVSPost2010PropOp56
 70
     0
102
RTVSPost2010Prop57
140
1.0
102
RTVSPost2010PropOp57
 70
     0
  0
XRECORD
  5
1C7
102
{ACAD_REACTORS
330
1C6
102
}
330
1C6
100
AcDbXrecord
280
     1
102
RTVSPropertyOp0
 70
     1
102
RTVSPropertyOp1
 70
     1
102
RTVSPropertyOp2
 70
     1
102
RTVSPropertyOp3
 70
     1
102
RTVSPropertyOp4
 70
     1
102
RTVSPropertyOp5
 70
     1
102
RTVSPropertyOp6
 70
     1
102
RTVSPropertyOp7
 70
     1
102
RTVSPropertyOp8
 70
     1
102
RTVSPropertyOp9
 70
     1
102
RTVSPropertyOp10
 70
     1
102
RTVSPropertyOp11
 70
     1
102
RTVSPropertyOp12
 70
     1
102
RTVSPropertyOp13
 70
     1
102
RTVSPropertyOp14
 70
     1
102
RTVSPropertyOp15
 70
     1
102
RTVSPropertyOp16
 70
     1
102
RTVSPropertyOp17
 70
     1
102
RTVSPropertyOp18
 70
     1
102
RTVSPropertyOp19
 70
     1
102
RTVSPropertyOp20
 70
     1
102
RTVSPropertyOp21
 70
     1
102
RTVSPropertyOp22
 70
     1
102
RTVSPropertyOp23
 70
     1
102
RTVSPropertyOp24
 70
     1
102
RTVSPropertyOp25
 70
     1
102
RTVSPropertyOp26
 70
     1
102
RTVSPropertyOp27
 70
     1
102
RTVSPropertyOp28
 70
     1
102
RTVSPropertyOp29
 70
     1
102
RTVSPropertyOp30
 70
     1
102
RTVSPropertyOp31
 70
     1
102
RTVSPropertyOp32
 70
     1
102
RTVSPropertyOp33
 70
     1
102
RTVSPropertyOp34
 70
     1
102
RTVSPropertyOp35
 70
     1
102
RTVSPropertyOp36
 70
     1
102
RTVSPropertyOp37
 70
     1
102
RTVSPropertyOp38
 70
     1
102
RTVSPropertyOp39
 70
     1
102
RTVSPropertyOp40
 70
     1
102
RTVSPropertyOp41
 70
     1
102
RTVSPropertyOp42
 70
     1
102
RTVSPropertyOp43
 70
     1
102
RTVSPropertyOp44
 70
     1
102
RTVSPropertyOp45
 70
     1
102
RTVSPropertyOp46
 70
     1
102
RTVSPropertyOp47
 70
     1
102
RTVSPropertyOp48
 70
     1
102
RTVSPropertyOp49
 70
     1
102
RTVSPropertyOp50
 70
     1
102
RTVSPropertyOp51
 70
     0
102
RTVSPropertyOp52
 70
     0
102
RTVSPropertyOp53
 70
     1
102
RTVSPropertyOp54
 70
     1
102
RTVSPropertyOp55
 70
     1
102
RTVSPropertyOp56
 70
     1
102
RTVSPropertyOp57
 70
     1
102
RTVSPost2010Prop28
280
     0
102
RTVSPost2010PropOp28
 70
     1
102
RTVSPost2010Prop29
280
     1
102
RTVSPost2010PropOp29
 70
     1
102
RTVSPost2010Prop30
280
     1
102
RTVSPost2010PropOp30
 70
     1
102
RTVSPost2010Prop31
280
     0
102
RTVSPost2010PropOp31
 70
     1
102
RTVSPost2010Prop32
280
     0
102
RTVSPost2010PropOp32
 70
     1
102
RTVSPost2010Prop33
280
     0
102
RTVSPost2010PropOp33
 70
     1
102
RTVSPost2010Prop34
280
     0
102
RTVSPost2010PropOp34
 70
     1
102
RTVSPost2010Prop35
280
     0
102
RTVSPost2010PropOp35
 70
     1
102
RTVSPost2010Prop36
280
     0
102
RTVSPost2010PropOp36
 70
     1
102
RTVSPost2010Prop37
 90
       50
102
RTVSPost2010PropOp37
 70
     1
102
RTVSPost2010Prop38
140
0.0
102
RTVSPost2010PropOp38
 70
     1
102
RTVSPost2010Prop39
140
1.0
102
RTVSPost2010PropOp39
 70
     1
102
RTVSPost2010Prop40
 90
        0
102
RTVSPost2010PropOp40
 70
     1
102
RTVSPost2010Prop41ColorIndex
 90
       18
102
RTVSPost2010Prop41ColorRGB
 90
        0
102
RTVSPost2010PropOp41
 70
     1
102
RTVSPost2010Prop42
 90
       50
102
RTVSPost2010PropOp42
 70
     1
102
RTVSPost2010Prop43
 90
        3
102
RTVSPost2010PropOp43
 70
     1
102
RTVSPost2010Prop44ColorIndex
 90
        5
102
RTVSPost2010Prop44ColorRGB
 90
      255
102
RTVSPost2010PropOp44
 70
     1
102
RTVSPost2010Prop45
280
     0
102
RTVSPost2010PropOp45
 70
     1
102
RTVSPost2010Prop46
 90
       50
102
RTVSPost2010PropOp46
 70
     1
102
RTVSPost2010Prop47
 90
       50
102
RTVSPost2010PropOp47
 70
     1
102
RTVSPost2010Prop48
 90
       50
102
RTVSPost2010PropOp48
 70
     1
102
RTVSPost2010Prop49
280
     0
102
RTVSPost2010PropOp49
 70
     1
102
RTVSPost2010Prop50
 90
       50
102
RTVSPost2010PropOp50
 70
     1
102
RTVSPost2010Prop51ColorIndex
 90
      256
102
RTVSPost2010Prop51ColorRGB
 90
-16777216
102
RTVSPost2010PropOp51
 70
     0
102
RTVSPost2010Prop52
140
1.0
102
RTVSPost2010PropOp52
 70
     0
102
RTVSPost2010Prop53
 90
        2
102
RTVSPost2010PropOp53
 70
     1
102
RTVSPost2010Prop54
  1
strokes_ogs.tif
102
RTVSPost2010PropOp54
 70
     1
102
RTVSPost2010Prop55
280
     0
102
RTVSPost2010PropOp55
 70
     1
102
RTVSPost2010Prop56
140
1.0
102
RTVSPost2010PropOp56
 70
     1
102
RTVSPost2010Prop57
140
1.0
102
RTVSPost2010PropOp57
 70
     1
  0
XRECORD
  5
1AB
102
{ACAD_REACTORS
330
1AA
102
}
330
1AA
100
AcDbXrecord
280
     1
102
RTVSPropertyOp0
 70
     1
102
RTVSPropertyOp1
 70
     1
102
RTVSPropertyOp2
 70
     1
102
RTVSPropertyOp3
 70
     1
102
RTVSPropertyOp4
 70
     1
102
RTVSPropertyOp5
 70
     1
102
RTVSPropertyOp6
 70
     1
102
RTVSPropertyOp7
 70
     1
102
RTVSPropertyOp8
 70
     1
102
RTVSPropertyOp9
 70
     1
102
RTVSPropertyOp10
 70
     1
102
RTVSPropertyOp11
 70
     1
102
RTVSPropertyOp12
 70
     1
102
RTVSPropertyOp13
 70
     1
102
RTVSPropertyOp14
 70
     1
102
RTVSPropertyOp15
 70
     1
102
RTVSPropertyOp16
 70
     1
102
RTVSPropertyOp17
 70
     1
102
RTVSPropertyOp18
 70
     1
102
RTVSPropertyOp19
 70
     1
102
RTVSPropertyOp20
 70
     1
102
RTVSPropertyOp21
 70
     1
102
RTVSPropertyOp22
 70
     1
102
RTVSPropertyOp23
 70
     1
102
RTVSPropertyOp24
 70
     1
102
RTVSPropertyOp25
 70
     1
102
RTVSPropertyOp26
 70
     1
102
RTVSPropertyOp27
 70
     1
102
RTVSPropertyOp28
 70
     1
102
RTVSPropertyOp29
 70
     1
102
RTVSPropertyOp30
 70
     1
102
RTVSPropertyOp31
 70
     1
102
RTVSPropertyOp32
 70
     1
102
RTVSPropertyOp33
 70
     1
102
RTVSPropertyOp34
 70
     1
102
RTVSPropertyOp35
 70
     1
102
RTVSPropertyOp36
 70
     1
102
RTVSPropertyOp37
 70
     1
102
RTVSPropertyOp38
 70
     1
102
RTVSPropertyOp39
 70
     1
102
RTVSPropertyOp40
 70
     1
102
RTVSPropertyOp41
 70
     1
102
RTVSPropertyOp42
 70
     1
102
RTVSPropertyOp43
 70
     1
102
RTVSPropertyOp44
 70
     1
102
RTVSPropertyOp45
 70
     1
102
RTVSPropertyOp46
 70
     1
102
RTVSPropertyOp47
 70
     1
102
RTVSPropertyOp48
 70
     1
102
RTVSPropertyOp49
 70
     1
102
RTVSPropertyOp50
 70
     1
102
RTVSPropertyOp51
 70
     0
102
RTVSPropertyOp52
 70
     0
102
RTVSPropertyOp53
 70
     1
102
RTVSPropertyOp54
 70
     1
102
RTVSPropertyOp55
 70
     1
102
RTVSPropertyOp56
 70
     1
102
RTVSPropertyOp57
 70
     1
102
RTVSPost2010Prop28
280
     0
102
RTVSPost2010PropOp28
 70
     1
102
RTVSPost2010Prop29
280
     1
102
RTVSPost2010PropOp29
 70
     1
102
RTVSPost2010Prop30
280
     1
102
RTVSPost2010PropOp30
 70
     1
102
RTVSPost2010Prop31
280
     0
102
RTVSPost2010PropOp31
 70
     1
102
RTVSPost2010Prop32
280
     0
102
RTVSPost2010PropOp32
 70
     1
102
RTVSPost2010Prop33
280
     0
102
RTVSPost2010PropOp33
 70
     1
102
RTVSPost2010Prop34
280
     0
102
RTVSPost2010PropOp34
 70
     1
102
RTVSPost2010Prop35
280
     0
102
RTVSPost2010PropOp35
 70
     1
102
RTVSPost2010Prop36
280
     0
102
RTVSPost2010PropOp36
 70
     1
102
RTVSPost2010Prop37
 90
       50
102
RTVSPost2010PropOp37
 70
     1
102
RTVSPost2010Prop38
140
0.0
102
RTVSPost2010PropOp38
 70
     1
102
RTVSPost2010Prop39
140
1.0
102
RTVSPost2010PropOp39
 70
     1
102
RTVSPost2010Prop40
 90
        0
102
RTVSPost2010PropOp40
 70
     1
102
RTVSPost2010Prop41ColorIndex
 90
       18
102
RTVSPost2010Prop41ColorRGB
 90
        0
102
RTVSPost2010PropOp41
 70
     1
102
RTVSPost2010Prop42
 90
       50
102
RTVSPost2010PropOp42
 70
     1
102
RTVSPost2010Prop43
 90
        3
102
RTVSPost2010PropOp43
 70
     1
102
RTVSPost2010Prop44ColorIndex
 90
        5
102
RTVSPost2010Prop44ColorRGB
 90
      255
102
RTVSPost2010PropOp44
 70
     1
102
RTVSPost2010Prop45
280
     0
102
RTVSPost2010PropOp45
 70
     1
102
RTVSPost2010Prop46
 90
       50
102
RTVSPost2010PropOp46
 70
     1
102
RTVSPost2010Prop47
 90
       50
102
RTVSPost2010PropOp47
 70
     1
102
RTVSPost2010Prop48
 90
       50
102
RTVSPost2010PropOp48
 70
     1
102
RTVSPost2010Prop49
280
     0
102
RTVSPost2010PropOp49
 70
     1
102
RTVSPost2010Prop50
 90
       50
102
RTVSPost2010PropOp50
 70
     1
102
RTVSPost2010Prop51ColorIndex
 90
      256
102
RTVSPost2010Prop51ColorRGB
 90
-16777216
102
RTVSPost2010PropOp51
 70
     0
102
RTVSPost2010Prop52
140
1.0
102
RTVSPost2010PropOp52
 70
     0
102
RTVSPost2010Prop53
 90
        2
102
RTVSPost2010PropOp53
 70
     1
102
RTVSPost2010Prop54
  1
strokes_ogs.tif
102
RTVSPost2010PropOp54
 70
     1
102
RTVSPost2010Prop55
280
     0
102
RTVSPost2010PropOp55
 70
     1
102
RTVSPost2010Prop56
140
1.0
102
RTVSPost2010PropOp56
 70
     1
102
RTVSPost2010Prop57
140
1.0
102
RTVSPost2010PropOp57
 70
     1
  0
XRECORD
  5
1AD
102
{ACAD_REACTORS
330
1AC
102
}
330
1AC
100
AcDbXrecord
280
     1
102
RTVSPropertyOp0
 70
     1
102
RTVSPropertyOp1
 70
     1
102
RTVSPropertyOp2
 70
     1
102
RTVSPropertyOp3
 70
     1
102
RTVSPropertyOp4
 70
     1
102
RTVSPropertyOp5
 70
     1
102
RTVSPropertyOp6
 70
     1
102
RTVSPropertyOp7
 70
     1
102
RTVSPropertyOp8
 70
     1
102
RTVSPropertyOp9
 70
     1
102
RTVSPropertyOp10
 70
     1
102
RTVSPropertyOp11
 70
     1
102
RTVSPropertyOp12
 70
     1
102
RTVSPropertyOp13
 70
     1
102
RTVSPropertyOp14
 70
     1
102
RTVSPropertyOp15
 70
     1
102
RTVSPropertyOp16
 70
     1
102
RTVSPropertyOp17
 70
     1
102
RTVSPropertyOp18
 70
     1
102
RTVSPropertyOp19
 70
     1
102
RTVSPropertyOp20
 70
     1
102
RTVSPropertyOp21
 70
     1
102
RTVSPropertyOp22
 70
     1
102
RTVSPropertyOp23
 70
     1
102
RTVSPropertyOp24
 70
     1
102
RTVSPropertyOp25
 70
     1
102
RTVSPropertyOp26
 70
     1
102
RTVSPropertyOp27
 70
     1
102
RTVSPropertyOp28
 70
     1
102
RTVSPropertyOp29
 70
     1
102
RTVSPropertyOp30
 70
     1
102
RTVSPropertyOp31
 70
     1
102
RTVSPropertyOp32
 70
     1
102
RTVSPropertyOp33
 70
     1
102
RTVSPropertyOp34
 70
     1
102
RTVSPropertyOp35
 70
     1
102
RTVSPropertyOp36
 70
     1
102
RTVSPropertyOp37
 70
     1
102
RTVSPropertyOp38
 70
     1
102
RTVSPropertyOp39
 70
     1
102
RTVSPropertyOp40
 70
     1
102
RTVSPropertyOp41
 70
     1
102
RTVSPropertyOp42
 70
     1
102
RTVSPropertyOp43
 70
     1
102
RTVSPropertyOp44
 70
     1
102
RTVSPropertyOp45
 70
     1
102
RTVSPropertyOp46
 70
     1
102
RTVSPropertyOp47
 70
     1
102
RTVSPropertyOp48
 70
     1
102
RTVSPropertyOp49
 70
     1
102
RTVSPropertyOp50
 70
     1
102
RTVSPropertyOp51
 70
     0
102
RTVSPropertyOp52
 70
     0
102
RTVSPropertyOp53
 70
     1
102
RTVSPropertyOp54
 70
     1
102
RTVSPropertyOp55
 70
     1
102
RTVSPropertyOp56
 70
     1
102
RTVSPropertyOp57
 70
     1
102
RTVSPost2010Prop28
280
     0
102
RTVSPost2010PropOp28
 70
     1
102
RTVSPost2010Prop29
280
     1
102
RTVSPost2010PropOp29
 70
     1
102
RTVSPost2010Prop30
280
     1
102
RTVSPost2010PropOp30
 70
     1
102
RTVSPost2010Prop31
280
     0
102
RTVSPost2010PropOp31
 70
     1
102
RTVSPost2010Prop32
280
     0
102
RTVSPost2010PropOp32
 70
     1
102
RTVSPost2010Prop33
280
     0
102
RTVSPost2010PropOp33
 70
     1
102
RTVSPost2010Prop34
280
     0
102
RTVSPost2010PropOp34
 70
     1
102
RTVSPost2010Prop35
280
     0
102
RTVSPost2010PropOp35
 70
     1
102
RTVSPost2010Prop36
280
     0
102
RTVSPost2010PropOp36
 70
     1
102
RTVSPost2010Prop37
 90
       50
102
RTVSPost2010PropOp37
 70
     1
102
RTVSPost2010Prop38
140
0.0
102
RTVSPost2010PropOp38
 70
     1
102
RTVSPost2010Prop39
140
1.0
102
RTVSPost2010PropOp39
 70
     1
102
RTVSPost2010Prop40
 90
        0
102
RTVSPost2010PropOp40
 70
     1
102
RTVSPost2010Prop41ColorIndex
 90
       18
102
RTVSPost2010Prop41ColorRGB
 90
        0
102
RTVSPost2010PropOp41
 70
     1
102
RTVSPost2010Prop42
 90
       50
102
RTVSPost2010PropOp42
 70
     1
102
RTVSPost2010Prop43
 90
        3
102
RTVSPost2010PropOp43
 70
     1
102
RTVSPost2010Prop44ColorIndex
 90
        5
102
RTVSPost2010Prop44ColorRGB
 90
      255
102
RTVSPost2010PropOp44
 70
     1
102
RTVSPost2010Prop45
280
     0
102
RTVSPost2010PropOp45
 70
     1
102
RTVSPost2010Prop46
 90
       50
102
RTVSPost2010PropOp46
 70
     1
102
RTVSPost2010Prop47
 90
       50
102
RTVSPost2010PropOp47
 70
     1
102
RTVSPost2010Prop48
 90
       50
102
RTVSPost2010PropOp48
 70
     1
102
RTVSPost2010Prop49
280
     0
102
RTVSPost2010PropOp49
 70
     1
102
RTVSPost2010Prop50
 90
       50
102
RTVSPost2010PropOp50
 70
     1
102
RTVSPost2010Prop51ColorIndex
 90
      256
102
RTVSPost2010Prop51ColorRGB
 90
-16777216
102
RTVSPost2010PropOp51
 70
     0
102
RTVSPost2010Prop52
140
1.0
102
RTVSPost2010PropOp52
 70
     0
102
RTVSPost2010Prop53
 90
        2
102
RTVSPost2010PropOp53
 70
     1
102
RTVSPost2010Prop54
  1
strokes_ogs.tif
102
RTVSPost2010PropOp54
 70
     1
102
RTVSPost2010Prop55
280
     0
102
RTVSPost2010PropOp55
 70
     1
102
RTVSPost2010Prop56
140
1.0
102
RTVSPost2010PropOp56
 70
     1
102
RTVSPost2010Prop57
140
1.0
102
RTVSPost2010PropOp57
 70
     1
  0
XRECORD
  5
1AF
102
{ACAD_REACTORS
330
1AE
102
}
330
1AE
100
AcDbXrecord
280
     1
102
RTVSPropertyOp0
 70
     1
102
RTVSPropertyOp1
 70
     1
102
RTVSPropertyOp2
 70
     1
102
RTVSPropertyOp3
 70
     1
102
RTVSPropertyOp4
 70
     1
102
RTVSPropertyOp5
 70
     1
102
RTVSPropertyOp6
 70
     1
102
RTVSPropertyOp7
 70
     1
102
RTVSPropertyOp8
 70
     1
102
RTVSPropertyOp9
 70
     1
102
RTVSPropertyOp10
 70
     1
102
RTVSPropertyOp11
 70
     1
102
RTVSPropertyOp12
 70
     1
102
RTVSPropertyOp13
 70
     1
102
RTVSPropertyOp14
 70
     1
102
RTVSPropertyOp15
 70
     1
102
RTVSPropertyOp16
 70
     1
102
RTVSPropertyOp17
 70
     1
102
RTVSPropertyOp18
 70
     1
102
RTVSPropertyOp19
 70
     1
102
RTVSPropertyOp20
 70
     1
102
RTVSPropertyOp21
 70
     1
102
RTVSPropertyOp22
 70
     1
102
RTVSPropertyOp23
 70
     1
102
RTVSPropertyOp24
 70
     1
102
RTVSPropertyOp25
 70
     1
102
RTVSPropertyOp26
 70
     1
102
RTVSPropertyOp27
 70
     1
102
RTVSPropertyOp28
 70
     1
102
RTVSPropertyOp29
 70
     1
102
RTVSPropertyOp30
 70
     1
102
RTVSPropertyOp31
 70
     1
102
RTVSPropertyOp32
 70
     1
102
RTVSPropertyOp33
 70
     1
102
RTVSPropertyOp34
 70
     1
102
RTVSPropertyOp35
 70
     1
102
RTVSPropertyOp36
 70
     1
102
RTVSPropertyOp37
 70
     1
102
RTVSPropertyOp38
 70
     1
102
RTVSPropertyOp39
 70
     1
102
RTVSPropertyOp40
 70
     1
102
RTVSPropertyOp41
 70
     1
102
RTVSPropertyOp42
 70
     1
102
RTVSPropertyOp43
 70
     1
102
RTVSPropertyOp44
 70
     1
102
RTVSPropertyOp45
 70
     1
102
RTVSPropertyOp46
 70
     1
102
RTVSPropertyOp47
 70
     1
102
RTVSPropertyOp48
 70
     1
102
RTVSPropertyOp49
 70
     1
102
RTVSPropertyOp50
 70
     1
102
RTVSPropertyOp51
 70
     0
102
RTVSPropertyOp52
 70
     0
102
RTVSPropertyOp53
 70
     1
102
RTVSPropertyOp54
 70
     1
102
RTVSPropertyOp55
 70
     1
102
RTVSPropertyOp56
 70
     1
102
RTVSPropertyOp57
 70
     1
102
RTVSPost2010Prop28
280
     0
102
RTVSPost2010PropOp28
 70
     1
102
RTVSPost2010Prop29
280
     1
102
RTVSPost2010PropOp29
 70
     1
102
RTVSPost2010Prop30
280
     1
102
RTVSPost2010PropOp30
 70
     1
102
RTVSPost2010Prop31
280
     0
102
RTVSPost2010PropOp31
 70
     1
102
RTVSPost2010Prop32
280
     0
102
RTVSPost2010PropOp32
 70
     1
102
RTVSPost2010Prop33
280
     0
102
RTVSPost2010PropOp33
 70
     1
102
RTVSPost2010Prop34
280
     0
102
RTVSPost2010PropOp34
 70
     1
102
RTVSPost2010Prop35
280
     0
102
RTVSPost2010PropOp35
 70
     1
102
RTVSPost2010Prop36
280
     0
102
RTVSPost2010PropOp36
 70
     1
102
RTVSPost2010Prop37
 90
       50
102
RTVSPost2010PropOp37
 70
     1
102
RTVSPost2010Prop38
140
0.0
102
RTVSPost2010PropOp38
 70
     1
102
RTVSPost2010Prop39
140
1.0
102
RTVSPost2010PropOp39
 70
     1
102
RTVSPost2010Prop40
 90
        0
102
RTVSPost2010PropOp40
 70
     1
102
RTVSPost2010Prop41ColorIndex
 90
       18
102
RTVSPost2010Prop41ColorRGB
 90
        0
102
RTVSPost2010PropOp41
 70
     1
102
RTVSPost2010Prop42
 90
       50
102
RTVSPost2010PropOp42
 70
     1
102
RTVSPost2010Prop43
 90
        3
102
RTVSPost2010PropOp43
 70
     1
102
RTVSPost2010Prop44ColorIndex
 90
        5
102
RTVSPost2010Prop44ColorRGB
 90
      255
102
RTVSPost2010PropOp44
 70
     1
102
RTVSPost2010Prop45
280
     0
102
RTVSPost2010PropOp45
 70
     1
102
RTVSPost2010Prop46
 90
       50
102
RTVSPost2010PropOp46
 70
     1
102
RTVSPost2010Prop47
 90
       50
102
RTVSPost2010PropOp47
 70
     1
102
RTVSPost2010Prop48
 90
       50
102
RTVSPost2010PropOp48
 70
     1
102
RTVSPost2010Prop49
280
     0
102
RTVSPost2010PropOp49
 70
     1
102
RTVSPost2010Prop50
 90
       50
102
RTVSPost2010PropOp50
 70
     1
102
RTVSPost2010Prop51ColorIndex
 90
      256
102
RTVSPost2010Prop51ColorRGB
 90
-16777216
102
RTVSPost2010PropOp51
 70
     0
102
RTVSPost2010Prop52
140
1.0
102
RTVSPost2010PropOp52
 70
     0
102
RTVSPost2010Prop53
 90
        2
102
RTVSPost2010PropOp53
 70
     1
102
RTVSPost2010Prop54
  1
strokes_ogs.tif
102
RTVSPost2010PropOp54
 70
     1
102
RTVSPost2010Prop55
280
     0
102
RTVSPost2010PropOp55
 70
     1
102
RTVSPost2010Prop56
140
1.0
102
RTVSPost2010PropOp56
 70
     1
102
RTVSPost2010Prop57
140
1.0
102
RTVSPost2010PropOp57
 70
     1
  0
XRECORD
  5
1B1
102
{ACAD_REACTORS
330
1B0
102
}
330
1B0
100
AcDbXrecord
280
     1
102
RTVSPropertyOp0
 70
     1
102
RTVSPropertyOp1
 70
     1
102
RTVSPropertyOp2
 70
     1
102
RTVSPropertyOp3
 70
     1
102
RTVSPropertyOp4
 70
     1
102
RTVSPropertyOp5
 70
     1
102
RTVSPropertyOp6
 70
     1
102
RTVSPropertyOp7
 70
     1
102
RTVSPropertyOp8
 70
     1
102
RTVSPropertyOp9
 70
     1
102
RTVSPropertyOp10
 70
     1
102
RTVSPropertyOp11
 70
     1
102
RTVSPropertyOp12
 70
     1
102
RTVSPropertyOp13
 70
     1
102
RTVSPropertyOp14
 70
     1
102
RTVSPropertyOp15
 70
     1
102
RTVSPropertyOp16
 70
     1
102
RTVSPropertyOp17
 70
     1
102
RTVSPropertyOp18
 70
     1
102
RTVSPropertyOp19
 70
     1
102
RTVSPropertyOp20
 70
     1
102
RTVSPropertyOp21
 70
     1
102
RTVSPropertyOp22
 70
     1
102
RTVSPropertyOp23
 70
     1
102
RTVSPropertyOp24
 70
     1
102
RTVSPropertyOp25
 70
     1
102
RTVSPropertyOp26
 70
     1
102
RTVSPropertyOp27
 70
     1
102
RTVSPropertyOp28
 70
     1
102
RTVSPropertyOp29
 70
     1
102
RTVSPropertyOp30
 70
     1
102
RTVSPropertyOp31
 70
     1
102
RTVSPropertyOp32
 70
     1
102
RTVSPropertyOp33
 70
     1
102
RTVSPropertyOp34
 70
     1
102
RTVSPropertyOp35
 70
     1
102
RTVSPropertyOp36
 70
     1
102
RTVSPropertyOp37
 70
     1
102
RTVSPropertyOp38
 70
     1
102
RTVSPropertyOp39
 70
     1
102
RTVSPropertyOp40
 70
     1
102
RTVSPropertyOp41
 70
     1
102
RTVSPropertyOp42
 70
     1
102
RTVSPropertyOp43
 70
     1
102
RTVSPropertyOp44
 70
     1
102
RTVSPropertyOp45
 70
     1
102
RTVSPropertyOp46
 70
     1
102
RTVSPropertyOp47
 70
     1
102
RTVSPropertyOp48
 70
     1
102
RTVSPropertyOp49
 70
     1
102
RTVSPropertyOp50
 70
     1
102
RTVSPropertyOp51
 70
     0
102
RTVSPropertyOp52
 70
     0
102
RTVSPropertyOp53
 70
     1
102
RTVSPropertyOp54
 70
     1
102
RTVSPropertyOp55
 70
     1
102
RTVSPropertyOp56
 70
     1
102
RTVSPropertyOp57
 70
     1
102
RTVSPost2010Prop28
280
     0
102
RTVSPost2010PropOp28
 70
     1
102
RTVSPost2010Prop29
280
     1
102
RTVSPost2010PropOp29
 70
     1
102
RTVSPost2010Prop30
280
     1
102
RTVSPost2010PropOp30
 70
     1
102
RTVSPost2010Prop31
280
     0
102
RTVSPost2010PropOp31
 70
     1
102
RTVSPost2010Prop32
280
     0
102
RTVSPost2010PropOp32
 70
     1
102
RTVSPost2010Prop33
280
     0
102
RTVSPost2010PropOp33
 70
     1
102
RTVSPost2010Prop34
280
     0
102
RTVSPost2010PropOp34
 70
     1
102
RTVSPost2010Prop35
280
     0
102
RTVSPost2010PropOp35
 70
     1
102
RTVSPost2010Prop36
280
     0
102
RTVSPost2010PropOp36
 70
     1
102
RTVSPost2010Prop37
 90
       50
102
RTVSPost2010PropOp37
 70
     1
102
RTVSPost2010Prop38
140
0.0
102
RTVSPost2010PropOp38
 70
     1
102
RTVSPost2010Prop39
140
1.0
102
RTVSPost2010PropOp39
 70
     1
102
RTVSPost2010Prop40
 90
        0
102
RTVSPost2010PropOp40
 70
     1
102
RTVSPost2010Prop41ColorIndex
 90
       18
102
RTVSPost2010Prop41ColorRGB
 90
        0
102
RTVSPost2010PropOp41
 70
     1
102
RTVSPost2010Prop42
 90
       50
102
RTVSPost2010PropOp42
 70
     1
102
RTVSPost2010Prop43
 90
        3
102
RTVSPost2010PropOp43
 70
     1
102
RTVSPost2010Prop44ColorIndex
 90
        5
102
RTVSPost2010Prop44ColorRGB
 90
      255
102
RTVSPost2010PropOp44
 70
     1
102
RTVSPost2010Prop45
280
     0
102
RTVSPost2010PropOp45
 70
     1
102
RTVSPost2010Prop46
 90
       50
102
RTVSPost2010PropOp46
 70
     1
102
RTVSPost2010Prop47
 90
       50
102
RTVSPost2010PropOp47
 70
     1
102
RTVSPost2010Prop48
 90
       50
102
RTVSPost2010PropOp48
 70
     1
102
RTVSPost2010Prop49
280
     0
102
RTVSPost2010PropOp49
 70
     1
102
RTVSPost2010Prop50
 90
       50
102
RTVSPost2010PropOp50
 70
     1
102
RTVSPost2010Prop51ColorIndex
 90
      256
102
RTVSPost2010Prop51ColorRGB
 90
-16777216
102
RTVSPost2010PropOp51
 70
     0
102
RTVSPost2010Prop52
140
1.0
102
RTVSPost2010PropOp52
 70
     0
102
RTVSPost2010Prop53
 90
        2
102
RTVSPost2010PropOp53
 70
     1
102
RTVSPost2010Prop54
  1
strokes_ogs.tif
102
RTVSPost2010PropOp54
 70
     1
102
RTVSPost2010Prop55
280
     0
102
RTVSPost2010PropOp55
 70
     1
102
RTVSPost2010Prop56
140
1.0
102
RTVSPost2010PropOp56
 70
     1
102
RTVSPost2010Prop57
140
1.0
102
RTVSPost2010PropOp57
 70
     1
  0
XRECORD
  5
1B7
102
{ACAD_REACTORS
330
1B6
102
}
330
1B6
100
AcDbXrecord
280
     1
102
RTVSPropertyOp0
 70
     1
102
RTVSPropertyOp1
 70
     1
102
RTVSPropertyOp2
 70
     1
102
RTVSPropertyOp3
 70
     1
102
RTVSPropertyOp4
 70
     1
102
RTVSPropertyOp5
 70
     1
102
RTVSPropertyOp6
 70
     1
102
RTVSPropertyOp7
 70
     1
102
RTVSPropertyOp8
 70
     1
102
RTVSPropertyOp9
 70
     1
102
RTVSPropertyOp10
 70
     1
102
RTVSPropertyOp11
 70
     1
102
RTVSPropertyOp12
 70
     1
102
RTVSPropertyOp13
 70
     1
102
RTVSPropertyOp14
 70
     1
102
RTVSPropertyOp15
 70
     1
102
RTVSPropertyOp16
 70
     1
102
RTVSPropertyOp17
 70
     1
102
RTVSPropertyOp18
 70
     1
102
RTVSPropertyOp19
 70
     1
102
RTVSPropertyOp20
 70
     1
102
RTVSPropertyOp21
 70
     1
102
RTVSPropertyOp22
 70
     1
102
RTVSPropertyOp23
 70
     1
102
RTVSPropertyOp24
 70
     1
102
RTVSPropertyOp25
 70
     1
102
RTVSPropertyOp26
 70
     1
102
RTVSPropertyOp27
 70
     1
102
RTVSPropertyOp28
 70
     1
102
RTVSPropertyOp29
 70
     1
102
RTVSPropertyOp30
 70
     1
102
RTVSPropertyOp31
 70
     1
102
RTVSPropertyOp32
 70
     1
102
RTVSPropertyOp33
 70
     1
102
RTVSPropertyOp34
 70
     1
102
RTVSPropertyOp35
 70
     1
102
RTVSPropertyOp36
 70
     1
102
RTVSPropertyOp37
 70
     1
102
RTVSPropertyOp38
 70
     1
102
RTVSPropertyOp39
 70
     1
102
RTVSPropertyOp40
 70
     1
102
RTVSPropertyOp41
 70
     1
102
RTVSPropertyOp42
 70
     1
102
RTVSPropertyOp43
 70
     1
102
RTVSPropertyOp44
 70
     1
102
RTVSPropertyOp45
 70
     1
102
RTVSPropertyOp46
 70
     1
102
RTVSPropertyOp47
 70
     1
102
RTVSPropertyOp48
 70
     1
102
RTVSPropertyOp49
 70
     1
102
RTVSPropertyOp50
 70
     1
102
RTVSPropertyOp51
 70
     0
102
RTVSPropertyOp52
 70
     0
102
RTVSPropertyOp53
 70
     1
102
RTVSPropertyOp54
 70
     1
102
RTVSPropertyOp55
 70
     1
102
RTVSPropertyOp56
 70
     1
102
RTVSPropertyOp57
 70
     1
102
RTVSPost2010Prop28
280
     0
102
RTVSPost2010PropOp28
 70
     1
102
RTVSPost2010Prop29
280
     1
102
RTVSPost2010PropOp29
 70
     1
102
RTVSPost2010Prop30
280
     1
102
RTVSPost2010PropOp30
 70
     1
102
RTVSPost2010Prop31
280
     0
102
RTVSPost2010PropOp31
 70
     1
102
RTVSPost2010Prop32
280
     0
102
RTVSPost2010PropOp32
 70
     1
102
RTVSPost2010Prop33
280
     0
102
RTVSPost2010PropOp33
 70
     1
102
RTVSPost2010Prop34
280
     0
102
RTVSPost2010PropOp34
 70
     1
102
RTVSPost2010Prop35
280
     0
102
RTVSPost2010PropOp35
 70
     1
102
RTVSPost2010Prop36
280
     0
102
RTVSPost2010PropOp36
 70
     1
102
RTVSPost2010Prop37
 90
       50
102
RTVSPost2010PropOp37
 70
     1
102
RTVSPost2010Prop38
140
0.0
102
RTVSPost2010PropOp38
 70
     1
102
RTVSPost2010Prop39
140
1.0
102
RTVSPost2010PropOp39
 70
     1
102
RTVSPost2010Prop40
 90
        0
102
RTVSPost2010PropOp40
 70
     1
102
RTVSPost2010Prop41ColorIndex
 90
       18
102
RTVSPost2010Prop41ColorRGB
 90
        0
102
RTVSPost2010PropOp41
 70
     1
102
RTVSPost2010Prop42
 90
       50
102
RTVSPost2010PropOp42
 70
     1
102
RTVSPost2010Prop43
 90
        3
102
RTVSPost2010PropOp43
 70
     1
102
RTVSPost2010Prop44ColorIndex
 90
        5
102
RTVSPost2010Prop44ColorRGB
 90
      255
102
RTVSPost2010PropOp44
 70
     1
102
RTVSPost2010Prop45
280
     0
102
RTVSPost2010PropOp45
 70
     1
102
RTVSPost2010Prop46
 90
       50
102
RTVSPost2010PropOp46
 70
     1
102
RTVSPost2010Prop47
 90
       50
102
RTVSPost2010PropOp47
 70
     1
102
RTVSPost2010Prop48
 90
       50
102
RTVSPost2010PropOp48
 70
     1
102
RTVSPost2010Prop49
280
     0
102
RTVSPost2010PropOp49
 70
     1
102
RTVSPost2010Prop50
 90
       50
102
RTVSPost2010PropOp50
 70
     1
102
RTVSPost2010Prop51ColorIndex
 90
      256
102
RTVSPost2010Prop51ColorRGB
 90
-16777216
102
RTVSPost2010PropOp51
 70
     0
102
RTVSPost2010Prop52
140
1.0
102
RTVSPost2010PropOp52
 70
     0
102
RTVSPost2010Prop53
 90
        2
102
RTVSPost2010PropOp53
 70
     1
102
RTVSPost2010Prop54
  1
strokes_ogs.tif
102
RTVSPost2010PropOp54
 70
     1
102
RTVSPost2010Prop55
280
     0
102
RTVSPost2010PropOp55
 70
     1
102
RTVSPost2010Prop56
140
1.0
102
RTVSPost2010PropOp56
 70
     1
102
RTVSPost2010Prop57
140
1.0
102
RTVSPost2010PropOp57
 70
     1
  0
XRECORD
  5
1CB
102
{ACAD_REACTORS
330
1CA
102
}
330
1CA
100
AcDbXrecord
280
     1
102
RTVSPropertyOp0
 70
     0
102
RTVSPropertyOp1
 70
     0
102
RTVSPropertyOp2
 70
     0
102
RTVSPropertyOp3
 70
     0
102
RTVSPropertyOp4
 70
     0
102
RTVSPropertyOp5
 70
     0
102
RTVSPropertyOp6
 70
     0
102
RTVSPropertyOp7
 70
     0
102
RTVSPropertyOp8
 70
     0
102
RTVSPropertyOp9
 70
     0
102
RTVSPropertyOp10
 70
     0
102
RTVSPropertyOp11
 70
     0
102
RTVSPropertyOp12
 70
     0
102
RTVSPropertyOp13
 70
     0
102
RTVSPropertyOp14
 70
     2
102
RTVSPropertyOp15
 70
     0
102
RTVSPropertyOp16
 70
     0
102
RTVSPropertyOp17
 70
     0
102
RTVSPropertyOp18
 70
     0
102
RTVSPropertyOp19
 70
     0
102
RTVSPropertyOp20
 70
     0
102
RTVSPropertyOp21
 70
     0
102
RTVSPropertyOp22
 70
     0
102
RTVSPropertyOp23
 70
     0
102
RTVSPropertyOp24
 70
     0
102
RTVSPropertyOp25
 70
     0
102
RTVSPropertyOp26
 70
     0
102
RTVSPropertyOp27
 70
     0
102
RTVSPropertyOp28
 70
     0
102
RTVSPropertyOp29
 70
     0
102
RTVSPropertyOp30
 70
     0
102
RTVSPropertyOp31
 70
     0
102
RTVSPropertyOp32
 70
     0
102
RTVSPropertyOp33
 70
     0
102
RTVSPropertyOp34
 70
     0
102
RTVSPropertyOp35
 70
     0
102
RTVSPropertyOp36
 70
     0
102
RTVSPropertyOp37
 70
     0
102
RTVSPropertyOp38
 70
     0
102
RTVSPropertyOp39
 70
     0
102
RTVSPropertyOp40
 70
     0
102
RTVSPropertyOp41
 70
     0
102
RTVSPropertyOp42
 70
     0
102
RTVSPropertyOp43
 70
     0
102
RTVSPropertyOp44
 70
     0
102
RTVSPropertyOp45
 70
     0
102
RTVSPropertyOp46
 70
     0
102
RTVSPropertyOp47
 70
     0
102
RTVSPropertyOp48
 70
     0
102
RTVSPropertyOp49
 70
     0
102
RTVSPropertyOp50
 70
     0
102
RTVSPropertyOp51
 70
     0
102
RTVSPropertyOp52
 70
     0
102
RTVSPropertyOp53
 70
     0
102
RTVSPropertyOp54
 70
     0
102
RTVSPropertyOp55
 70
     0
102
RTVSPropertyOp56
 70
     0
102
RTVSPropertyOp57
 70
     0
102
RTVSPost2010Prop28
280
     0
102
RTVSPost2010PropOp28
 70
     0
102
RTVSPost2010Prop29
280
     1
102
RTVSPost2010PropOp29
 70
     0
102
RTVSPost2010Prop30
280
     1
102
RTVSPost2010PropOp30
 70
     0
102
RTVSPost2010Prop31
280
     0
102
RTVSPost2010PropOp31
 70
     0
102
RTVSPost2010Prop32
280
     0
102
RTVSPost2010PropOp32
 70
     0
102
RTVSPost2010Prop33
280
     0
102
RTVSPost2010PropOp33
 70
     0
102
RTVSPost2010Prop34
280
     0
102
RTVSPost2010PropOp34
 70
     0
102
RTVSPost2010Prop35
280
     0
102
RTVSPost2010PropOp35
 70
     0
102
RTVSPost2010Prop36
280
     0
102
RTVSPost2010PropOp36
 70
     0
102
RTVSPost2010Prop37
 90
       50
102
RTVSPost2010PropOp37
 70
     0
102
RTVSPost2010Prop38
140
0.0
102
RTVSPost2010PropOp38
 70
     0
102
RTVSPost2010Prop39
140
1.0
102
RTVSPost2010PropOp39
 70
     0
102
RTVSPost2010Prop40
 90
        0
102
RTVSPost2010PropOp40
 70
     0
102
RTVSPost2010Prop41ColorIndex
 90
       18
102
RTVSPost2010Prop41ColorRGB
 90
        0
102
RTVSPost2010PropOp41
 70
     0
102
RTVSPost2010Prop42
 90
       50
102
RTVSPost2010PropOp42
 70
     0
102
RTVSPost2010Prop43
 90
        3
102
RTVSPost2010PropOp43
 70
     0
102
RTVSPost2010Prop44ColorIndex
 90
        5
102
RTVSPost2010Prop44ColorRGB
 90
      255
102
RTVSPost2010PropOp44
 70
     0
102
RTVSPost2010Prop45
280
     0
102
RTVSPost2010PropOp45
 70
     0
102
RTVSPost2010Prop46
 90
       50
102
RTVSPost2010PropOp46
 70
     0
102
RTVSPost2010Prop47
 90
       50
102
RTVSPost2010PropOp47
 70
     0
102
RTVSPost2010Prop48
 90
       50
102
RTVSPost2010PropOp48
 70
     0
102
RTVSPost2010Prop49
280
     0
102
RTVSPost2010PropOp49
 70
     0
102
RTVSPost2010Prop50
 90
       50
102
RTVSPost2010PropOp50
 70
     0
102
RTVSPost2010Prop51ColorIndex
 90
      256
102
RTVSPost2010Prop51ColorRGB
 90
-16777216
102
RTVSPost2010PropOp51
 70
     0
102
RTVSPost2010Prop52
140
1.0
102
RTVSPost2010PropOp52
 70
     0
102
RTVSPost2010Prop53
 90
        2
102
RTVSPost2010PropOp53
 70
     0
102
RTVSPost2010Prop54
  1
strokes_ogs.tif
102
RTVSPost2010PropOp54
 70
     0
102
RTVSPost2010Prop55
280
     0
102
RTVSPost2010PropOp55
 70
     0
102
RTVSPost2010Prop56
140
1.0
102
RTVSPost2010PropOp56
 70
     0
102
RTVSPost2010Prop57
140
1.0
102
RTVSPost2010PropOp57
 70
     0
  0
XRECORD
  5
1C5
102
{ACAD_REACTORS
330
1C4
102
}
330
1C4
100
AcDbXrecord
280
     1
102
RTVSPropertyOp0
 70
     1
102
RTVSPropertyOp1
 70
     1
102
RTVSPropertyOp2
 70
     1
102
RTVSPropertyOp3
 70
     1
102
RTVSPropertyOp4
 70
     1
102
RTVSPropertyOp5
 70
     1
102
RTVSPropertyOp6
 70
     1
102
RTVSPropertyOp7
 70
     1
102
RTVSPropertyOp8
 70
     1
102
RTVSPropertyOp9
 70
     1
102
RTVSPropertyOp10
 70
     1
102
RTVSPropertyOp11
 70
     1
102
RTVSPropertyOp12
 70
     1
102
RTVSPropertyOp13
 70
     1
102
RTVSPropertyOp14
 70
     1
102
RTVSPropertyOp15
 70
     1
102
RTVSPropertyOp16
 70
     1
102
RTVSPropertyOp17
 70
     1
102
RTVSPropertyOp18
 70
     1
102
RTVSPropertyOp19
 70
     1
102
RTVSPropertyOp20
 70
     1
102
RTVSPropertyOp21
 70
     1
102
RTVSPropertyOp22
 70
     1
102
RTVSPropertyOp23
 70
     1
102
RTVSPropertyOp24
 70
     1
102
RTVSPropertyOp25
 70
     1
102
RTVSPropertyOp26
 70
     1
102
RTVSPropertyOp27
 70
     1
102
RTVSPropertyOp28
 70
     1
102
RTVSPropertyOp29
 70
     1
102
RTVSPropertyOp30
 70
     1
102
RTVSPropertyOp31
 70
     1
102
RTVSPropertyOp32
 70
     1
102
RTVSPropertyOp33
 70
     1
102
RTVSPropertyOp34
 70
     1
102
RTVSPropertyOp35
 70
     1
102
RTVSPropertyOp36
 70
     1
102
RTVSPropertyOp37
 70
     1
102
RTVSPropertyOp38
 70
     1
102
RTVSPropertyOp39
 70
     1
102
RTVSPropertyOp40
 70
     1
102
RTVSPropertyOp41
 70
     1
102
RTVSPropertyOp42
 70
     1
102
RTVSPropertyOp43
 70
     1
102
RTVSPropertyOp44
 70
     1
102
RTVSPropertyOp45
 70
     1
102
RTVSPropertyOp46
 70
     1
102
RTVSPropertyOp47
 70
     1
102
RTVSPropertyOp48
 70
     1
102
RTVSPropertyOp49
 70
     1
102
RTVSPropertyOp50
 70
     1
102
RTVSPropertyOp51
 70
     0
102
RTVSPropertyOp52
 70
     0
102
RTVSPropertyOp53
 70
     1
102
RTVSPropertyOp54
 70
     1
102
RTVSPropertyOp55
 70
     1
102
RTVSPropertyOp56
 70
     1
102
RTVSPropertyOp57
 70
     1
102
RTVSPost2010Prop28
280
     0
102
RTVSPost2010PropOp28
 70
     1
102
RTVSPost2010Prop29
280
     1
102
RTVSPost2010PropOp29
 70
     1
102
RTVSPost2010Prop30
280
     1
102
RTVSPost2010PropOp30
 70
     1
102
RTVSPost2010Prop31
280
     0
102
RTVSPost2010PropOp31
 70
     1
102
RTVSPost2010Prop32
280
     0
102
RTVSPost2010PropOp32
 70
     1
102
RTVSPost2010Prop33
280
     0
102
RTVSPost2010PropOp33
 70
     1
102
RTVSPost2010Prop34
280
     0
102
RTVSPost2010PropOp34
 70
     1
102
RTVSPost2010Prop35
280
     0
102
RTVSPost2010PropOp35
 70
     1
102
RTVSPost2010Prop36
280
     0
102
RTVSPost2010PropOp36
 70
     1
102
RTVSPost2010Prop37
 90
       50
102
RTVSPost2010PropOp37
 70
     1
102
RTVSPost2010Prop38
140
0.0
102
RTVSPost2010PropOp38
 70
     1
102
RTVSPost2010Prop39
140
1.0
102
RTVSPost2010PropOp39
 70
     1
102
RTVSPost2010Prop40
 90
        0
102
RTVSPost2010PropOp40
 70
     1
102
RTVSPost2010Prop41ColorIndex
 90
       18
102
RTVSPost2010Prop41ColorRGB
 90
        0
102
RTVSPost2010PropOp41
 70
     1
102
RTVSPost2010Prop42
 90
       50
102
RTVSPost2010PropOp42
 70
     1
102
RTVSPost2010Prop43
 90
        3
102
RTVSPost2010PropOp43
 70
     1
102
RTVSPost2010Prop44ColorIndex
 90
        5
102
RTVSPost2010Prop44ColorRGB
 90
      255
102
RTVSPost2010PropOp44
 70
     1
102
RTVSPost2010Prop45
280
     0
102
RTVSPost2010PropOp45
 70
     1
102
RTVSPost2010Prop46
 90
       50
102
RTVSPost2010PropOp46
 70
     1
102
RTVSPost2010Prop47
 90
       50
102
RTVSPost2010PropOp47
 70
     1
102
RTVSPost2010Prop48
 90
       50
102
RTVSPost2010PropOp48
 70
     1
102
RTVSPost2010Prop49
280
     0
102
RTVSPost2010PropOp49
 70
     1
102
RTVSPost2010Prop50
 90
       50
102
RTVSPost2010PropOp50
 70
     1
102
RTVSPost2010Prop51ColorIndex
 90
      256
102
RTVSPost2010Prop51ColorRGB
 90
-16777216
102
RTVSPost2010PropOp51
 70
     0
102
RTVSPost2010Prop52
140
1.0
102
RTVSPost2010PropOp52
 70
     0
102
RTVSPost2010Prop53
 90
        2
102
RTVSPost2010PropOp53
 70
     1
102
RTVSPost2010Prop54
  1
strokes_ogs.tif
102
RTVSPost2010PropOp54
 70
     1
102
RTVSPost2010Prop55
280
     0
102
RTVSPost2010PropOp55
 70
     1
102
RTVSPost2010Prop56
140
1.0
102
RTVSPost2010PropOp56
 70
     1
102
RTVSPost2010Prop57
140
1.0
102
RTVSPost2010PropOp57
 70
     1
  0
XRECORD
  5
1CD
102
{ACAD_REACTORS
330
1CC
102
}
330
1CC
100
AcDbXrecord
280
     1
102
RTVSPropertyOp0
 70
     0
102
RTVSPropertyOp1
 70
     0
102
RTVSPropertyOp2
 70
     0
102
RTVSPropertyOp3
 70
     0
102
RTVSPropertyOp4
 70
     0
102
RTVSPropertyOp5
 70
     0
102
RTVSPropertyOp6
 70
     0
102
RTVSPropertyOp7
 70
     0
102
RTVSPropertyOp8
 70
     0
102
RTVSPropertyOp9
 70
     0
102
RTVSPropertyOp10
 70
     0
102
RTVSPropertyOp11
 70
     0
102
RTVSPropertyOp12
 70
     0
102
RTVSPropertyOp13
 70
     0
102
RTVSPropertyOp14
 70
     2
102
RTVSPropertyOp15
 70
     0
102
RTVSPropertyOp16
 70
     0
102
RTVSPropertyOp17
 70
     0
102
RTVSPropertyOp18
 70
     0
102
RTVSPropertyOp19
 70
     0
102
RTVSPropertyOp20
 70
     0
102
RTVSPropertyOp21
 70
     0
102
RTVSPropertyOp22
 70
     0
102
RTVSPropertyOp23
 70
     0
102
RTVSPropertyOp24
 70
     0
102
RTVSPropertyOp25
 70
     0
102
RTVSPropertyOp26
 70
     0
102
RTVSPropertyOp27
 70
     0
102
RTVSPropertyOp28
 70
     0
102
RTVSPropertyOp29
 70
     0
102
RTVSPropertyOp30
 70
     0
102
RTVSPropertyOp31
 70
     0
102
RTVSPropertyOp32
 70
     0
102
RTVSPropertyOp33
 70
     0
102
RTVSPropertyOp34
 70
     0
102
RTVSPropertyOp35
 70
     0
102
RTVSPropertyOp36
 70
     0
102
RTVSPropertyOp37
 70
     0
102
RTVSPropertyOp38
 70
     0
102
RTVSPropertyOp39
 70
     0
102
RTVSPropertyOp40
 70
     0
102
RTVSPropertyOp41
 70
     0
102
RTVSPropertyOp42
 70
     0
102
RTVSPropertyOp43
 70
     0
102
RTVSPropertyOp44
 70
     0
102
RTVSPropertyOp45
 70
     0
102
RTVSPropertyOp46
 70
     0
102
RTVSPropertyOp47
 70
     0
102
RTVSPropertyOp48
 70
     0
102
RTVSPropertyOp49
 70
     0
102
RTVSPropertyOp50
 70
     0
102
RTVSPropertyOp51
 70
     0
102
RTVSPropertyOp52
 70
     0
102
RTVSPropertyOp53
 70
     0
102
RTVSPropertyOp54
 70
     0
102
RTVSPropertyOp55
 70
     0
102
RTVSPropertyOp56
 70
     0
102
RTVSPropertyOp57
 70
     0
102
RTVSPost2010Prop28
280
     0
102
RTVSPost2010PropOp28
 70
     0
102
RTVSPost2010Prop29
280
     1
102
RTVSPost2010PropOp29
 70
     0
102
RTVSPost2010Prop30
280
     1
102
RTVSPost2010PropOp30
 70
     0
102
RTVSPost2010Prop31
280
     0
102
RTVSPost2010PropOp31
 70
     0
102
RTVSPost2010Prop32
280
     0
102
RTVSPost2010PropOp32
 70
     0
102
RTVSPost2010Prop33
280
     0
102
RTVSPost2010PropOp33
 70
     0
102
RTVSPost2010Prop34
280
     0
102
RTVSPost2010PropOp34
 70
     0
102
RTVSPost2010Prop35
280
     0
102
RTVSPost2010PropOp35
 70
     0
102
RTVSPost2010Prop36
280
     0
102
RTVSPost2010PropOp36
 70
     0
102
RTVSPost2010Prop37
 90
       50
102
RTVSPost2010PropOp37
 70
     0
102
RTVSPost2010Prop38
140
0.0
102
RTVSPost2010PropOp38
 70
     0
102
RTVSPost2010Prop39
140
1.0
102
RTVSPost2010PropOp39
 70
     0
102
RTVSPost2010Prop40
 90
        0
102
RTVSPost2010PropOp40
 70
     0
102
RTVSPost2010Prop41ColorIndex
 90
       18
102
RTVSPost2010Prop41ColorRGB
 90
        0
102
RTVSPost2010PropOp41
 70
     0
102
RTVSPost2010Prop42
 90
       50
102
RTVSPost2010PropOp42
 70
     0
102
RTVSPost2010Prop43
 90
        3
102
RTVSPost2010PropOp43
 70
     0
102
RTVSPost2010Prop44ColorIndex
 90
        5
102
RTVSPost2010Prop44ColorRGB
 90
      255
102
RTVSPost2010PropOp44
 70
     0
102
RTVSPost2010Prop45
280
     0
102
RTVSPost2010PropOp45
 70
     0
102
RTVSPost2010Prop46
 90
       50
102
RTVSPost2010PropOp46
 70
     0
102
RTVSPost2010Prop47
 90
       50
102
RTVSPost2010PropOp47
 70
     0
102
RTVSPost2010Prop48
 90
       50
102
RTVSPost2010PropOp48
 70
     0
102
RTVSPost2010Prop49
280
     0
102
RTVSPost2010PropOp49
 70
     0
102
RTVSPost2010Prop50
 90
       50
102
RTVSPost2010PropOp50
 70
     0
102
RTVSPost2010Prop51ColorIndex
 90
      256
102
RTVSPost2010Prop51ColorRGB
 90
-16777216
102
RTVSPost2010PropOp51
 70
     0
102
RTVSPost2010Prop52
140
1.0
102
RTVSPost2010PropOp52
 70
     0
102
RTVSPost2010Prop53
 90
        2
102
RTVSPost2010PropOp53
 70
     0
102
RTVSPost2010Prop54
  1
strokes_ogs.tif
102
RTVSPost2010PropOp54
 70
     0
102
RTVSPost2010Prop55
280
     0
102
RTVSPost2010PropOp55
 70
     0
102
RTVSPost2010Prop56
140
1.0
102
RTVSPost2010PropOp56
 70
     0
102
RTVSPost2010Prop57
140
1.0
102
RTVSPost2010PropOp57
 70
     0
  0
XRECORD
  5
1BB
102
{ACAD_REACTORS
330
1BA
102
}
330
1BA
100
AcDbXrecord
280
     1
102
RTVSPropertyOp0
 70
     1
102
RTVSPropertyOp1
 70
     1
102
RTVSPropertyOp2
 70
     1
102
RTVSPropertyOp3
 70
     1
102
RTVSPropertyOp4
 70
     1
102
RTVSPropertyOp5
 70
     1
102
RTVSPropertyOp6
 70
     1
102
RTVSPropertyOp7
 70
     1
102
RTVSPropertyOp8
 70
     1
102
RTVSPropertyOp9
 70
     1
102
RTVSPropertyOp10
 70
     1
102
RTVSPropertyOp11
 70
     1
102
RTVSPropertyOp12
 70
     1
102
RTVSPropertyOp13
 70
     1
102
RTVSPropertyOp14
 70
     1
102
RTVSPropertyOp15
 70
     1
102
RTVSPropertyOp16
 70
     1
102
RTVSPropertyOp17
 70
     1
102
RTVSPropertyOp18
 70
     1
102
RTVSPropertyOp19
 70
     1
102
RTVSPropertyOp20
 70
     1
102
RTVSPropertyOp21
 70
     1
102
RTVSPropertyOp22
 70
     1
102
RTVSPropertyOp23
 70
     1
102
RTVSPropertyOp24
 70
     1
102
RTVSPropertyOp25
 70
     1
102
RTVSPropertyOp26
 70
     1
102
RTVSPropertyOp27
 70
     1
102
RTVSPropertyOp28
 70
     1
102
RTVSPropertyOp29
 70
     1
102
RTVSPropertyOp30
 70
     1
102
RTVSPropertyOp31
 70
     1
102
RTVSPropertyOp32
 70
     1
102
RTVSPropertyOp33
 70
     1
102
RTVSPropertyOp34
 70
     1
102
RTVSPropertyOp35
 70
     1
102
RTVSPropertyOp36
 70
     1
102
RTVSPropertyOp37
 70
     1
102
RTVSPropertyOp38
 70
     1
102
RTVSPropertyOp39
 70
     1
102
RTVSPropertyOp40
 70
     1
102
RTVSPropertyOp41
 70
     1
102
RTVSPropertyOp42
 70
     1
102
RTVSPropertyOp43
 70
     1
102
RTVSPropertyOp44
 70
     1
102
RTVSPropertyOp45
 70
     1
102
RTVSPropertyOp46
 70
     1
102
RTVSPropertyOp47
 70
     1
102
RTVSPropertyOp48
 70
     1
102
RTVSPropertyOp49
 70
     1
102
RTVSPropertyOp50
 70
     1
102
RTVSPropertyOp51
 70
     0
102
RTVSPropertyOp52
 70
     0
102
RTVSPropertyOp53
 70
     1
102
RTVSPropertyOp54
 70
     1
102
RTVSPropertyOp55
 70
     1
102
RTVSPropertyOp56
 70
     1
102
RTVSPropertyOp57
 70
     1
102
RTVSPost2010Prop28
280
     0
102
RTVSPost2010PropOp28
 70
     1
102
RTVSPost2010Prop29
280
     1
102
RTVSPost2010PropOp29
 70
     1
102
RTVSPost2010Prop30
280
     1
102
RTVSPost2010PropOp30
 70
     1
102
RTVSPost2010Prop31
280
     0
102
RTVSPost2010PropOp31
 70
     1
102
RTVSPost2010Prop32
280
     0
102
RTVSPost2010PropOp32
 70
     1
102
RTVSPost2010Prop33
280
     0
102
RTVSPost2010PropOp33
 70
     1
102
RTVSPost2010Prop34
280
     0
102
RTVSPost2010PropOp34
 70
     1
102
RTVSPost2010Prop35
280
     0
102
RTVSPost2010PropOp35
 70
     1
102
RTVSPost2010Prop36
280
     0
102
RTVSPost2010PropOp36
 70
     1
102
RTVSPost2010Prop37
 90
       50
102
RTVSPost2010PropOp37
 70
     1
102
RTVSPost2010Prop38
140
0.0
102
RTVSPost2010PropOp38
 70
     1
102
RTVSPost2010Prop39
140
1.0
102
RTVSPost2010PropOp39
 70
     1
102
RTVSPost2010Prop40
 90
        0
102
RTVSPost2010PropOp40
 70
     1
102
RTVSPost2010Prop41ColorIndex
 90
       18
102
RTVSPost2010Prop41ColorRGB
 90
        0
102
RTVSPost2010PropOp41
 70
     1
102
RTVSPost2010Prop42
 90
       50
102
RTVSPost2010PropOp42
 70
     1
102
RTVSPost2010Prop43
 90
        3
102
RTVSPost2010PropOp43
 70
     1
102
RTVSPost2010Prop44ColorIndex
 90
        5
102
RTVSPost2010Prop44ColorRGB
 90
      255
102
RTVSPost2010PropOp44
 70
     1
102
RTVSPost2010Prop45
280
     0
102
RTVSPost2010PropOp45
 70
     1
102
RTVSPost2010Prop46
 90
       50
102
RTVSPost2010PropOp46
 70
     1
102
RTVSPost2010Prop47
 90
       50
102
RTVSPost2010PropOp47
 70
     1
102
RTVSPost2010Prop48
 90
       50
102
RTVSPost2010PropOp48
 70
     1
102
RTVSPost2010Prop49
280
     0
102
RTVSPost2010PropOp49
 70
     1
102
RTVSPost2010Prop50
 90
       50
102
RTVSPost2010PropOp50
 70
     1
102
RTVSPost2010Prop51ColorIndex
 90
      256
102
RTVSPost2010Prop51ColorRGB
 90
-16777216
102
RTVSPost2010PropOp51
 70
     0
102
RTVSPost2010Prop52
140
1.0
102
RTVSPost2010PropOp52
 70
     0
102
RTVSPost2010Prop53
 90
        2
102
RTVSPost2010PropOp53
 70
     1
102
RTVSPost2010Prop54
  1
strokes_ogs.tif
102
RTVSPost2010PropOp54
 70
     1
102
RTVSPost2010Prop55
280
     0
102
RTVSPost2010PropOp55
 70
     1
102
RTVSPost2010Prop56
140
1.0
102
RTVSPost2010PropOp56
 70
     1
102
RTVSPost2010Prop57
140
1.0
102
RTVSPost2010PropOp57
 70
     1
  0
XRECORD
  5
1D9
102
{ACAD_REACTORS
330
1D8
102
}
330
1D8
100
AcDbXrecord
280
     1
102
RTVSPropertyOp0
 70
     1
102
RTVSPropertyOp1
 70
     1
102
RTVSPropertyOp2
 70
     1
102
RTVSPropertyOp3
 70
     1
102
RTVSPropertyOp4
 70
     1
102
RTVSPropertyOp5
 70
     1
102
RTVSPropertyOp6
 70
     1
102
RTVSPropertyOp7
 70
     1
102
RTVSPropertyOp8
 70
     1
102
RTVSPropertyOp9
 70
     1
102
RTVSPropertyOp10
 70
     1
102
RTVSPropertyOp11
 70
     1
102
RTVSPropertyOp12
 70
     1
102
RTVSPropertyOp13
 70
     1
102
RTVSPropertyOp14
 70
     1
102
RTVSPropertyOp15
 70
     1
102
RTVSPropertyOp16
 70
     1
102
RTVSPropertyOp17
 70
     1
102
RTVSPropertyOp18
 70
     1
102
RTVSPropertyOp19
 70
     1
102
RTVSPropertyOp20
 70
     1
102
RTVSPropertyOp21
 70
     1
102
RTVSPropertyOp22
 70
     1
102
RTVSPropertyOp23
 70
     1
102
RTVSPropertyOp24
 70
     1
102
RTVSPropertyOp25
 70
     1
102
RTVSPropertyOp26
 70
     1
102
RTVSPropertyOp27
 70
     1
102
RTVSPropertyOp28
 70
     1
102
RTVSPropertyOp29
 70
     1
102
RTVSPropertyOp30
 70
     1
102
RTVSPropertyOp31
 70
     1
102
RTVSPropertyOp32
 70
     1
102
RTVSPropertyOp33
 70
     1
102
RTVSPropertyOp34
 70
     1
102
RTVSPropertyOp35
 70
     1
102
RTVSPropertyOp36
 70
     1
102
RTVSPropertyOp37
 70
     1
102
RTVSPropertyOp38
 70
     1
102
RTVSPropertyOp39
 70
     1
102
RTVSPropertyOp40
 70
     1
102
RTVSPropertyOp41
 70
     1
102
RTVSPropertyOp42
 70
     1
102
RTVSPropertyOp43
 70
     1
102
RTVSPropertyOp44
 70
     1
102
RTVSPropertyOp45
 70
     1
102
RTVSPropertyOp46
 70
     1
102
RTVSPropertyOp47
 70
     1
102
RTVSPropertyOp48
 70
     1
102
RTVSPropertyOp49
 70
     1
102
RTVSPropertyOp50
 70
     1
102
RTVSPropertyOp51
 70
     0
102
RTVSPropertyOp52
 70
     0
102
RTVSPropertyOp53
 70
     1
102
RTVSPropertyOp54
 70
     1
102
RTVSPropertyOp55
 70
     1
102
RTVSPropertyOp56
 70
     1
102
RTVSPropertyOp57
 70
     1
102
RTVSPost2010Prop28
280
     0
102
RTVSPost2010PropOp28
 70
     1
102
RTVSPost2010Prop29
280
     1
102
RTVSPost2010PropOp29
 70
     1
102
RTVSPost2010Prop30
280
     1
102
RTVSPost2010PropOp30
 70
     1
102
RTVSPost2010Prop31
280
     0
102
RTVSPost2010PropOp31
 70
     1
102
RTVSPost2010Prop32
280
     0
102
RTVSPost2010PropOp32
 70
     1
102
RTVSPost2010Prop33
280
     0
102
RTVSPost2010PropOp33
 70
     1
102
RTVSPost2010Prop34
280
     0
102
RTVSPost2010PropOp34
 70
     1
102
RTVSPost2010Prop35
280
     0
102
RTVSPost2010PropOp35
 70
     1
102
RTVSPost2010Prop36
280
     0
102
RTVSPost2010PropOp36
 70
     1
102
RTVSPost2010Prop37
 90
       50
102
RTVSPost2010PropOp37
 70
     1
102
RTVSPost2010Prop38
140
0.0
102
RTVSPost2010PropOp38
 70
     1
102
RTVSPost2010Prop39
140
1.0
102
RTVSPost2010PropOp39
 70
     1
102
RTVSPost2010Prop40
 90
        0
102
RTVSPost2010PropOp40
 70
     1
102
RTVSPost2010Prop41ColorIndex
 90
       18
102
RTVSPost2010Prop41ColorRGB
 90
        0
102
RTVSPost2010PropOp41
 70
     1
102
RTVSPost2010Prop42
 90
       50
102
RTVSPost2010PropOp42
 70
     1
102
RTVSPost2010Prop43
 90
        3
102
RTVSPost2010PropOp43
 70
     1
102
RTVSPost2010Prop44ColorIndex
 90
        5
102
RTVSPost2010Prop44ColorRGB
 90
      255
102
RTVSPost2010PropOp44
 70
     1
102
RTVSPost2010Prop45
280
     0
102
RTVSPost2010PropOp45
 70
     1
102
RTVSPost2010Prop46
 90
       50
102
RTVSPost2010PropOp46
 70
     1
102
RTVSPost2010Prop47
 90
       50
102
RTVSPost2010PropOp47
 70
     1
102
RTVSPost2010Prop48
 90
       50
102
RTVSPost2010PropOp48
 70
     1
102
RTVSPost2010Prop49
280
     0
102
RTVSPost2010PropOp49
 70
     1
102
RTVSPost2010Prop50
 90
       50
102
RTVSPost2010PropOp50
 70
     1
102
RTVSPost2010Prop51ColorIndex
 90
      256
102
RTVSPost2010Prop51ColorRGB
 90
-16777216
102
RTVSPost2010PropOp51
 70
     0
102
RTVSPost2010Prop52
140
1.0
102
RTVSPost2010PropOp52
 70
     0
102
RTVSPost2010Prop53
 90
        2
102
RTVSPost2010PropOp53
 70
     1
102
RTVSPost2010Prop54
  1
strokes_ogs.tif
102
RTVSPost2010PropOp54
 70
     1
102
RTVSPost2010Prop55
280
     0
102
RTVSPost2010PropOp55
 70
     1
102
RTVSPost2010Prop56
140
1.0
102
RTVSPost2010PropOp56
 70
     1
102
RTVSPost2010Prop57
140
1.0
102
RTVSPost2010PropOp57
 70
     1
  0
XRECORD
  5
1D7
102
{ACAD_REACTORS
330
1D6
102
}
330
1D6
100
AcDbXrecord
280
     1
102
RTVSPropertyOp0
 70
     1
102
RTVSPropertyOp1
 70
     1
102
RTVSPropertyOp2
 70
     1
102
RTVSPropertyOp3
 70
     1
102
RTVSPropertyOp4
 70
     1
102
RTVSPropertyOp5
 70
     1
102
RTVSPropertyOp6
 70
     1
102
RTVSPropertyOp7
 70
     1
102
RTVSPropertyOp8
 70
     1
102
RTVSPropertyOp9
 70
     1
102
RTVSPropertyOp10
 70
     1
102
RTVSPropertyOp11
 70
     1
102
RTVSPropertyOp12
 70
     1
102
RTVSPropertyOp13
 70
     1
102
RTVSPropertyOp14
 70
     1
102
RTVSPropertyOp15
 70
     1
102
RTVSPropertyOp16
 70
     1
102
RTVSPropertyOp17
 70
     1
102
RTVSPropertyOp18
 70
     1
102
RTVSPropertyOp19
 70
     1
102
RTVSPropertyOp20
 70
     1
102
RTVSPropertyOp21
 70
     1
102
RTVSPropertyOp22
 70
     1
102
RTVSPropertyOp23
 70
     1
102
RTVSPropertyOp24
 70
     1
102
RTVSPropertyOp25
 70
     1
102
RTVSPropertyOp26
 70
     1
102
RTVSPropertyOp27
 70
     1
102
RTVSPropertyOp28
 70
     1
102
RTVSPropertyOp29
 70
     1
102
RTVSPropertyOp30
 70
     1
102
RTVSPropertyOp31
 70
     1
102
RTVSPropertyOp32
 70
     1
102
RTVSPropertyOp33
 70
     1
102
RTVSPropertyOp34
 70
     1
102
RTVSPropertyOp35
 70
     1
102
RTVSPropertyOp36
 70
     1
102
RTVSPropertyOp37
 70
     1
102
RTVSPropertyOp38
 70
     1
102
RTVSPropertyOp39
 70
     1
102
RTVSPropertyOp40
 70
     1
102
RTVSPropertyOp41
 70
     1
102
RTVSPropertyOp42
 70
     1
102
RTVSPropertyOp43
 70
     1
102
RTVSPropertyOp44
 70
     1
102
RTVSPropertyOp45
 70
     1
102
RTVSPropertyOp46
 70
     1
102
RTVSPropertyOp47
 70
     1
102
RTVSPropertyOp48
 70
     1
102
RTVSPropertyOp49
 70
     1
102
RTVSPropertyOp50
 70
     1
102
RTVSPropertyOp51
 70
     0
102
RTVSPropertyOp52
 70
     0
102
RTVSPropertyOp53
 70
     1
102
RTVSPropertyOp54
 70
     1
102
RTVSPropertyOp55
 70
     1
102
RTVSPropertyOp56
 70
     1
102
RTVSPropertyOp57
 70
     1
102
RTVSPost2010Prop28
280
     0
102
RTVSPost2010PropOp28
 70
     1
102
RTVSPost2010Prop29
280
     1
102
RTVSPost2010PropOp29
 70
     1
102
RTVSPost2010Prop30
280
     1
102
RTVSPost2010PropOp30
 70
     1
102
RTVSPost2010Prop31
280
     0
102
RTVSPost2010PropOp31
 70
     1
102
RTVSPost2010Prop32
280
     0
102
RTVSPost2010PropOp32
 70
     1
102
RTVSPost2010Prop33
280
     0
102
RTVSPost2010PropOp33
 70
     1
102
RTVSPost2010Prop34
280
     0
102
RTVSPost2010PropOp34
 70
     1
102
RTVSPost2010Prop35
280
     0
102
RTVSPost2010PropOp35
 70
     1
102
RTVSPost2010Prop36
280
     0
102
RTVSPost2010PropOp36
 70
     1
102
RTVSPost2010Prop37
 90
       50
102
RTVSPost2010PropOp37
 70
     1
102
RTVSPost2010Prop38
140
0.0
102
RTVSPost2010PropOp38
 70
     1
102
RTVSPost2010Prop39
140
1.0
102
RTVSPost2010PropOp39
 70
     1
102
RTVSPost2010Prop40
 90
        0
102
RTVSPost2010PropOp40
 70
     1
102
RTVSPost2010Prop41ColorIndex
 90
       18
102
RTVSPost2010Prop41ColorRGB
 90
        0
102
RTVSPost2010PropOp41
 70
     1
102
RTVSPost2010Prop42
 90
       50
102
RTVSPost2010PropOp42
 70
     1
102
RTVSPost2010Prop43
 90
        3
102
RTVSPost2010PropOp43
 70
     1
102
RTVSPost2010Prop44ColorIndex
 90
        5
102
RTVSPost2010Prop44ColorRGB
 90
      255
102
RTVSPost2010PropOp44
 70
     1
102
RTVSPost2010Prop45
280
     0
102
RTVSPost2010PropOp45
 70
     1
102
RTVSPost2010Prop46
 90
       50
102
RTVSPost2010PropOp46
 70
     1
102
RTVSPost2010Prop47
 90
       50
102
RTVSPost2010PropOp47
 70
     1
102
RTVSPost2010Prop48
 90
       50
102
RTVSPost2010PropOp48
 70
     1
102
RTVSPost2010Prop49
280
     0
102
RTVSPost2010PropOp49
 70
     1
102
RTVSPost2010Prop50
 90
       50
102
RTVSPost2010PropOp50
 70
     1
102
RTVSPost2010Prop51ColorIndex
 90
      256
102
RTVSPost2010Prop51ColorRGB
 90
-16777216
102
RTVSPost2010PropOp51
 70
     0
102
RTVSPost2010Prop52
140
1.0
102
RTVSPost2010PropOp52
 70
     0
102
RTVSPost2010Prop53
 90
        2
102
RTVSPost2010PropOp53
 70
     1
102
RTVSPost2010Prop54
  1
strokes_ogs.tif
102
RTVSPost2010PropOp54
 70
     1
102
RTVSPost2010Prop55
280
     0
102
RTVSPost2010PropOp55
 70
     1
102
RTVSPost2010Prop56
140
1.0
102
RTVSPost2010PropOp56
 70
     1
102
RTVSPost2010Prop57
140
1.0
102
RTVSPost2010PropOp57
 70
     1
  0
XRECORD
  5
1D1
102
{ACAD_REACTORS
330
1D0
102
}
330
1D0
100
AcDbXrecord
280
     1
102
RTVSPropertyOp0
 70
     1
102
RTVSPropertyOp1
 70
     1
102
RTVSPropertyOp2
 70
     1
102
RTVSPropertyOp3
 70
     1
102
RTVSPropertyOp4
 70
     1
102
RTVSPropertyOp5
 70
     1
102
RTVSPropertyOp6
 70
     1
102
RTVSPropertyOp7
 70
     1
102
RTVSPropertyOp8
 70
     1
102
RTVSPropertyOp9
 70
     1
102
RTVSPropertyOp10
 70
     1
102
RTVSPropertyOp11
 70
     1
102
RTVSPropertyOp12
 70
     1
102
RTVSPropertyOp13
 70
     1
102
RTVSPropertyOp14
 70
     1
102
RTVSPropertyOp15
 70
     1
102
RTVSPropertyOp16
 70
     1
102
RTVSPropertyOp17
 70
     1
102
RTVSPropertyOp18
 70
     1
102
RTVSPropertyOp19
 70
     1
102
RTVSPropertyOp20
 70
     1
102
RTVSPropertyOp21
 70
     1
102
RTVSPropertyOp22
 70
     1
102
RTVSPropertyOp23
 70
     1
102
RTVSPropertyOp24
 70
     1
102
RTVSPropertyOp25
 70
     1
102
RTVSPropertyOp26
 70
     1
102
RTVSPropertyOp27
 70
     1
102
RTVSPropertyOp28
 70
     1
102
RTVSPropertyOp29
 70
     1
102
RTVSPropertyOp30
 70
     1
102
RTVSPropertyOp31
 70
     1
102
RTVSPropertyOp32
 70
     1
102
RTVSPropertyOp33
 70
     1
102
RTVSPropertyOp34
 70
     1
102
RTVSPropertyOp35
 70
     1
102
RTVSPropertyOp36
 70
     1
102
RTVSPropertyOp37
 70
     1
102
RTVSPropertyOp38
 70
     1
102
RTVSPropertyOp39
 70
     1
102
RTVSPropertyOp40
 70
     1
102
RTVSPropertyOp41
 70
     1
102
RTVSPropertyOp42
 70
     1
102
RTVSPropertyOp43
 70
     1
102
RTVSPropertyOp44
 70
     1
102
RTVSPropertyOp45
 70
     1
102
RTVSPropertyOp46
 70
     1
102
RTVSPropertyOp47
 70
     1
102
RTVSPropertyOp48
 70
     1
102
RTVSPropertyOp49
 70
     1
102
RTVSPropertyOp50
 70
     1
102
RTVSPropertyOp51
 70
     0
102
RTVSPropertyOp52
 70
     0
102
RTVSPropertyOp53
 70
     1
102
RTVSPropertyOp54
 70
     1
102
RTVSPropertyOp55
 70
     1
102
RTVSPropertyOp56
 70
     1
102
RTVSPropertyOp57
 70
     1
102
RTVSPost2010Prop28
280
     0
102
RTVSPost2010PropOp28
 70
     1
102
RTVSPost2010Prop29
280
     1
102
RTVSPost2010PropOp29
 70
     1
102
RTVSPost2010Prop30
280
     1
102
RTVSPost2010PropOp30
 70
     1
102
RTVSPost2010Prop31
280
     0
102
RTVSPost2010PropOp31
 70
     1
102
RTVSPost2010Prop32
280
     0
102
RTVSPost2010PropOp32
 70
     1
102
RTVSPost2010Prop33
280
     0
102
RTVSPost2010PropOp33
 70
     1
102
RTVSPost2010Prop34
280
     0
102
RTVSPost2010PropOp34
 70
     1
102
RTVSPost2010Prop35
280
     0
102
RTVSPost2010PropOp35
 70
     1
102
RTVSPost2010Prop36
280
     0
102
RTVSPost2010PropOp36
 70
     1
102
RTVSPost2010Prop37
 90
       50
102
RTVSPost2010PropOp37
 70
     1
102
RTVSPost2010Prop38
140
0.0
102
RTVSPost2010PropOp38
 70
     1
102
RTVSPost2010Prop39
140
1.0
102
RTVSPost2010PropOp39
 70
     1
102
RTVSPost2010Prop40
 90
        0
102
RTVSPost2010PropOp40
 70
     1
102
RTVSPost2010Prop41ColorIndex
 90
       18
102
RTVSPost2010Prop41ColorRGB
 90
        0
102
RTVSPost2010PropOp41
 70
     1
102
RTVSPost2010Prop42
 90
       50
102
RTVSPost2010PropOp42
 70
     1
102
RTVSPost2010Prop43
 90
        3
102
RTVSPost2010PropOp43
 70
     1
102
RTVSPost2010Prop44ColorIndex
 90
        5
102
RTVSPost2010Prop44ColorRGB
 90
      255
102
RTVSPost2010PropOp44
 70
     1
102
RTVSPost2010Prop45
280
     0
102
RTVSPost2010PropOp45
 70
     1
102
RTVSPost2010Prop46
 90
       50
102
RTVSPost2010PropOp46
 70
     1
102
RTVSPost2010Prop47
 90
       50
102
RTVSPost2010PropOp47
 70
     1
102
RTVSPost2010Prop48
 90
       50
102
RTVSPost2010PropOp48
 70
     1
102
RTVSPost2010Prop49
280
     0
102
RTVSPost2010PropOp49
 70
     1
102
RTVSPost2010Prop50
 90
       50
102
RTVSPost2010PropOp50
 70
     1
102
RTVSPost2010Prop51ColorIndex
 90
      256
102
RTVSPost2010Prop51ColorRGB
 90
-16777216
102
RTVSPost2010PropOp51
 70
     0
102
RTVSPost2010Prop52
140
1.0
102
RTVSPost2010PropOp52
 70
     0
102
RTVSPost2010Prop53
 90
        2
102
RTVSPost2010PropOp53
 70
     1
102
RTVSPost2010Prop54
  1
strokes_ogs.tif
102
RTVSPost2010PropOp54
 70
     1
102
RTVSPost2010Prop55
280
     0
102
RTVSPost2010PropOp55
 70
     1
102
RTVSPost2010Prop56
140
1.0
102
RTVSPost2010PropOp56
 70
     1
102
RTVSPost2010Prop57
140
1.0
102
RTVSPost2010PropOp57
 70
     1
  0
XRECORD
  5
1D3
102
{ACAD_REACTORS
330
1D2
102
}
330
1D2
100
AcDbXrecord
280
     1
102
RTVSPropertyOp0
 70
     1
102
RTVSPropertyOp1
 70
     1
102
RTVSPropertyOp2
 70
     1
102
RTVSPropertyOp3
 70
     1
102
RTVSPropertyOp4
 70
     1
102
RTVSPropertyOp5
 70
     1
102
RTVSPropertyOp6
 70
     1
102
RTVSPropertyOp7
 70
     1
102
RTVSPropertyOp8
 70
     1
102
RTVSPropertyOp9
 70
     1
102
RTVSPropertyOp10
 70
     1
102
RTVSPropertyOp11
 70
     1
102
RTVSPropertyOp12
 70
     1
102
RTVSPropertyOp13
 70
     1
102
RTVSPropertyOp14
 70
     1
102
RTVSPropertyOp15
 70
     1
102
RTVSPropertyOp16
 70
     1
102
RTVSPropertyOp17
 70
     1
102
RTVSPropertyOp18
 70
     1
102
RTVSPropertyOp19
 70
     1
102
RTVSPropertyOp20
 70
     1
102
RTVSPropertyOp21
 70
     1
102
RTVSPropertyOp22
 70
     1
102
RTVSPropertyOp23
 70
     1
102
RTVSPropertyOp24
 70
     1
102
RTVSPropertyOp25
 70
     1
102
RTVSPropertyOp26
 70
     1
102
RTVSPropertyOp27
 70
     1
102
RTVSPropertyOp28
 70
     1
102
RTVSPropertyOp29
 70
     1
102
RTVSPropertyOp30
 70
     1
102
RTVSPropertyOp31
 70
     1
102
RTVSPropertyOp32
 70
     1
102
RTVSPropertyOp33
 70
     1
102
RTVSPropertyOp34
 70
     1
102
RTVSPropertyOp35
 70
     1
102
RTVSPropertyOp36
 70
     1
102
RTVSPropertyOp37
 70
     1
102
RTVSPropertyOp38
 70
     1
102
RTVSPropertyOp39
 70
     1
102
RTVSPropertyOp40
 70
     1
102
RTVSPropertyOp41
 70
     1
102
RTVSPropertyOp42
 70
     1
102
RTVSPropertyOp43
 70
     1
102
RTVSPropertyOp44
 70
     1
102
RTVSPropertyOp45
 70
     1
102
RTVSPropertyOp46
 70
     1
102
RTVSPropertyOp47
 70
     1
102
RTVSPropertyOp48
 70
     1
102
RTVSPropertyOp49
 70
     1
102
RTVSPropertyOp50
 70
     1
102
RTVSPropertyOp51
 70
     0
102
RTVSPropertyOp52
 70
     0
102
RTVSPropertyOp53
 70
     1
102
RTVSPropertyOp54
 70
     1
102
RTVSPropertyOp55
 70
     1
102
RTVSPropertyOp56
 70
     1
102
RTVSPropertyOp57
 70
     1
102
RTVSPost2010Prop28
280
     0
102
RTVSPost2010PropOp28
 70
     1
102
RTVSPost2010Prop29
280
     1
102
RTVSPost2010PropOp29
 70
     1
102
RTVSPost2010Prop30
280
     1
102
RTVSPost2010PropOp30
 70
     1
102
RTVSPost2010Prop31
280
     0
102
RTVSPost2010PropOp31
 70
     1
102
RTVSPost2010Prop32
280
     0
102
RTVSPost2010PropOp32
 70
     1
102
RTVSPost2010Prop33
280
     0
102
RTVSPost2010PropOp33
 70
     1
102
RTVSPost2010Prop34
280
     0
102
RTVSPost2010PropOp34
 70
     1
102
RTVSPost2010Prop35
280
     0
102
RTVSPost2010PropOp35
 70
     1
102
RTVSPost2010Prop36
280
     0
102
RTVSPost2010PropOp36
 70
     1
102
RTVSPost2010Prop37
 90
       50
102
RTVSPost2010PropOp37
 70
     1
102
RTVSPost2010Prop38
140
0.0
102
RTVSPost2010PropOp38
 70
     1
102
RTVSPost2010Prop39
140
1.0
102
RTVSPost2010PropOp39
 70
     1
102
RTVSPost2010Prop40
 90
        0
102
RTVSPost2010PropOp40
 70
     1
102
RTVSPost2010Prop41ColorIndex
 90
       18
102
RTVSPost2010Prop41ColorRGB
 90
        0
102
RTVSPost2010PropOp41
 70
     1
102
RTVSPost2010Prop42
 90
       50
102
RTVSPost2010PropOp42
 70
     1
102
RTVSPost2010Prop43
 90
        3
102
RTVSPost2010PropOp43
 70
     1
102
RTVSPost2010Prop44ColorIndex
 90
        5
102
RTVSPost2010Prop44ColorRGB
 90
      255
102
RTVSPost2010PropOp44
 70
     1
102
RTVSPost2010Prop45
280
     0
102
RTVSPost2010PropOp45
 70
     1
102
RTVSPost2010Prop46
 90
       50
102
RTVSPost2010PropOp46
 70
     1
102
RTVSPost2010Prop47
 90
       50
102
RTVSPost2010PropOp47
 70
     1
102
RTVSPost2010Prop48
 90
       50
102
RTVSPost2010PropOp48
 70
     1
102
RTVSPost2010Prop49
280
     0
102
RTVSPost2010PropOp49
 70
     1
102
RTVSPost2010Prop50
 90
       50
102
RTVSPost2010PropOp50
 70
     1
102
RTVSPost2010Prop51ColorIndex
 90
      256
102
RTVSPost2010Prop51ColorRGB
 90
-16777216
102
RTVSPost2010PropOp51
 70
     0
102
RTVSPost2010Prop52
140
1.0
102
RTVSPost2010PropOp52
 70
     0
102
RTVSPost2010Prop53
 90
        2
102
RTVSPost2010PropOp53
 70
     1
102
RTVSPost2010Prop54
  1
strokes_ogs.tif
102
RTVSPost2010PropOp54
 70
     1
102
RTVSPost2010Prop55
280
     0
102
RTVSPost2010PropOp55
 70
     1
102
RTVSPost2010Prop56
140
1.0
102
RTVSPost2010PropOp56
 70
     1
102
RTVSPost2010Prop57
140
1.0
102
RTVSPost2010PropOp57
 70
     1
  0
XRECORD
  5
1C3
102
{ACAD_REACTORS
330
1C2
102
}
330
1C2
100
AcDbXrecord
280
     1
102
RTVSPropertyOp0
 70
     1
102
RTVSPropertyOp1
 70
     1
102
RTVSPropertyOp2
 70
     1
102
RTVSPropertyOp3
 70
     1
102
RTVSPropertyOp4
 70
     1
102
RTVSPropertyOp5
 70
     1
102
RTVSPropertyOp6
 70
     1
102
RTVSPropertyOp7
 70
     1
102
RTVSPropertyOp8
 70
     1
102
RTVSPropertyOp9
 70
     1
102
RTVSPropertyOp10
 70
     1
102
RTVSPropertyOp11
 70
     1
102
RTVSPropertyOp12
 70
     1
102
RTVSPropertyOp13
 70
     1
102
RTVSPropertyOp14
 70
     1
102
RTVSPropertyOp15
 70
     1
102
RTVSPropertyOp16
 70
     1
102
RTVSPropertyOp17
 70
     1
102
RTVSPropertyOp18
 70
     1
102
RTVSPropertyOp19
 70
     1
102
RTVSPropertyOp20
 70
     1
102
RTVSPropertyOp21
 70
     1
102
RTVSPropertyOp22
 70
     1
102
RTVSPropertyOp23
 70
     1
102
RTVSPropertyOp24
 70
     1
102
RTVSPropertyOp25
 70
     1
102
RTVSPropertyOp26
 70
     1
102
RTVSPropertyOp27
 70
     1
102
RTVSPropertyOp28
 70
     1
102
RTVSPropertyOp29
 70
     1
102
RTVSPropertyOp30
 70
     1
102
RTVSPropertyOp31
 70
     1
102
RTVSPropertyOp32
 70
     1
102
RTVSPropertyOp33
 70
     1
102
RTVSPropertyOp34
 70
     1
102
RTVSPropertyOp35
 70
     1
102
RTVSPropertyOp36
 70
     1
102
RTVSPropertyOp37
 70
     1
102
RTVSPropertyOp38
 70
     1
102
RTVSPropertyOp39
 70
     1
102
RTVSPropertyOp40
 70
     1
102
RTVSPropertyOp41
 70
     1
102
RTVSPropertyOp42
 70
     1
102
RTVSPropertyOp43
 70
     1
102
RTVSPropertyOp44
 70
     1
102
RTVSPropertyOp45
 70
     1
102
RTVSPropertyOp46
 70
     1
102
RTVSPropertyOp47
 70
     1
102
RTVSPropertyOp48
 70
     1
102
RTVSPropertyOp49
 70
     1
102
RTVSPropertyOp50
 70
     1
102
RTVSPropertyOp51
 70
     0
102
RTVSPropertyOp52
 70
     0
102
RTVSPropertyOp53
 70
     1
102
RTVSPropertyOp54
 70
     1
102
RTVSPropertyOp55
 70
     1
102
RTVSPropertyOp56
 70
     1
102
RTVSPropertyOp57
 70
     1
102
RTVSPost2010Prop28
280
     0
102
RTVSPost2010PropOp28
 70
     1
102
RTVSPost2010Prop29
280
     1
102
RTVSPost2010PropOp29
 70
     1
102
RTVSPost2010Prop30
280
     1
102
RTVSPost2010PropOp30
 70
     1
102
RTVSPost2010Prop31
280
     0
102
RTVSPost2010PropOp31
 70
     1
102
RTVSPost2010Prop32
280
     0
102
RTVSPost2010PropOp32
 70
     1
102
RTVSPost2010Prop33
280
     0
102
RTVSPost2010PropOp33
 70
     1
102
RTVSPost2010Prop34
280
     0
102
RTVSPost2010PropOp34
 70
     1
102
RTVSPost2010Prop35
280
     0
102
RTVSPost2010PropOp35
 70
     1
102
RTVSPost2010Prop36
280
     0
102
RTVSPost2010PropOp36
 70
     1
102
RTVSPost2010Prop37
 90
       50
102
RTVSPost2010PropOp37
 70
     1
102
RTVSPost2010Prop38
140
0.0
102
RTVSPost2010PropOp38
 70
     1
102
RTVSPost2010Prop39
140
1.0
102
RTVSPost2010PropOp39
 70
     1
102
RTVSPost2010Prop40
 90
        0
102
RTVSPost2010PropOp40
 70
     1
102
RTVSPost2010Prop41ColorIndex
 90
       18
102
RTVSPost2010Prop41ColorRGB
 90
        0
102
RTVSPost2010PropOp41
 70
     1
102
RTVSPost2010Prop42
 90
       50
102
RTVSPost2010PropOp42
 70
     1
102
RTVSPost2010Prop43
 90
        3
102
RTVSPost2010PropOp43
 70
     1
102
RTVSPost2010Prop44ColorIndex
 90
        5
102
RTVSPost2010Prop44ColorRGB
 90
      255
102
RTVSPost2010PropOp44
 70
     1
102
RTVSPost2010Prop45
280
     0
102
RTVSPost2010PropOp45
 70
     1
102
RTVSPost2010Prop46
 90
       50
102
RTVSPost2010PropOp46
 70
     1
102
RTVSPost2010Prop47
 90
       50
102
RTVSPost2010PropOp47
 70
     1
102
RTVSPost2010Prop48
 90
       50
102
RTVSPost2010PropOp48
 70
     1
102
RTVSPost2010Prop49
280
     0
102
RTVSPost2010PropOp49
 70
     1
102
RTVSPost2010Prop50
 90
       50
102
RTVSPost2010PropOp50
 70
     1
102
RTVSPost2010Prop51ColorIndex
 90
      256
102
RTVSPost2010Prop51ColorRGB
 90
-16777216
102
RTVSPost2010PropOp51
 70
     0
102
RTVSPost2010Prop52
140
1.0
102
RTVSPost2010PropOp52
 70
     0
102
RTVSPost2010Prop53
 90
        2
102
RTVSPost2010PropOp53
 70
     1
102
RTVSPost2010Prop54
  1
strokes_ogs.tif
102
RTVSPost2010PropOp54
 70
     1
102
RTVSPost2010Prop55
280
     0
102
RTVSPost2010PropOp55
 70
     1
102
RTVSPost2010Prop56
140
1.0
102
RTVSPost2010PropOp56
 70
     1
102
RTVSPost2010Prop57
140
1.0
102
RTVSPost2010PropOp57
 70
     1
  0
XRECORD
  5
1B5
102
{ACAD_REACTORS
330
1B4
102
}
330
1B4
100
AcDbXrecord
280
     1
102
RTVSPropertyOp0
 70
     1
102
RTVSPropertyOp1
 70
     1
102
RTVSPropertyOp2
 70
     1
102
RTVSPropertyOp3
 70
     1
102
RTVSPropertyOp4
 70
     1
102
RTVSPropertyOp5
 70
     1
102
RTVSPropertyOp6
 70
     1
102
RTVSPropertyOp7
 70
     1
102
RTVSPropertyOp8
 70
     1
102
RTVSPropertyOp9
 70
     1
102
RTVSPropertyOp10
 70
     1
102
RTVSPropertyOp11
 70
     1
102
RTVSPropertyOp12
 70
     1
102
RTVSPropertyOp13
 70
     1
102
RTVSPropertyOp14
 70
     1
102
RTVSPropertyOp15
 70
     1
102
RTVSPropertyOp16
 70
     1
102
RTVSPropertyOp17
 70
     1
102
RTVSPropertyOp18
 70
     1
102
RTVSPropertyOp19
 70
     1
102
RTVSPropertyOp20
 70
     1
102
RTVSPropertyOp21
 70
     1
102
RTVSPropertyOp22
 70
     1
102
RTVSPropertyOp23
 70
     1
102
RTVSPropertyOp24
 70
     1
102
RTVSPropertyOp25
 70
     1
102
RTVSPropertyOp26
 70
     1
102
RTVSPropertyOp27
 70
     1
102
RTVSPropertyOp28
 70
     1
102
RTVSPropertyOp29
 70
     1
102
RTVSPropertyOp30
 70
     1
102
RTVSPropertyOp31
 70
     1
102
RTVSPropertyOp32
 70
     1
102
RTVSPropertyOp33
 70
     1
102
RTVSPropertyOp34
 70
     1
102
RTVSPropertyOp35
 70
     1
102
RTVSPropertyOp36
 70
     1
102
RTVSPropertyOp37
 70
     1
102
RTVSPropertyOp38
 70
     1
102
RTVSPropertyOp39
 70
     1
102
RTVSPropertyOp40
 70
     1
102
RTVSPropertyOp41
 70
     1
102
RTVSPropertyOp42
 70
     1
102
RTVSPropertyOp43
 70
     1
102
RTVSPropertyOp44
 70
     1
102
RTVSPropertyOp45
 70
     1
102
RTVSPropertyOp46
 70
     1
102
RTVSPropertyOp47
 70
     1
102
RTVSPropertyOp48
 70
     1
102
RTVSPropertyOp49
 70
     1
102
RTVSPropertyOp50
 70
     1
102
RTVSPropertyOp51
 70
     0
102
RTVSPropertyOp52
 70
     0
102
RTVSPropertyOp53
 70
     1
102
RTVSPropertyOp54
 70
     1
102
RTVSPropertyOp55
 70
     1
102
RTVSPropertyOp56
 70
     1
102
RTVSPropertyOp57
 70
     1
102
RTVSPost2010Prop28
280
     0
102
RTVSPost2010PropOp28
 70
     1
102
RTVSPost2010Prop29
280
     1
102
RTVSPost2010PropOp29
 70
     1
102
RTVSPost2010Prop30
280
     1
102
RTVSPost2010PropOp30
 70
     1
102
RTVSPost2010Prop31
280
     0
102
RTVSPost2010PropOp31
 70
     1
102
RTVSPost2010Prop32
280
     0
102
RTVSPost2010PropOp32
 70
     1
102
RTVSPost2010Prop33
280
     0
102
RTVSPost2010PropOp33
 70
     1
102
RTVSPost2010Prop34
280
     0
102
RTVSPost2010PropOp34
 70
     1
102
RTVSPost2010Prop35
280
     0
102
RTVSPost2010PropOp35
 70
     1
102
RTVSPost2010Prop36
280
     0
102
RTVSPost2010PropOp36
 70
     1
102
RTVSPost2010Prop37
 90
       50
102
RTVSPost2010PropOp37
 70
     1
102
RTVSPost2010Prop38
140
0.0
102
RTVSPost2010PropOp38
 70
     1
102
RTVSPost2010Prop39
140
1.0
102
RTVSPost2010PropOp39
 70
     1
102
RTVSPost2010Prop40
 90
        0
102
RTVSPost2010PropOp40
 70
     1
102
RTVSPost2010Prop41ColorIndex
 90
       18
102
RTVSPost2010Prop41ColorRGB
 90
        0
102
RTVSPost2010PropOp41
 70
     1
102
RTVSPost2010Prop42
 90
       50
102
RTVSPost2010PropOp42
 70
     1
102
RTVSPost2010Prop43
 90
        3
102
RTVSPost2010PropOp43
 70
     1
102
RTVSPost2010Prop44ColorIndex
 90
        5
102
RTVSPost2010Prop44ColorRGB
 90
      255
102
RTVSPost2010PropOp44
 70
     1
102
RTVSPost2010Prop45
280
     0
102
RTVSPost2010PropOp45
 70
     1
102
RTVSPost2010Prop46
 90
       50
102
RTVSPost2010PropOp46
 70
     1
102
RTVSPost2010Prop47
 90
       50
102
RTVSPost2010PropOp47
 70
     1
102
RTVSPost2010Prop48
 90
       50
102
RTVSPost2010PropOp48
 70
     1
102
RTVSPost2010Prop49
280
     0
102
RTVSPost2010PropOp49
 70
     1
102
RTVSPost2010Prop50
 90
       50
102
RTVSPost2010PropOp50
 70
     1
102
RTVSPost2010Prop51ColorIndex
 90
      256
102
RTVSPost2010Prop51ColorRGB
 90
-16777216
102
RTVSPost2010PropOp51
 70
     0
102
RTVSPost2010Prop52
140
1.0
102
RTVSPost2010PropOp52
 70
     0
102
RTVSPost2010Prop53
 90
        2
102
RTVSPost2010PropOp53
 70
     1
102
RTVSPost2010Prop54
  1
strokes_ogs.tif
102
RTVSPost2010PropOp54
 70
     1
102
RTVSPost2010Prop55
280
     0
102
RTVSPost2010PropOp55
 70
     1
102
RTVSPost2010Prop56
140
1.0
102
RTVSPost2010PropOp56
 70
     1
102
RTVSPost2010Prop57
140
1.0
102
RTVSPost2010PropOp57
 70
     1
  0
XRECORD
  5
1D5
102
{ACAD_REACTORS
330
1D4
102
}
330
1D4
100
AcDbXrecord
280
     1
102
RTVSPropertyOp0
 70
     1
102
RTVSPropertyOp1
 70
     1
102
RTVSPropertyOp2
 70
     1
102
RTVSPropertyOp3
 70
     1
102
RTVSPropertyOp4
 70
     1
102
RTVSPropertyOp5
 70
     1
102
RTVSPropertyOp6
 70
     1
102
RTVSPropertyOp7
 70
     1
102
RTVSPropertyOp8
 70
     1
102
RTVSPropertyOp9
 70
     1
102
RTVSPropertyOp10
 70
     1
102
RTVSPropertyOp11
 70
     1
102
RTVSPropertyOp12
 70
     1
102
RTVSPropertyOp13
 70
     1
102
RTVSPropertyOp14
 70
     1
102
RTVSPropertyOp15
 70
     1
102
RTVSPropertyOp16
 70
     1
102
RTVSPropertyOp17
 70
     1
102
RTVSPropertyOp18
 70
     1
102
RTVSPropertyOp19
 70
     1
102
RTVSPropertyOp20
 70
     1
102
RTVSPropertyOp21
 70
     1
102
RTVSPropertyOp22
 70
     1
102
RTVSPropertyOp23
 70
     1
102
RTVSPropertyOp24
 70
     1
102
RTVSPropertyOp25
 70
     1
102
RTVSPropertyOp26
 70
     1
102
RTVSPropertyOp27
 70
     1
102
RTVSPropertyOp28
 70
     1
102
RTVSPropertyOp29
 70
     1
102
RTVSPropertyOp30
 70
     1
102
RTVSPropertyOp31
 70
     1
102
RTVSPropertyOp32
 70
     1
102
RTVSPropertyOp33
 70
     1
102
RTVSPropertyOp34
 70
     1
102
RTVSPropertyOp35
 70
     1
102
RTVSPropertyOp36
 70
     1
102
RTVSPropertyOp37
 70
     1
102
RTVSPropertyOp38
 70
     1
102
RTVSPropertyOp39
 70
     1
102
RTVSPropertyOp40
 70
     1
102
RTVSPropertyOp41
 70
     1
102
RTVSPropertyOp42
 70
     1
102
RTVSPropertyOp43
 70
     1
102
RTVSPropertyOp44
 70
     1
102
RTVSPropertyOp45
 70
     1
102
RTVSPropertyOp46
 70
     1
102
RTVSPropertyOp47
 70
     1
102
RTVSPropertyOp48
 70
     1
102
RTVSPropertyOp49
 70
     1
102
RTVSPropertyOp50
 70
     1
102
RTVSPropertyOp51
 70
     0
102
RTVSPropertyOp52
 70
     0
102
RTVSPropertyOp53
 70
     1
102
RTVSPropertyOp54
 70
     1
102
RTVSPropertyOp55
 70
     1
102
RTVSPropertyOp56
 70
     1
102
RTVSPropertyOp57
 70
     1
102
RTVSPost2010Prop28
280
     0
102
RTVSPost2010PropOp28
 70
     1
102
RTVSPost2010Prop29
280
     1
102
RTVSPost2010PropOp29
 70
     1
102
RTVSPost2010Prop30
280
     1
102
RTVSPost2010PropOp30
 70
     1
102
RTVSPost2010Prop31
280
     0
102
RTVSPost2010PropOp31
 70
     1
102
RTVSPost2010Prop32
280
     0
102
RTVSPost2010PropOp32
 70
     1
102
RTVSPost2010Prop33
280
     0
102
RTVSPost2010PropOp33
 70
     1
102
RTVSPost2010Prop34
280
     0
102
RTVSPost2010PropOp34
 70
     1
102
RTVSPost2010Prop35
280
     0
102
RTVSPost2010PropOp35
 70
     1
102
RTVSPost2010Prop36
280
     0
102
RTVSPost2010PropOp36
 70
     1
102
RTVSPost2010Prop37
 90
       50
102
RTVSPost2010PropOp37
 70
     1
102
RTVSPost2010Prop38
140
0.0
102
RTVSPost2010PropOp38
 70
     1
102
RTVSPost2010Prop39
140
1.0
102
RTVSPost2010PropOp39
 70
     1
102
RTVSPost2010Prop40
 90
        0
102
RTVSPost2010PropOp40
 70
     1
102
RTVSPost2010Prop41ColorIndex
 90
       18
102
RTVSPost2010Prop41ColorRGB
 90
        0
102
RTVSPost2010PropOp41
 70
     1
102
RTVSPost2010Prop42
 90
       50
102
RTVSPost2010PropOp42
 70
     1
102
RTVSPost2010Prop43
 90
        3
102
RTVSPost2010PropOp43
 70
     1
102
RTVSPost2010Prop44ColorIndex
 90
        5
102
RTVSPost2010Prop44ColorRGB
 90
      255
102
RTVSPost2010PropOp44
 70
     1
102
RTVSPost2010Prop45
280
     0
102
RTVSPost2010PropOp45
 70
     1
102
RTVSPost2010Prop46
 90
       50
102
RTVSPost2010PropOp46
 70
     1
102
RTVSPost2010Prop47
 90
       50
102
RTVSPost2010PropOp47
 70
     1
102
RTVSPost2010Prop48
 90
       50
102
RTVSPost2010PropOp48
 70
     1
102
RTVSPost2010Prop49
280
     0
102
RTVSPost2010PropOp49
 70
     1
102
RTVSPost2010Prop50
 90
       50
102
RTVSPost2010PropOp50
 70
     1
102
RTVSPost2010Prop51ColorIndex
 90
      256
102
RTVSPost2010Prop51ColorRGB
 90
-16777216
102
RTVSPost2010PropOp51
 70
     0
102
RTVSPost2010Prop52
140
1.0
102
RTVSPost2010PropOp52
 70
     0
102
RTVSPost2010Prop53
 90
        2
102
RTVSPost2010PropOp53
 70
     1
102
RTVSPost2010Prop54
  1
strokes_ogs.tif
102
RTVSPost2010PropOp54
 70
     1
102
RTVSPost2010Prop55
280
     0
102
RTVSPost2010PropOp55
 70
     1
102
RTVSPost2010Prop56
140
1.0
102
RTVSPost2010PropOp56
 70
     1
102
RTVSPost2010Prop57
140
1.0
102
RTVSPost2010PropOp57
 70
     1
  0
ENDSEC
  0
EOF
