  0
SECTION
  2
HEADER
  9
$ACADVER
  1
AC1015
  9
$ACADMAINTVER
 70
    20
  9
$DWGCODEPAGE
  3
ANSI_1252
  9
$INSBASE
 10
0.0
 20
0.0
 30
0.0
  9
$EXTMIN
 10
-108.6137540390681
 20
-279.1500697589319
 30
0.0
  9
$EXTMAX
 10
528.9478320426623
 20
318.518153241954
 30
0.0
  9
$LIMMIN
 10
0.0
 20
0.0
  9
$LIMMAX
 10
0.0
 20
0.0
  9
$ORTHOMODE
 70
     0
  9
$REGENMODE
 70
     1
  9
$FILLMODE
 70
     1
  9
$QTEXTMODE
 70
     0
  9
$MIRRTEXT
 70
     1
  9
$LTSCALE
 40
1.0
  9
$ATTMODE
 70
     1
  9
$TEXTSIZE
 40
0.0
  9
$TRACEWID
 40
0.05
  9
$TEXTSTYLE
  7
STANDARD
  9
$CLAYER
  8
0
  9
$CELTYPE
  6
CONTINUOUS
  9
$CECOLOR
 62
   256
  9
$CELTSCALE
 40
1.0
  9
$DISPSILH
 70
     0
  9
$DIMSCALE
 40
1.0
  9
$DIMASZ
 40
6.0
  9
$DIMEXO
 40
1.0
  9
$DIMDLI
 40
0.38
  9
$DIMRND
 40
0.0
  9
$DIMDLE
 40
1.0
  9
$DIMEXE
 40
0.18
  9
$DIMTP
 40
0.0
  9
$DIMTM
 40
0.0
  9
$DIMTXT
 40
3.5
  9
$DIMCEN
 40
0.09
  9
$DIMTSZ
 40
0.0
  9
$DIMTOL
 70
     0
  9
$DIMLIM
 70
     0
  9
$DIMTIH
 70
     1
  9
$DIMTOH
 70
     1
  9
$DIMSE1
 70
     0
  9
$DIMSE2
 70
     0
  9
$DIMTAD
 70
     1
  9
$DIMZIN
 70
     0
  9
$DIMBLK
  1

  9
$DIMASO
 70
     1
  9
$DIMSHO
 70
     1
  9
$DIMPOST
  1

  9
$DIMAPOST
  1

  9
$DIMALT
 70
     0
  9
$DIMALTD
 70
     2
  9
$DIMALTF
 40
0.0394
  9
$DIMLFAC
 40
5.0
  9
$DIMTOFL
 70
     0
  9
$DIMTVP
 40
0.0
  9
$DIMTIX
 70
     0
  9
$DIMSOXD
 70
     0
  9
$DIMSAH
 70
     0
  9
$DIMBLK1
  1

  9
$DIMBLK2
  1

  9
$DIMSTYLE
  2
STANDARD
  9
$DIMCLRD
 70
     0
  9
$DIMCLRE
 70
     0
  9
$DIMCLRT
 70
     0
  9
$DIMTFAC
 40
1.0
  9
$DIMGAP
 40
1.0
  9
$DIMJUST
 70
     0
  9
$DIMSD1
 70
     0
  9
$DIMSD2
 70
     0
  9
$DIMTOLJ
 70
     1
  9
$DIMTZIN
 70
     0
  9
$DIMALTZ
 70
     0
  9
$DIMALTTZ
 70
     0
  9
$DIMUPT
 70
     0
  9
$DIMDEC
 70
     4
  9
$DIMTDEC
 70
     4
  9
$DIMALTU
 70
     2
  9
$DIMALTTD
 70
     2
  9
$DIMTXSTY
  7
STANDARD
  9
$DIMAUNIT
 70
     0
  9
$DIMADEC
 70
     0
  9
$DIMALTRND
 40
0.0
  9
$DIMAZIN
 70
     0
  9
$DIMDSEP
 70
    46
  9
$DIMATFIT
 70
     3
  9
$DIMFRAC
 70
     0
  9
$DIMLDRBLK
  1

  9
$DIMLUNIT
 70
     2
  9
$DIMLWD
 70
    -2
  9
$DIMLWE
 70
    -2
  9
$DIMTMOVE
 70
     0
  9
$LUNITS
 70
     2
  9
$LUPREC
 70
     2
  9
$SKETCHINC
 40
0.1
  9
$FILLETRAD
 40
0.0
  9
$AUNITS
 70
     0
  9
$AUPREC
 70
     2
  9
$MENU
  1
acad
  9
$ELEVATION
 40
0.0
  9
$PELEVATION
 40
0.0
  9
$THICKNESS
 40
0.0
  9
$LIMCHECK
 70
     0
  9
$CHAMFERA
 40
0.0
  9
$CHAMFERB
 40
0.0
  9
$CHAMFERC
 40
0.0
  9
$CHAMFERD
 40
0.0
  9
$SKPOLY
 70
     0
  9
$TDCREATE
 40
2444972.041666667
  9
$TDUCREATE
 40
2444972.000000000
  9
$TDUPDATE
 40
2453768.802134144
  9
$TDUUPDATE
 40
2453768.760467477
  9
$TDINDWG
 40
0.0446730440
  9
$TDUSRTIMER
 40
0.0446730440
  9
$USRTIMER
 70
     1
  9
$ANGBASE
 50
0.0
  9
$ANGDIR
 70
     0
  9
$PDMODE
 70
     0
  9
$PDSIZE
 40
-1.0
  9
$PLINEWID
 40
0.0
  9
$SPLFRAME
 70
     0
  9
$SPLINETYPE
 70
     6
  9
$SPLINESEGS
 70
     8
  9
$HANDSEED
  5
538
  9
$SURFTAB1
 70
     6
  9
$SURFTAB2
 70
     6
  9
$SURFTYPE
 70
     6
  9
$SURFU
 70
     6
  9
$SURFV
 70
     6
  9
$UCSBASE
  2

  9
$UCSNAME
  2

  9
$UCSORG
 10
0.0
 20
0.0
 30
0.0
  9
$UCSXDIR
 10
1.0
 20
0.0
 30
0.0
  9
$UCSYDIR
 10
0.0
 20
1.0
 30
0.0
  9
$UCSORTHOREF
  2

  9
$UCSORTHOVIEW
 70
     1
  9
$UCSORGTOP
 10
0.0
 20
0.0
 30
0.0
  9
$UCSORGBOTTOM
 10
0.0
 20
0.0
 30
0.0
  9
$UCSORGLEFT
 10
0.0
 20
0.0
 30
0.0
  9
$UCSORGRIGHT
 10
0.0
 20
0.0
 30
0.0
  9
$UCSORGFRONT
 10
0.0
 20
0.0
 30
0.0
  9
$UCSORGBACK
 10
0.0
 20
0.0
 30
0.0
  9
$PUCSBASE
  2

  9
$PUCSNAME
  2

  9
$PUCSORG
 10
0.0
 20
0.0
 30
0.0
  9
$PUCSXDIR
 10
1.0
 20
0.0
 30
0.0
  9
$PUCSYDIR
 10
0.0
 20
1.0
 30
0.0
  9
$PUCSORTHOREF
  2

  9
$PUCSORTHOVIEW
 70
     0
  9
$PUCSORGTOP
 10
0.0
 20
0.0
 30
0.0
  9
$PUCSORGBOTTOM
 10
0.0
 20
0.0
 30
0.0
  9
$PUCSORGLEFT
 10
0.0
 20
0.0
 30
0.0
  9
$PUCSORGRIGHT
 10
0.0
 20
0.0
 30
0.0
  9
$PUCSORGFRONT
 10
0.0
 20
0.0
 30
0.0
  9
$PUCSORGBACK
 10
0.0
 20
0.0
 30
0.0
  9
$USERI1
 70
     0
  9
$USERI2
 70
     0
  9
$USERI3
 70
     0
  9
$USERI4
 70
     0
  9
$USERI5
 70
     0
  9
$USERR1
 40
0.0
  9
$USERR2
 40
0.0
  9
$USERR3
 40
0.0
  9
$USERR4
 40
0.0
  9
$USERR5
 40
0.0
  9
$WORLDVIEW
 70
     1
  9
$SHADEDGE
 70
     3
  9
$SHADEDIF
 70
    70
  9
$TILEMODE
 70
     1
  9
$MAXACTVP
 70
    16
  9
$PINSBASE
 10
0.0
 20
0.0
 30
0.0
  9
$PLIMCHECK
 70
     0
  9
$PEXTMIN
 10
1.000000000000000E+20
 20
1.000000000000000E+20
 30
1.000000000000000E+20
  9
$PEXTMAX
 10
-1.000000000000000E+20
 20
-1.000000000000000E+20
 30
-1.000000000000000E+20
  9
$PLIMMIN
 10
0.0
 20
0.0
  9
$PLIMMAX
 10
12.0
 20
9.0
  9
$UNITMODE
 70
     0
  9
$VISRETAIN
 70
     0
  9
$PLINEGEN
 70
     1
  9
$PSLTSCALE
 70
     1
  9
$TREEDEPTH
 70
  3020
  9
$CMLSTYLE
  2
STANDARD
  9
$CMLJUST
 70
     0
  9
$CMLSCALE
 40
1.0
  9
$PROXYGRAPHICS
 70
     0
  9
$MEASUREMENT
 70
     0
  9
$CELWEIGHT
370
    -1
  9
$ENDCAPS
280
     0
  9
$JOINSTYLE
280
     0
  9
$LWDISPLAY
290
     0
  9
$INSUNITS
 70
     0
  9
$HYPERLINKBASE
  1

  9
$STYLESHEET
  1

  9
$XEDIT
290
     1
  9
$CEPSNTYPE
380
     0
  9
$PSTYLEMODE
290
     1
  9
$FINGERPRINTGUID
  2
{A190AE93-3F8E-4871-B072-F97994D508BE}
  9
$VERSIONGUID
  2
{5325429E-4B88-478D-97E7-0CB498194EFF}
  9
$EXTNAMES
290
     1
  9
$PSVPSCALE
 40
0.0
  9
$OLESTARTUP
290
     0
  0
ENDSEC
  0
SECTION
  2
CLASSES
  0
CLASS
  1
IMAGE
  2
AcDbRasterImage
  3
ISM
 90
    32895
280
     0
281
     1
  0
CLASS
  1
DICTIONARYVAR
  2
AcDbDictionaryVar
  3
ObjectDBX Classes
 90
        0
280
     0
281
     0
  0
CLASS
  1
RASTERVARIABLES
  2
AcDbRasterVariables
  3
ISM
 90
    32768
280
     0
281
     0
  0
CLASS
  1
IMAGEDEF
  2
AcDbRasterImageDef
  3
ISM
 90
    32768
280
     0
281
     0
  0
CLASS
  1
IMAGEDEF_REACTOR
  2
AcDbRasterImageDefReactor
  3
ISM
 90
    32769
280
     0
281
     0
  0
CLASS
  1
IDBUFFER
  2
AcDbIdBuffer
  3
ObjectDBX Classes
 90
    32768
280
     0
281
     0
  0
CLASS
  1
SPATIAL_FILTER
  2
AcDbSpatialFilter
  3
ObjectDBX Classes
 90
    32768
280
     0
281
     0
  0
CLASS
  1
SORTENTSTABLE
  2
AcDbSortentsTable
  3
ObjectDBX Classes
 90
    32768
280
     0
281
     0
  0
CLASS
  1
LAYER_INDEX
  2
AcDbLayerIndex
  3
ObjectDBX Classes
 90
    32768
280
     0
281
     0
  0
CLASS
  1
SPATIAL_INDEX
  2
AcDbSpatialIndex
  3
ObjectDBX Classes
 90
    32768
280
     0
281
     0
  0
CLASS
  1
OBJECT_PTR
  2
CAseDLPNTableRecord
  3
ASE-LPNTableRecord
 90
    32769
280
     0
281
     0
  0
CLASS
  1
LAYOUT
  2
AcDbLayout
  3
ObjectDBX Classes
 90
        0
280
     0
281
     0
  0
CLASS
  1
PLOTSETTINGS
  2
AcDbPlotSettings
  3
ObjectDBX Classes
 90
    32768
280
     0
281
     0
  0
CLASS
  1
ACDBDICTIONARYWDFLT
  2
AcDbDictionaryWithDefault
  3
ObjectDBX Classes
 90
        0
280
     0
281
     0
  0
CLASS
  1
ACDBPLACEHOLDER
  2
AcDbPlaceHolder
  3
ObjectDBX Classes
 90
        0
280
     0
281
     0
  0
CLASS
  1
VBA_PROJECT
  2
AcDbVbaProject
  3
acad
 90
    32768
280
     0
281
     0
  0
CLASS
  1
WIPEOUT
  2
AcDbWipeout
  3
"WipeOut|Product Desc: Object Enabler for WipeOut entity^I^I^I^I^I^I|Company: Autodesk, Inc.^I^I^I^I^I^I|WEB Address: www.autodesk.com"
 90
    32895
280
     0
281
     1
  0
CLASS
  1
WIPEOUTVARIABLES
  2
AcDbWipeoutVariables
  3
"WipeOut|Product Desc:     WipeOut Dbx Application|Company:          Autodesk, Inc.|WEB Address:      www.autodesk.com"
 90
    32768
280
     0
281
     0
  0
CLASS
  1
RTEXT
  2
RText
  3
RText|AutoCAD Express Tool|expresstools@autodesk.com
 90
    32768
280
     0
281
     1
  0
CLASS
  1
ARCALIGNEDTEXT
  2
AcDbArcAlignedText
  3
ATEXT|AutoCAD Express Tool|expresstools@autodesk.com
 90
    32768
280
     0
281
     1
  0
ENDSEC
  0
SECTION
  2
TABLES
  0
TABLE
  2
VPORT
  5
7
330
0
100
AcDbSymbolTable
 70
     2
  0
VPORT
  5
530
330
7
100
AcDbSymbolTableRecord
100
AcDbViewportTableRecord
  2
*Active
 70
     0
 10
0.0
 20
0.0
 11
1.0
 21
1.0
 12
242.3560068744534
 22
18.70513202213919
 13
0.0
 23
0.0
 14
1.0
 24
1.0
 15
0.0
 25
0.0
 16
0.0
 26
0.0
 36
1.0
 17
0.0
 27
0.0
 37
0.0
 40
600.8935784583879
 41
1.569570871261378
 42
50.0
 43
0.0
 44
0.0
 50
0.0
 51
0.0
 71
     0
 72
  2000
 73
     1
 74
     1
 75
     0
 76
     0
 77
     0
 78
     0
281
     0
 65
     1
110
0.0
120
0.0
130
0.0
111
1.0
121
0.0
131
0.0
112
0.0
122
1.0
132
0.0
 79
     1
146
0.0
  0
ENDTAB
  0
TABLE
  2
LTYPE
  5
4
330
0
100
AcDbSymbolTable
 70
     6
  0
LTYPE
  5
11
330
4
100
AcDbSymbolTableRecord
100
AcDbLinetypeTableRecord
  2
BYBLOCK
 70
     0
  3

 72
    65
 73
     0
 40
0.0
  0
LTYPE
  5
12
330
4
100
AcDbSymbolTableRecord
100
AcDbLinetypeTableRecord
  2
BYLAYER
 70
     0
  3

 72
    65
 73
     0
 40
0.0
  0
LTYPE
  5
13
330
4
100
AcDbSymbolTableRecord
100
AcDbLinetypeTableRecord
  2
CONTINUOUS
 70
     0
  3
Solid line
 72
    65
 73
     0
 40
0.0
  0
LTYPE
  5
1E
330
4
100
AcDbSymbolTableRecord
100
AcDbLinetypeTableRecord
  2
HIDDEN
 70
     0
  3
Hidden __ __ __ __ __ __ __ __ __ __ __ __ __ __
 72
    65
 73
     2
 40
1.905
 49
1.27
 74
     0
 49
-0.635
 74
     0
  0
LTYPE
  5
1F
330
4
100
AcDbSymbolTableRecord
100
AcDbLinetypeTableRecord
  2
PHANTOM
 70
     0
  3
Phantom ______  __  __  ______  __  __  ______
 72
    65
 73
     6
 40
12.7
 49
6.349999999999999
 74
     0
 49
-1.27
 74
     0
 49
1.27
 74
     0
 49
-1.27
 74
     0
 49
1.27
 74
     0
 49
-1.27
 74
     0
  0
LTYPE
  5
20
330
4
100
AcDbSymbolTableRecord
100
AcDbLinetypeTableRecord
  2
CENTER
 70
     0
  3
Center ____ _ ____ _ ____ _ ____ _ ____ _ ____
 72
    65
 73
     4
 40
10.16
 49
6.349999999999999
 74
     0
 49
-1.27
 74
     0
 49
1.27
 74
     0
 49
-1.27
 74
     0
  0
LTYPE
  5
21
330
4
100
AcDbSymbolTableRecord
100
AcDbLinetypeTableRecord
  2
CENTERX2
 70
     0
  3
Center (2x) ________  __  ________  __  _____
 72
    65
 73
     4
 40
20.32
 49
12.7
 74
     0
 49
-2.54
 74
     0
 49
2.54
 74
     0
 49
-2.54
 74
     0
  0
LTYPE
  5
22
330
4
100
AcDbSymbolTableRecord
100
AcDbLinetypeTableRecord
  2
DOT2
 70
     0
  3
Dot (.5x) ........................................
 72
    65
 73
     2
 40
0.635
 49
0.0
 74
     0
 49
-0.635
 74
     0
  0
ENDTAB
  0
TABLE
  2
LAYER
  5
2
330
0
100
AcDbSymbolTable
 70
     2
  0
LAYER
  5
14
330
2
100
AcDbSymbolTableRecord
100
AcDbLayerTableRecord
  2
0
 70
     0
 62
     7
  6
CONTINUOUS
370
    -3
390
515
  0
LAYER
  5
26
330
2
100
AcDbSymbolTableRecord
100
AcDbLayerTableRecord
  2
DEFPOINTS
 70
     0
 62
     7
  6
CONTINUOUS
290
     0
370
    -3
390
515
  0
ENDTAB
  0
TABLE
  2
STYLE
  5
3
330
0
100
AcDbSymbolTable
 70
     1
  0
STYLE
  5
17
330
3
100
AcDbSymbolTableRecord
100
AcDbTextStyleTableRecord
  2
STANDARD
 70
     0
 40
0.0
 41
1.0
 50
0.0
 71
     0
 42
0.0
  3
Century Gothic
  4

  0
ENDTAB
  0
TABLE
  2
VIEW
  5
5
330
0
100
AcDbSymbolTable
 70
     0
  0
ENDTAB
  0
TABLE
  2
UCS
  5
6
330
0
100
AcDbSymbolTable
 70
     0
  0
ENDTAB
  0
TABLE
  2
APPID
  5
8
330
0
100
AcDbSymbolTable
 70
     2
  0
APPID
  5
16
330
8
100
AcDbSymbolTableRecord
100
AcDbRegAppTableRecord
  2
ACAD
 70
     0
  0
APPID
  5
520
330
8
100
AcDbSymbolTableRecord
100
AcDbRegAppTableRecord
  2
DCO15
 70
     0
  0
ENDTAB
  0
TABLE
  2
DIMSTYLE
  5
9
330
0
100
AcDbSymbolTable
 70
     1
100
AcDbDimStyleTable
 71
     0
  0
DIMSTYLE
105
18
330
9
100
AcDbSymbolTableRecord
100
AcDbDimStyleTableRecord
  2
STANDARD
 70
     0
289
     0
340
17
  0
ENDTAB
  0
TABLE
  2
BLOCK_RECORD
  5
1
330
0
100
AcDbSymbolTable
 70
     0
  0
BLOCK_RECORD
  5
A
330
1
100
AcDbSymbolTableRecord
100
AcDbBlockTableRecord
  2
*MODEL_SPACE
340
51A
  0
BLOCK_RECORD
  5
B
330
1
100
AcDbSymbolTableRecord
100
AcDbBlockTableRecord
  2
*PAPER_SPACE
340
51B
  0
ENDTAB
  0
ENDSEC
  0
SECTION
  2
BLOCKS
  0
BLOCK
  5
D
330
A
100
AcDbEntity
  8
0
100
AcDbBlockBegin
  2
*MODEL_SPACE
 70
     0
 10
0.0
 20
0.0
 30
0.0
  3
*MODEL_SPACE
  1

  0
ENDBLK
  5
E
330
A
100
AcDbEntity
  8
0
100
AcDbBlockEnd
  0
BLOCK
  5
F
330
B
100
AcDbEntity
 67
     1
  8
0
100
AcDbBlockBegin
  2
*PAPER_SPACE
 70
     0
 10
0.0
 20
0.0
 30
0.0
  3
*PAPER_SPACE
  1

  0
ENDBLK
  5
10
330
B
100
AcDbEntity
 67
     1
  8
0
100
AcDbBlockEnd
  0
ENDSEC
  0
SECTION
  2
ENTITIES
  0
LWPOLYLINE
  5
27
330
A
100
AcDbEntity
  8
0
  6
Continuous
 62
     7
100
AcDbPolyline
 90
        9
 70
   128
 43
0.0
 10
140.3170441623905
 20
316.5603317443746
 10
142.2703242079493
 20
316.3687687368828
 10
144.1552962511427
 20
315.7961499528329
 10
145.8913992173897
 20
314.86471455733
 10
147.4111845376207
 20
313.610649335276
 10
148.6556077040298
 20
312.0826754203782
 10
149.5763221821523
 20
310.3401554519146
 10
150.1375577007095
 20
308.4507873030724
 10
150.3175099466082
 20
306.4879739807942
  0
LWPOLYLINE
  5
32
330
A
100
AcDbEntity
  8
0
  6
Continuous
 62
     7
100
AcDbPolyline
 90
       40
 70
   128
 43
0.0
 10
148.4337706855049
 20
6.560333803208945
 10
148.4657645642138
 20
17.13965886176186
 10
148.5012372125019
 20
26.83863585643861
 10
148.5369799994824
 20
35.34763079372979
 10
148.5709538325055
 20
42.67366650444667
 10
148.6087384377831
 20
50.31669153096321
 10
148.6544617547798
 20
59.07440769105251
 10
148.7088378677311
 20
68.96576343631209
 10
148.758015888327
 20
77.54705624408739
 10
148.8131331063328
 20
86.8535698941074
 10
148.8739918972289
 20
96.83282291158365
 10
148.935658991335
 20
106.6873787078494
 10
148.9962914474944
 20
116.1737081213906
 10
149.0555329031824
 20
125.286052526226
 10
149.113087857915
 20
134.0181937598884
 10
149.1545816498885
 20
140.2514185167615
 10
149.1949273607907
 20
146.2688620427156
 10
149.2340528894911
 20
152.0678842457264
 10
149.2718957258913
 20
157.6458954522666
 10
149.307640220132
 20
162.8889062972916
 10
149.338137597469
 20
167.3437196931926
 10
149.3581174224955
 20
170.2536098390501
 10
149.374543070076
 20
172.6410359858719
 10
149.3873790714432
 20
174.5037814820626
 10
149.3966127022921
 20
175.8421894346339
 10
149.4076631053592
 20
177.4422521678783
 10
149.4249729914818
 20
179.9451467899949
 10
149.4523139946979
 20
183.890148211314
 10
149.4879239288222
 20
189.0137525798006
 10
149.5319445457291
 20
195.3260804288575
 10
149.5845450432783
 20
202.8396227689312
 10
149.645919468743
 20
211.5692712002749
 10
149.7162835291093
 20
221.5323432084912
 10
149.7839272077908
 20
231.0687345938816
 10
149.8585018194995
 20
241.5396601516905
 10
149.940166937049
 20
252.9602932135848
 10
150.0290838269454
 20
265.3470857986429
 10
150.1254120884993
 20
278.7177252113715
 10
150.2293057886331
 20
293.091068403174
 10
150.3264173919527
 20
306.4878868549184
  0
LWPOLYLINE
  5
5C
330
A
100
AcDbEntity
  8
0
  6
Continuous
 62
     7
100
AcDbPolyline
 90
       48
 70
   128
 43
0.0
 10
-93.57682823111177
 20
306.8188000454757
 10
-93.77056766208459
 20
299.2964825089253
 10
-94.00112203975993
 20
290.6493738915578
 10
-94.2138194056376
 20
282.922464830791
 10
-94.40684570855372
 20
276.1096751567121
 10
-94.57848478933909
 20
270.2048908732292
 10
-94.70403932780691
 20
265.9736460055317
 10
-94.81282832791015
 20
262.3658398674166
 10
-94.90413312196379
 20
259.3787398156369
 10
-95.00700439748134
 20
256.0569288531935
 10
-95.05557665568076
 20
254.5042965324159
 10
-95.08122829774555
 20
253.6883791696302
 10
-95.10151887307284
 20
253.0449595245766
 10
-95.1293311918708
 20
252.165841071632
 10
-95.16473928242936
 20
251.0513153116129
 10
-95.20783778135339
 20
249.7017548256161
 10
-95.34056309734273
 20
245.5934847392296
 10
-95.51871288892613
 20
240.189902779865
 10
-95.71837465535759
 20
234.2792999328965
 10
-95.95877605301264
 20
227.3578105201401
 10
-96.21842171605505
 20
220.1101555726777
 10
-96.48001498659059
 20
213.0353612143683
 10
-97.10931928238608
 20
196.88014445799
 10
-97.74485312381573
 20
181.6830732335276
 10
-98.38255368208187
 20
167.4262580248712
 10
-98.89927660492306
 20
156.5171898870471
 10
-99.40499146387963
 20
146.3358695460487
 10
-99.89571812637322
 20
136.8802972453131
 10
-100.0570052572965
 20
133.8570030642012
 10
-100.2160877230104
 20
130.9138330457288
 10
-100.3644378449036
 20
128.2028877344463
 10
-100.4804594380861
 20
126.1047343585634
 10
-100.56230479481
 20
124.6359956504144
 10
-100.6094489466743
 20
123.7941803983457
 10
-100.6638741918231
 20
122.8259615348457
 10
-100.7606830490346
 20
121.1116588212094
 10
-100.9006510423507
 20
118.6489728306629
 10
-101.1267090340055
 20
114.7079752417841
 10
-101.4178207984877
 20
109.6946279195773
 10
-101.7761804642927
 20
103.6126608338801
 10
-102.2044335164111
 20
96.46609957061977
 10
-102.7056943595636
 20
88.25895873907422
 10
-103.3526796871499
 20
77.90040901357736
 10
-104.0999603336068
 20
66.24066621422194
 10
-104.9540835773479
 20
53.28120655987763
 10
-105.9225188833472
 20
39.02013985296529
 10
-107.0137509341063
 20
23.45084464877431
 10
-108.2372240223267
 20
6.560333803209611
  0
LWPOLYLINE
  5
8E
330
A
100
AcDbEntity
  8
0
  6
Continuous
 62
     7
100
AcDbPolyline
 90
        9
 70
   128
 43
0.0
 10
-93.57592480522455
 20
306.8242123204558
 10
-93.33953582049025
 20
308.737462058334
 10
-92.74042113864114
 20
310.569800906851
 10
-91.80084628382518
 20
312.2531317451799
 10
-90.55572965689714
 20
313.7248951926789
 10
-89.05134482644728
 20
314.93039456844
 10
-87.34360081588135
 20
315.824828641122
 10
-85.49596429803827
 20
316.3749566238647
 10
-83.57936840163072
 20
316.5603338031178
  0
LWPOLYLINE
  5
99
330
A
100
AcDbEntity
  8
0
  6
Continuous
 62
     7
100
AcDbPolyline
 90
        4
 70
   128
 43
0.0
 10
230.1202997422216
 20
6.560333803210055
 10
230.3790059203555
 20
54.08181377500157
 10
230.6345450691446
 20
96.83180865834051
 10
232.0591092909727
 20
306.487965581059
  0
LWPOLYLINE
  5
9F
330
A
100
AcDbEntity
  8
0
  6
Continuous
 62
     7
100
AcDbPolyline
 90
        9
 70
   128
 43
0.0
 10
222.0582603047224
 20
316.5603338029936
 10
224.0016446882839
 20
316.369691433786
 10
225.8881793285519
 20
315.797874772068
 10
227.6258857933141
 20
314.867087078112
 10
229.147236773573
 20
313.6134987808686
 10
230.3931125389131
 20
312.0858243473787
 10
231.3150983314424
 20
310.34342923758
 10
231.877365764281
 20
308.4540229613131
 10
232.0580651134123
 20
306.4910278853739
  0
LINE
  5
AA
330
A
100
AcDbEntity
  8
0
  6
Continuous
 62
     7
100
AcDbLine
 10
54.87941544068032
 20
308.1025596315003
 30
0.0
 11
57.6219489386813
 21
6.560333803208723
 31
0.0
  0
LINE
  5
AB
330
A
100
AcDbEntity
  8
0
  6
Continuous
 62
     7
100
AcDbLine
 10
54.87957253756408
 20
308.1072355026963
 30
0.0
 11
54.87941544068032
 21
308.1025596315003
 31
0.0
  0
LINE
  5
AC
330
A
100
AcDbEntity
  8
0
  6
Continuous
 62
     7
100
AcDbLine
 10
107.305019447471
 20
307.6961766079822
 30
0.0
 11
107.5931054627354
 21
6.56033380320839
 31
0.0
  0
LINE
  5
AD
330
A
100
AcDbEntity
  8
0
  6
Continuous
 62
     7
100
AcDbLine
 10
57.6219489386813
 20
6.560333803208723
 30
0.0
 11
107.5931054627354
 21
6.56033380320839
 31
0.0
  0
LINE
  5
AE
330
A
100
AcDbEntity
  8
0
  6
Continuous
 62
     7
100
AcDbLine
 10
107.305553754439
 20
307.7098809950771
 30
0.0
 11
107.3050194474709
 21
307.6961766079813
 31
0.0
  0
LINE
  5
AF
330
A
100
AcDbEntity
  8
0
  6
Continuous
 62
     7
100
AcDbLine
 10
107.5931054627354
 20
6.56033380320839
 30
0.0
 11
146.6976879344141
 21
6.560333803208834
 31
0.0
  0
LINE
  5
B0
330
A
100
AcDbEntity
  8
0
  6
Continuous
 62
     7
100
AcDbLine
 10
-29.25605652144109
 20
307.2812109388119
 30
0.0
 11
-29.2560565214255
 21
6.560333803208612
 31
0.0
  0
LINE
  5
B1
330
A
100
AcDbEntity
  8
0
  6
Continuous
 62
     7
100
AcDbLine
 10
-29.25605652144109
 20
307.2812401804183
 30
0.0
 11
-29.25605652144109
 21
307.2812109388119
 31
0.0
  0
LINE
  5
B2
330
A
100
AcDbEntity
  8
0
  6
Continuous
 62
     7
100
AcDbLine
 10
-29.25605652141347
 20
6.560333803208612
 30
0.0
 11
-0.7033178635348497
 21
6.560333803208667
 31
0.0
  0
LINE
  5
B3
330
A
100
AcDbEntity
  8
0
  6
Continuous
 62
     7
100
AcDbLine
 10
-37.40792231269099
 20
6.560333803208667
 30
0.0
 11
-29.25605652141347
 21
6.560333803208612
 31
0.0
  0
LINE
  5
B4
330
A
100
AcDbEntity
  8
0
  6
Continuous
 62
     7
100
AcDbLine
 10
-70.56920540838593
 20
6.560333803208889
 30
0.0
 11
-37.40792231269099
 21
6.560333803208667
 31
0.0
  0
LINE
  5
B5
330
A
100
AcDbEntity
  8
0
  6
Continuous
 62
     7
100
AcDbLine
 10
-0.7033178635348497
 20
6.560333803208667
 30
0.0
 11
37.08434463534008
 21
6.560333803208889
 31
0.0
  0
LINE
  5
B6
330
A
100
AcDbEntity
  8
0
  6
Continuous
 62
     7
100
AcDbLine
 10
37.08434463534008
 20
6.560333803208889
 30
0.0
 11
57.6219489386813
 21
6.560333803208723
 31
0.0
  0
LWPOLYLINE
  5
B7
330
A
100
AcDbEntity
  8
0
  6
Continuous
 62
     7
100
AcDbPolyline
 90
        7
 70
   128
 43
0.0
 10
107.305553754439
 20
307.7098809950771
 10
107.9476370791533
 20
310.9331490370387
 10
109.281657046895
 20
313.6634143624743
 10
111.156673419308
 20
315.5928969296858
 10
113.3606214661044
 20
316.5040681293785
 10
113.9738655853163
 20
316.5590583244297
 10
114.0827253256643
 20
316.560333803209
  0
LINE
  5
C0
330
A
100
AcDbEntity
  8
0
  6
Continuous
 62
     7
100
AcDbLine
 10
114.0827253254177
 20
316.560333803209
 30
0.0
 11
137.7570536786259
 21
316.5603338032089
 31
0.0
  0
LWPOLYLINE
  5
C1
330
A
100
AcDbEntity
  8
0
  6
Continuous
 62
     7
100
AcDbPolyline
 90
        6
 70
   128
 43
0.0
 10
-29.25605629270748
 20
307.2812401819515
 10
-29.08270519847837
 20
310.5420452342678
 10
-28.68549800524009
 20
313.3539425269313
 10
-28.10921677011834
 20
315.3999119771962
 10
-27.36040041462483
 20
316.4861022909671
 10
-27.09715137720611
 20
316.5603338032089
  0
LINE
  5
C9
330
A
100
AcDbEntity
  8
0
  6
Continuous
 62
     7
100
AcDbLine
 10
-27.09715137706972
 20
316.5603338032089
 30
0.0
 11
-7.743622456500149
 21
316.560333803209
 31
0.0
  0
LINE
  5
CA
330
A
100
AcDbEntity
  8
0
  6
Continuous
 62
     7
100
AcDbLine
 10
-32.58619446747589
 20
316.5603338032089
 30
0.0
 11
-27.09715137706972
 21
316.5603338032089
 31
0.0
  0
LINE
  5
CB
330
A
100
AcDbEntity
  8
0
  6
Continuous
 62
     7
100
AcDbLine
 10
147.3148979088732
 20
306.5859584287669
 30
0.0
 11
147.3148974171255
 21
306.5861131775995
 31
0.0
  0
LINE
  5
CC
330
A
100
AcDbEntity
  8
0
  6
Continuous
 62
     7
100
AcDbLine
 10
147.3148979088732
 20
306.5859584287669
 30
0.0
 11
148.2682940218231
 21
6.560333803208945
 31
0.0
  0
LINE
  5
CD
330
A
100
AcDbEntity
  8
0
  6
Continuous
 62
     7
100
AcDbLine
 10
146.6976879344141
 20
6.560333803208834
 30
0.0
 11
148.2682940218233
 21
6.560333803208945
 31
0.0
  0
LINE
  5
CE
330
A
100
AcDbEntity
  8
0
  6
Continuous
 62
     7
100
AcDbLine
 10
-70.23329913280294
 20
316.560333803209
 30
0.0
 11
-32.58619446747589
 21
316.5603338032089
 31
0.0
  0
LINE
  5
CF
330
A
100
AcDbEntity
  8
0
  6
Continuous
 62
     7
100
AcDbLine
 10
137.7570536786259
 20
316.5603338032089
 30
0.0
 11
139.2264967019503
 21
316.560333803209
 31
0.0
  0
LWPOLYLINE
  5
D0
330
A
100
AcDbEntity
  8
0
  6
Continuous
 62
     7
100
AcDbPolyline
 90
        7
 70
   128
 43
0.0
 10
147.3148975016699
 20
306.5861131740056
 10
146.8520520448726
 20
309.8946836934731
 10
145.5295020790202
 20
312.8273314227587
 10
143.4963441782269
 20
315.0534367810505
 10
140.9817773762452
 20
316.3220274905545
 10
139.4043883035359
 20
316.5579150102868
 10
139.2264967025068
 20
316.560333803209
  0
LWPOLYLINE
  5
D9
330
A
100
AcDbEntity
  8
0
  6
Continuous
 62
     7
100
AcDbPolyline
 90
        7
 70
   128
 43
0.0
 10
54.87957253756408
 20
308.1072355026963
 10
55.40091109538472
 20
311.2902432147272
 10
56.40656499005364
 20
313.9399892337341
 10
57.78296968272932
 20
315.757740515177
 10
58.6445184652043
 20
316.3232164380516
 10
59.54189442959184
 20
316.5553137706706
 10
59.69631073434795
 20
316.5603338032093
  0
LINE
  5
E2
330
A
100
AcDbEntity
  8
0
  6
Continuous
 62
     7
100
AcDbLine
 10
59.69631073433475
 20
316.5603338032093
 30
0.0
 11
114.0827253254177
 21
316.560333803209
 31
0.0
  0
LINE
  5
E3
330
A
100
AcDbEntity
  8
0
  6
Continuous
 62
     7
100
AcDbLine
 10
-90.19341846617196
 20
6.560333803209056
 30
0.0
 11
-70.56920540838593
 21
6.560333803208889
 31
0.0
  0
LINE
  5
E4
330
A
100
AcDbEntity
  8
0
  6
Continuous
 62
     7
100
AcDbLine
 10
139.2264967019503
 20
316.560333803209
 30
0.0
 11
140.244975036369
 21
316.560333803209
 31
0.0
  0
LINE
  5
E5
330
A
100
AcDbEntity
  8
0
  6
Continuous
 62
     7
100
AcDbLine
 10
-7.743622456500149
 20
316.560333803209
 30
0.0
 11
21.56192261195525
 21
316.5603338032093
 31
0.0
  0
LINE
  5
E6
330
A
100
AcDbEntity
  8
0
  6
Continuous
 62
     7
100
AcDbLine
 10
148.2682940218231
 20
6.560333803208945
 30
0.0
 11
148.331795508777
 21
6.560333803208945
 31
0.0
  0
LINE
  5
E7
330
A
100
AcDbEntity
  8
0
  6
Continuous
 62
     7
100
AcDbLine
 10
-79.28120807618724
 20
316.5603338032091
 30
0.0
 11
-70.23329913280294
 21
316.560333803209
 31
0.0
  0
LINE
  5
E8
330
A
100
AcDbEntity
  8
0
  6
Continuous
 62
     7
100
AcDbLine
 10
157.2303073153536
 20
306.4541768192482
 30
0.0
 11
157.2303069314971
 21
306.4541551046832
 31
0.0
  0
LWPOLYLINE
  5
E9
330
A
100
AcDbEntity
  8
0
  6
Continuous
 62
     7
100
AcDbPolyline
 90
       10
 70
   128
 43
0.0
 10
157.2303073153394
 20
306.4541768192484
 10
157.1240223576047
 20
308.4362409392275
 10
156.7841175167678
 20
310.3440210575161
 10
156.4340059634179
 20
311.5370862486598
 10
155.9920396338298
 20
312.6424016112386
 10
155.4708587361226
 20
313.632420288085
 10
154.6582411498505
 20
314.7649028999278
 10
153.6132334263301
 20
315.7354013123422
 10
152.3860576116818
 20
316.3715296261143
 10
151.2244460834449
 20
316.5603338032096
  0
LINE
  5
F5
330
A
100
AcDbEntity
  8
0
  6
Continuous
 62
     7
100
AcDbLine
 10
141.0811817403394
 20
316.5603338032095
 30
0.0
 11
151.2244460834449
 21
316.5603338032096
 31
0.0
  0
LINE
  5
F6
330
A
100
AcDbEntity
  8
0
  6
Continuous
 62
     7
100
AcDbLine
 10
-108.1657896414686
 20
6.560333803209611
 30
0.0
 11
-90.19341846617196
 21
6.560333803209056
 31
0.0
  0
LINE
  5
F7
330
A
100
AcDbEntity
  8
0
  6
Continuous
 62
     7
100
AcDbLine
 10
-83.55091845960776
 20
316.5603338032093
 30
0.0
 11
-79.28120807618724
 21
316.5603338032091
 31
0.0
  0
LINE
  5
F8
330
A
100
AcDbEntity
  8
0
  6
Continuous
 62
     7
100
AcDbLine
 10
157.2303069314971
 20
306.4541551046832
 30
0.0
 11
151.9289720373751
 21
6.560333803209555
 31
0.0
  0
LINE
  5
F9
330
A
100
AcDbEntity
  8
0
  6
Continuous
 62
     7
100
AcDbLine
 10
148.4337706855049
 20
6.5603338032095
 30
0.0
 11
151.9289720373751
 21
6.560333803209555
 31
0.0
  0
LINE
  5
FA
330
A
100
AcDbEntity
  8
0
  6
Continuous
 62
     7
100
AcDbLine
 10
21.56192261195525
 20
316.5603338032093
 30
0.0
 11
59.69631073433477
 21
316.5603338032093
 31
0.0
  0
LINE
  5
FB
330
A
100
AcDbEntity
  8
0
  6
Continuous
 62
     7
100
AcDbLine
 10
151.2244460834449
 20
316.5603338032096
 30
0.0
 11
158.6929967238744
 21
316.5603338032097
 31
0.0
  0
LINE
  5
FC
330
A
100
AcDbEntity
  8
0
  6
Continuous
 62
     7
100
AcDbLine
 10
151.9289720373751
 20
6.560333803209555
 30
0.0
 11
157.5886819903311
 21
6.560333803209611
 31
0.0
  0
LINE
  5
FD
330
A
100
AcDbEntity
  8
0
  6
Continuous
 62
     7
100
AcDbLine
 10
157.5886819903311
 20
6.560333803209611
 30
0.0
 11
221.7110551640868
 21
6.560333803209888
 31
0.0
  0
LINE
  5
FE
330
A
100
AcDbEntity
  8
0
  6
Continuous
 62
     7
100
AcDbLine
 10
158.6929967238744
 20
316.5603338032097
 30
0.0
 11
211.9305498158484
 21
316.5603338032099
 31
0.0
  0
LINE
  5
FF
330
A
100
AcDbEntity
  8
0
  6
Continuous
 62
     7
100
AcDbLine
 10
221.7110551640868
 20
6.560333803209888
 30
0.0
 11
230.0417034817328
 21
6.560333803210055
 31
0.0
  0
LINE
  5
100
330
A
100
AcDbEntity
  8
0
  6
Continuous
 62
     7
100
AcDbLine
 10
211.9305498158484
 20
316.5603338032099
 30
0.0
 11
222.0564665151204
 21
316.56033380321
 31
0.0
  0
LINE
  5
101
330
A
100
AcDbEntity
  8
0
  6
Continuous
 62
     7
100
AcDbLine
 10
223.8427894216419
 20
316.5603338032103
 30
0.0
 11
222.2314765151204
 21
316.5603338032103
 31
0.0
  0
LINE
  5
102
330
A
100
AcDbEntity
  8
0
  6
Continuous
 62
     7
100
AcDbLine
 10
223.8427894216419
 20
316.3998295921462
 30
0.0
 11
223.8427894216419
 21
316.5603338032103
 31
0.0
  0
LWPOLYLINE
  5
103
330
A
100
AcDbEntity
  8
0
  6
PHANTOM
 62
     7
100
AcDbPolyline
 90
        8
 70
   128
 43
0.0
 10
107.305019447471
 20
307.6961766079822
 10
107.304975996318
 20
307.6961780152458
 10
103.2478085664907
 20
307.8126147618501
 10
92.67639165888878
 20
308.0136605382872
 10
81.62998785636757
 20
308.1151584049891
 10
72.96692931351571
 20
308.1425329186051
 10
64.05288323623264
 20
308.1368036085379
 10
54.87957253756408
 20
308.1072355026963
  0
LWPOLYLINE
  5
10D
330
A
100
AcDbEntity
  8
0
  6
PHANTOM
 62
     7
100
AcDbPolyline
 90
       10
 70
   128
 43
0.0
 10
143.3080199242729
 20
306.7474362251362
 10
143.3079700273493
 20
306.7474381906101
 10
138.9496173544114
 20
306.9089430812372
 10
134.2511917288131
 20
307.0686924836106
 10
129.375199759262
 20
307.2273315135388
 10
124.4327319919956
 20
307.3834313682605
 10
119.4588124731646
 20
307.530335591412
 10
114.7075632784294
 20
307.6436549528065
 10
110.815097805698
 20
307.7000130564654
 10
107.305553754439
 20
307.7098809950771
  0
LINE
  5
119
330
A
100
AcDbEntity
  8
0
  6
PHANTOM
 62
     7
100
AcDbLine
 10
143.3080199242729
 20
306.7474362251362
 30
0.0
 11
146.6976879344141
 21
6.560333803208834
 31
0.0
  0
LWPOLYLINE
  5
11A
330
A
100
AcDbEntity
  8
0
  6
PHANTOM
 62
     7
100
AcDbPolyline
 90
       11
 70
   128
 43
0.0
 10
-1.061990554085387
 20
307.1214158514763
 10
-1.062035160748611
 20
307.121416528931
 10
-3.947804014440226
 20
307.1618669539653
 10
-7.078968071214609
 20
307.1993653743901
 10
-12.01489262131401
 20
307.2471958618172
 10
-17.24684960794441
 20
307.2824054677895
 10
-22.57635327893495
 20
307.2987789753601
 10
-27.90176235369407
 20
307.2890564942845
 10
-28.04985070126316
 20
307.2883210855871
 10
-29.25599793778081
 20
307.2812405731168
 10
-29.25605652144108
 20
307.2812401804183
  0
LINE
  5
127
330
A
100
AcDbEntity
  8
0
  6
PHANTOM
 62
     7
100
AcDbLine
 10
-1.061990554085387
 20
307.1214158514763
 30
0.0
 11
-0.7033178635348636
 21
6.560333803208667
 31
0.0
  0
LINE
  5
128
330
A
100
AcDbEntity
  8
0
  6
PHANTOM
 62
     7
100
AcDbLine
 10
-37.30004552820535
 20
307.1802556532917
 30
0.0
 11
-37.40792231269099
 21
6.560333803208667
 31
0.0
  0
LWPOLYLINE
  5
129
330
A
100
AcDbEntity
  8
0
  6
PHANTOM
 62
     7
100
AcDbPolyline
 90
        7
 70
   128
 43
0.0
 10
-29.25605652144109
 20
307.2812109388119
 10
-29.25611510281122
 20
307.2812105331321
 10
-30.30833373537464
 20
307.2730705988143
 10
-32.71644944265454
 20
307.2482663590108
 10
-35.05191859598336
 20
307.2166761608381
 10
-37.29999262099823
 20
307.1802565703043
 10
-37.30004552820533
 20
307.1802556532917
  0
LINE
  5
132
330
A
100
AcDbEntity
  8
0
  6
PHANTOM
 62
     7
100
AcDbLine
 10
-70.69561884738246
 20
306.7605103066873
 30
0.0
 11
-70.56920540838593
 21
6.560333803208889
 31
0.0
  0
LWPOLYLINE
  5
133
330
A
100
AcDbEntity
  8
0
  6
PHANTOM
 62
     7
100
AcDbPolyline
 90
        7
 70
   128
 43
0.0
 10
-37.30004552820535
 20
307.1802556532917
 10
-37.3000984168427
 20
307.1802555787178
 10
-45.68515382133374
 20
307.1126966613983
 10
-54.40354490325189
 20
306.9811761140848
 10
-62.4806529114659
 20
306.8667894758493
 10
-70.69555891616724
 20
306.7605111076894
 10
-70.69561884738246
 20
306.7605103066873
  0
LWPOLYLINE
  5
13C
330
A
100
AcDbEntity
  8
0
  6
PHANTOM
 62
     7
100
AcDbPolyline
 90
        6
 70
   128
 43
0.0
 10
29.39182508650885
 20
307.444271606764
 10
29.39178812303904
 20
307.4442700056823
 10
17.470666047065
 20
307.1035846170657
 10
8.524833984995595
 20
307.0961925368361
 10
-1.061945973482053
 20
307.1214159403146
 10
-1.061990554085401
 20
307.1214158514765
  0
LINE
  5
144
330
A
100
AcDbEntity
  8
0
  6
PHANTOM
 62
     7
100
AcDbLine
 10
29.39182508650885
 20
307.444271606764
 30
0.0
 11
37.08434463534008
 21
6.560333803208889
 31
0.0
  0
LWPOLYLINE
  5
145
330
A
100
AcDbEntity
  8
0
  6
PHANTOM
 62
     7
100
AcDbPolyline
 90
       12
 70
   128
 43
0.0
 10
54.87941544068032
 20
308.1025596315003
 10
54.8793633144464
 20
308.1025616114108
 10
51.91500563999349
 20
308.1848923306582
 10
48.76619413028262
 20
308.2180696348916
 10
45.10804942195226
 20
308.1998185580077
 10
41.44791192237398
 20
308.1284585833767
 10
38.21008680906281
 20
308.0211331533806
 10
35.1695840485686
 20
307.8789032253513
 10
32.42636576237354
 20
307.7069486315957
 10
30.03933300887448
 20
307.5092780061204
 10
29.39186182754021
 20
307.4442754740763
 10
29.39182508650885
 20
307.444271606764
  0
LWPOLYLINE
  5
153
330
A
100
AcDbEntity
  8
0
  6
PHANTOM
 62
     7
100
AcDbPolyline
 90
        9
 70
   128
 43
0.0
 10
143.3080199242729
 20
306.7474362251362
 10
143.1838504121462
 20
308.671546638246
 10
142.8560555183474
 20
310.5164396897271
 10
142.3369348302091
 20
312.2128909235698
 10
141.6459669008165
 20
313.6972457481355
 10
140.8090783707374
 20
314.9138078968176
 10
139.8576711432903
 20
315.8169292747974
 10
138.8274441158778
 20
316.3727227762339
 10
137.7570536786259
 20
316.5603338032089
  0
LWPOLYLINE
  5
15E
330
A
100
AcDbEntity
  8
0
  6
PHANTOM
 62
     7
100
AcDbPolyline
 90
        9
 70
   128
 43
0.0
 10
-1.061990554085387
 20
307.1214158514763
 10
-1.252058213212503
 20
308.9904565840843
 10
-1.674132929144853
 20
310.7726452710317
 10
-2.313129845763678
 20
312.4042868865229
 10
-3.146211355925951
 20
313.8270669234864
 10
-4.143603312444898
 20
314.9901355410385
 10
-5.26965914946359
 20
315.8519249264444
 10
-6.48413388276034
 20
316.3816349194652
 10
-7.743622456500149
 20
316.560333803209
  0
LWPOLYLINE
  5
169
330
A
100
AcDbEntity
  8
0
  6
PHANTOM
 62
     7
100
AcDbPolyline
 90
        9
 70
   128
 43
0.0
 10
-37.30004552820535
 20
307.1802556532917
 10
-37.16157072103379
 20
309.0404528916313
 10
-36.86083943907545
 20
310.8126977173086
 10
-36.40851650965039
 20
312.4341410482069
 10
-35.82064265158187
 20
313.8472816725445
 10
-35.11806562351166
 20
315.0020054131744
 10
-34.32570090026047
 20
315.8573623256282
 10
-33.47164809585242
 20
316.3830189051603
 10
-32.58619446747589
 20
316.5603338032089
  0
LWPOLYLINE
  5
174
330
A
100
AcDbEntity
  8
0
  6
PHANTOM
 62
     7
100
AcDbPolyline
 90
        6
 70
   128
 43
0.0
 10
147.3148974171255
 20
306.5861131775995
 10
147.3148623434141
 20
306.5861146685359
 10
146.145786714968
 20
306.6347250151001
 10
144.7980117936853
 20
306.6888834064718
 10
143.3080698214191
 20
306.7474342788125
 10
143.3080199242729
 20
306.7474362251362
  0
LWPOLYLINE
  5
17C
330
A
100
AcDbEntity
  8
0
  6
PHANTOM
 62
     7
100
AcDbPolyline
 90
        9
 70
   128
 43
0.0
 10
-70.69561884738246
 20
306.7605103066873
 10
-70.68517667082588
 20
308.6827293179494
 10
-70.65780752135123
 20
310.5254450824765
 10
-70.61453662551432
 20
312.2196309343749
 10
-70.55698487663312
 20
313.7018240200609
 10
-70.48730811741449
 20
314.9165025662449
 10
-70.40811638380195
 20
315.8181656813681
 10
-70.32237613510672
 20
316.3730377827854
 10
-70.23329913280294
 20
316.560333803209
  0
LINE
  5
187
330
A
100
AcDbEntity
  8
0
  6
PHANTOM
 62
     7
100
AcDbLine
 10
-88.45304227223284
 20
306.6721837616846
 30
0.0
 11
-90.19341846617196
 21
6.560333803209056
 31
0.0
  0
LWPOLYLINE
  5
188
330
A
100
AcDbEntity
  8
0
  6
PHANTOM
 62
     7
100
AcDbPolyline
 90
       10
 70
   128
 43
0.0
 10
-70.69561884738246
 20
306.7605103066873
 10
-70.69567877797081
 20
306.7605094570155
 10
-74.13411602670547
 20
306.7222629166944
 10
-77.45091705106609
 20
306.7017658168595
 10
-80.61560440416434
 20
306.6930089332547
 10
-83.45642381439118
 20
306.6899895284546
 10
-85.84022023397661
 20
306.6865803358264
 10
-87.74922076982718
 20
306.6784434500149
 10
-88.45301836792094
 20
306.6721840247021
 10
-88.45304227223186
 20
306.6721837618518
  0
LWPOLYLINE
  5
194
330
A
100
AcDbEntity
  8
0
  6
PHANTOM
 62
     7
100
AcDbPolyline
 90
        8
 70
   128
 43
0.0
 10
150.3205092834737
 20
306.4879320678297
 10
150.3246656701443
 20
306.4878951826255
 10
150.090352180583
 20
306.4994859981166
 10
149.4067199766733
 20
306.5231719951011
 10
148.2990684819278
 20
306.5573643190991
 10
147.3149333890553
 20
306.5859574169945
 10
147.3148979088732
 20
306.5859584287669
 10
147.3148979088732
 20
306.5859584287669
  0
LWPOLYLINE
  5
19E
330
A
100
AcDbEntity
  8
0
  6
PHANTOM
 62
     7
100
AcDbPolyline
 90
        9
 70
   128
 43
0.0
 10
29.39182508650885
 20
307.444271606764
 10
29.12979788471663
 20
309.2642056739481
 10
28.60870148659149
 20
310.9915787663153
 10
27.84637445582649
 20
312.567258149422
 10
26.86891334450328
 20
313.9373039819326
 10
25.70977933630028
 20
315.0548158248237
 10
24.40865277809479
 20
315.8815381724749
 10
23.01007481249456
 20
316.3891700439007
 10
21.56192261195525
 20
316.5603338032093
  0
LWPOLYLINE
  5
1A9
330
A
100
AcDbEntity
  8
0
  6
PHANTOM
 62
     7
100
AcDbPolyline
 90
        9
 70
   128
 43
0.0
 10
-88.45304227223284
 20
306.6721837616846
 10
-88.25940465037227
 20
308.6071322512129
 10
-87.72562550414212
 20
310.464536094602
 10
-86.87192749642909
 20
312.1740260164042
 10
-85.73065367985881
 20
313.6708365819993
 10
-84.34504215359066
 20
314.8982598894638
 10
-82.76758795229483
 20
315.8097939951728
 10
-81.05805422849858
 20
316.3709046782607
 10
-79.28120807618724
 20
316.5603338032091
  0
LWPOLYLINE
  5
1B4
330
A
100
AcDbEntity
  8
0
  6
PHANTOM
 62
     7
100
AcDbPolyline
 90
        5
 70
   128
 43
0.0
 10
157.2303069314971
 20
306.4541551046832
 10
157.2302589622406
 20
306.4541551081048
 10
155.3993906585499
 20
306.4552316530371
 10
151.54240297222
 20
306.4662153985761
 10
150.3263218807232
 20
306.4747108125303
  0
LWPOLYLINE
  5
1BB
330
A
100
AcDbEntity
  8
0
  6
PHANTOM
 62
     7
100
AcDbPolyline
 90
        6
 70
   128
 43
0.0
 10
-88.45304227223284
 20
306.6721837616846
 10
-88.45306619341659
 20
306.6721801282327
 10
-90.86583287193006
 20
306.6825532300306
 10
-92.5355574455021
 20
306.7180326035019
 10
-93.4256169523786
 20
306.7732770772132
 10
-93.47868251425508
 20
306.8163602573934
  0
LWPOLYLINE
  5
1C3
330
A
100
AcDbEntity
  8
0
  6
PHANTOM
 62
     7
100
AcDbPolyline
 90
        7
 70
   128
 43
0.0
 10
162.966369900188
 20
306.4570792505021
 10
162.9663156553263
 20
306.4570792516343
 10
161.2261405475827
 20
306.4565482822914
 10
159.543423486713
 20
306.4553877907698
 10
157.9242194516696
 20
306.4543734143181
 10
157.2303552902718
 20
306.4541768249682
 10
157.2303073153536
 20
306.4541768192482
  0
LWPOLYLINE
  5
1CC
330
A
100
AcDbEntity
  8
0
  6
PHANTOM
 62
     7
100
AcDbPolyline
 90
        9
 70
   128
 43
0.0
 10
162.966369900188
 20
306.4570792505021
 10
162.8918432691142
 20
308.4225453014633
 10
162.6538358871927
 20
310.3155067417673
 10
162.2616144959167
 20
312.0622617215723
 10
161.7304501100406
 20
313.5948008929374
 10
161.0810234454922
 20
314.8534553320906
 10
160.338619722295
 20
315.789219729942
 10
159.532144192592
 20
316.365660398161
 10
158.6929967238744
 20
316.5603338032097
  0
LINE
  5
1D7
330
A
100
AcDbEntity
  8
0
  6
PHANTOM
 62
     7
100
AcDbLine
 10
162.966369900188
 20
306.4570792505021
 30
0.0
 11
157.5886819903311
 21
6.560333803209611
 31
0.0
  0
LWPOLYLINE
  5
1D8
330
A
100
AcDbEntity
  8
0
  6
PHANTOM
 62
     7
100
AcDbPolyline
 90
        6
 70
   128
 43
0.0
 10
215.6063102430934
 20
306.3726715340118
 10
215.6062544520408
 20
306.3726721394645
 10
193.8268981123813
 20
306.4867832043816
 10
178.2783690207711
 20
306.4576260230169
 10
162.9664241434953
 20
306.4570789993352
 10
162.966369900188
 20
306.4570792505023
  0
LINE
  5
1E0
330
A
100
AcDbEntity
  8
0
  6
PHANTOM
 62
     7
100
AcDbLine
 10
215.6063102430934
 20
306.3726715340118
 30
0.0
 11
221.7110551640869
 21
6.560333803209888
 31
0.0
  0
LWPOLYLINE
  5
1E1
330
A
100
AcDbEntity
  8
0
  6
PHANTOM
 62
     7
100
AcDbPolyline
 90
        9
 70
   128
 43
0.0
 10
215.6063102430934
 20
306.3726715340118
 10
215.5476077836632
 20
308.3499224280515
 10
215.3465734892484
 20
310.2567527108906
 10
215.0111180929013
 20
312.0181282925102
 10
214.5544418204805
 20
313.5647387496712
 10
213.994514959558
 20
314.8357247026421
 10
213.3533707256042
 20
315.7810726419531
 10
212.6562382512786
 20
316.3635829683447
 10
211.9305498158484
 20
316.5603338032099
  0
LWPOLYLINE
  5
1EC
330
A
100
AcDbEntity
  8
0
  6
PHANTOM
 62
     7
100
AcDbPolyline
 90
       11
 70
   128
 43
0.0
 10
232.0421834061122
 20
306.4880826620533
 10
232.0550176474554
 20
306.4882640869434
 10
231.6695364233821
 20
306.4877144881965
 10
230.5475786443957
 20
306.4790636414006
 10
228.7313843284972
 20
306.4622148572048
 10
226.2138527194124
 20
306.4378109254988
 10
223.1083208211916
 20
306.4104032057812
 10
219.5464584724186
 20
306.3860794975274
 10
215.6063660415736
 20
306.3726716018578
 10
215.6063102430934
 20
306.3726715340119
 10
215.6063102430934
 20
306.3726715340119
  0
LINE
  5
1F9
330
A
100
AcDbEntity
  8
0
  6
Continuous
 62
     7
100
AcDbLine
 10
147.2421479664683
 20
-211.279189771736
 30
0.0
 11
146.4682314479029
 21
-208.6920159183297
 31
0.0
  0
LWPOLYLINE
  5
1FA
330
A
100
AcDbEntity
  8
0
  6
Continuous
 62
     7
100
AcDbPolyline
 90
       16
 70
   128
 43
0.0
 10
222.6915610829535
 20
-100.7508087931073
 10
222.6916066932397
 20
-100.7508477657334
 10
223.7206028580404
 20
-101.6764861720165
 10
226.6302659259185
 20
-104.9165286069413
 10
228.9829012853661
 20
-108.5808675931103
 10
230.6840924322066
 20
-112.528159943285
 10
231.723158184419
 20
-116.6984418120044
 10
232.0550176474554
 20
-121.003610132339
 10
231.6695364233821
 20
-125.3041332765507
 10
230.5475786443957
 20
-129.52677913397
 10
228.7313843284972
 20
-133.5005410973484
 10
226.2138527194124
 20
-137.1679886391586
 10
223.1083208211916
 20
-140.3532311821558
 10
219.5464584724186
 20
-142.9313579679213
 10
215.6063660415736
 20
-144.8842502829132
 10
215.6063102430934
 20
-144.8842723402248
  0
LINE
  5
20C
330
A
100
AcDbEntity
  8
0
  6
Continuous
 62
     7
100
AcDbLine
 10
54.87957253756408
 20
-192.6916474497859
 30
0.0
 11
54.87941544068032
 21
-192.6923976710114
 31
0.0
  0
LWPOLYLINE
  5
20D
330
A
100
AcDbEntity
  8
0
  6
Continuous
 62
     7
100
AcDbPolyline
 90
        7
 70
   128
 43
0.0
 10
54.87957253756408
 20
-192.6916474497859
 10
55.40091109538472
 20
-191.7584364030775
 10
56.40656499005364
 20
-189.9579588444142
 10
57.78296968272932
 20
-187.4930964406709
 10
58.6445184652043
 20
-185.9499255034145
 10
59.54189442959184
 20
-184.3423642827773
 10
59.69631073434795
 20
-184.0657210907177
  0
LINE
  5
216
330
A
100
AcDbEntity
  8
0
  6
Continuous
 62
     7
100
AcDbLine
 10
107.305553754439
 20
-231.4705768495381
 30
0.0
 11
107.3050194474709
 21
-231.4722416198314
 31
0.0
  0
LWPOLYLINE
  5
217
330
A
100
AcDbEntity
  8
0
  6
Continuous
 62
     7
100
AcDbPolyline
 90
        7
 70
   128
 43
0.0
 10
107.305553754439
 20
-231.4705768495381
 10
107.9476370791533
 20
-230.7833852516977
 10
109.281657046895
 20
-229.3551018888144
 10
111.156673419308
 20
-227.3462205071545
 10
113.3606214661044
 20
-224.9825238464694
 10
113.9738655853163
 20
-224.3242953062094
 10
114.0827253256643
 20
-224.2074232923367
  0
LWPOLYLINE
  5
220
330
A
100
AcDbEntity
  8
0
  6
Continuous
 62
     7
100
AcDbPolyline
 90
        6
 70
   128
 43
0.0
 10
-29.25605629270748
 20
-238.2550026168899
 10
-29.08270519847837
 20
-237.4731195285129
 10
-28.68549800524009
 20
-235.6815555707616
 10
-28.10921677011834
 20
-233.0822959952404
 10
-27.36040041462483
 20
-229.7048343600556
 10
-27.09715137720611
 20
-228.5174759907708
  0
LINE
  5
228
330
A
100
AcDbEntity
  8
0
  6
Continuous
 62
     7
100
AcDbLine
 10
-29.25605652144109
 20
-238.255002566313
 30
0.0
 11
-29.25605652144109
 21
-238.2550047311369
 31
0.0
  0
LWPOLYLINE
  5
229
330
A
100
AcDbEntity
  8
0
  6
Continuous
 62
     7
100
AcDbPolyline
 90
        7
 70
   128
 43
0.0
 10
-82.85705728740467
 20
-154.7556573595807
 10
-82.17120116219104
 20
-155.1719719587636
 10
-80.60143315085388
 20
-156.1248064712266
 10
-78.32473538870319
 20
-157.5067405700344
 10
-75.59778812851215
 20
-159.1619716155434
 10
-75.05240772278615
 20
-159.4930122975859
 10
-74.33112430941306
 20
-159.9308244070202
  0
LWPOLYLINE
  5
232
330
A
100
AcDbEntity
  8
0
  6
Continuous
 62
     7
100
AcDbPolyline
 90
        6
 70
   128
 43
0.0
 10
-75.68655834518409
 20
-119.1646598200492
 10
-76.11411067230569
 20
-116.3738153254098
 10
-77.88414924733181
 20
-110.1644535783147
 10
-80.53154769439943
 20
-104.277009250175
 10
-81.87179173573346
 20
-101.9809644018032
 10
-82.66186767038799
 20
-100.7508087738951
  0
LINE
  5
23A
330
A
100
AcDbEntity
  8
0
  6
Continuous
 62
     7
100
AcDbLine
 10
-82.66186767038799
 20
-100.7508087738951
 30
0.0
 11
-82.15721057835809
 21
-100.7508087739269
 31
0.0
  0
LINE
  5
23B
330
A
100
AcDbEntity
  8
0
  6
Continuous
 62
     7
100
AcDbLine
 10
-82.857078176058
 20
-154.7556573368588
 30
0.0
 11
-82.85705727022543
 21
-154.7556573368588
 31
0.0
  0
LWPOLYLINE
  5
23C
330
A
100
AcDbEntity
  8
0
  6
Continuous
 62
     7
100
AcDbPolyline
 90
       10
 70
   128
 43
0.0
 10
148.3710389996008
 20
-213.523033363389
 10
148.3710679656396
 20
-213.5230859003976
 10
149.4462444712478
 20
-215.9342240094756
 10
150.1061416056429
 20
-218.4904856740089
 10
150.3246656701443
 20
-221.1523665948914
 10
150.090352180583
 20
-223.8128075066457
 10
149.4067199766733
 20
-226.3811270669645
 10
148.2990684819278
 20
-228.7968829591455
 10
147.3149333890553
 20
-230.3172526834551
 10
147.3148979088732
 20
-230.3173010583762
  0
LINE
  5
248
330
A
100
AcDbEntity
  8
0
  6
Continuous
 62
     7
100
AcDbLine
 10
147.3148979088732
 20
-230.3173010583762
 30
0.0
 11
147.3148974171255
 21
-230.3173010583762
 31
0.0
  0
LWPOLYLINE
  5
249
330
A
100
AcDbEntity
  8
0
  6
Continuous
 62
     7
100
AcDbPolyline
 90
        7
 70
   128
 43
0.0
 10
147.3148975016699
 20
-230.3173009410862
 10
146.8520520448726
 20
-229.9807990308476
 10
145.5295020790202
 20
-229.0192720315235
 10
143.4963441782269
 20
-227.5411288839169
 10
140.9817773762452
 20
-225.7130154760331
 10
139.4043883035359
 20
-224.5662518683709
 10
139.2264967025068
 20
-224.4369251006482
  0
LWPOLYLINE
  5
252
330
A
100
AcDbEntity
  8
0
  6
Continuous
 62
     7
100
AcDbPolyline
 90
        7
 70
   128
 43
0.0
 10
162.966369900188
 20
-167.3400535682064
 10
162.9663156553263
 20
-167.3400792098714
 10
161.2261405475827
 20
-168.2257449704667
 10
159.543423486713
 20
-169.2103778860141
 10
157.9242194516696
 20
-170.2907270002566
 10
157.2303552902718
 20
-170.7977780571357
 10
157.2303073153536
 20
-170.7978140905533
  0
LWPOLYLINE
  5
25B
330
A
100
AcDbEntity
  8
0
  6
Continuous
 62
     7
100
AcDbPolyline
 90
       10
 70
   128
 43
0.0
 10
157.2303073153394
 20
-170.7978140905345
 10
157.1240223576047
 20
-170.6563232545813
 10
156.7841175167678
 20
-170.203848081123
 10
156.4340059634179
 20
-169.7377880467995
 10
155.9920396338298
 20
-169.1494528308968
 10
155.4708587361226
 20
-168.4556672057718
 10
154.6582411498505
 20
-167.3739242725408
 10
153.6132334263301
 20
-165.9828286691086
 10
152.3860576116818
 20
-164.3492347415917
 10
151.2244460834449
 20
-162.802918084441
  0
LINE
  5
267
330
A
100
AcDbEntity
  8
0
  6
Continuous
 62
     7
100
AcDbLine
 10
157.2303073153536
 20
-170.7978140905533
 30
0.0
 11
157.2303069314971
 21
-170.7978140905533
 31
0.0
  0
LWPOLYLINE
  5
268
330
A
100
AcDbEntity
  8
0
  6
Continuous
 62
     7
100
AcDbPolyline
 90
       12
 70
   128
 43
0.0
 10
157.2303069314971
 20
-170.7978140905533
 10
157.2302589622406
 20
-170.7978501315081
 10
155.3993906585499
 20
-172.2794274910542
 10
151.54240297222
 20
-176.2661404878992
 10
148.4089786727992
 20
-180.8435256445595
 10
146.0733288211499
 20
-185.9554189773558
 10
144.6328136384384
 20
-191.3882128612201
 10
144.1362067951916
 20
-197.0692971193221
 10
144.6047366944634
 20
-202.7532556195529
 10
146.0374117354588
 20
-208.2954296395525
 10
148.3710100313491
 20
-213.5229808236861
 10
148.3710389996008
 20
-213.523033363389
  0
LINE
  5
276
330
A
100
AcDbEntity
  8
0
  6
Continuous
 62
     7
100
AcDbLine
 10
207.3819111699687
 20
-100.7508087921442
 30
0.0
 11
-71.08580911837259
 21
-100.7508087746236
 31
0.0
  0
LWPOLYLINE
  5
277
330
A
100
AcDbEntity
  8
0
  6
Continuous
 62
     7
100
AcDbPolyline
 90
        6
 70
   128
 43
0.0
 10
215.6063102430934
 20
-144.8842723402248
 10
215.6062544520408
 20
-144.8842944081174
 10
193.8268981123813
 20
-153.7295670013241
 10
178.2783690207711
 20
-160.3775339368508
 10
162.9664241434953
 20
-167.3400279244835
 10
162.966369900188
 20
-167.3400535682064
  0
LWPOLYLINE
  5
27F
330
A
100
AcDbEntity
  8
0
  6
Continuous
 62
     7
100
AcDbPolyline
 90
        6
 70
   128
 43
0.0
 10
37.08434463534008
 20
-231.169354398294
 10
41.17368888288903
 20
-232.6438270088462
 10
45.69006943570864
 20
-235.4964280424813
 10
49.85989381235263
 20
-239.242546562931
 10
53.7986807382129
 20
-243.5843434079238
 10
57.6219489386813
 20
-248.2239794151883
  0
LINE
  5
287
330
A
100
AcDbEntity
  8
0
  6
Continuous
 62
     7
100
AcDbLine
 10
54.87941544068032
 20
-192.6923976710114
 30
0.0
 11
57.6219489386813
 21
-248.2239794151883
 31
0.0
  0
LWPOLYLINE
  5
288
330
A
100
AcDbEntity
  8
0
  6
Continuous
 62
     7
100
AcDbPolyline
 90
       11
 70
   128
 43
0.0
 10
107.5931054627354
 20
-279.1500697589319
 10
111.4561727629031
 20
-278.7398959793244
 10
115.1995610363679
 20
-277.5906164243713
 10
118.8128256760002
 20
-275.8063591576541
 10
122.2855220746702
 20
-273.4912522427546
 10
127.8201865098794
 20
-268.6487169750446
 10
132.870338734242
 20
-263.0874760145937
 10
137.3780854391566
 20
-257.2436069844367
 10
141.2523915321587
 20
-251.2214942591054
 10
144.3925088385204
 20
-245.0283106743047
 10
146.6976879344141
 20
-238.6712165643577
  0
LINE
  5
295
330
A
100
AcDbEntity
  8
0
  6
Continuous
 62
     7
100
AcDbLine
 10
107.305019447471
 20
-231.4722416198313
 30
0.0
 11
107.5931054627354
 21
-279.1500697589317
 31
0.0
  0
LWPOLYLINE
  5
296
330
A
100
AcDbEntity
  8
0
  6
Continuous
 62
     7
100
AcDbPolyline
 90
       10
 70
   128
 43
0.0
 10
57.6219489386813
 20
-248.2239794151883
 10
64.59449275222343
 20
-254.8064028468512
 10
71.72985978634407
 20
-261.1482420707929
 10
79.18939988228686
 20
-267.0102696708095
 10
87.1344628812954
 20
-272.1532582306975
 10
91.33948729483796
 20
-274.3803543030295
 10
95.72639862461334
 20
-276.3379803342529
 10
100.2965844211636
 20
-277.9601836037181
 10
104.9442336340587
 20
-278.9752504150481
 10
107.5931054627354
 20
-279.1500697589319
  0
LWPOLYLINE
  5
2A2
330
A
100
AcDbEntity
  8
0
  6
Continuous
 62
     7
100
AcDbPolyline
 90
       13
 70
   128
 43
0.0
 10
-78.99715539675828
 20
-108.3305611942587
 10
-79.14118713247484
 20
-109.9469939532514
 10
-80.04080059452688
 20
-112.2868452603947
 10
-81.49204525298472
 20
-114.6314495643846
 10
-84.39561438430386
 20
-118.139936118749
 10
-87.74936595134832
 20
-121.6145495056264
 10
-91.09875380592928
 20
-125.030901221634
 10
-94.2413842364008
 20
-128.3941863793474
 10
-98.53513446697288
 20
-133.4361807289853
 10
-102.1943177430775
 20
-138.5041174995355
 10
-105.1261712910809
 20
-143.6872041910143
 10
-107.2379323373491
 20
-149.0746483034377
 10
-108.4368381082483
 20
-154.7556573368221
  0
LINE
  5
2B1
330
A
100
AcDbEntity
  8
0
  6
Continuous
 62
     7
100
AcDbLine
 10
-108.4368381082482
 20
-154.7556573368221
 30
0.0
 11
-82.857078176058
 21
-154.7556573368588
 31
0.0
  0
LWPOLYLINE
  5
2B2
330
A
100
AcDbEntity
  8
0
  6
Continuous
 62
     7
100
AcDbPolyline
 90
        7
 70
   128
 43
0.0
 10
-29.25605652141347
 20
-260.5180687242113
 10
-25.05664341653499
 20
-261.2092857694505
 10
-20.62532919483377
 20
-261.1325714293419
 10
-16.07175487446177
 20
-260.3600148052682
 10
-10.73152128885418
 20
-258.6677473889423
 10
-5.550027850496963
 20
-256.2359445365635
 10
-0.7033178635348497
 20
-253.1803549324668
  0
LINE
  5
2BB
330
A
100
AcDbEntity
  8
0
  6
Continuous
 62
     7
100
AcDbLine
 10
-29.25605652144109
 20
-238.255004731137
 30
0.0
 11
-29.2560565214255
 21
-260.5180687242081
 31
0.0
  0
LWPOLYLINE
  5
2BC
330
A
100
AcDbEntity
  8
0
  6
Continuous
 62
     7
100
AcDbPolyline
 90
        5
 70
   128
 43
0.0
 10
146.4646919262552
 20
-208.6941851380609
 10
146.0668940747135
 20
-206.2892180496194
 10
145.1210995622217
 20
-200.0560421972937
 10
144.535139662763
 20
-193.9411280922026
 10
144.539212344668
 20
-192.4589931853502
  0
LWPOLYLINE
  5
2C3
330
A
100
AcDbEntity
  8
0
  6
Continuous
 62
     7
100
AcDbPolyline
 90
        8
 70
   128
 43
0.0
 10
-108.6137540390677
 20
-156.6613624957073
 10
-108.4906438358104
 20
-163.8907226063295
 10
-107.5280066167042
 20
-171.1684598035106
 10
-106.0116813930341
 20
-178.2929475458207
 10
-104.0300132324691
 20
-185.2751253032814
 10
-101.6638735056945
 20
-192.1339766100994
 10
-96.2078907532253
 20
-205.3207059200502
 10
-90.19341846617196
 20
-218.2487134953785
  0
LWPOLYLINE
  5
2CD
330
A
100
AcDbEntity
  8
0
  6
Continuous
 62
     7
100
AcDbPolyline
 90
        7
 70
   128
 43
0.0
 10
-90.19341846617196
 20
-218.2487134953785
 10
-87.91354061245057
 20
-221.8209722842256
 10
-84.93166558272317
 20
-224.7090469522439
 10
-81.39174225881198
 20
-227.074063308421
 10
-77.43771952253928
 20
-229.0771471617451
 10
-73.21354625572732
 20
-230.8794243212037
 10
-70.56920540838593
 20
-231.9476025463913
  0
LWPOLYLINE
  5
2D6
330
A
100
AcDbEntity
  8
0
  6
Continuous
 62
     7
100
AcDbPolyline
 90
       10
 70
   128
 43
0.0
 10
-0.7033178635348497
 20
-253.1803549324668
 10
3.877834048901379
 20
-249.3975735240592
 10
7.946439300768881
 20
-245.2767165731118
 10
11.80963048026882
 20
-241.1355708910618
 10
15.78641714455376
 20
-237.2960754284568
 10
20.19580885077617
 20
-234.0801691358445
 10
24.11284656394376
 20
-232.2181377790568
 10
28.4171605773659
 20
-231.0487211686203
 10
32.83520351972061
 20
-230.6679566799379
 10
37.08434463534008
 20
-231.169354398294
  0
LINE
  5
2E2
330
A
100
AcDbEntity
  8
0
  6
Continuous
 62
     7
100
AcDbLine
 10
148.2682940218231
 20
-230.3173010583721
 30
0.0
 11
148.3003439958011
 21
-228.2289902353993
 31
0.0
  0
LINE
  5
2E3
330
A
100
AcDbEntity
  8
0
  6
Continuous
 62
     7
100
AcDbLine
 10
147.3148979088732
 20
-230.3173010583762
 30
0.0
 11
148.2682940218231
 21
-230.3173010583721
 31
0.0
  0
LWPOLYLINE
  5
2E4
330
A
100
AcDbEntity
  8
0
  6
Continuous
 62
     7
100
AcDbPolyline
 90
        4
 70
   128
 43
0.0
 10
-37.40792231269099
 20
-256.4002303593013
 10
-36.26605868015604
 20
-257.2004308831776
 10
-32.87529976643461
 20
-259.1575129360119
 10
-29.25605652141347
 20
-260.5180687242113
  0
LWPOLYLINE
  5
2EA
330
A
100
AcDbEntity
  8
0
  6
Continuous
 62
     7
100
AcDbPolyline
 90
        3
 70
   128
 43
0.0
 10
-108.4368381082483
 20
-154.7556573368221
 10
-108.6008287317794
 20
-156.4710309997203
 10
-108.6137540390681
 20
-156.6613624957138
  0
LWPOLYLINE
  5
2EF
330
A
100
AcDbEntity
  8
0
  6
Continuous
 62
     7
100
AcDbPolyline
 90
        7
 70
   128
 43
0.0
 10
-70.56920540838593
 20
-231.9476025463913
 10
-64.21975491813381
 20
-234.672286205471
 10
-58.23765895206018
 20
-238.0253489284664
 10
-52.86345582938204
 20
-242.2171949521206
 10
-47.61069846797442
 20
-247.1604886449241
 10
-42.55322270832831
 20
-252.070548616383
 10
-37.40792231269099
 20
-256.4002303593013
  0
LWPOLYLINE
  5
2F8
330
A
100
AcDbEntity
  8
0
  6
Continuous
 62
     7
100
AcDbPolyline
 90
        3
 70
   128
 43
0.0
 10
146.6976879344141
 20
-238.6712165643577
 10
147.687281602765
 20
-234.525343804147
 10
148.2682940218233
 20
-230.3173010583703
  0
LINE
  5
2FD
330
A
100
AcDbEntity
  8
0
  6
Continuous
 62
     7
100
AcDbLine
 10
223.8427894216419
 20
-100.7556573368567
 30
0.0
 11
223.8427894216419
 21
-93.75565733685672
 31
0.0
  0
LINE
  5
2FE
330
A
100
AcDbEntity
  8
0
  6
Continuous
 62
     7
100
AcDbLine
 10
223.8427894216419
 20
-100.7556573368567
 30
0.0
 11
-82.15721057835812
 21
-100.7556573368567
 31
0.0
  0
LINE
  5
2FF
330
A
100
AcDbEntity
  8
0
  6
Continuous
 62
     7
100
AcDbLine
 10
-82.15721057835812
 20
-100.7556573368567
 30
0.0
 11
-82.15721057835812
 21
-93.75565733685672
 31
0.0
  0
LINE
  5
300
330
A
100
AcDbEntity
  8
0
  6
Continuous
 62
     7
100
AcDbLine
 10
223.8427894216419
 20
-93.75565733685672
 30
0.0
 11
-82.15721057835812
 21
-93.75565733685672
 31
0.0
  0
LINE
  5
301
330
A
100
AcDbEntity
  8
0
  6
PHANTOM
 62
     7
100
AcDbLine
 10
215.6063102430934
 20
-144.8842723402248
 30
0.0
 11
211.9305498158484
 21
-135.586231247918
 31
0.0
  0
LWPOLYLINE
  5
302
330
A
100
AcDbEntity
  8
0
  6
PHANTOM
 62
     7
100
AcDbPolyline
 90
       16
 70
   128
 43
0.0
 10
211.9305498158486
 20
-135.5862312479185
 10
214.3716548815271
 20
-134.3773284491085
 10
216.5784199277592
 20
-132.7810508397509
 10
218.4823093109656
 20
-130.8287292452654
 10
220.0257850200931
 20
-128.5808954440572
 10
221.1353111875843
 20
-126.153097278306
 10
221.8207347236712
 20
-123.57328622529
 10
222.0564665151204
 20
-120.9388269395268
 10
221.8527860525771
 20
-118.3015206453102
 10
221.2082685576337
 20
-115.719406744588
 10
220.1536914095643
 20
-113.2753919250596
 10
218.674704984504
 20
-110.9736001023418
 10
216.8456403490822
 20
-108.9383390683759
 10
212.6478560997218
 20
-105.2323339297983
 10
208.3712182706247
 20
-101.6131943502282
 10
207.3819111699687
 20
-100.7508087921442
  0
LWPOLYLINE
  5
314
330
A
100
AcDbEntity
  8
0
  6
PHANTOM
 62
     7
100
AcDbPolyline
 90
       12
 70
   128
 43
0.0
 10
54.87941544068032
 20
-192.6923976710114
 10
54.8793633144464
 20
-192.6923680241618
 10
51.91500563999349
 20
-191.3131665682998
 10
48.76619413028262
 20
-190.4310301298729
 10
45.10804942195226
 20
-190.0771046091332
 10
41.44791192237398
 20
-190.4013423683749
 10
38.21008680906281
 20
-191.2924350183458
 10
35.1695840485686
 20
-192.7154551476979
 10
32.42636576237354
 20
-194.626351426428
 10
30.03933300887448
 20
-196.9654056070411
 10
29.39186182754021
 20
-197.7563028769501
 10
29.39182508650885
 20
-197.7563501542228
  0
LINE
  5
322
330
A
100
AcDbEntity
  8
0
  6
PHANTOM
 62
     7
100
AcDbLine
 10
29.39182508650885
 20
-197.7563501542229
 30
0.0
 11
21.56192261195525
 21
-191.5991364013616
 31
0.0
  0
LWPOLYLINE
  5
323
330
A
100
AcDbEntity
  8
0
  6
PHANTOM
 62
     7
100
AcDbPolyline
 90
       10
 70
   128
 43
0.0
 10
21.56192261195522
 20
-191.5991364013615
 10
22.53799923112893
 20
-190.4209807694702
 10
26.1389506753032
 20
-186.9365079270472
 10
30.2687561870781
 20
-184.0990022260468
 10
34.83788342974993
 20
-181.9932435808586
 10
39.69499243197928
 20
-180.6818640935899
 10
45.16364375197946
 20
-180.2138442785814
 10
50.62661318025972
 20
-180.7464675238056
 10
55.29405585314911
 20
-182.0433462024455
 10
59.69631073433477
 20
-184.0657210907013
  0
LWPOLYLINE
  5
32F
330
A
100
AcDbEntity
  8
0
  6
PHANTOM
 62
     7
100
AcDbPolyline
 90
        8
 70
   128
 43
0.0
 10
107.305019447471
 20
-231.4722416198313
 10
107.304975996318
 20
-231.4722002674805
 10
103.2478085664907
 20
-227.6838344497425
 10
92.67639165888878
 20
-218.4939090571351
 10
81.62998785636757
 20
-209.8798616620637
 10
72.96692931351571
 20
-203.7759313762957
 10
64.05288323623264
 20
-198.0448622743819
 10
54.87957253756408
 20
-192.6916474497859
  0
LWPOLYLINE
  5
339
330
A
100
AcDbEntity
  8
0
  6
PHANTOM
 62
     7
100
AcDbPolyline
 90
        7
 70
   128
 43
0.0
 10
59.69631073433475
 20
-184.0657210907013
 10
69.21631011200457
 20
-189.6273943741497
 10
78.47825290840365
 20
-195.583113383021
 10
87.48254530459375
 20
-201.9218410681653
 10
98.94846999078913
 20
-210.8419045492876
 10
109.9312154429955
 20
-220.3514497814568
 10
114.0827253254177
 20
-224.2074232925868
  0
LWPOLYLINE
  5
342
330
A
100
AcDbEntity
  8
0
  6
PHANTOM
 62
     7
100
AcDbPolyline
 90
       11
 70
   128
 43
0.0
 10
-1.061990554085387
 20
-230.7725125065847
 10
-1.062035160748611
 20
-230.7725526287309
 10
-3.947804014440226
 20
-233.0812779509739
 10
-7.078968071214609
 20
-235.0444155426018
 10
-12.01489262131401
 20
-237.2333541954379
 10
-17.24684960794441
 20
-238.5676893882115
 10
-22.57635327893495
 20
-238.9936364261349
 10
-27.90176235369407
 20
-238.5233373924925
 10
-28.04985070126316
 20
-238.4970008530647
 10
-29.25599793778081
 20
-238.2550155200977
 10
-29.25605652144108
 20
-238.255002566313
  0
LWPOLYLINE
  5
34F
330
A
100
AcDbEntity
  8
0
  6
PHANTOM
 62
     7
100
AcDbPolyline
 90
        7
 70
   128
 43
0.0
 10
-27.09715137706972
 20
-228.5174759907212
 10
-26.27646185920132
 20
-228.6824643621477
 10
-22.58212935308401
 20
-229.0216802914395
 10
-18.88339445568979
 20
-228.7289733402444
 10
-15.28395397585535
 20
-227.8088488302456
 10
-11.88859151859837
 20
-226.3003226253572
 10
-7.743622456500162
 20
-223.353551524362
  0
LINE
  5
358
330
A
100
AcDbEntity
  8
0
  6
PHANTOM
 62
     7
100
AcDbLine
 10
-1.061990554085387
 20
-230.7725125065847
 30
0.0
 11
-7.743622456500149
 21
-223.353551524362
 31
0.0
  0
LWPOLYLINE
  5
359
330
A
100
AcDbEntity
  8
0
  6
PHANTOM
 62
     7
100
AcDbPolyline
 90
        7
 70
   128
 43
0.0
 10
-29.25605652144109
 20
-238.255004731137
 10
-29.25611510281122
 20
-238.2549917673993
 10
-30.30833373537464
 20
-238.0029443309497
 10
-32.71644944265454
 20
-237.2775590806844
 10
-35.05191859598336
 20
-236.3650337492769
 10
-37.29999262099823
 20
-235.2745769263677
 10
-37.30004552820533
 20
-235.2745486423345
  0
LINE
  5
362
330
A
100
AcDbEntity
  8
0
  6
PHANTOM
 62
     7
100
AcDbLine
 10
-37.30004552820535
 20
-235.2745486423345
 30
0.0
 11
-32.58619446747589
 21
-226.4770884931183
 31
0.0
  0
LWPOLYLINE
  5
363
330
A
100
AcDbEntity
  8
0
  6
PHANTOM
 62
     7
100
AcDbPolyline
 90
        5
 70
   128
 43
0.0
 10
-32.58619446747589
 20
-226.4770884931183
 10
-31.04590076939029
 20
-227.2260493482289
 10
-29.45113307744323
 20
-227.8507644062604
 10
-27.8114842891322
 20
-228.3459391480274
 10
-27.09715137706972
 20
-228.5174759907212
  0
LWPOLYLINE
  5
36A
330
A
100
AcDbEntity
  8
0
  6
PHANTOM
 62
     7
100
AcDbPolyline
 90
       10
 70
   128
 43
0.0
 10
-71.08580911837259
 20
-100.7508087746236
 10
-68.26011710393479
 20
-107.3758987158873
 10
-66.33088302776386
 20
-114.3178968164266
 10
-65.3263782414595
 20
-120.9151560539233
 10
-65.04230579531839
 20
-127.5834525940287
 10
-65.52806732508734
 20
-134.7020608969648
 10
-66.8157007089847
 20
-141.7437759114107
 10
-68.87609532370625
 20
-148.5756365749357
 10
-71.32642198288772
 20
-154.3862674614485
 10
-74.33112431082495
 20
-159.930824406126
  0
LWPOLYLINE
  5
376
330
A
100
AcDbEntity
  8
0
  6
PHANTOM
 62
     7
100
AcDbPolyline
 90
        9
 70
   128
 43
0.0
 10
-82.857057270042
 20
-154.7556573368588
 10
-82.85702607346957
 20
-154.755606103636
 10
-80.31090528030214
 20
-150.0726649835252
 10
-78.23654284846068
 20
-145.1619896673425
 10
-76.50258398075385
 20
-139.4065366888018
 10
-75.42359687603151
 20
-133.473852878698
 10
-75.02308367688046
 20
-127.4780393242011
 10
-75.26818050169921
 20
-121.8956179440046
 10
-75.68655834518409
 20
-119.1646598200492
  0
LWPOLYLINE
  5
381
330
A
100
AcDbEntity
  8
0
  6
PHANTOM
 62
     7
100
AcDbPolyline
 90
        7
 70
   128
 43
0.0
 10
-83.79810812433303
 20
-156.2444249243847
 10
-83.79807525931049
 20
-156.2443747504821
 10
-83.53125698236061
 20
-155.8329865864233
 10
-83.26804366465498
 20
-155.4190123828336
 10
-83.00852852047121
 20
-155.0026016304436
 10
-82.8571093999761
 20
-154.755708554187
 10
-82.857078176058
 20
-154.7556573368588
  0
LWPOLYLINE
  5
38A
330
A
100
AcDbEntity
  8
0
  6
PHANTOM
 62
     7
100
AcDbPolyline
 90
        5
 70
   128
 43
0.0
 10
-74.33112431082495
 20
-159.930824406126
 10
-74.51120603820527
 20
-160.2255658355111
 10
-74.8172683801735
 20
-160.7185270393499
 10
-75.12774721340315
 20
-161.2087186522297
 10
-75.44262421926617
 20
-161.6960967588346
  0
LINE
  5
391
330
A
100
AcDbEntity
  8
0
  6
PHANTOM
 62
     7
100
AcDbLine
 10
-83.79810812433303
 20
-156.2444249243847
 30
0.0
 11
-75.44262421926626
 21
-161.6960967588346
 31
0.0
  0
LWPOLYLINE
  5
392
330
A
100
AcDbEntity
  8
0
  6
PHANTOM
 62
     7
100
AcDbPolyline
 90
       10
 70
   128
 43
0.0
 10
143.3080199242729
 20
-234.1797656759979
 10
143.3079700273493
 20
-234.1797989390996
 10
138.9496173544114
 20
-236.5722333555324
 10
134.2511917288131
 20
-238.1995013419058
 10
129.375199759262
 20
-239.0066432746529
 10
124.4327319919956
 20
-238.9963945326742
 10
119.4588124731646
 20
-238.1269751299195
 10
114.7075632784294
 20
-236.4171219216427
 10
110.815097805698
 20
-234.2306119829103
 10
107.305553754439
 20
-231.4705768495381
  0
LWPOLYLINE
  5
39E
330
A
100
AcDbEntity
  8
0
  6
PHANTOM
 62
     7
100
AcDbPolyline
 90
        9
 70
   128
 43
0.0
 10
114.0827253254177
 20
-224.2074232925868
 10
116.3519393548906
 20
-225.9825487322927
 10
118.867014111081
 20
-227.3879810955404
 10
121.9933294821912
 20
-228.5034431192535
 10
125.265570103386
 20
-229.0651865961431
 10
128.5456734898585
 20
-229.0644454731332
 10
131.7806983226708
 20
-228.5228162802607
 10
134.8810562075928
 20
-227.4451031081655
 10
137.7570536786259
 20
-225.8640115656725
  0
LINE
  5
3A9
330
A
100
AcDbEntity
  8
0
  6
PHANTOM
 62
     7
100
AcDbLine
 10
143.3080199242729
 20
-234.1797656759979
 30
0.0
 11
137.7570536786259
 21
-225.8640115656725
 31
0.0
  0
LWPOLYLINE
  5
3AA
330
A
100
AcDbEntity
  8
0
  6
PHANTOM
 62
     7
100
AcDbPolyline
 90
        5
 70
   128
 43
0.0
 10
139.2264967019503
 20
-224.4369251002324
 10
139.6017871307712
 20
-223.861572606089
 10
140.2418317964061
 20
-222.0799071093155
 10
140.2469950222328
 20
-220.1614909063952
 10
139.6140497367997
 20
-218.3515593877324
  0
LINE
  5
3B1
330
A
100
AcDbEntity
  8
0
  6
PHANTOM
 62
     7
100
AcDbLine
 10
148.3710389996008
 20
-213.523033363389
 30
0.0
 11
139.6140497367997
 21
-218.3515593877324
 31
0.0
  0
LWPOLYLINE
  5
3B2
330
A
100
AcDbEntity
  8
0
  6
PHANTOM
 62
     7
100
AcDbPolyline
 90
        6
 70
   128
 43
0.0
 10
147.3148974171255
 20
-230.3173010583762
 10
147.3148623434141
 20
-230.3173497164884
 10
146.145786714968
 20
-231.7516389580541
 10
144.7980117936853
 20
-233.05227246312
 10
143.3080698214191
 20
-234.1797324121042
 10
143.3080199242729
 20
-234.1797656759979
  0
LWPOLYLINE
  5
3BA
330
A
100
AcDbEntity
  8
0
  6
PHANTOM
 62
     7
100
AcDbPolyline
 90
        4
 70
   128
 43
0.0
 10
137.7570536786259
 20
-225.8640115656725
 10
138.2954864180734
 20
-225.456178813156
 10
138.781407003174
 20
-224.9869972522349
 10
139.2264967019503
 20
-224.4369251002324
  0
LWPOLYLINE
  5
3C0
330
A
100
AcDbEntity
  8
0
  6
PHANTOM
 62
     7
100
AcDbPolyline
 90
        5
 70
   128
 43
0.0
 10
151.2244460834449
 20
-162.802918084441
 10
152.1307030127878
 20
-162.1406386775212
 10
154.2414854010802
 20
-160.7322625960108
 10
156.4315712024778
 20
-159.4507046081307
 10
158.6929967238744
 20
-158.2997205990449
  0
LINE
  5
3C7
330
A
100
AcDbEntity
  8
0
  6
PHANTOM
 62
     7
100
AcDbLine
 10
162.966369900188
 20
-167.3400535682064
 30
0.0
 11
158.6929967238744
 21
-158.2997205990449
 31
0.0
  0
LWPOLYLINE
  5
3C8
330
A
100
AcDbEntity
  8
0
  6
PHANTOM
 62
     7
100
AcDbPolyline
 90
       10
 70
   128
 43
0.0
 10
139.6140497367998
 20
-218.3515593877324
 10
136.5969411987873
 20
-211.5905369580826
 10
134.7451338187098
 20
-204.4227714084842
 10
134.1373209768474
 20
-197.0399514979377
 10
134.7831437273726
 20
-189.6608129262514
 10
136.661124904854
 20
-182.5808872811381
 10
139.7057515369868
 20
-175.9192368180457
 10
143.7973233592187
 20
-169.9428301027262
 10
148.8335287352015
 20
-164.7376497999823
 10
151.2244460834449
 20
-162.802918084441
  0
LWPOLYLINE
  5
3D4
330
A
100
AcDbEntity
  8
0
  6
PHANTOM
 62
     7
100
AcDbPolyline
 90
        4
 70
   128
 43
0.0
 10
158.6929967238745
 20
-158.299720599045
 10
174.2580450991428
 20
-151.2218555525327
 10
189.9727998560633
 20
-144.5024050898772
 10
211.9305498158485
 20
-135.5862312479181
  0
LWPOLYLINE
  5
3DA
330
A
100
AcDbEntity
  8
0
  6
PHANTOM
 62
     7
100
AcDbPolyline
 90
        4
 70
   128
 43
0.0
 10
-7.743622456500149
 20
-223.353551524362
 10
1.396259869001881
 20
-214.5766959074023
 10
10.01636466443691
 20
-205.3365873290797
 10
21.56192261195525
 20
-191.5991364013616
  0
LWPOLYLINE
  5
3E0
330
A
100
AcDbEntity
  8
0
  6
PHANTOM
 62
     7
100
AcDbPolyline
 90
        5
 70
   128
 43
0.0
 10
-70.23329913280294
 20
-215.9375065185026
 10
-60.99132448765593
 20
-216.8564789528025
 10
-51.79695736138036
 20
-218.803896911482
 10
-41.97176418799557
 20
-222.0926838237037
 10
-32.58619446747591
 20
-226.4770884931183
  0
LWPOLYLINE
  5
3E7
330
A
100
AcDbEntity
  8
0
  6
PHANTOM
 62
     7
100
AcDbPolyline
 90
        5
 70
   128
 43
0.0
 10
-79.28120807618724
 20
-209.8459445897448
 10
-78.93179125689901
 20
-210.5684623660772
 10
-76.7871858884954
 20
-213.2944018482612
 10
-73.73622292776096
 20
-215.1825999586169
 10
-70.23329913280294
 20
-215.9375065185026
  0
LWPOLYLINE
  5
3EE
330
A
100
AcDbEntity
  8
0
  6
PHANTOM
 62
     7
100
AcDbPolyline
 90
       11
 70
   128
 43
0.0
 10
-75.44262421926626
 20
-161.6960967588346
 10
-79.05791943571094
 20
-168.2924263430773
 10
-81.69486494433304
 20
-175.52709616075
 10
-82.68014275478384
 20
-179.720769526577
 10
-83.30678720808291
 20
-183.9828339800213
 10
-83.57219800598334
 20
-188.4130470306903
 10
-83.4526360772255
 20
-192.8496370566984
 10
-82.96585007921281
 20
-197.1532097923054
 10
-82.12002248719985
 20
-201.4008825153847
 10
-80.88110359661568
 20
-205.684050113235
 10
-79.28120808573414
 20
-209.8459445938916
  0
LWPOLYLINE
  5
3FB
330
A
100
AcDbEntity
  8
0
  6
PHANTOM
 62
     7
100
AcDbPolyline
 90
       12
 70
   128
 43
0.0
 10
-88.45304227223284
 20
-213.8290272244899
 10
-88.45306619341659
 20
-213.8289722431981
 10
-90.86583287193006
 20
-207.2777978652691
 10
-92.5355574455021
 20
-200.4762316196051
 10
-93.4256169523786
 20
-193.5527071996333
 10
-93.51192337306683
 20
-186.5871862039846
 10
-92.80429227801404
 20
-179.6342320568152
 10
-91.31372719425337
 20
-172.830109706144
 10
-89.37327656337796
 20
-167.0622687462319
 10
-86.85739007496842
 20
-161.5042745530505
 10
-83.79814094304672
 20
-156.2444751496758
 10
-83.79810812433303
 20
-156.2444249243847
  0
LWPOLYLINE
  5
409
330
A
100
AcDbEntity
  8
0
  6
PHANTOM
 62
     7
100
AcDbPolyline
 90
        9
 70
   128
 43
0.0
 10
-88.45304227223284
 20
-213.8290272244899
 10
-88.25940465037227
 20
-213.744996083948
 10
-87.72562550414212
 20
-213.5132349916093
 10
-86.87192749642909
 20
-213.1425244074708
 10
-85.73065367985881
 20
-212.6469090075459
 10
-84.34504215359062
 20
-212.0451655897386
 10
-82.76758795229483
 20
-211.3600916993793
 10
-81.05805422849858
 20
-210.6176419254306
 10
-79.28120807618724
 20
-209.8459445897448
  0
LWPOLYLINE
  5
414
330
A
100
AcDbEntity
  8
0
  6
PHANTOM
 62
     7
100
AcDbPolyline
 90
        6
 70
   128
 43
0.0
 10
29.39182508650885
 20
-197.7563501542229
 10
29.39178812303904
 20
-197.756397389151
 10
17.470666047065
 20
-211.9802511864849
 10
8.524833984995595
 20
-221.5692838754137
 10
-1.061945973482053
 20
-230.7724723498679
 10
-1.061990554085401
 20
-230.7725125065847
  0
LWPOLYLINE
  5
41C
330
A
100
AcDbEntity
  8
0
  6
PHANTOM
 62
     7
100
AcDbPolyline
 90
       10
 70
   128
 43
0.0
 10
-70.69561884738246
 20
-225.9248079482665
 10
-70.69567877797081
 20
-225.9248051909786
 10
-74.13411602670547
 20
-225.4765868696231
 10
-77.45091705106609
 20
-224.4659745904947
 10
-80.61560440416434
 20
-222.866238671639
 10
-83.45642381439118
 20
-220.744533047153
 10
-85.84022023397661
 20
-218.200907126731
 10
-87.74922076982718
 20
-215.2842854009115
 10
-88.45301836792094
 20
-213.8290822564312
 10
-88.45304227223186
 20
-213.8290272244875
  0
LINE
  5
428
330
A
100
AcDbEntity
  8
0
  6
PHANTOM
 62
     7
100
AcDbLine
 10
-70.69561884738246
 20
-225.9248079482665
 30
0.0
 11
-70.23329913280294
 21
-215.9375065185026
 31
0.0
  0
LWPOLYLINE
  5
429
330
A
100
AcDbEntity
  8
0
  6
PHANTOM
 62
     7
100
AcDbPolyline
 90
        7
 70
   128
 43
0.0
 10
-37.30004552820535
 20
-235.2745486423345
 10
-37.3000984168427
 20
-235.2745203088477
 10
-45.68515382133374
 20
-231.3612129790718
 10
-54.40354490325189
 20
-228.4490300435821
 10
-62.4806529114659
 20
-226.7453224149694
 10
-70.69555891616724
 20
-225.9248107064957
 10
-70.69561884738246
 20
-225.9248079482665
  0
LINE
  5
432
330
A
100
AcDbEntity
  8
0
  6
PHANTOM
 62
     7
100
AcDbLine
 10
29.39182508650885
 20
-197.7563501542229
 30
0.0
 11
37.08434463534008
 21
-231.169354398294
 31
0.0
  0
LINE
  5
433
330
A
100
AcDbEntity
  8
0
  6
PHANTOM
 62
     7
100
AcDbLine
 10
143.3080199242729
 20
-234.1797656759979
 30
0.0
 11
146.6976879344141
 21
-238.6712165643577
 31
0.0
  0
LINE
  5
434
330
A
100
AcDbEntity
  8
0
  6
PHANTOM
 62
     7
100
AcDbLine
 10
-1.061990554085387
 20
-230.7725125065847
 30
0.0
 11
-0.7033178635348636
 21
-253.1803549324668
 31
0.0
  0
LINE
  5
435
330
A
100
AcDbEntity
  8
0
  6
PHANTOM
 62
     7
100
AcDbLine
 10
-83.79810812433303
 20
-156.2444249243847
 30
0.0
 11
-108.6137540390677
 21
-156.6613624957073
 31
0.0
  0
LINE
  5
436
330
A
100
AcDbEntity
  8
0
  6
PHANTOM
 62
     7
100
AcDbLine
 10
-88.45304227223284
 20
-213.8290272244899
 30
0.0
 11
-90.19341846617196
 21
-218.2487134953785
 31
0.0
  0
LINE
  5
437
330
A
100
AcDbEntity
  8
0
  6
PHANTOM
 62
     7
100
AcDbLine
 10
-70.69561884738246
 20
-225.9248079482665
 30
0.0
 11
-70.56920540838593
 21
-231.9476025463913
 31
0.0
  0
LINE
  5
438
330
A
100
AcDbEntity
  8
0
  6
PHANTOM
 62
     7
100
AcDbLine
 10
-37.30004552820535
 20
-235.2745486423345
 30
0.0
 11
-37.40792231269099
 21
-256.4002303593013
 31
0.0
  0
ARC
  5
439
330
A
100
AcDbEntity
  8
0
  6
Continuous
 62
     7
100
AcDbCircle
 10
479.0484820371869
 20
306.560333803209
 30
0.0
 40
10.0
100
AcDbArc
 50
4.251325683535057
 51
90.00000084357601
  0
LINE
  5
43A
330
A
100
AcDbEntity
  8
0
  6
Continuous
 62
     7
100
AcDbLine
 10
511.2875491347188
 20
6.560333803208612
 30
0.0
 11
489.0204457667114
 21
307.2999018408865
 31
0.0
  0
LINE
  5
43B
330
A
100
AcDbEntity
  8
0
  6
Continuous
 62
     7
100
AcDbLine
 10
528.8501121135276
 20
6.56033380320839
 30
0.0
 11
528.9478320426623
 21
7.99029303937368
 31
0.0
  0
ARC
  5
43C
330
A
100
AcDbEntity
  8
0
  6
Continuous
 62
     7
100
AcDbCircle
 10
479.1581281512182
 20
306.560333803209
 30
0.0
 40
10.0
100
AcDbArc
 50
4.426297515863626
 51
90.00000002198399
  0
LWPOLYLINE
  5
43D
330
A
100
AcDbEntity
  8
0
  6
Continuous
 62
     7
100
AcDbPolyline
 90
       42
 70
   128
 43
0.0
 10
518.6487823063692
 20
73.03967014980803
 10
517.0736376165037
 20
83.4036264639079
 10
514.9497400478621
 20
97.46237545632077
 10
513.3215134689128
 20
108.3103369835315
 10
511.8281311304024
 20
118.319420828441
 10
510.4837731478404
 20
127.3851077139303
 10
509.2872222300525
 20
135.5049130857372
 10
508.7190402229447
 20
139.3796511744643
 10
508.1923331773445
 20
142.9837801866024
 10
507.7481535968034
 20
146.033218532814
 10
507.4049818614569
 20
148.3959001508105
 10
507.1598322653594
 20
150.0875347170923
 10
506.881640616007
 20
152.0116262689111
 10
506.4806094504911
 20
154.7947572258317
 10
505.9658218767856
 20
158.3842939248015
 10
505.3384638020384
 20
162.7859778442559
 10
504.6055040170825
 20
167.9697892626374
 10
503.8406605613219
 20
173.4315915500506
 10
502.3140937816904
 20
184.5189085841722
 10
500.7603626895109
 20
196.110830634085
 10
500.1328666206574
 20
200.89732477825
 10
499.5399338409821
 20
205.4834540595495
 10
499.0759474812104
 20
209.1186932484597
 10
498.7431092347903
 20
211.7533669500503
 10
498.5350441883072
 20
213.4124726732476
 10
498.2348375019467
 20
215.823357555132
 10
497.810602471825
 20
219.2623074073348
 10
497.264749979169
 20
223.7382826090417
 10
496.2887499256196
 20
231.8851133269403
 10
495.321652392654
 20
240.2448000449516
 10
494.4258109220032
 20
248.3785620029136
 10
493.5992736624975
 20
256.3170173150303
 10
492.833945640885
 20
264.0891660964931
 10
492.1312546862054
 20
271.5313279611698
 10
491.7154424329301
 20
276.0525097084162
 10
491.3391855489162
 20
280.2383412744601
 10
491.002277749797
 20
284.0758442676412
 10
490.6947357133851
 20
287.6617456108398
 10
490.3839496810178
 20
291.3713260473042
 10
489.9869411532531
 20
296.2427905234268
 10
489.5113870188498
 20
302.2870278768287
 10
489.1324190264704
 20
307.3129430490379
  0
LINE
  5
469
330
A
100
AcDbEntity
  8
0
  6
Continuous
 62
     7
100
AcDbLine
 10
406.685525429965
 20
6.560333803209722
 30
0.0
 11
468.272876429636
 21
6.560333803209056
 31
0.0
  0
LINE
  5
46A
330
A
100
AcDbEntity
  8
0
  6
Continuous
 62
     7
100
AcDbLine
 10
404.7798202710796
 20
6.560333803209833
 30
0.0
 11
404.7798202711152
 21
307.2854299113642
 31
0.0
  0
LINE
  5
46B
330
A
100
AcDbEntity
  8
0
  6
Continuous
 62
     7
100
AcDbLine
 10
404.7798202710796
 20
6.560333803209722
 30
0.0
 11
406.6855254299713
 21
6.560333803209722
 31
0.0
  0
LINE
  5
46C
330
A
100
AcDbEntity
  8
0
  6
Continuous
 62
     7
100
AcDbLine
 10
350.7749717081516
 20
306.5603338032103
 30
0.0
 11
350.7749717081484
 21
6.560333803210277
 31
0.0
  0
LINE
  5
46D
330
A
100
AcDbEntity
  8
0
  6
Continuous
 62
     7
100
AcDbLine
 10
404.7798202711152
 20
307.2854299113643
 30
0.0
 11
404.7798202711152
 21
307.2856756880458
 31
0.0
  0
LINE
  5
46E
330
A
100
AcDbEntity
  8
0
  6
Continuous
 62
     7
100
AcDbLine
 10
350.7749717081484
 20
6.560333803210277
 30
0.0
 11
404.7798202710796
 21
6.560333803209722
 31
0.0
  0
LINE
  5
46F
330
A
100
AcDbEntity
  8
0
  6
Continuous
 62
     7
100
AcDbLine
 10
411.7202596930909
 20
316.5603338032098
 30
0.0
 11
459.8701075240011
 21
316.5603338032091
 31
0.0
  0
LINE
  5
470
330
A
100
AcDbEntity
  8
0
  6
Continuous
 62
     7
100
AcDbLine
 10
468.272876429636
 20
6.560333803209056
 30
0.0
 11
481.9717654806487
 21
6.560333803208945
 31
0.0
  0
LINE
  5
471
330
A
100
AcDbEntity
  8
0
  6
Continuous
 62
     7
100
AcDbLine
 10
459.8701075240011
 20
316.5603338032091
 30
0.0
 11
465.9616694527589
 21
316.560333803209
 31
0.0
  0
LWPOLYLINE
  5
472
330
A
100
AcDbEntity
  8
0
  6
Continuous
 62
     7
100
AcDbPolyline
 90
        7
 70
   128
 43
0.0
 10
404.7798202938372
 20
307.2856756897627
 10
405.19613489302
 20
310.5461241866803
 10
406.148969405483
 20
313.3572050520135
 10
407.5309035042907
 20
315.4019903129293
 10
409.1861345497997
 20
316.4499459458886
 10
409.5171752318423
 20
316.524673763961
 10
409.9549873412766
 20
316.5603338032096
  0
LINE
  5
47B
330
A
100
AcDbEntity
  8
0
  6
Continuous
 62
     7
100
AcDbLine
 10
350.7749717081516
 20
306.5603338032103
 30
0.0
 11
350.7749717081834
 21
309.4328057460807
 31
0.0
  0
LINE
  5
47C
330
A
100
AcDbEntity
  8
0
  6
Continuous
 62
     7
100
AcDbLine
 10
350.77497170888
 20
316.5603338032103
 30
0.0
 11
409.9549873403823
 21
316.5603338032097
 31
0.0
  0
LINE
  5
47D
330
A
100
AcDbEntity
  8
0
  6
Continuous
 62
     7
100
AcDbLine
 10
409.9549873403823
 20
316.5603338032097
 30
0.0
 11
411.7202596930909
 21
316.5603338032098
 31
0.0
  0
LINE
  5
47E
330
A
100
AcDbEntity
  8
0
  6
Continuous
 62
     7
100
AcDbLine
 10
481.9717654806487
 20
6.560333803208945
 30
0.0
 11
506.4243932935585
 21
6.560333803208667
 31
0.0
  0
LINE
  5
47F
330
A
100
AcDbEntity
  8
0
  6
Continuous
 62
     7
100
AcDbLine
 10
465.9616694527589
 20
316.560333803209
 30
0.0
 11
476.5012514273745
 21
316.5603338032089
 31
0.0
  0
LINE
  5
480
330
A
100
AcDbEntity
  8
0
  6
Continuous
 62
     7
100
AcDbLine
 10
488.2791676653932
 20
307.2812109388119
 30
0.0
 11
510.5422316584653
 21
6.560333803208612
 31
0.0
  0
LINE
  5
481
330
A
100
AcDbEntity
  8
0
  6
Continuous
 62
     7
100
AcDbLine
 10
506.4243932935585
 20
6.560333803208667
 30
0.0
 11
510.5422316584686
 21
6.560333803208612
 31
0.0
  0
LINE
  5
482
330
A
100
AcDbEntity
  8
0
  6
Continuous
 62
     7
100
AcDbLine
 10
488.2791655005692
 20
307.2812401804183
 30
0.0
 11
488.2791676653931
 21
307.2812109388119
 31
0.0
  0
LWPOLYLINE
  5
483
330
A
100
AcDbEntity
  8
0
  6
Continuous
 62
     7
100
AcDbPolyline
 90
        6
 70
   128
 43
0.0
 10
488.2791655511461
 20
307.2812401819515
 10
487.4972824627691
 20
310.5420452342678
 10
485.7057185050178
 20
313.3539425269314
 10
483.1064589294966
 20
315.3999119771962
 10
479.7289972943118
 20
316.4861022909672
 10
478.541638925027
 20
316.5603338032089
  0
LINE
  5
48B
330
A
100
AcDbEntity
  8
0
  6
Continuous
 62
     7
100
AcDbLine
 10
476.5012514273745
 20
316.5603338032089
 30
0.0
 11
478.5416389249773
 21
316.5603338032089
 31
0.0
  0
LINE
  5
48C
330
A
100
AcDbEntity
  8
0
  6
Continuous
 62
     7
100
AcDbLine
 10
488.9916194957155
 20
307.2977726150047
 30
0.0
 11
489.0078013578283
 21
307.2983946497136
 31
0.0
  0
LINE
  5
48D
330
A
100
AcDbEntity
  8
0
  6
Continuous
 62
     7
100
AcDbLine
 10
478.5416389249773
 20
316.5603338032089
 30
0.0
 11
478.7313928750771
 21
316.560333803209
 31
0.0
  0
LINE
  5
48E
330
A
100
AcDbEntity
  8
0
  6
Continuous
 62
     7
100
AcDbLine
 10
510.5422316584686
 20
6.560333803208612
 30
0.0
 11
511.2334487037077
 21
6.560333803208612
 31
0.0
  0
LINE
  5
48F
330
A
100
AcDbEntity
  8
0
  6
Continuous
 62
     7
100
AcDbLine
 10
495.5748741927868
 20
218.7757709283797
 30
0.0
 11
528.9478320426622
 21
7.990293039373569
 31
0.0
  0
LINE
  5
490
330
A
100
AcDbEntity
  8
0
  6
Continuous
 62
     7
100
AcDbLine
 10
511.2875491347187
 20
6.560333803208612
 30
0.0
 11
528.7987949810708
 21
6.560333803208501
 31
0.0
  0
LINE
  5
491
330
A
100
AcDbEntity
  8
0
  6
Continuous
 62
     7
100
AcDbLine
 10
474.2315862268425
 20
316.5603338032091
 30
0.0
 11
479.0893495303988
 21
316.560333803209
 31
0.0
  0
LINE
  5
492
330
A
100
AcDbEntity
  8
0
  6
Continuous
 62
     7
100
AcDbLine
 10
350.7798202711131
 20
316.5603338032103
 30
0.0
 11
343.7798202711131
 21
316.5603338032103
 31
0.0
  0
LINE
  5
493
330
A
100
AcDbEntity
  8
0
  6
Continuous
 62
     7
100
AcDbLine
 10
350.7798202711131
 20
316.5603338032103
 30
0.0
 11
350.7798202711131
 21
309.4176473109348
 31
0.0
  0
LINE
  5
494
330
A
100
AcDbEntity
  8
0
  6
Continuous
 62
     7
100
AcDbLine
 10
350.7798202711131
 20
6.560333803210277
 30
0.0
 11
343.7798202711131
 21
6.560333803210277
 31
0.0
  0
LINE
  5
495
330
A
100
AcDbEntity
  8
0
  6
Continuous
 62
     7
100
AcDbLine
 10
343.7798202711131
 20
316.5603338032103
 30
0.0
 11
343.7798202711131
 21
6.560333803210277
 31
0.0
  0
LINE
  5
496
330
A
100
AcDbEntity
  8
0
  6
PHANTOM
 62
     7
100
AcDbLine
 10
406.2685878586411
 20
307.2423623375379
 30
0.0
 11
406.6855254299648
 21
6.560333803209666
 31
0.0
  0
LWPOLYLINE
  5
497
330
A
100
AcDbEntity
  8
0
  6
PHANTOM
 62
     7
100
AcDbPolyline
 90
       12
 70
   128
 43
0.0
 10
463.8531901587463
 20
306.6721837616847
 10
463.8531351774545
 20
306.6721801282328
 10
457.3019607995255
 20
306.6825532300307
 10
450.5003945538615
 20
306.7180326035019
 10
443.5768701338898
 20
306.7732770772132
 10
436.6113491382409
 20
306.8433480411631
 10
429.6583949910717
 20
306.9242692523808
 10
422.8542726404005
 20
307.0117239678452
 10
417.0864316804884
 20
307.0928661008723
 10
411.5284374873069
 20
307.1732279737221
 10
406.2686380839322
 20
307.2423617441061
 10
406.2685878586411
 20
307.2423623375379
  0
LINE
  5
4A5
330
A
100
AcDbEntity
  8
0
  6
PHANTOM
 62
     7
100
AcDbLine
 10
463.8531901587463
 20
306.6721837616847
 30
0.0
 11
468.272876429636
 21
6.560333803209056
 31
0.0
  0
LWPOLYLINE
  5
4A6
330
A
100
AcDbEntity
  8
0
  6
PHANTOM
 62
     7
100
AcDbPolyline
 90
        7
 70
   128
 43
0.0
 10
406.2685878586411
 20
307.2423623375379
 10
406.2685376847386
 20
307.2423639090889
 10
405.8571495206797
 20
307.2549763873487
 10
405.44317531709
 20
307.26711629915
 10
405.0267645647001
 20
307.2787734631419
 10
404.7798714884434
 20
307.2854285503973
 10
404.7798202711152
 20
307.2854299113642
  0
LWPOLYLINE
  5
4AF
330
A
100
AcDbEntity
  8
0
  6
PHANTOM
 62
     7
100
AcDbPolyline
 90
       13
 70
   128
 43
0.0
 10
404.7798202711152
 20
307.2856756902023
 10
404.7797690378924
 20
307.2856770797155
 10
400.0968279177817
 20
307.378678032421
 10
395.1861526015989
 20
307.4141703956553
 10
389.4306996230583
 20
307.3909291223903
 10
383.4980158129545
 20
307.3074386656254
 10
377.5022022584575
 20
307.1710390688379
 10
371.919780878261
 20
307.0000379727704
 10
366.3979782596663
 20
306.8086399438754
 10
360.1886165125711
 20
306.6227477577054
 10
354.3011721844315
 20
306.5474220288117
 10
352.0051273360597
 20
306.5545243562575
 10
350.7749717081516
 20
306.5603338032099
  0
LWPOLYLINE
  5
4BE
330
A
100
AcDbEntity
  8
0
  6
PHANTOM
 62
     7
100
AcDbPolyline
 90
        9
 70
   128
 43
0.0
 10
406.2685878586411
 20
307.2423623375379
 10
406.434047013138
 20
309.0931733417118
 10
406.7854321086363
 20
310.8548996640702
 10
407.3103842771737
 20
312.4655781101483
 10
407.9904399737083
 20
313.8685581204869
 10
408.8016803733711
 20
315.0144942762729
 10
409.7155726410651
 20
315.8630818695816
 10
410.699973484393
 20
316.3844744949884
 10
411.7202596930909
 20
316.5603338032098
  0
LWPOLYLINE
  5
4C9
330
A
100
AcDbEntity
  8
0
  6
PHANTOM
 62
     7
100
AcDbPolyline
 90
        9
 70
   128
 43
0.0
 10
463.8531901587463
 20
306.6721837616847
 10
463.7691590182044
 20
308.607132251213
 10
463.5373979258657
 20
310.4645360946021
 10
463.1666873417272
 20
312.1740260164042
 10
462.6710719418023
 20
313.6708365819994
 10
462.069328523995
 20
314.8982598894638
 10
461.3842546336357
 20
315.8097939951728
 10
460.641804859687
 20
316.3709046782607
 10
459.8701075240011
 20
316.5603338032091
  0
LWPOLYLINE
  5
4D4
330
A
100
AcDbEntity
  8
0
  6
PHANTOM
 62
     7
100
AcDbPolyline
 90
       10
 70
   128
 43
0.0
 10
475.9489708825229
 20
306.7605103066873
 10
475.9489681252349
 20
306.7605094570155
 10
475.5007498038795
 20
306.7222629166945
 10
474.4901375247512
 20
306.7017658168596
 10
472.8904016058955
 20
306.6930089332548
 10
470.7686959814094
 20
306.6899895284546
 10
468.2250700609873
 20
306.6865803358264
 10
465.3084483351679
 20
306.6784434500149
 10
463.8532451906876
 20
306.6721840247022
 10
463.8531901587439
 20
306.6721837618519
  0
LINE
  5
4E0
330
A
100
AcDbEntity
  8
0
  6
PHANTOM
 62
     7
100
AcDbLine
 10
475.9489708825229
 20
306.7605103066873
 30
0.0
 11
481.9717654806487
 21
6.560333803208889
 31
0.0
  0
LWPOLYLINE
  5
4E1
330
A
100
AcDbEntity
  8
0
  6
PHANTOM
 62
     7
100
AcDbPolyline
 90
        9
 70
   128
 43
0.0
 10
475.9489708825229
 20
306.7605103066873
 10
475.723392864618
 20
308.6827293179494
 10
475.1321484572099
 20
310.5254450824765
 10
474.1973852052195
 20
312.2196309343749
 10
472.9541185960742
 20
313.7018240200609
 10
471.4489204074173
 20
314.9165025662449
 10
469.7381741653859
 20
315.8181656813681
 10
467.8859630625973
 20
316.3730377827854
 10
465.9616694527589
 20
316.560333803209
  0
LWPOLYLINE
  5
4EC
330
A
100
AcDbEntity
  8
0
  6
PHANTOM
 62
     7
100
AcDbPolyline
 90
        7
 70
   128
 43
0.0
 10
485.2987115765909
 20
307.1802556532918
 10
485.298683243104
 20
307.1802555787179
 10
481.385375913328
 20
307.1126966613983
 10
478.4731929778384
 20
306.9811761140848
 10
476.7694853492257
 20
306.8667894758493
 10
475.9489736407521
 20
306.7605111076894
 10
475.9489708825229
 20
306.7605103066873
  0
LINE
  5
4F5
330
A
100
AcDbEntity
  8
0
  6
PHANTOM
 62
     7
100
AcDbLine
 10
485.2987115765909
 20
307.1802556532918
 30
0.0
 11
506.4243932935585
 21
6.560333803208778
 31
0.0
  0
LWPOLYLINE
  5
4F6
330
A
100
AcDbEntity
  8
0
  6
PHANTOM
 62
     7
100
AcDbPolyline
 90
        9
 70
   128
 43
0.0
 10
485.2987115765909
 20
307.1802556532918
 10
485.0402760464759
 20
309.0404528916314
 10
484.4790212604068
 20
310.8126977173087
 10
483.6348509854178
 20
312.434141048207
 10
482.5377020147577
 20
313.8472816725445
 10
481.2264825200021
 20
315.0020054131744
 10
479.7476922513574
 20
315.8573623256282
 10
478.1537735179677
 20
316.3830189051603
 10
476.5012514273745
 20
316.5603338032089
  0
LWPOLYLINE
  5
501
330
A
100
AcDbEntity
  8
0
  6
PHANTOM
 62
     7
100
AcDbPolyline
 90
        7
 70
   128
 43
0.0
 10
488.2791676653932
 20
307.2812109388119
 10
488.2791547016554
 20
307.2812105331321
 10
488.0271072652059
 20
307.2730705988143
 10
487.3017220149407
 20
307.2482663590108
 10
486.3891966835331
 20
307.2166761608381
 10
485.2987398606239
 20
307.1802565703044
 10
485.2987115765908
 20
307.1802556532918
  0
LWPOLYLINE
  5
50A
330
A
100
AcDbEntity
  8
0
  6
PHANTOM
 62
     7
100
AcDbPolyline
 90
        7
 70
   128
 43
0.0
 10
489.0078013578283
 20
307.2983946497136
 10
489.0177993603911
 20
307.2987789753601
 10
488.5475003267487
 20
307.2890564942845
 10
488.521163787321
 20
307.2883210855871
 10
488.2791784543538
 20
307.2812405731168
 10
488.2791655005692
 20
307.2812401804183
 10
488.2791655005692
 20
307.2812401804183
  0
ENDSEC
  0
SECTION
  2
OBJECTS
  0
DICTIONARY
  5
19
330
0
100
AcDbDictionary
281
     1
  3
ACAD_COLOR
350
517
  3
ACAD_GROUP
350
1A
  3
ACAD_LAYOUT
350
518
  3
ACAD_MATERIAL
350
516
  3
ACAD_MLINESTYLE
350
1B
  3
ACAD_PLOTSETTINGS
350
519
  3
ACAD_PLOTSTYLENAME
350
514
  3
ACDBHEADERROUNDTRIPXREC
350
531
  3
AcDbVariableDictionary
350
52A
  3
ASE_INDEX_DICTIONARY
350
51F
  0
DICTIONARY
  5
517
102
{ACAD_REACTORS
330
19
102
}
330
19
100
AcDbDictionary
281
     1
  0
DICTIONARY
  5
1A
102
{ACAD_REACTORS
330
19
102
}
330
19
100
AcDbDictionary
281
     1
  0
DICTIONARY
  5
518
102
{ACAD_REACTORS
330
19
102
}
330
19
100
AcDbDictionary
281
     1
  3
Layout1
350
51B
  3
Model
350
51A
  0
DICTIONARY
  5
516
102
{ACAD_REACTORS
330
19
102
}
330
19
100
AcDbDictionary
281
     1
  0
DICTIONARY
  5
1B
102
{ACAD_REACTORS
330
19
102
}
330
19
100
AcDbDictionary
281
     1
  3
STANDARD
350
1C
  0
DICTIONARY
  5
519
102
{ACAD_REACTORS
330
19
102
}
330
19
100
AcDbDictionary
281
     1
  0
ACDBDICTIONARYWDFLT
  5
514
102
{ACAD_REACTORS
330
19
102
}
330
19
100
AcDbDictionary
281
     1
  3
Normal
350
515
100
AcDbDictionaryWithDefault
340
515
  0
DICTIONARY
  5
531
102
{ACAD_REACTORS
330
19
102
}
330
19
100
AcDbDictionary
281
     1
  3
COLORDICT
350
533
  3
MATERIALDICT
350
532
  0
DICTIONARY
  5
52A
102
{ACAD_REACTORS
330
19
102
}
330
19
100
AcDbDictionary
281
     1
  3
DIMASSOC
350
52B
  3
PROJECTNAME
350
52C
  0
DICTIONARY
  5
51F
102
{ACAD_REACTORS
330
19
102
}
330
19
100
AcDbDictionary
281
     1
  3
ASEBlockHierarchyIndexRecord
350
521
1001
DCO15
1040
1521898366.031
  0
LAYOUT
  5
51B
102
{ACAD_XDICTIONARY
360
536
102
}
102
{ACAD_REACTORS
330
518
102
}
330
518
100
AcDbPlotSettings
  1

  2
ProgeSOFT PDF Wizard
  4

  6

 40
0.0
 41
0.0
 42
0.0
 43
0.0
 44
0.0
 45
0.0
 46
0.0
 47
0.0
 48
0.0
 49
0.0
140
0.0
141
0.0
142
1.0
143
1.0
 70
   688
 72
     0
 73
     0
 74
     5
  7

 75
    16
147
1.0
148
0.0
149
0.0
100
AcDbLayout
  1
Layout1
 70
     1
 71
     1
 10
0.0
 20
0.0
 11
12.0
 21
9.0
 12
0.0
 22
0.0
 32
0.0
 14
1.000000000000000E+20
 24
1.000000000000000E+20
 34
1.000000000000000E+20
 15
-1.000000000000000E+20
 25
-1.000000000000000E+20
 35
-1.000000000000000E+20
146
0.0
 13
0.0
 23
0.0
 33
0.0
 16
1.0
 26
0.0
 36
0.0
 17
0.0
 27
1.0
 37
0.0
 76
     0
330
B
  0
LAYOUT
  5
51A
102
{ACAD_XDICTIONARY
360
534
102
}
102
{ACAD_REACTORS
330
518
102
}
330
518
100
AcDbPlotSettings
  1

  2
ProgeSOFT PDF Wizard
  4

  6

 40
0.0
 41
0.0
 42
0.0
 43
0.0
 44
0.0
 45
0.0
 46
0.0
 47
0.0
 48
0.0
 49
0.0
140
0.0
141
0.0
142
1.0
143
1.0
 70
  1712
 72
     0
 73
     0
 74
     0
  7

 75
     0
147
1.0
148
0.0
149
0.0
100
AcDbLayout
  1
Model
 70
     1
 71
     0
 10
0.0
 20
0.0
 11
12.0
 21
9.0
 12
0.0
 22
0.0
 32
0.0
 14
0.0
 24
0.0
 34
0.0
 15
0.0
 25
0.0
 35
0.0
146
0.0
 13
0.0
 23
0.0
 33
0.0
 16
1.0
 26
0.0
 36
0.0
 17
0.0
 27
1.0
 37
0.0
 76
     0
330
A
  0
MLINESTYLE
  5
1C
102
{ACAD_REACTORS
330
1B
102
}
330
1B
100
AcDbMlineStyle
  2
STANDARD
 70
     0
  3

 62
     0
 51
90.0
 52
90.0
 71
     2
 49
0.5
 62
   256
  6
BYLAYER
 49
-0.5
 62
   256
  6
BYLAYER
  0
ACDBPLACEHOLDER
  5
515
102
{ACAD_REACTORS
330
514
102
}
330
514
  0
XRECORD
  5
533
102
{ACAD_REACTORS
330
531
102
}
330
531
100
AcDbXrecord
280
     1
340
517
  0
XRECORD
  5
532
102
{ACAD_REACTORS
330
531
102
}
330
531
100
AcDbXrecord
280
     1
340
516
  0
DICTIONARYVAR
  5
52B
102
{ACAD_REACTORS
330
52A
102
}
330
52A
100
DictionaryVariables
280
     0
  1
1
  0
DICTIONARYVAR
  5
52C
102
{ACAD_REACTORS
330
52A
102
}
330
52A
100
DictionaryVariables
280
     0
  1

  0
XRECORD
  5
521
102
{ACAD_REACTORS
330
51F
102
}
330
51F
100
AcDbXrecord
280
     1
  0
DICTIONARY
  5
536
330
51B
100
AcDbDictionary
280
     1
281
     1
  3
ACAD_XREC_ROUNDTRIP
360
537
  0
DICTIONARY
  5
534
330
51A
100
AcDbDictionary
280
     1
281
     1
  3
ACAD_XREC_ROUNDTRIP
360
535
  0
XRECORD
  5
537
102
{ACAD_REACTORS
330
536
102
}
330
536
100
AcDbXrecord
280
     1
102
SHADEPLOT
 70
     0
102
SHADEPLOTRESLEVEL
 70
     2
102
SHADEPLOTCUSTOMDPI
 70
   300
  0
XRECORD
  5
535
102
{ACAD_REACTORS
330
534
102
}
330
534
100
AcDbXrecord
280
     1
102
SHADEPLOT
 70
     0
102
SHADEPLOTRESLEVEL
 70
     2
102
SHADEPLOTCUSTOMDPI
 70
   300
  0
ENDSEC
  0
EOF
