  0
SECTION
  2
HEADER
  9
$ACADVER
  1
AC1018
  9
$ACADMAINTVER
 70
     0
  9
$DWGCODEPAGE
  3
ANSI_1252
  9
$INSBASE
 10
0.0
 20
0.0
 30
0.0
  9
$EXTMIN
 10
-273.4144491622634
 20
-384.3727692789906
 30
0.0
  9
$EXTMAX
 10
598.4811237801637
 20
279.829151943677
 30
0.0
  9
$LIMMIN
 10
0.0
 20
0.0
  9
$LIMMAX
 10
12.0
 20
9.0
  9
$ORTHOMODE
 70
     0
  9
$REGENMODE
 70
     1
  9
$FILLMODE
 70
     1
  9
$QTEXTMODE
 70
     0
  9
$MIRRTEXT
 70
     1
  9
$LTSCALE
 40
1.0
  9
$ATTMODE
 70
     1
  9
$TEXTSIZE
 40
0.2
  9
$TRACEWID
 40
0.05
  9
$TEXTSTYLE
  7
Standard
  9
$CLAYER
  8
Predefinito
  9
$CELTYPE
  6
ByLayer
  9
$CECOLOR
 62
   256
  9
$CELTSCALE
 40
1.0
  9
$DISPSILH
 70
     0
  9
$DIMSCALE
 40
1.0
  9
$DIMASZ
 40
0.18
  9
$DIMEXO
 40
0.0625
  9
$DIMDLI
 40
0.38
  9
$DIMRND
 40
0.0
  9
$DIMDLE
 40
0.0
  9
$DIMEXE
 40
0.18
  9
$DIMTP
 40
0.0
  9
$DIMTM
 40
0.0
  9
$DIMTXT
 40
0.18
  9
$DIMCEN
 40
0.09
  9
$DIMTSZ
 40
0.0
  9
$DIMTOL
 70
     0
  9
$DIMLIM
 70
     0
  9
$DIMTIH
 70
     1
  9
$DIMTOH
 70
     1
  9
$DIMSE1
 70
     0
  9
$DIMSE2
 70
     0
  9
$DIMTAD
 70
     0
  9
$DIMZIN
 70
     0
  9
$DIMBLK
  1

  9
$DIMASO
 70
     1
  9
$DIMSHO
 70
     1
  9
$DIMPOST
  1

  9
$DIMAPOST
  1

  9
$DIMALT
 70
     0
  9
$DIMALTD
 70
     2
  9
$DIMALTF
 40
25.4
  9
$DIMLFAC
 40
1.0
  9
$DIMTOFL
 70
     0
  9
$DIMTVP
 40
0.0
  9
$DIMTIX
 70
     0
  9
$DIMSOXD
 70
     0
  9
$DIMSAH
 70
     0
  9
$DIMBLK1
  1

  9
$DIMBLK2
  1

  9
$DIMSTYLE
  2
Standard
  9
$DIMCLRD
 70
     0
  9
$DIMCLRE
 70
     0
  9
$DIMCLRT
 70
     0
  9
$DIMTFAC
 40
1.0
  9
$DIMGAP
 40
0.09
  9
$DIMJUST
 70
     0
  9
$DIMSD1
 70
     0
  9
$DIMSD2
 70
     0
  9
$DIMTOLJ
 70
     1
  9
$DIMTZIN
 70
     0
  9
$DIMALTZ
 70
     0
  9
$DIMALTTZ
 70
     0
  9
$DIMUPT
 70
     0
  9
$DIMDEC
 70
     4
  9
$DIMTDEC
 70
     4
  9
$DIMALTU
 70
     2
  9
$DIMALTTD
 70
     2
  9
$DIMTXSTY
  7
Standard
  9
$DIMAUNIT
 70
     0
  9
$DIMADEC
 70
     0
  9
$DIMALTRND
 40
0.0
  9
$DIMAZIN
 70
     0
  9
$DIMDSEP
 70
    46
  9
$DIMATFIT
 70
     3
  9
$DIMFRAC
 70
     0
  9
$DIMLDRBLK
  1

  9
$DIMLUNIT
 70
     2
  9
$DIMLWD
 70
    -2
  9
$DIMLWE
 70
    -2
  9
$DIMTMOVE
 70
     2
  9
$LUNITS
 70
     2
  9
$LUPREC
 70
     2
  9
$SKETCHINC
 40
0.1
  9
$FILLETRAD
 40
0.5
  9
$AUNITS
 70
     0
  9
$AUPREC
 70
     0
  9
$MENU
  1
.
  9
$ELEVATION
 40
0.0
  9
$PELEVATION
 40
0.0
  9
$THICKNESS
 40
0.0
  9
$LIMCHECK
 70
     0
  9
$CHAMFERA
 40
0.5
  9
$CHAMFERB
 40
0.5
  9
$CHAMFERC
 40
1.0
  9
$CHAMFERD
 40
0.0
  9
$SKPOLY
 70
     0
  9
$TDCREATE
 40
2455943.607449248
  9
$TDUCREATE
 40
2455943.565782581
  9
$TDUPDATE
 40
2455943.607449259
  9
$TDUUPDATE
 40
2455943.565782593
  9
$TDINDWG
 40
0.0000000116
  9
$TDUSRTIMER
 40
0.0000000116
  9
$USRTIMER
 70
     1
  9
$ANGBASE
 50
0.0
  9
$ANGDIR
 70
     0
  9
$PDMODE
 70
     0
  9
$PDSIZE
 40
0.0
  9
$PLINEWID
 40
0.0
  9
$SPLFRAME
 70
     0
  9
$SPLINETYPE
 70
     6
  9
$SPLINESEGS
 70
     8
  9
$HANDSEED
  5
671
  9
$SURFTAB1
 70
     6
  9
$SURFTAB2
 70
     6
  9
$SURFTYPE
 70
     6
  9
$SURFU
 70
     6
  9
$SURFV
 70
     6
  9
$UCSBASE
  2

  9
$UCSNAME
  2

  9
$UCSORG
 10
0.0
 20
0.0
 30
0.0
  9
$UCSXDIR
 10
1.0
 20
0.0
 30
0.0
  9
$UCSYDIR
 10
0.0
 20
1.0
 30
0.0
  9
$UCSORTHOREF
  2

  9
$UCSORTHOVIEW
 70
     0
  9
$UCSORGTOP
 10
0.0
 20
0.0
 30
0.0
  9
$UCSORGBOTTOM
 10
0.0
 20
0.0
 30
0.0
  9
$UCSORGLEFT
 10
0.0
 20
0.0
 30
0.0
  9
$UCSORGRIGHT
 10
0.0
 20
0.0
 30
0.0
  9
$UCSORGFRONT
 10
0.0
 20
0.0
 30
0.0
  9
$UCSORGBACK
 10
0.0
 20
0.0
 30
0.0
  9
$PUCSBASE
  2

  9
$PUCSNAME
  2

  9
$PUCSORG
 10
0.0
 20
0.0
 30
0.0
  9
$PUCSXDIR
 10
1.0
 20
0.0
 30
0.0
  9
$PUCSYDIR
 10
0.0
 20
1.0
 30
0.0
  9
$PUCSORTHOREF
  2

  9
$PUCSORTHOVIEW
 70
     0
  9
$PUCSORGTOP
 10
0.0
 20
0.0
 30
0.0
  9
$PUCSORGBOTTOM
 10
0.0
 20
0.0
 30
0.0
  9
$PUCSORGLEFT
 10
0.0
 20
0.0
 30
0.0
  9
$PUCSORGRIGHT
 10
0.0
 20
0.0
 30
0.0
  9
$PUCSORGFRONT
 10
0.0
 20
0.0
 30
0.0
  9
$PUCSORGBACK
 10
0.0
 20
0.0
 30
0.0
  9
$USERI1
 70
     0
  9
$USERI2
 70
     0
  9
$USERI3
 70
     0
  9
$USERI4
 70
     0
  9
$USERI5
 70
     0
  9
$USERR1
 40
0.0
  9
$USERR2
 40
0.0
  9
$USERR3
 40
0.0
  9
$USERR4
 40
0.0
  9
$USERR5
 40
0.0
  9
$WORLDVIEW
 70
     1
  9
$SHADEDGE
 70
     3
  9
$SHADEDIF
 70
    70
  9
$TILEMODE
 70
     1
  9
$MAXACTVP
 70
    64
  9
$PINSBASE
 10
0.0
 20
0.0
 30
0.0
  9
$PLIMCHECK
 70
     0
  9
$PEXTMIN
 10
1.000000000000000E+20
 20
1.000000000000000E+20
 30
1.000000000000000E+20
  9
$PEXTMAX
 10
-1.000000000000000E+20
 20
-1.000000000000000E+20
 30
-1.000000000000000E+20
  9
$PLIMMIN
 10
0.0
 20
0.0
  9
$PLIMMAX
 10
12.0
 20
9.0
  9
$UNITMODE
 70
     0
  9
$VISRETAIN
 70
     1
  9
$PLINEGEN
 70
     0
  9
$PSLTSCALE
 70
     1
  9
$TREEDEPTH
 70
  3020
  9
$CMLSTYLE
  2
Standard
  9
$CMLJUST
 70
     0
  9
$CMLSCALE
 40
1.0
  9
$PROXYGRAPHICS
 70
     1
  9
$MEASUREMENT
 70
     0
  9
$CELWEIGHT
370
    -1
  9
$ENDCAPS
280
     0
  9
$JOINSTYLE
280
     0
  9
$LWDISPLAY
290
     0
  9
$INSUNITS
 70
     4
  9
$HYPERLINKBASE
  1

  9
$STYLESHEET
  1

  9
$XEDIT
290
     1
  9
$CEPSNTYPE
380
     0
  9
$PSTYLEMODE
290
     1
  9
$FINGERPRINTGUID
  2
{2F08D39B-13A6-4D2D-A712-9AC7C8358F56}
  9
$VERSIONGUID
  2
{FAEB1C32-E019-11D5-929B-00C0DF256EC4}
  9
$EXTNAMES
290
     1
  9
$PSVPSCALE
 40
0.0
  9
$OLESTARTUP
290
     0
  9
$SORTENTS
280
   127
  9
$INDEXCTL
280
     0
  9
$HIDETEXT
280
     1
  9
$XCLIPFRAME
290
     0
  9
$HALOGAP
280
     0
  9
$OBSCOLOR
 70
   257
  9
$OBSLTYPE
280
     0
  9
$INTERSECTIONDISPLAY
280
     0
  9
$INTERSECTIONCOLOR
 70
   257
  9
$DIMASSOC
280
     2
  9
$PROJECTNAME
  1

  0
ENDSEC
  0
SECTION
  2
CLASSES
  0
CLASS
  1
ACDBDICTIONARYWDFLT
  2
AcDbDictionaryWithDefault
  3
ObjectDBX Classes
 90
        0
 91
        4
280
     0
281
     0
  0
CLASS
  1
VISUALSTYLE
  2
AcDbVisualStyle
  3
ObjectDBX Classes
 90
     4095
 91
        4
280
     0
281
     0
  0
ENDSEC
  0
SECTION
  2
TABLES
  0
TABLE
  2
VPORT
  5
8
330
0
100
AcDbSymbolTable
 70
     1
  0
VPORT
  5
29
330
8
100
AcDbSymbolTableRecord
100
AcDbViewportTableRecord
  2
*Active
 70
     0
 10
0.0
 20
0.0
 11
1.0
 21
1.0
 12
162.5333373089501
 22
-52.27180866765679
 13
0.0
 23
0.0
 14
0.5
 24
0.5
 15
0.5
 25
0.5
 16
0.0
 26
0.0
 36
1.0
 17
0.0
 27
0.0
 37
0.0
 40
677.4859596471209
 41
1.312696553688727
 42
50.0
 43
0.0
 44
0.0
 50
0.0
 51
0.0
 71
     0
 72
   100
 73
     1
 74
     3
 75
     0
 76
     0
 77
     0
 78
     0
281
     0
 65
     1
110
0.0
120
0.0
130
0.0
111
1.0
121
0.0
131
0.0
112
0.0
122
1.0
132
0.0
 79
     0
146
0.0
  0
ENDTAB
  0
TABLE
  2
LTYPE
  5
5
330
0
100
AcDbSymbolTable
 70
     2
  0
LTYPE
  5
14
330
5
100
AcDbSymbolTableRecord
100
AcDbLinetypeTableRecord
  2
ByBlock
 70
     0
  3

 72
    65
 73
     0
 40
0.0
  0
LTYPE
  5
15
330
5
100
AcDbSymbolTableRecord
100
AcDbLinetypeTableRecord
  2
ByLayer
 70
     0
  3

 72
    65
 73
     0
 40
0.0
  0
LTYPE
  5
16
330
5
100
AcDbSymbolTableRecord
100
AcDbLinetypeTableRecord
  2
Continuous
 70
     0
  3
Solid line
 72
    65
 73
     0
 40
0.0
  0
LTYPE
  5
1C6
330
5
100
AcDbSymbolTableRecord
100
AcDbLinetypeTableRecord
  2
PHANTOM
 70
     0
  3

 72
    65
 73
     6
 40
12.7
 49
6.349999999999999
 74
     0
 49
-1.27
 74
     0
 49
1.27
 74
     0
 49
-1.27
 74
     0
 49
1.27
 74
     0
 49
-1.27
 74
     0
  0
ENDTAB
  0
TABLE
  2
LAYER
  5
2
330
0
100
AcDbSymbolTable
 70
     2
  0
LAYER
  5
10
330
2
100
AcDbSymbolTableRecord
100
AcDbLayerTableRecord
  2
0
 70
     0
 62
     7
  6
Continuous
370
    -3
390
F
  0
LAYER
  5
3B
330
2
100
AcDbSymbolTableRecord
100
AcDbLayerTableRecord
  2
Predefinito
 70
     0
 62
     7
  6
Continuous
370
    -3
390
F
  0
ENDTAB
  0
TABLE
  2
STYLE
  5
3
330
0
100
AcDbSymbolTable
 70
     1
  0
STYLE
  5
11
330
3
100
AcDbSymbolTableRecord
100
AcDbTextStyleTableRecord
  2
Standard
 70
     0
 40
0.0
 41
1.0
 50
0.0
 71
     0
 42
0.2
  3
txt
  4

  0
ENDTAB
  0
TABLE
  2
VIEW
  5
6
330
0
100
AcDbSymbolTable
 70
     0
  0
ENDTAB
  0
TABLE
  2
UCS
  5
7
330
0
100
AcDbSymbolTable
 70
     0
  0
ENDTAB
  0
TABLE
  2
APPID
  5
9
330
0
100
AcDbSymbolTable
 70
     1
  0
APPID
  5
12
330
9
100
AcDbSymbolTableRecord
100
AcDbRegAppTableRecord
  2
ACAD
 70
     0
  0
ENDTAB
  0
TABLE
  2
DIMSTYLE
  5
A
330
0
100
AcDbSymbolTable
 70
     1
100
AcDbDimStyleTable
  0
DIMSTYLE
105
27
330
A
100
AcDbSymbolTableRecord
100
AcDbDimStyleTableRecord
  2
Standard
 70
     0
340
11
  0
ENDTAB
  0
TABLE
  2
BLOCK_RECORD
  5
1
330
0
100
AcDbSymbolTable
 70
     1
  0
BLOCK_RECORD
  5
1F
330
1
100
AcDbSymbolTableRecord
100
AcDbBlockTableRecord
  2
*Model_Space
340
22
  0
BLOCK_RECORD
  5
1B
330
1
100
AcDbSymbolTableRecord
100
AcDbBlockTableRecord
  2
*Paper_Space
340
1E
  0
BLOCK_RECORD
  5
23
330
1
100
AcDbSymbolTableRecord
100
AcDbBlockTableRecord
  2
*Paper_Space0
340
26
  0
ENDTAB
  0
ENDSEC
  0
SECTION
  2
BLOCKS
  0
BLOCK
  5
20
330
1F
100
AcDbEntity
  8
0
100
AcDbBlockBegin
  2
*Model_Space
 70
     0
 10
0.0
 20
0.0
 30
0.0
  3
*Model_Space
  1

  0
ENDBLK
  5
21
330
1F
100
AcDbEntity
  8
0
100
AcDbBlockEnd
  0
BLOCK
  5
1C
330
1B
100
AcDbEntity
 67
     1
  8
0
100
AcDbBlockBegin
  2
*Paper_Space
 70
     0
 10
0.0
 20
0.0
 30
0.0
  3
*Paper_Space
  1

  0
ENDBLK
  5
1D
330
1B
100
AcDbEntity
 67
     1
  8
0
100
AcDbBlockEnd
  0
BLOCK
  5
24
330
23
100
AcDbEntity
  8
0
100
AcDbBlockBegin
  2
*Paper_Space0
 70
     0
 10
0.0
 20
0.0
 30
0.0
  3
*Paper_Space0
  1

  0
ENDBLK
  5
25
330
23
100
AcDbEntity
  8
0
100
AcDbBlockEnd
  0
ENDSEC
  0
SECTION
  2
ENTITIES
  0
POLYLINE
  5
3C
330
1F
100
AcDbEntity
  8
Predefinito
  6
Continuous
 62
   255
100
AcDb2dPolyline
 66
     1
 10
0.0
 20
0.0
 30
0.0
  0
VERTEX
  5
3D
330
3C
100
AcDbEntity
  8
Predefinito
  6
Continuous
 62
   255
100
AcDbVertex
100
AcDb2dVertex
 10
25.36357301871731
 20
234.829151943677
 30
0.0
  0
VERTEX
  5
3E
330
3C
100
AcDbEntity
  8
Predefinito
  6
Continuous
 62
   255
100
AcDbVertex
100
AcDb2dVertex
 10
25.36357301871731
 20
244.829151943677
 30
0.0
  0
VERTEX
  5
3F
330
3C
100
AcDbEntity
  8
Predefinito
  6
Continuous
 62
   255
100
AcDbVertex
100
AcDb2dVertex
 10
-34.63642698128269
 20
244.829151943677
 30
0.0
  0
VERTEX
  5
40
330
3C
100
AcDbEntity
  8
Predefinito
  6
Continuous
 62
   255
100
AcDbVertex
100
AcDb2dVertex
 10
-34.63642698128269
 20
234.829151943677
 30
0.0
  0
SEQEND
  5
41
330
3C
100
AcDbEntity
  8
Predefinito
  6
Continuous
 62
   255
  0
POLYLINE
  5
42
330
1F
100
AcDbEntity
  8
Predefinito
  6
Continuous
 62
   255
100
AcDb2dPolyline
 66
     1
 10
0.0
 20
0.0
 30
0.0
  0
VERTEX
  5
43
330
42
100
AcDbEntity
  8
Predefinito
  6
Continuous
 62
   255
100
AcDbVertex
100
AcDb2dVertex
 10
-139.181253700326
 20
234.829151943677
 30
0.0
  0
VERTEX
  5
44
330
42
100
AcDbEntity
  8
Predefinito
  6
Continuous
 62
   255
100
AcDbVertex
100
AcDb2dVertex
 10
-139.181253700326
 20
244.829151943677
 30
0.0
  0
VERTEX
  5
45
330
42
100
AcDbEntity
  8
Predefinito
  6
Continuous
 62
   255
100
AcDbVertex
100
AcDb2dVertex
 10
-199.181253700326
 20
244.829151943677
 30
0.0
  0
VERTEX
  5
46
330
42
100
AcDbEntity
  8
Predefinito
  6
Continuous
 62
   255
100
AcDbVertex
100
AcDb2dVertex
 10
-199.181253700326
 20
234.829151943677
 30
0.0
  0
SEQEND
  5
47
330
42
100
AcDbEntity
  8
Predefinito
  6
Continuous
 62
   255
  0
POLYLINE
  5
48
330
1F
100
AcDbEntity
  8
Predefinito
  6
Continuous
 62
   255
100
AcDb2dPolyline
 66
     1
 10
0.0
 20
0.0
 30
0.0
  0
VERTEX
  5
49
330
48
100
AcDbEntity
  8
Predefinito
  6
Continuous
 62
   255
100
AcDbVertex
100
AcDb2dVertex
 10
-156.9088403408043
 20
244.829151943677
 30
0.0
  0
VERTEX
  5
4A
330
48
100
AcDbEntity
  8
Predefinito
  6
Continuous
 62
   255
100
AcDbVertex
100
AcDb2dVertex
 10
-156.9088403408043
 20
254.8291519436771
 30
0.0
  0
VERTEX
  5
4B
330
48
100
AcDbEntity
  8
Predefinito
  6
Continuous
 62
   255
100
AcDbVertex
100
AcDb2dVertex
 10
-86.90884034080437
 20
254.8291519436771
 30
0.0
  0
VERTEX
  5
4C
330
48
100
AcDbEntity
  8
Predefinito
  6
Continuous
 62
   255
100
AcDbVertex
100
AcDb2dVertex
 10
-16.90884034080439
 20
254.8291519436771
 30
0.0
  0
VERTEX
  5
4D
330
48
100
AcDbEntity
  8
Predefinito
  6
Continuous
 62
   255
100
AcDbVertex
100
AcDb2dVertex
 10
-16.90884034080436
 20
244.829151943677
 30
0.0
  0
SEQEND
  5
4E
330
48
100
AcDbEntity
  8
Predefinito
  6
Continuous
 62
   255
  0
POLYLINE
  5
4F
330
1F
100
AcDbEntity
  8
Predefinito
  6
Continuous
 62
   255
100
AcDb2dPolyline
 66
     1
 10
0.0
 20
0.0
 30
0.0
  0
VERTEX
  5
50
330
4F
100
AcDbEntity
  8
Predefinito
  6
Continuous
 62
   255
100
AcDbVertex
100
AcDb2dVertex
 10
-151.9088403408044
 20
254.8291519436771
 30
0.0
  0
VERTEX
  5
51
330
4F
100
AcDbEntity
  8
Predefinito
  6
Continuous
 62
   255
100
AcDbVertex
100
AcDb2dVertex
 10
-151.9088403408044
 20
279.829151943677
 30
0.0
  0
VERTEX
  5
52
330
4F
100
AcDbEntity
  8
Predefinito
  6
Continuous
 62
   255
100
AcDbVertex
100
AcDb2dVertex
 10
-21.90884034080437
 20
279.829151943677
 30
0.0
  0
VERTEX
  5
53
330
4F
100
AcDbEntity
  8
Predefinito
  6
Continuous
 62
   255
100
AcDbVertex
100
AcDb2dVertex
 10
-21.90884034080437
 20
254.8291519436771
 30
0.0
  0
SEQEND
  5
54
330
4F
100
AcDbEntity
  8
Predefinito
  6
Continuous
 62
   255
  0
POLYLINE
  5
55
330
1F
100
AcDbEntity
  8
Predefinito
  6
Continuous
 62
   255
100
AcDb2dPolyline
 66
     1
 10
0.0
 20
0.0
 30
0.0
  0
VERTEX
  5
56
330
55
100
AcDbEntity
  8
Predefinito
  6
Continuous
 62
   255
100
AcDbVertex
100
AcDb2dVertex
 10
392.532777226599
 20
234.829151943677
 30
0.0
  0
VERTEX
  5
57
330
55
100
AcDbEntity
  8
Predefinito
  6
Continuous
 62
   255
100
AcDbVertex
100
AcDb2dVertex
 10
392.532777226599
 20
244.829151943677
 30
0.0
  0
VERTEX
  5
58
330
55
100
AcDbEntity
  8
Predefinito
  6
Continuous
 62
   255
100
AcDbVertex
100
AcDb2dVertex
 10
336.0854088055463
 20
244.829151943677
 30
0.0
  0
VERTEX
  5
59
330
55
100
AcDbEntity
  8
Predefinito
  6
Continuous
 62
   255
100
AcDbVertex
100
AcDb2dVertex
 10
336.0854088055463
 20
234.829151943677
 30
0.0
  0
SEQEND
  5
5A
330
55
100
AcDbEntity
  8
Predefinito
  6
Continuous
 62
   255
  0
POLYLINE
  5
5B
330
1F
100
AcDbEntity
  8
Predefinito
  6
Continuous
 62
   255
100
AcDb2dPolyline
 66
     1
 10
0.0
 20
0.0
 30
0.0
  0
VERTEX
  5
5C
330
5B
100
AcDbEntity
  8
Predefinito
  6
Continuous
 62
   255
100
AcDbVertex
100
AcDb2dVertex
 10
538.5854088055466
 20
234.829151943677
 30
0.0
  0
VERTEX
  5
5D
330
5B
100
AcDbEntity
  8
Predefinito
  6
Continuous
 62
   255
100
AcDbVertex
100
AcDb2dVertex
 10
538.5854088055466
 20
244.829151943677
 30
0.0
  0
VERTEX
  5
5E
330
5B
100
AcDbEntity
  8
Predefinito
  6
Continuous
 62
   255
100
AcDbVertex
100
AcDb2dVertex
 10
478.5854088055465
 20
244.829151943677
 30
0.0
  0
VERTEX
  5
5F
330
5B
100
AcDbEntity
  8
Predefinito
  6
Continuous
 62
   255
100
AcDbVertex
100
AcDb2dVertex
 10
478.5854088055465
 20
234.829151943677
 30
0.0
  0
SEQEND
  5
60
330
5B
100
AcDbEntity
  8
Predefinito
  6
Continuous
 62
   255
  0
POLYLINE
  5
61
330
1F
100
AcDbEntity
  8
Predefinito
  6
Continuous
 62
   255
100
AcDb2dPolyline
 66
     1
 10
0.0
 20
0.0
 30
0.0
  0
VERTEX
  5
62
330
61
100
AcDbEntity
  8
Predefinito
  6
Continuous
 62
   255
100
AcDbVertex
100
AcDb2dVertex
 10
531.0854088055463
 20
244.829151943677
 30
0.0
  0
VERTEX
  5
63
330
61
100
AcDbEntity
  8
Predefinito
  6
Continuous
 62
   255
100
AcDbVertex
100
AcDb2dVertex
 10
531.0854088055463
 20
254.8291519436771
 30
0.0
  0
VERTEX
  5
64
330
61
100
AcDbEntity
  8
Predefinito
  6
Continuous
 62
   255
100
AcDbVertex
100
AcDb2dVertex
 10
391.0854088055464
 20
254.8291519436771
 30
0.0
  0
VERTEX
  5
65
330
61
100
AcDbEntity
  8
Predefinito
  6
Continuous
 62
   255
100
AcDbVertex
100
AcDb2dVertex
 10
391.0854088055463
 20
244.829151943677
 30
0.0
  0
SEQEND
  5
66
330
61
100
AcDbEntity
  8
Predefinito
  6
Continuous
 62
   255
  0
POLYLINE
  5
67
330
1F
100
AcDbEntity
  8
Predefinito
  6
Continuous
 62
   255
100
AcDb2dPolyline
 66
     1
 10
0.0
 20
0.0
 30
0.0
  0
VERTEX
  5
68
330
67
100
AcDbEntity
  8
Predefinito
  6
Continuous
 62
   255
100
AcDbVertex
100
AcDb2dVertex
 10
526.0854088055463
 20
254.8291519436771
 30
0.0
  0
VERTEX
  5
69
330
67
100
AcDbEntity
  8
Predefinito
  6
Continuous
 62
   255
100
AcDbVertex
100
AcDb2dVertex
 10
526.0854088055463
 20
279.829151943677
 30
0.0
  0
VERTEX
  5
6A
330
67
100
AcDbEntity
  8
Predefinito
  6
Continuous
 62
   255
100
AcDbVertex
100
AcDb2dVertex
 10
396.0854088055463
 20
279.829151943677
 30
0.0
  0
VERTEX
  5
6B
330
67
100
AcDbEntity
  8
Predefinito
  6
Continuous
 62
   255
100
AcDbVertex
100
AcDb2dVertex
 10
396.0854088055463
 20
254.8291519436771
 30
0.0
  0
SEQEND
  5
6C
330
67
100
AcDbEntity
  8
Predefinito
  6
Continuous
 62
   255
  0
POLYLINE
  5
6D
330
1F
100
AcDbEntity
  8
Predefinito
  6
Continuous
 62
   255
100
AcDb2dPolyline
 66
     1
 10
0.0
 20
0.0
 30
0.0
  0
VERTEX
  5
6E
330
6D
100
AcDbEntity
  8
Predefinito
  6
Continuous
 62
   255
100
AcDbVertex
100
AcDb2dVertex
 10
-96.41696364014656
 20
-72.30078353054195
 30
0.0
  0
VERTEX
  5
6F
330
6D
100
AcDbEntity
  8
Predefinito
  6
Continuous
 62
   255
100
AcDbVertex
100
AcDb2dVertex
 10
-95.41109623485443
 20
-71.44019551214059
 30
0.0
  0
VERTEX
  5
70
330
6D
100
AcDbEntity
  8
Predefinito
  6
Continuous
 62
   255
100
AcDbVertex
100
AcDb2dVertex
 10
-89.8489748360852
 20
-67.83076528704599
 30
0.0
  0
VERTEX
  5
71
330
6D
100
AcDbEntity
  8
Predefinito
  6
Continuous
 62
   255
100
AcDbVertex
100
AcDb2dVertex
 10
-82.40880769935929
 20
-64.15469917420782
 30
0.0
  0
VERTEX
  5
72
330
6D
100
AcDbEntity
  8
Predefinito
  6
Continuous
 62
   255
100
AcDbVertex
100
AcDb2dVertex
 10
-74.75550178773024
 20
-61.30470880302341
 30
0.0
  0
VERTEX
  5
73
330
6D
100
AcDbEntity
  8
Predefinito
  6
Continuous
 62
   255
100
AcDbVertex
100
AcDb2dVertex
 10
-66.68163412467851
 20
-58.94496871197477
 30
0.0
  0
VERTEX
  5
74
330
6D
100
AcDbEntity
  8
Predefinito
  6
Continuous
 62
   255
100
AcDbVertex
100
AcDb2dVertex
 10
-61.00472893672536
 20
-57.48885497036119
 30
0.0
  0
VERTEX
  5
75
330
6D
100
AcDbEntity
  8
Predefinito
  6
Continuous
 62
   255
100
AcDbVertex
100
AcDb2dVertex
 10
-55.14362757761713
 20
-56.29097480943087
 30
0.0
  0
VERTEX
  5
76
330
6D
100
AcDbEntity
  8
Predefinito
  6
Continuous
 62
   255
100
AcDbVertex
100
AcDb2dVertex
 10
-52.17323721324477
 20
-56.06456365368492
 30
0.0
  0
VERTEX
  5
77
330
6D
100
AcDbEntity
  8
Predefinito
  6
Continuous
 62
   255
100
AcDbVertex
100
AcDb2dVertex
 10
-49.38206700674609
 20
-56.30375498909709
 30
0.0
  0
VERTEX
  5
78
330
6D
100
AcDbEntity
  8
Predefinito
  6
Continuous
 62
   255
100
AcDbVertex
100
AcDb2dVertex
 10
-46.8550492069579
 20
-57.1542712118204
 30
0.0
  0
VERTEX
  5
79
330
6D
100
AcDbEntity
  8
Predefinito
  6
Continuous
 62
   255
100
AcDbVertex
100
AcDb2dVertex
 10
-44.3222450931103
 20
-59.04171543697597
 30
0.0
  0
VERTEX
  5
7A
330
6D
100
AcDbEntity
  8
Predefinito
  6
Continuous
 62
   255
100
AcDbVertex
100
AcDb2dVertex
 10
-42.25613499700981
 20
-61.71910640620112
 30
0.0
  0
VERTEX
  5
7B
330
6D
100
AcDbEntity
  8
Predefinito
  6
Continuous
 62
   255
100
AcDbVertex
100
AcDb2dVertex
 10
-40.64519373000296
 20
-64.9392941440367
 30
0.0
  0
VERTEX
  5
7C
330
6D
100
AcDbEntity
  8
Predefinito
  6
Continuous
 62
   255
100
AcDbVertex
100
AcDb2dVertex
 10
-39.47789610343631
 20
-68.45512867502335
 30
0.0
  0
VERTEX
  5
7D
330
6D
100
AcDbEntity
  8
Predefinito
  6
Continuous
 62
   255
100
AcDbVertex
100
AcDb2dVertex
 10
-39.12244689658606
 20
-69.93588746694697
 30
0.0
  0
VERTEX
  5
7E
330
6D
100
AcDbEntity
  8
Predefinito
  6
Continuous
 62
   255
100
AcDbVertex
100
AcDb2dVertex
 10
-38.41502584784898
 20
-75.10080217612634
 30
0.0
  0
VERTEX
  5
7F
330
6D
100
AcDbEntity
  8
Predefinito
  6
Continuous
 62
   255
100
AcDbVertex
100
AcDb2dVertex
 10
-38.35690414809032
 20
-80.0983487227518
 30
0.0
  0
VERTEX
  5
80
330
6D
100
AcDbEntity
  8
Predefinito
  6
Continuous
 62
   255
100
AcDbVertex
100
AcDb2dVertex
 10
-38.6290765639279
 20
-85.01117947993131
 30
0.0
  0
VERTEX
  5
81
330
6D
100
AcDbEntity
  8
Predefinito
  6
Continuous
 62
   255
100
AcDbVertex
100
AcDb2dVertex
 10
-38.91236151794712
 20
-89.92248987578262
 30
0.0
  0
VERTEX
  5
82
330
6D
100
AcDbEntity
  8
Predefinito
  6
Continuous
 62
   255
100
AcDbVertex
100
AcDb2dVertex
 10
-38.88498894991611
 20
-94.91015832139114
 30
0.0
  0
VERTEX
  5
83
330
6D
100
AcDbEntity
  8
Predefinito
  6
Continuous
 62
   255
100
AcDbVertex
100
AcDb2dVertex
 10
-38.1405809151638
 20
-99.87826969920243
 30
0.0
  0
VERTEX
  5
84
330
6D
100
AcDbEntity
  8
Predefinito
  6
Continuous
 62
   255
100
AcDbVertex
100
AcDb2dVertex
 10
-36.80655967573943
 20
-103.4091379039402
 30
0.0
  0
VERTEX
  5
85
330
6D
100
AcDbEntity
  8
Predefinito
  6
Continuous
 62
   255
100
AcDbVertex
100
AcDb2dVertex
 10
-34.62183027624514
 20
-106.6028532679499
 30
0.0
  0
VERTEX
  5
86
330
6D
100
AcDbEntity
  8
Predefinito
  6
Continuous
 62
   255
100
AcDbVertex
100
AcDb2dVertex
 10
-31.72079646951794
 20
-109.189204578831
 30
0.0
  0
VERTEX
  5
87
330
6D
100
AcDbEntity
  8
Predefinito
  6
Continuous
 62
   255
100
AcDbVertex
100
AcDb2dVertex
 10
-28.33701482656547
 20
-110.8593991969879
 30
0.0
  0
VERTEX
  5
88
330
6D
100
AcDbEntity
  8
Predefinito
  6
Continuous
 62
   255
100
AcDbVertex
100
AcDb2dVertex
 10
-25.62006872213452
 20
-111.3647106808604
 30
0.0
  0
VERTEX
  5
89
330
6D
100
AcDbEntity
  8
Predefinito
  6
Continuous
 62
   255
100
AcDbVertex
100
AcDb2dVertex
 10
-22.82654673756174
 20
-111.5382347993502
 30
0.0
  0
VERTEX
  5
8A
330
6D
100
AcDbEntity
  8
Predefinito
  6
Continuous
 62
   255
100
AcDbVertex
100
AcDb2dVertex
 10
-20.00563680660933
 20
-111.9376676454797
 30
0.0
  0
VERTEX
  5
8B
330
6D
100
AcDbEntity
  8
Predefinito
  6
Continuous
 62
   255
100
AcDbVertex
100
AcDb2dVertex
 10
-17.24753193950751
 20
-112.9743655173075
 30
0.0
  0
VERTEX
  5
8C
330
6D
100
AcDbEntity
  8
Predefinito
  6
Continuous
 62
   255
100
AcDbVertex
100
AcDb2dVertex
 10
-16.67709317274043
 20
-113.2836131577586
 30
0.0
  0
VERTEX
  5
8D
330
6D
100
AcDbEntity
  8
Predefinito
  6
Continuous
 62
   255
100
AcDbVertex
100
AcDb2dVertex
 10
-6.357979886647491
 20
-119.189670878563
 30
0.0
  0
VERTEX
  5
8E
330
6D
100
AcDbEntity
  8
Predefinito
  6
Continuous
 62
   255
100
AcDbVertex
100
AcDb2dVertex
 10
-5.34852109402184
 20
-119.8299902921096
 30
0.0
  0
SEQEND
  5
8F
330
6D
100
AcDbEntity
  8
Predefinito
  6
Continuous
 62
   255
  0
LINE
  5
90
330
1F
100
AcDbEntity
  8
Predefinito
  6
Continuous
 62
   255
100
AcDbLine
 10
-96.45984076274334
 20
-72.23730157716659
 30
0.0
 11
-103.1210863843328
 21
-76.49447667548223
 31
0.0
  0
LINE
  5
91
330
1F
100
AcDbEntity
  8
Predefinito
  6
Continuous
 62
   255
100
AcDbLine
 10
-163.4165398839981
 20
-189.1067486343188
 30
0.0
 11
-158.8513930800104
 21
-195.5746927521174
 31
0.0
  0
POLYLINE
  5
92
330
1F
100
AcDbEntity
  8
Predefinito
  6
Continuous
 62
   255
100
AcDb2dPolyline
 66
     1
 10
0.0
 20
0.0
 30
0.0
  0
VERTEX
  5
93
330
92
100
AcDbEntity
  8
Predefinito
  6
Continuous
 62
   255
100
AcDbVertex
100
AcDb2dVertex
 10
-163.4094017963578
 20
-189.1027301889015
 30
0.0
  0
VERTEX
  5
94
330
92
100
AcDbEntity
  8
Predefinito
  6
Continuous
 62
   255
100
AcDbVertex
100
AcDb2dVertex
 10
-164.5964104602053
 20
-186.9955962071568
 30
0.0
  0
VERTEX
  5
95
330
92
100
AcDbEntity
  8
Predefinito
  6
Continuous
 62
   255
100
AcDbVertex
100
AcDb2dVertex
 10
-165.5963454595506
 20
-184.5083490352327
 30
0.0
  0
VERTEX
  5
96
330
92
100
AcDbEntity
  8
Predefinito
  6
Continuous
 62
   255
100
AcDbVertex
100
AcDb2dVertex
 10
-167.703936602807
 20
-178.6077658478838
 30
0.0
  0
VERTEX
  5
97
330
92
100
AcDbEntity
  8
Predefinito
  6
Continuous
 62
   255
100
AcDbVertex
100
AcDb2dVertex
 10
-170.0437587247253
 20
-173.237247725605
 30
0.0
  0
VERTEX
  5
98
330
92
100
AcDbEntity
  8
Predefinito
  6
Continuous
 62
   255
100
AcDbVertex
100
AcDb2dVertex
 10
-173.148483629034
 20
-168.2194709226686
 30
0.0
  0
VERTEX
  5
99
330
92
100
AcDbEntity
  8
Predefinito
  6
Continuous
 62
   255
100
AcDbVertex
100
AcDb2dVertex
 10
-177.0987067667525
 20
-163.6304885448919
 30
0.0
  0
VERTEX
  5
9A
330
92
100
AcDbEntity
  8
Predefinito
  6
Continuous
 62
   255
100
AcDbVertex
100
AcDb2dVertex
 10
-181.708399710331
 20
-159.5515126515249
 30
0.0
  0
VERTEX
  5
9B
330
92
100
AcDbEntity
  8
Predefinito
  6
Continuous
 62
   255
100
AcDbVertex
100
AcDb2dVertex
 10
-184.6072726619479
 20
-157.0605358513355
 30
0.0
  0
VERTEX
  5
9C
330
92
100
AcDbEntity
  8
Predefinito
  6
Continuous
 62
   255
100
AcDbVertex
100
AcDb2dVertex
 10
-187.2433327475829
 20
-154.4140188000725
 30
0.0
  0
VERTEX
  5
9D
330
92
100
AcDbEntity
  8
Predefinito
  6
Continuous
 62
   255
100
AcDbVertex
100
AcDb2dVertex
 10
-189.3860362979656
 20
-151.4448051549168
 30
0.0
  0
VERTEX
  5
9E
330
92
100
AcDbEntity
  8
Predefinito
  6
Continuous
 62
   255
100
AcDbVertex
100
AcDb2dVertex
 10
-190.8110001606695
 20
-148.0031834097605
 30
0.0
  0
VERTEX
  5
9F
330
92
100
AcDbEntity
  8
Predefinito
  6
Continuous
 62
   255
100
AcDbVertex
100
AcDb2dVertex
 10
-191.3927757047642
 20
-144.2195965676633
 30
0.0
  0
VERTEX
  5
A0
330
92
100
AcDbEntity
  8
Predefinito
  6
Continuous
 62
   255
100
AcDbVertex
100
AcDb2dVertex
 10
-191.0856840420081
 20
-140.4503729219903
 30
0.0
  0
VERTEX
  5
A1
330
92
100
AcDbEntity
  8
Predefinito
  6
Continuous
 62
   255
100
AcDbVertex
100
AcDb2dVertex
 10
-189.8843121727698
 20
-136.9974511204817
 30
0.0
  0
VERTEX
  5
A2
330
92
100
AcDbEntity
  8
Predefinito
  6
Continuous
 62
   255
100
AcDbVertex
100
AcDb2dVertex
 10
-187.983191700326
 20
-133.8426896781975
 30
0.0
  0
VERTEX
  5
A3
330
92
100
AcDbEntity
  8
Predefinito
  6
Continuous
 62
   255
100
AcDbVertex
100
AcDb2dVertex
 10
-185.64239315348
 20
-130.8630295096575
 30
0.0
  0
VERTEX
  5
A4
330
92
100
AcDbEntity
  8
Predefinito
  6
Continuous
 62
   255
100
AcDbVertex
100
AcDb2dVertex
 10
-183.1220251857971
 20
-127.9353504975815
 30
0.0
  0
VERTEX
  5
A5
330
92
100
AcDbEntity
  8
Predefinito
  6
Continuous
 62
   255
100
AcDbVertex
100
AcDb2dVertex
 10
-180.6818257002317
 20
-124.9368166304903
 30
0.0
  0
VERTEX
  5
A6
330
92
100
AcDbEntity
  8
Predefinito
  6
Continuous
 62
   255
100
AcDbVertex
100
AcDb2dVertex
 10
-178.4180413431057
 20
-121.8698750738432
 30
0.0
  0
VERTEX
  5
A7
330
92
100
AcDbEntity
  8
Predefinito
  6
Continuous
 62
   255
100
AcDbVertex
100
AcDb2dVertex
 10
-176.0074951336893
 20
-119.0583768746415
 30
0.0
  0
VERTEX
  5
A8
330
92
100
AcDbEntity
  8
Predefinito
  6
Continuous
 62
   255
100
AcDbVertex
100
AcDb2dVertex
 10
-173.0841678148457
 20
-116.8601112707857
 30
0.0
  0
VERTEX
  5
A9
330
92
100
AcDbEntity
  8
Predefinito
  6
Continuous
 62
   255
100
AcDbVertex
100
AcDb2dVertex
 10
-168.8822735466637
 20
-115.1770841634351
 30
0.0
  0
VERTEX
  5
AA
330
92
100
AcDbEntity
  8
Predefinito
  6
Continuous
 62
   255
100
AcDbVertex
100
AcDb2dVertex
 10
-164.294211982423
 20
-114.4234706032382
 30
0.0
  0
VERTEX
  5
AB
330
92
100
AcDbEntity
  8
Predefinito
  6
Continuous
 62
   255
100
AcDbVertex
100
AcDb2dVertex
 10
-160.7162297046098
 20
-114.4615962557602
 30
0.0
  0
SEQEND
  5
AC
330
92
100
AcDbEntity
  8
Predefinito
  6
Continuous
 62
   255
  0
LINE
  5
AD
330
1F
100
AcDbEntity
  8
Predefinito
  6
Continuous
 62
   255
100
AcDbLine
 10
-154.9491096189213
 20
-207.2457389688123
 30
0.0
 11
-165.0151904338689
 21
-207.1750810300816
 31
0.0
  0
POLYLINE
  5
AE
330
1F
100
AcDbEntity
  8
Predefinito
  6
Continuous
 62
   255
100
AcDb2dPolyline
 66
     1
 10
0.0
 20
0.0
 30
0.0
  0
VERTEX
  5
AF
330
AE
100
AcDbEntity
  8
Predefinito
  6
Continuous
 62
   255
100
AcDbVertex
100
AcDb2dVertex
 10
-177.9159698158465
 20
-214.5501742805748
 30
0.0
  0
VERTEX
  5
B0
330
AE
100
AcDbEntity
  8
Predefinito
  6
Continuous
 62
   255
100
AcDbVertex
100
AcDb2dVertex
 10
-176.4285332985575
 20
-212.7874027216388
 30
0.0
  0
VERTEX
  5
B1
330
AE
100
AcDbEntity
  8
Predefinito
  6
Continuous
 62
   255
100
AcDbVertex
100
AcDb2dVertex
 10
-173.9128341401048
 20
-210.5338119957431
 30
0.0
  0
VERTEX
  5
B2
330
AE
100
AcDbEntity
  8
Predefinito
  6
Continuous
 62
   255
100
AcDbVertex
100
AcDb2dVertex
 10
-171.1502627760713
 20
-208.6300241432021
 30
0.0
  0
VERTEX
  5
B3
330
AE
100
AcDbEntity
  8
Predefinito
  6
Continuous
 62
   255
100
AcDbVertex
100
AcDb2dVertex
 10
-168.2478346508467
 20
-207.3921392151696
 30
0.0
  0
VERTEX
  5
B4
330
AE
100
AcDbEntity
  8
Predefinito
  6
Continuous
 62
   255
100
AcDbVertex
100
AcDb2dVertex
 10
-165.3130563509566
 20
-207.1371472686738
 30
0.0
  0
VERTEX
  5
B5
330
AE
100
AcDbEntity
  8
Predefinito
  6
Continuous
 62
   255
100
AcDbVertex
100
AcDb2dVertex
 10
-165.0140719689522
 20
-207.2171335508688
 30
0.0
  0
SEQEND
  5
B6
330
AE
100
AcDbEntity
  8
Predefinito
  6
Continuous
 62
   255
  0
LINE
  5
B7
330
1F
100
AcDbEntity
  8
Predefinito
  6
Continuous
 62
   255
100
AcDbLine
 10
-251.6920726413504
 20
-253.8242828199322
 30
0.0
 11
-249.5833771758599
 21
-265.5255229356846
 31
0.0
  0
LINE
  5
B8
330
1F
100
AcDbEntity
  8
Predefinito
  6
Continuous
 62
   255
100
AcDbLine
 10
-229.7433144550996
 20
-353.0267138911079
 30
0.0
 11
-222.2003629770143
 21
-355.3930646783147
 31
0.0
  0
POLYLINE
  5
B9
330
1F
100
AcDbEntity
  8
Predefinito
  6
Continuous
 62
   255
100
AcDb2dPolyline
 66
     1
 10
0.0
 20
0.0
 30
0.0
  0
VERTEX
  5
BA
330
B9
100
AcDbEntity
  8
Predefinito
  6
Continuous
 62
   255
100
AcDbVertex
100
AcDb2dVertex
 10
-229.7222453406222
 20
-352.9530626965374
 30
0.0
  0
VERTEX
  5
BB
330
B9
100
AcDbEntity
  8
Predefinito
  6
Continuous
 62
   255
100
AcDbVertex
100
AcDb2dVertex
 10
-231.0280531150427
 20
-352.735698875472
 30
0.0
  0
VERTEX
  5
BC
330
B9
100
AcDbEntity
  8
Predefinito
  6
Continuous
 62
   255
100
AcDbVertex
100
AcDb2dVertex
 10
-237.3682998005034
 20
-350.7949637127106
 30
0.0
  0
VERTEX
  5
BD
330
B9
100
AcDbEntity
  8
Predefinito
  6
Continuous
 62
   255
100
AcDbVertex
100
AcDb2dVertex
 10
-244.9667770682654
 20
-347.4583947714661
 30
0.0
  0
VERTEX
  5
BE
330
B9
100
AcDbEntity
  8
Predefinito
  6
Continuous
 62
   255
100
AcDbVertex
100
AcDb2dVertex
 10
-252.0694465681898
 20
-343.4275608046965
 30
0.0
  0
VERTEX
  5
BF
330
B9
100
AcDbEntity
  8
Predefinito
  6
Continuous
 62
   255
100
AcDbVertex
100
AcDb2dVertex
 10
-259.0668944482011
 20
-338.7594310395444
 30
0.0
  0
VERTEX
  5
C0
330
B9
100
AcDbEntity
  8
Predefinito
  6
Continuous
 62
   255
100
AcDbVertex
100
AcDb2dVertex
 10
-263.8313866046949
 20
-335.3466412376031
 30
0.0
  0
VERTEX
  5
C1
330
B9
100
AcDbEntity
  8
Predefinito
  6
Continuous
 62
   255
100
AcDbVertex
100
AcDb2dVertex
 10
-268.5164593782498
 20
-331.6267596362365
 30
0.0
  0
VERTEX
  5
C2
330
B9
100
AcDbEntity
  8
Predefinito
  6
Continuous
 62
   255
100
AcDbVertex
100
AcDb2dVertex
 10
-270.59923050812
 20
-329.4968428893233
 30
0.0
  0
VERTEX
  5
C3
330
B9
100
AcDbEntity
  8
Predefinito
  6
Continuous
 62
   255
100
AcDbVertex
100
AcDb2dVertex
 10
-272.2101289400489
 20
-327.2049332360883
 30
0.0
  0
VERTEX
  5
C4
330
B9
100
AcDbEntity
  8
Predefinito
  6
Continuous
 62
   255
100
AcDbVertex
100
AcDb2dVertex
 10
-273.1829314450104
 20
-324.7224240030939
 30
0.0
  0
VERTEX
  5
C5
330
B9
100
AcDbEntity
  8
Predefinito
  6
Continuous
 62
   255
100
AcDbVertex
100
AcDb2dVertex
 10
-273.3651203867772
 20
-321.5689577242677
 30
0.0
  0
VERTEX
  5
C6
330
B9
100
AcDbEntity
  8
Predefinito
  6
Continuous
 62
   255
100
AcDbVertex
100
AcDb2dVertex
 10
-272.6421898827671
 20
-318.2652318249733
 30
0.0
  0
VERTEX
  5
C7
330
B9
100
AcDbEntity
  8
Predefinito
  6
Continuous
 62
   255
100
AcDbVertex
100
AcDb2dVertex
 10
-271.210876046763
 20
-314.9612824404464
 30
0.0
  0
VERTEX
  5
C8
330
B9
100
AcDbEntity
  8
Predefinito
  6
Continuous
 62
   255
100
AcDbVertex
100
AcDb2dVertex
 10
-269.2679149925484
 20
-311.8071457059227
 30
0.0
  0
VERTEX
  5
C9
330
B9
100
AcDbEntity
  8
Predefinito
  6
Continuous
 62
   255
100
AcDbVertex
100
AcDb2dVertex
 10
-268.3620662944321
 20
-310.5830424118212
 30
0.0
  0
VERTEX
  5
CA
330
B9
100
AcDbEntity
  8
Predefinito
  6
Continuous
 62
   255
100
AcDbVertex
100
AcDb2dVertex
 10
-264.8602335672414
 20
-306.7211832683424
 30
0.0
  0
VERTEX
  5
CB
330
B9
100
AcDbEntity
  8
Predefinito
  6
Continuous
 62
   255
100
AcDbVertex
100
AcDb2dVertex
 10
-261.0692507144293
 20
-303.4642984642151
 30
0.0
  0
VERTEX
  5
CC
330
B9
100
AcDbEntity
  8
Predefinito
  6
Continuous
 62
   255
100
AcDbVertex
100
AcDb2dVertex
 10
-257.1308549563091
 20
-300.5148878917357
 30
0.0
  0
VERTEX
  5
CD
330
B9
100
AcDbEntity
  8
Predefinito
  6
Continuous
 62
   255
100
AcDbVertex
100
AcDb2dVertex
 10
-253.1864808606806
 20
-297.5749672868034
 30
0.0
  0
VERTEX
  5
CE
330
B9
100
AcDbEntity
  8
Predefinito
  6
Continuous
 62
   255
100
AcDbVertex
100
AcDb2dVertex
 10
-249.383299911378
 20
-294.3479872051078
 30
0.0
  0
VERTEX
  5
CF
330
B9
100
AcDbEntity
  8
Predefinito
  6
Continuous
 62
   255
100
AcDbVertex
100
AcDb2dVertex
 10
-246.0560020588994
 20
-290.5842971294728
 30
0.0
  0
VERTEX
  5
D0
330
B9
100
AcDbEntity
  8
Predefinito
  6
Continuous
 62
   255
100
AcDbVertex
100
AcDb2dVertex
 10
-244.2086924150352
 20
-287.2927792385675
 30
0.0
  0
VERTEX
  5
D1
330
B9
100
AcDbEntity
  8
Predefinito
  6
Continuous
 62
   255
100
AcDbVertex
100
AcDb2dVertex
 10
-243.1664814960447
 20
-283.5662987575151
 30
0.0
  0
VERTEX
  5
D2
330
B9
100
AcDbEntity
  8
Predefinito
  6
Continuous
 62
   255
100
AcDbVertex
100
AcDb2dVertex
 10
-243.0499700326368
 20
-279.6815033536406
 30
0.0
  0
VERTEX
  5
D3
330
B9
100
AcDbEntity
  8
Predefinito
  6
Continuous
 62
   255
100
AcDbVertex
100
AcDb2dVertex
 10
-243.9455796404451
 20
-276.0157958230124
 30
0.0
  0
VERTEX
  5
D4
330
B9
100
AcDbEntity
  8
Predefinito
  6
Continuous
 62
   255
100
AcDbVertex
100
AcDb2dVertex
 10
-245.3049078782948
 20
-273.6096863965939
 30
0.0
  0
VERTEX
  5
D5
330
B9
100
AcDbEntity
  8
Predefinito
  6
Continuous
 62
   255
100
AcDbVertex
100
AcDb2dVertex
 10
-246.9676220106488
 20
-271.3581852502342
 30
0.0
  0
VERTEX
  5
D6
330
B9
100
AcDbEntity
  8
Predefinito
  6
Continuous
 62
   255
100
AcDbVertex
100
AcDb2dVertex
 10
-248.4748846501301
 20
-268.9404923886951
 30
0.0
  0
VERTEX
  5
D7
330
B9
100
AcDbEntity
  8
Predefinito
  6
Continuous
 62
   255
100
AcDbVertex
100
AcDb2dVertex
 10
-249.4536036410123
 20
-266.161284934713
 30
0.0
  0
VERTEX
  5
D8
330
B9
100
AcDbEntity
  8
Predefinito
  6
Continuous
 62
   255
100
AcDbVertex
100
AcDb2dVertex
 10
-249.5270655214795
 20
-265.5125215317802
 30
0.0
  0
SEQEND
  5
D9
330
B9
100
AcDbEntity
  8
Predefinito
  6
Continuous
 62
   255
  0
LINE
  5
DA
330
1F
100
AcDbEntity
  8
Predefinito
  6
Continuous
 62
   255
100
AcDbLine
 10
-97.17718738592845
 20
-329.1962886632795
 30
0.0
 11
-95.15687453808864
 21
-321.5416689829973
 31
0.0
  0
POLYLINE
  5
DB
330
1F
100
AcDbEntity
  8
Predefinito
  6
Continuous
 62
   255
100
AcDb2dPolyline
 66
     1
 10
0.0
 20
0.0
 30
0.0
  0
VERTEX
  5
DC
330
DB
100
AcDbEntity
  8
Predefinito
  6
Continuous
 62
   255
100
AcDbVertex
100
AcDb2dVertex
 10
-97.1848539680024
 20
-329.1934035778325
 30
0.0
  0
VERTEX
  5
DD
330
DB
100
AcDbEntity
  8
Predefinito
  6
Continuous
 62
   255
100
AcDbVertex
100
AcDb2dVertex
 10
-98.0360177839134
 20
-331.4571445841219
 30
0.0
  0
VERTEX
  5
DE
330
DB
100
AcDbEntity
  8
Predefinito
  6
Continuous
 62
   255
100
AcDbVertex
100
AcDb2dVertex
 10
-99.29861383055811
 20
-333.8219108981912
 30
0.0
  0
VERTEX
  5
DF
330
DB
100
AcDbEntity
  8
Predefinito
  6
Continuous
 62
   255
100
AcDbVertex
100
AcDb2dVertex
 10
-102.4639893192177
 20
-339.2292411446022
 30
0.0
  0
VERTEX
  5
E0
330
DB
100
AcDbEntity
  8
Predefinito
  6
Continuous
 62
   255
100
AcDbVertex
100
AcDb2dVertex
 10
-105.0740362146195
 20
-344.4737513855823
 30
0.0
  0
VERTEX
  5
E1
330
DB
100
AcDbEntity
  8
Predefinito
  6
Continuous
 62
   255
100
AcDbVertex
100
AcDb2dVertex
 10
-106.9221975513454
 20
-350.0774734030413
 30
0.0
  0
VERTEX
  5
E2
330
DB
100
AcDbEntity
  8
Predefinito
  6
Continuous
 62
   255
100
AcDbVertex
100
AcDb2dVertex
 10
-107.8984075129896
 20
-356.0532609002753
 30
0.0
  0
VERTEX
  5
E3
330
DB
100
AcDbEntity
  8
Predefinito
  6
Continuous
 62
   255
100
AcDbVertex
100
AcDb2dVertex
 10
-108.0600308211278
 20
-362.2064057286547
 30
0.0
  0
VERTEX
  5
E4
330
DB
100
AcDbEntity
  8
Predefinito
  6
Continuous
 62
   255
100
AcDbVertex
100
AcDb2dVertex
 10
-108.1048701414964
 20
-366.0282402677272
 30
0.0
  0
VERTEX
  5
E5
330
DB
100
AcDbEntity
  8
Predefinito
  6
Continuous
 62
   255
100
AcDbVertex
100
AcDb2dVertex
 10
-108.4377930608007
 20
-369.7487278174316
 30
0.0
  0
VERTEX
  5
E6
330
DB
100
AcDbEntity
  8
Predefinito
  6
Continuous
 62
   255
100
AcDbVertex
100
AcDb2dVertex
 10
-109.3350393806879
 20
-373.2987077070719
 30
0.0
  0
VERTEX
  5
E7
330
DB
100
AcDbEntity
  8
Predefinito
  6
Continuous
 62
   255
100
AcDbVertex
100
AcDb2dVertex
 10
-111.0555254786851
 20
-376.6025251707558
 30
0.0
  0
VERTEX
  5
E8
330
DB
100
AcDbEntity
  8
Predefinito
  6
Continuous
 62
   255
100
AcDbVertex
100
AcDb2dVertex
 10
-113.579963042769
 20
-379.4802338357251
 30
0.0
  0
VERTEX
  5
E9
330
DB
100
AcDbEntity
  8
Predefinito
  6
Continuous
 62
   255
100
AcDbVertex
100
AcDb2dVertex
 10
-116.6647505872671
 20
-381.6677982315189
 30
0.0
  0
VERTEX
  5
EA
330
DB
100
AcDbEntity
  8
Predefinito
  6
Continuous
 62
   255
100
AcDbVertex
100
AcDb2dVertex
 10
-120.0820690980095
 20
-382.9669893381956
 30
0.0
  0
VERTEX
  5
EB
330
DB
100
AcDbEntity
  8
Predefinito
  6
Continuous
 62
   255
100
AcDbVertex
100
AcDb2dVertex
 10
-123.7207732544455
 20
-383.5384881311974
 30
0.0
  0
VERTEX
  5
EC
330
DB
100
AcDbEntity
  8
Predefinito
  6
Continuous
 62
   255
100
AcDbVertex
100
AcDb2dVertex
 10
-127.5079616716235
 20
-383.6606210493392
 30
0.0
  0
VERTEX
  5
ED
330
DB
100
AcDbEntity
  8
Predefinito
  6
Continuous
 62
   255
100
AcDbVertex
100
AcDb2dVertex
 10
-131.3707552115378
 20
-383.6117829671824
 30
0.0
  0
VERTEX
  5
EE
330
DB
100
AcDbEntity
  8
Predefinito
  6
Continuous
 62
   255
100
AcDbVertex
100
AcDb2dVertex
 10
-135.2362954124119
 20
-383.669902128155
 30
0.0
  0
VERTEX
  5
EF
330
DB
100
AcDbEntity
  8
Predefinito
  6
Continuous
 62
   255
100
AcDbVertex
100
AcDb2dVertex
 10
-139.040841485015
 20
-383.9071347332045
 30
0.0
  0
VERTEX
  5
F0
330
DB
100
AcDbEntity
  8
Predefinito
  6
Continuous
 62
   255
100
AcDbVertex
100
AcDb2dVertex
 10
-142.7440432933421
 20
-383.8677454117024
 30
0.0
  0
VERTEX
  5
F1
330
DB
100
AcDbEntity
  8
Predefinito
  6
Continuous
 62
   255
100
AcDbVertex
100
AcDb2dVertex
 10
-146.3070910232863
 20
-383.0413646566429
 30
0.0
  0
VERTEX
  5
F2
330
DB
100
AcDbEntity
  8
Predefinito
  6
Continuous
 62
   255
100
AcDbVertex
100
AcDb2dVertex
 10
-150.2972901592911
 20
-380.9043558733002
 30
0.0
  0
VERTEX
  5
F3
330
DB
100
AcDbEntity
  8
Predefinito
  6
Continuous
 62
   255
100
AcDbVertex
100
AcDb2dVertex
 10
-153.8237407653121
 20
-377.8741102663123
 30
0.0
  0
VERTEX
  5
F4
330
DB
100
AcDbEntity
  8
Predefinito
  6
Continuous
 62
   255
100
AcDbVertex
100
AcDb2dVertex
 10
-156.0944174969124
 20
-375.1087101277644
 30
0.0
  0
SEQEND
  5
F5
330
DB
100
AcDbEntity
  8
Predefinito
  6
Continuous
 62
   255
  0
LINE
  5
F6
330
1F
100
AcDbEntity
  8
Predefinito
  6
Continuous
 62
   255
100
AcDbLine
 10
-18.3849936836593
 20
-382.06483827975
 30
0.0
 11
-8.110641018179347
 21
-376.0812528898655
 31
0.0
  0
LINE
  5
F7
330
1F
100
AcDbEntity
  8
Predefinito
  6
Continuous
 62
   255
100
AcDbLine
 10
67.32788133726636
 20
-327.5105224834977
 30
0.0
 11
66.97168236456174
 21
-319.6131270051963
 31
0.0
  0
POLYLINE
  5
F8
330
1F
100
AcDbEntity
  8
Predefinito
  6
Continuous
 62
   255
100
AcDb2dPolyline
 66
     1
 10
0.0
 20
0.0
 30
0.0
  0
VERTEX
  5
F9
330
F8
100
AcDbEntity
  8
Predefinito
  6
Continuous
 62
   255
100
AcDbVertex
100
AcDb2dVertex
 10
67.25146579166308
 20
-327.51591418422
 30
0.0
  0
VERTEX
  5
FA
330
F8
100
AcDbEntity
  8
Predefinito
  6
Continuous
 62
   255
100
AcDbVertex
100
AcDb2dVertex
 10
67.49382317514505
 20
-328.8173149192424
 30
0.0
  0
VERTEX
  5
FB
330
F8
100
AcDbEntity
  8
Predefinito
  6
Continuous
 62
   255
100
AcDbVertex
100
AcDb2dVertex
 10
67.83862074387974
 20
-335.4389684620569
 30
0.0
  0
VERTEX
  5
FC
330
F8
100
AcDbEntity
  8
Predefinito
  6
Continuous
 62
   255
100
AcDbVertex
100
AcDb2dVertex
 10
67.30210381522569
 20
-343.7203752672827
 30
0.0
  0
VERTEX
  5
FD
330
F8
100
AcDbEntity
  8
Predefinito
  6
Continuous
 62
   255
100
AcDbVertex
100
AcDb2dVertex
 10
65.94361492139788
 20
-351.7733277952793
 30
0.0
  0
VERTEX
  5
FE
330
F8
100
AcDbEntity
  8
Predefinito
  6
Continuous
 62
   255
100
AcDbVertex
100
AcDb2dVertex
 10
63.9502759550487
 20
-359.9453723438001
 30
0.0
  0
VERTEX
  5
FF
330
F8
100
AcDbEntity
  8
Predefinito
  6
Continuous
 62
   255
100
AcDbVertex
100
AcDb2dVertex
 10
62.37285485210908
 20
-365.58977332225
 30
0.0
  0
VERTEX
  5
100
330
F8
100
AcDbEntity
  8
Predefinito
  6
Continuous
 62
   255
100
AcDbVertex
100
AcDb2dVertex
 10
60.47969882261
 20
-371.2645760738584
 30
0.0
  0
VERTEX
  5
101
330
F8
100
AcDbEntity
  8
Predefinito
  6
Continuous
 62
   255
100
AcDbVertex
100
AcDb2dVertex
 10
59.19058145300002
 20
-373.9502151664344
 30
0.0
  0
VERTEX
  5
102
330
F8
100
AcDbEntity
  8
Predefinito
  6
Continuous
 62
   255
100
AcDbVertex
100
AcDb2dVertex
 10
57.58785057691859
 20
-376.2478438038423
 30
0.0
  0
VERTEX
  5
103
330
F8
100
AcDbEntity
  8
Predefinito
  6
Continuous
 62
   255
100
AcDbVertex
100
AcDb2dVertex
 10
55.58777302181534
 20
-378.0110473029127
 30
0.0
  0
VERTEX
  5
104
330
F8
100
AcDbEntity
  8
Predefinito
  6
Continuous
 62
   255
100
AcDbVertex
100
AcDb2dVertex
 10
52.68679631768053
 20
-379.2607978957367
 30
0.0
  0
VERTEX
  5
105
330
F8
100
AcDbEntity
  8
Predefinito
  6
Continuous
 62
   255
100
AcDbVertex
100
AcDb2dVertex
 10
49.33505267441827
 20
-379.7114062413626
 30
0.0
  0
VERTEX
  5
106
330
F8
100
AcDbEntity
  8
Predefinito
  6
Continuous
 62
   255
100
AcDbVertex
100
AcDb2dVertex
 10
45.74081765499407
 20
-379.4964284336775
 30
0.0
  0
VERTEX
  5
107
330
F8
100
AcDbEntity
  8
Predefinito
  6
Continuous
 62
   255
100
AcDbVertex
100
AcDb2dVertex
 10
42.11236682237382
 20
-378.7494205665681
 30
0.0
  0
VERTEX
  5
108
330
F8
100
AcDbEntity
  8
Predefinito
  6
Continuous
 62
   255
100
AcDbVertex
100
AcDb2dVertex
 10
40.65226748826566
 20
-378.3168692134936
 30
0.0
  0
VERTEX
  5
109
330
F8
100
AcDbEntity
  8
Predefinito
  6
Continuous
 62
   255
100
AcDbVertex
100
AcDb2dVertex
 10
35.82560961736787
 20
-376.3470564582821
 30
0.0
  0
VERTEX
  5
10A
330
F8
100
AcDbEntity
  8
Predefinito
  6
Continuous
 62
   255
100
AcDbVertex
100
AcDb2dVertex
 10
31.46854650151573
 20
-373.8986180534715
 30
0.0
  0
VERTEX
  5
10B
330
F8
100
AcDbEntity
  8
Predefinito
  6
Continuous
 62
   255
100
AcDbVertex
100
AcDb2dVertex
 10
27.34999646922352
 20
-371.2064944485569
 30
0.0
  0
VERTEX
  5
10C
330
F8
100
AcDbEntity
  8
Predefinito
  6
Continuous
 62
   255
100
AcDbVertex
100
AcDb2dVertex
 10
23.23831937755527
 20
-368.5055072839407
 30
0.0
  0
VERTEX
  5
10D
330
F8
100
AcDbEntity
  8
Predefinito
  6
Continuous
 62
   255
100
AcDbVertex
100
AcDb2dVertex
 10
18.90518551398878
 20
-366.0353784004181
 30
0.0
  0
VERTEX
  5
10E
330
F8
100
AcDbEntity
  8
Predefinito
  6
Continuous
 62
   255
100
AcDbVertex
100
AcDb2dVertex
 10
14.23047083459754
 20
-364.1959989803891
 30
0.0
  0
VERTEX
  5
10F
330
F8
100
AcDbEntity
  8
Predefinito
  6
Continuous
 62
   255
100
AcDbVertex
100
AcDb2dVertex
 10
10.5056386521677
 20
-363.5858611605498
 30
0.0
  0
VERTEX
  5
110
330
F8
100
AcDbEntity
  8
Predefinito
  6
Continuous
 62
   255
100
AcDbVertex
100
AcDb2dVertex
 10
6.647435314731484
 20
-363.8810346389017
 30
0.0
  0
VERTEX
  5
111
330
F8
100
AcDbEntity
  8
Predefinito
  6
Continuous
 62
   255
100
AcDbVertex
100
AcDb2dVertex
 10
2.957072473033672
 20
-365.1002279573243
 30
0.0
  0
VERTEX
  5
112
330
F8
100
AcDbEntity
  8
Predefinito
  6
Continuous
 62
   255
100
AcDbVertex
100
AcDb2dVertex
 10
-0.1812493170305213
 20
-367.1955715119021
 30
0.0
  0
VERTEX
  5
113
330
F8
100
AcDbEntity
  8
Predefinito
  6
Continuous
 62
   255
100
AcDbVertex
100
AcDb2dVertex
 10
-1.977334951103554
 20
-369.2958601171163
 30
0.0
  0
VERTEX
  5
114
330
F8
100
AcDbEntity
  8
Predefinito
  6
Continuous
 62
   255
100
AcDbVertex
100
AcDb2dVertex
 10
-3.52437223817148
 20
-371.6283590625417
 30
0.0
  0
VERTEX
  5
115
330
F8
100
AcDbEntity
  8
Predefinito
  6
Continuous
 62
   255
100
AcDbVertex
100
AcDb2dVertex
 10
-5.280746195501714
 20
-373.8716223014695
 30
0.0
  0
VERTEX
  5
116
330
F8
100
AcDbEntity
  8
Predefinito
  6
Continuous
 62
   255
100
AcDbVertex
100
AcDb2dVertex
 10
-7.55760532210481
 20
-375.7418622467673
 30
0.0
  0
VERTEX
  5
117
330
F8
100
AcDbEntity
  8
Predefinito
  6
Continuous
 62
   255
100
AcDbVertex
100
AcDb2dVertex
 10
-8.14211806159032
 20
-376.0327839858069
 30
0.0
  0
SEQEND
  5
118
330
F8
100
AcDbEntity
  8
Predefinito
  6
Continuous
 62
   255
  0
LINE
  5
119
330
1F
100
AcDbEntity
  8
Predefinito
  6
Continuous
 62
   255
100
AcDbLine
 10
-0.4056791798399406
 20
-211.0895965623633
 30
0.0
 11
-8.289656498105064
 21
-211.8091576077235
 31
0.0
  0
POLYLINE
  5
11A
330
1F
100
AcDbEntity
  8
Predefinito
  6
Continuous
 62
   255
100
AcDb2dPolyline
 66
     1
 10
0.0
 20
0.0
 30
0.0
  0
VERTEX
  5
11B
330
11A
100
AcDbEntity
  8
Predefinito
  6
Continuous
 62
   255
100
AcDbVertex
100
AcDb2dVertex
 10
-0.4057681478450426
 20
-211.0977875503029
 30
0.0
  0
VERTEX
  5
11C
330
11A
100
AcDbEntity
  8
Predefinito
  6
Continuous
 62
   255
100
AcDbVertex
100
AcDb2dVertex
 10
2.012567741447035
 20
-211.1233748837712
 30
0.0
  0
VERTEX
  5
11D
330
11A
100
AcDbEntity
  8
Predefinito
  6
Continuous
 62
   255
100
AcDbVertex
100
AcDb2dVertex
 10
4.666554477497003
 20
-211.501029358167
 30
0.0
  0
VERTEX
  5
11E
330
11A
100
AcDbEntity
  8
Predefinito
  6
Continuous
 62
   255
100
AcDbVertex
100
AcDb2dVertex
 10
10.83040498651269
 20
-212.6260934809904
 30
0.0
  0
VERTEX
  5
11F
330
11A
100
AcDbEntity
  8
Predefinito
  6
Continuous
 62
   255
100
AcDbVertex
100
AcDb2dVertex
 10
16.65132117284992
 20
-213.2850071442117
 30
0.0
  0
VERTEX
  5
120
330
11A
100
AcDbEntity
  8
Predefinito
  6
Continuous
 62
   255
100
AcDbVertex
100
AcDb2dVertex
 10
22.54920580686754
 20
-213.1051249067865
 30
0.0
  0
VERTEX
  5
121
330
11A
100
AcDbEntity
  8
Predefinito
  6
Continuous
 62
   255
100
AcDbVertex
100
AcDb2dVertex
 10
28.49849269240054
 20
-211.9786225077935
 30
0.0
  0
VERTEX
  5
122
330
11A
100
AcDbEntity
  8
Predefinito
  6
Continuous
 62
   255
100
AcDbVertex
100
AcDb2dVertex
 10
34.33583590926992
 20
-210.0259992616922
 30
0.0
  0
VERTEX
  5
123
330
11A
100
AcDbEntity
  8
Predefinito
  6
Continuous
 62
   255
100
AcDbVertex
100
AcDb2dVertex
 10
37.94252157428004
 20
-208.7609900433431
 30
0.0
  0
VERTEX
  5
124
330
11A
100
AcDbEntity
  8
Predefinito
  6
Continuous
 62
   255
100
AcDbVertex
100
AcDb2dVertex
 10
41.55250261504001
 20
-207.8013535689126
 30
0.0
  0
VERTEX
  5
125
330
11A
100
AcDbEntity
  8
Predefinito
  6
Continuous
 62
   255
100
AcDbVertex
100
AcDb2dVertex
 10
45.19526883619959
 20
-207.4303246840799
 30
0.0
  0
VERTEX
  5
126
330
11A
100
AcDbEntity
  8
Predefinito
  6
Continuous
 62
   255
100
AcDbVertex
100
AcDb2dVertex
 10
48.8882826290738
 20
-207.9170806520817
 30
0.0
  0
VERTEX
  5
127
330
11A
100
AcDbEntity
  8
Predefinito
  6
Continuous
 62
   255
100
AcDbVertex
100
AcDb2dVertex
 10
52.45585272380187
 20
-209.3050416726438
 30
0.0
  0
VERTEX
  5
128
330
11A
100
AcDbEntity
  8
Predefinito
  6
Continuous
 62
   255
100
AcDbVertex
100
AcDb2dVertex
 10
55.56655032212162
 20
-211.4556026767175
 30
0.0
  0
VERTEX
  5
129
330
11A
100
AcDbEntity
  8
Predefinito
  6
Continuous
 62
   255
100
AcDbVertex
100
AcDb2dVertex
 10
57.95618238489005
 20
-214.2224821356242
 30
0.0
  0
VERTEX
  5
12A
330
11A
100
AcDbEntity
  8
Predefinito
  6
Continuous
 62
   255
100
AcDbVertex
100
AcDb2dVertex
 10
59.73772570056585
 20
-217.4462814815572
 30
0.0
  0
VERTEX
  5
12B
330
11A
100
AcDbEntity
  8
Predefinito
  6
Continuous
 62
   255
100
AcDbVertex
100
AcDb2dVertex
 10
61.14778782774315
 20
-220.9633025725376
 30
0.0
  0
VERTEX
  5
12C
330
11A
100
AcDbEntity
  8
Predefinito
  6
Continuous
 62
   255
100
AcDbVertex
100
AcDb2dVertex
 10
62.42304824248595
 20
-224.6098447654736
 30
0.0
  0
VERTEX
  5
12D
330
11A
100
AcDbEntity
  8
Predefinito
  6
Continuous
 62
   255
100
AcDbVertex
100
AcDb2dVertex
 10
63.79975500271223
 20
-228.2223864438205
 30
0.0
  0
VERTEX
  5
12E
330
11A
100
AcDbEntity
  8
Predefinito
  6
Continuous
 62
   255
100
AcDbVertex
100
AcDb2dVertex
 10
65.32391212412786
 20
-231.716351984105
 30
0.0
  0
VERTEX
  5
12F
330
11A
100
AcDbEntity
  8
Predefinito
  6
Continuous
 62
   255
100
AcDbVertex
100
AcDb2dVertex
 10
66.55346788262251
 20
-235.2096953380567
 30
0.0
  0
VERTEX
  5
130
330
11A
100
AcDbEntity
  8
Predefinito
  6
Continuous
 62
   255
100
AcDbVertex
100
AcDb2dVertex
 10
66.9955580804053
 20
-238.8405038616803
 30
0.0
  0
VERTEX
  5
131
330
11A
100
AcDbEntity
  8
Predefinito
  6
Continuous
 62
   255
100
AcDbVertex
100
AcDb2dVertex
 10
66.35215517653772
 20
-243.3209645956174
 30
0.0
  0
VERTEX
  5
132
330
11A
100
AcDbEntity
  8
Predefinito
  6
Continuous
 62
   255
100
AcDbVertex
100
AcDb2dVertex
 10
64.71077288218439
 20
-247.6711492444753
 30
0.0
  0
VERTEX
  5
133
330
11A
100
AcDbEntity
  8
Predefinito
  6
Continuous
 62
   255
100
AcDbVertex
100
AcDb2dVertex
 10
62.88876395965831
 20
-250.7507099650901
 30
0.0
  0
SEQEND
  5
134
330
11A
100
AcDbEntity
  8
Predefinito
  6
Continuous
 62
   255
  0
LINE
  5
135
330
1F
100
AcDbEntity
  8
Predefinito
  6
Continuous
 62
   255
100
AcDbLine
 10
59.36870228752599
 20
-264.1726897685842
 30
0.0
 11
60.66515581358054
 21
-260.1938324653825
 31
0.0
  0
LINE
  5
136
330
1F
100
AcDbEntity
  8
Predefinito
  6
Continuous
 62
   255
100
AcDbLine
 10
-60.91311512632358
 20
-331.2491604670665
 30
0.0
 11
-57.50382011313901
 21
-331.8017267534156
 31
0.0
  0
LINE
  5
137
330
1F
100
AcDbEntity
  8
Predefinito
  6
Continuous
 62
   255
100
AcDbLine
 10
57.98397701902286
 20
-267.7859782036072
 30
0.0
 11
59.51121293762984
 21
-264.2218841899209
 31
0.0
  0
POLYLINE
  5
138
330
1F
100
AcDbEntity
  8
Predefinito
  6
Continuous
 62
   255
100
AcDb2dPolyline
 66
     1
 10
0.0
 20
0.0
 30
0.0
  0
VERTEX
  5
139
330
138
100
AcDbEntity
  8
Predefinito
  6
Continuous
 62
   255
100
AcDbVertex
100
AcDb2dVertex
 10
-57.48729970941459
 20
-331.7158077361677
 30
0.0
  0
VERTEX
  5
13A
330
138
100
AcDbEntity
  8
Predefinito
  6
Continuous
 62
   255
100
AcDbVertex
100
AcDb2dVertex
 10
-57.43315264169709
 20
-331.7279280638052
 30
0.0
  0
VERTEX
  5
13B
330
138
100
AcDbEntity
  8
Predefinito
  6
Continuous
 62
   255
100
AcDbVertex
100
AcDb2dVertex
 10
-55.6613191336183
 20
-332.2665954996419
 30
0.0
  0
VERTEX
  5
13C
330
138
100
AcDbEntity
  8
Predefinito
  6
Continuous
 62
   255
100
AcDbVertex
100
AcDb2dVertex
 10
-54.33492575949127
 20
-332.8702962654631
 30
0.0
  0
VERTEX
  5
13D
330
138
100
AcDbEntity
  8
Predefinito
  6
Continuous
 62
   255
100
AcDbVertex
100
AcDb2dVertex
 10
-53.16814469087955
 20
-333.7122359451835
 30
0.0
  0
VERTEX
  5
13E
330
138
100
AcDbEntity
  8
Predefinito
  6
Continuous
 62
   255
100
AcDbVertex
100
AcDb2dVertex
 10
-52.05048285830081
 20
-334.8938846166495
 30
0.0
  0
VERTEX
  5
13F
330
138
100
AcDbEntity
  8
Predefinito
  6
Continuous
 62
   255
100
AcDbVertex
100
AcDb2dVertex
 10
-51.05836967981051
 20
-336.3887826740224
 30
0.0
  0
VERTEX
  5
140
330
138
100
AcDbEntity
  8
Predefinito
  6
Continuous
 62
   255
100
AcDbVertex
100
AcDb2dVertex
 10
-50.23695251524538
 20
-338.1713845070221
 30
0.0
  0
VERTEX
  5
141
330
138
100
AcDbEntity
  8
Predefinito
  6
Continuous
 62
   255
100
AcDbVertex
100
AcDb2dVertex
 10
-49.63836904984773
 20
-340.1828623457682
 30
0.0
  0
VERTEX
  5
142
330
138
100
AcDbEntity
  8
Predefinito
  6
Continuous
 62
   255
100
AcDbVertex
100
AcDb2dVertex
 10
-49.22411044143093
 20
-342.5861352605044
 30
0.0
  0
VERTEX
  5
143
330
138
100
AcDbEntity
  8
Predefinito
  6
Continuous
 62
   255
100
AcDbVertex
100
AcDb2dVertex
 10
-48.93616074055348
 20
-345.4788560996103
 30
0.0
  0
VERTEX
  5
144
330
138
100
AcDbEntity
  8
Predefinito
  6
Continuous
 62
   255
100
AcDbVertex
100
AcDb2dVertex
 10
-48.8112291478478
 20
-349.1735778406067
 30
0.0
  0
VERTEX
  5
145
330
138
100
AcDbEntity
  8
Predefinito
  6
Continuous
 62
   255
100
AcDbVertex
100
AcDb2dVertex
 10
-48.88065775996993
 20
-353.5584022382603
 30
0.0
  0
VERTEX
  5
146
330
138
100
AcDbEntity
  8
Predefinito
  6
Continuous
 62
   255
100
AcDbVertex
100
AcDb2dVertex
 10
-49.08701737510579
 20
-359.4743689046374
 30
0.0
  0
VERTEX
  5
147
330
138
100
AcDbEntity
  8
Predefinito
  6
Continuous
 62
   255
100
AcDbVertex
100
AcDb2dVertex
 10
-49.13628059489905
 20
-364.4185712124025
 30
0.0
  0
VERTEX
  5
148
330
138
100
AcDbEntity
  8
Predefinito
  6
Continuous
 62
   255
100
AcDbVertex
100
AcDb2dVertex
 10
-48.96340013162987
 20
-368.4173762818809
 30
0.0
  0
VERTEX
  5
149
330
138
100
AcDbEntity
  8
Predefinito
  6
Continuous
 62
   255
100
AcDbVertex
100
AcDb2dVertex
 10
-48.61382543450381
 20
-371.7701898230516
 30
0.0
  0
VERTEX
  5
14A
330
138
100
AcDbEntity
  8
Predefinito
  6
Continuous
 62
   255
100
AcDbVertex
100
AcDb2dVertex
 10
-48.18111150951826
 20
-374.243149384602
 30
0.0
  0
VERTEX
  5
14B
330
138
100
AcDbEntity
  8
Predefinito
  6
Continuous
 62
   255
100
AcDbVertex
100
AcDb2dVertex
 10
-47.64453986491508
 20
-376.0684979640466
 30
0.0
  0
VERTEX
  5
14C
330
138
100
AcDbEntity
  8
Predefinito
  6
Continuous
 62
   255
100
AcDbVertex
100
AcDb2dVertex
 10
-46.91005607969413
 20
-377.7223100172337
 30
0.0
  0
VERTEX
  5
14D
330
138
100
AcDbEntity
  8
Predefinito
  6
Continuous
 62
   255
100
AcDbVertex
100
AcDb2dVertex
 10
-45.97573986087279
 20
-379.185696533917
 30
0.0
  0
VERTEX
  5
14E
330
138
100
AcDbEntity
  8
Predefinito
  6
Continuous
 62
   255
100
AcDbVertex
100
AcDb2dVertex
 10
-44.82605417107726
 20
-380.4707058590598
 30
0.0
  0
VERTEX
  5
14F
330
138
100
AcDbEntity
  8
Predefinito
  6
Continuous
 62
   255
100
AcDbVertex
100
AcDb2dVertex
 10
-43.48864946100248
 20
-381.5508060173107
 30
0.0
  0
VERTEX
  5
150
330
138
100
AcDbEntity
  8
Predefinito
  6
Continuous
 62
   255
100
AcDbVertex
100
AcDb2dVertex
 10
-41.98381403196237
 20
-382.4292693346905
 30
0.0
  0
VERTEX
  5
151
330
138
100
AcDbEntity
  8
Predefinito
  6
Continuous
 62
   255
100
AcDbVertex
100
AcDb2dVertex
 10
-40.33899828642733
 20
-383.1036459514004
 30
0.0
  0
VERTEX
  5
152
330
138
100
AcDbEntity
  8
Predefinito
  6
Continuous
 62
   255
100
AcDbVertex
100
AcDb2dVertex
 10
-38.54408312699315
 20
-383.5959902102519
 30
0.0
  0
VERTEX
  5
153
330
138
100
AcDbEntity
  8
Predefinito
  6
Continuous
 62
   255
100
AcDbVertex
100
AcDb2dVertex
 10
-36.55631029765611
 20
-383.938627937839
 30
0.0
  0
VERTEX
  5
154
330
138
100
AcDbEntity
  8
Predefinito
  6
Continuous
 62
   255
100
AcDbVertex
100
AcDb2dVertex
 10
-34.24911661091322
 20
-384.195481863438
 30
0.0
  0
VERTEX
  5
155
330
138
100
AcDbEntity
  8
Predefinito
  6
Continuous
 62
   255
100
AcDbVertex
100
AcDb2dVertex
 10
-32.49081277396966
 20
-384.2905567683971
 30
0.0
  0
SEQEND
  5
156
330
138
100
AcDbEntity
  8
Predefinito
  6
Continuous
 62
   255
  0
POLYLINE
  5
157
330
1F
100
AcDbEntity
  8
Predefinito
  6
Continuous
 62
   255
100
AcDb2dPolyline
 66
     1
 10
0.0
 20
0.0
 30
0.0
  0
VERTEX
  5
158
330
157
100
AcDbEntity
  8
Predefinito
  6
Continuous
 62
   255
100
AcDbVertex
100
AcDb2dVertex
 10
-21.21090347208758
 20
-223.3452396134845
 30
0.0
  0
VERTEX
  5
159
330
157
100
AcDbEntity
  8
Predefinito
  6
Continuous
 62
   255
100
AcDbVertex
100
AcDb2dVertex
 10
-20.55923723225948
 20
-222.0124710415157
 30
0.0
  0
VERTEX
  5
15A
330
157
100
AcDbEntity
  8
Predefinito
  6
Continuous
 62
   255
100
AcDbVertex
100
AcDb2dVertex
 10
-18.58341385148001
 20
-218.6464911790033
 30
0.0
  0
VERTEX
  5
15B
330
157
100
AcDbEntity
  8
Predefinito
  6
Continuous
 62
   255
100
AcDbVertex
100
AcDb2dVertex
 10
-16.1393391152648
 20
-215.6486344590624
 30
0.0
  0
VERTEX
  5
15C
330
157
100
AcDbEntity
  8
Predefinito
  6
Continuous
 62
   255
100
AcDbVertex
100
AcDb2dVertex
 10
-13.20111618332864
 20
-213.4032526266295
 30
0.0
  0
VERTEX
  5
15D
330
157
100
AcDbEntity
  8
Predefinito
  6
Continuous
 62
   255
100
AcDbVertex
100
AcDb2dVertex
 10
-9.621829062615994
 20
-212.0199835342416
 30
0.0
  0
VERTEX
  5
15E
330
157
100
AcDbEntity
  8
Predefinito
  6
Continuous
 62
   255
100
AcDbVertex
100
AcDb2dVertex
 10
-6.865928919966624
 20
-211.7743965919021
 30
0.0
  0
VERTEX
  5
15F
330
157
100
AcDbEntity
  8
Predefinito
  6
Continuous
 62
   255
100
AcDbVertex
100
AcDb2dVertex
 10
-3.949328781960026
 20
-212.4658661326952
 30
0.0
  0
VERTEX
  5
160
330
157
100
AcDbEntity
  8
Predefinito
  6
Continuous
 62
   255
100
AcDbVertex
100
AcDb2dVertex
 10
-1.485716495607094
 20
-213.905320627529
 30
0.0
  0
VERTEX
  5
161
330
157
100
AcDbEntity
  8
Predefinito
  6
Continuous
 62
   255
100
AcDbVertex
100
AcDb2dVertex
 10
0.7798528653152476
 20
-215.672150784536
 30
0.0
  0
VERTEX
  5
162
330
157
100
AcDbEntity
  8
Predefinito
  6
Continuous
 62
   255
100
AcDbVertex
100
AcDb2dVertex
 10
3.578411807028877
 20
-217.7627078388841
 30
0.0
  0
VERTEX
  5
163
330
157
100
AcDbEntity
  8
Predefinito
  6
Continuous
 62
   255
100
AcDbVertex
100
AcDb2dVertex
 10
6.582306208502197
 20
-219.5549986898292
 30
0.0
  0
VERTEX
  5
164
330
157
100
AcDbEntity
  8
Predefinito
  6
Continuous
 62
   255
100
AcDbVertex
100
AcDb2dVertex
 10
9.792465883201483
 20
-220.8754979355708
 30
0.0
  0
VERTEX
  5
165
330
157
100
AcDbEntity
  8
Predefinito
  6
Continuous
 62
   255
100
AcDbVertex
100
AcDb2dVertex
 10
12.24288250527113
 20
-221.4504916789669
 30
0.0
  0
VERTEX
  5
166
330
157
100
AcDbEntity
  8
Predefinito
  6
Continuous
 62
   255
100
AcDbVertex
100
AcDb2dVertex
 10
14.7489574848692
 20
-221.6366771196998
 30
0.0
  0
VERTEX
  5
167
330
157
100
AcDbEntity
  8
Predefinito
  6
Continuous
 62
   255
100
AcDbVertex
100
AcDb2dVertex
 10
18.52228227990418
 20
-221.0801042372179
 30
0.0
  0
VERTEX
  5
168
330
157
100
AcDbEntity
  8
Predefinito
  6
Continuous
 62
   255
100
AcDbVertex
100
AcDb2dVertex
 10
22.14866284914421
 20
-219.8156592457305
 30
0.0
  0
VERTEX
  5
169
330
157
100
AcDbEntity
  8
Predefinito
  6
Continuous
 62
   255
100
AcDbVertex
100
AcDb2dVertex
 10
27.02099426419005
 20
-217.5936366946807
 30
0.0
  0
VERTEX
  5
16A
330
157
100
AcDbEntity
  8
Predefinito
  6
Continuous
 62
   255
100
AcDbVertex
100
AcDb2dVertex
 10
30.61207562266083
 20
-216.0472441547247
 30
0.0
  0
VERTEX
  5
16B
330
157
100
AcDbEntity
  8
Predefinito
  6
Continuous
 62
   255
100
AcDbVertex
100
AcDb2dVertex
 10
33.08890740093576
 20
-215.2584577576428
 30
0.0
  0
VERTEX
  5
16C
330
157
100
AcDbEntity
  8
Predefinito
  6
Continuous
 62
   255
100
AcDbVertex
100
AcDb2dVertex
 10
35.64753603812738
 20
-214.8754968323394
 30
0.0
  0
VERTEX
  5
16D
330
157
100
AcDbEntity
  8
Predefinito
  6
Continuous
 62
   255
100
AcDbVertex
100
AcDb2dVertex
 10
38.73766824303754
 20
-215.2892120975438
 30
0.0
  0
VERTEX
  5
16E
330
157
100
AcDbEntity
  8
Predefinito
  6
Continuous
 62
   255
100
AcDbVertex
100
AcDb2dVertex
 10
41.78971230814465
 20
-216.8757712680565
 30
0.0
  0
VERTEX
  5
16F
330
157
100
AcDbEntity
  8
Predefinito
  6
Continuous
 62
   255
100
AcDbVertex
100
AcDb2dVertex
 10
43.67056016030102
 20
-218.4852031781068
 30
0.0
  0
VERTEX
  5
170
330
157
100
AcDbEntity
  8
Predefinito
  6
Continuous
 62
   255
100
AcDbVertex
100
AcDb2dVertex
 10
45.28072954806996
 20
-220.3690902908987
 30
0.0
  0
VERTEX
  5
171
330
157
100
AcDbEntity
  8
Predefinito
  6
Continuous
 62
   255
100
AcDbVertex
100
AcDb2dVertex
 10
47.5631588069213
 20
-224.208839368839
 30
0.0
  0
VERTEX
  5
172
330
157
100
AcDbEntity
  8
Predefinito
  6
Continuous
 62
   255
100
AcDbVertex
100
AcDb2dVertex
 10
49.36444414428343
 20
-228.3378964672324
 30
0.0
  0
VERTEX
  5
173
330
157
100
AcDbEntity
  8
Predefinito
  6
Continuous
 62
   255
100
AcDbVertex
100
AcDb2dVertex
 10
51.09714551774424
 20
-232.4981188610518
 30
0.0
  0
VERTEX
  5
174
330
157
100
AcDbEntity
  8
Predefinito
  6
Continuous
 62
   255
100
AcDbVertex
100
AcDb2dVertex
 10
53.72237003164015
 20
-237.2796660942182
 30
0.0
  0
VERTEX
  5
175
330
157
100
AcDbEntity
  8
Predefinito
  6
Continuous
 62
   255
100
AcDbVertex
100
AcDb2dVertex
 10
56.98542936420981
 20
-241.6580399941625
 30
0.0
  0
VERTEX
  5
176
330
157
100
AcDbEntity
  8
Predefinito
  6
Continuous
 62
   255
100
AcDbVertex
100
AcDb2dVertex
 10
58.93151461112402
 20
-243.8664355557769
 30
0.0
  0
VERTEX
  5
177
330
157
100
AcDbEntity
  8
Predefinito
  6
Continuous
 62
   255
100
AcDbVertex
100
AcDb2dVertex
 10
60.82374359851788
 20
-246.1191444434621
 30
0.0
  0
VERTEX
  5
178
330
157
100
AcDbEntity
  8
Predefinito
  6
Continuous
 62
   255
100
AcDbVertex
100
AcDb2dVertex
 10
62.05863444743117
 20
-248.0032834218125
 30
0.0
  0
VERTEX
  5
179
330
157
100
AcDbEntity
  8
Predefinito
  6
Continuous
 62
   255
100
AcDbVertex
100
AcDb2dVertex
 10
62.8983774783054
 20
-250.5066018772827
 30
0.0
  0
VERTEX
  5
17A
330
157
100
AcDbEntity
  8
Predefinito
  6
Continuous
 62
   255
100
AcDbVertex
100
AcDb2dVertex
 10
62.79819473525597
 20
-253.0504589950429
 30
0.0
  0
VERTEX
  5
17B
330
157
100
AcDbEntity
  8
Predefinito
  6
Continuous
 62
   255
100
AcDbVertex
100
AcDb2dVertex
 10
62.13522519645827
 20
-255.6685371296838
 30
0.0
  0
VERTEX
  5
17C
330
157
100
AcDbEntity
  8
Predefinito
  6
Continuous
 62
   255
100
AcDbVertex
100
AcDb2dVertex
 10
61.28370880174575
 20
-258.2394795868435
 30
0.0
  0
VERTEX
  5
17D
330
157
100
AcDbEntity
  8
Predefinito
  6
Continuous
 62
   255
100
AcDbVertex
100
AcDb2dVertex
 10
60.68427308751931
 20
-260.1956506945615
 30
0.0
  0
SEQEND
  5
17E
330
157
100
AcDbEntity
  8
Predefinito
  6
Continuous
 62
   255
  0
POLYLINE
  5
17F
330
1F
100
AcDbEntity
  8
Predefinito
  6
Continuous
 62
   255
100
AcDb2dPolyline
 66
     1
 10
0.0
 20
0.0
 30
0.0
  0
VERTEX
  5
180
330
17F
100
AcDbEntity
  8
Predefinito
  6
Continuous
 62
   255
100
AcDbVertex
100
AcDb2dVertex
 10
-60.66351229855943
 20
-331.2030316245476
 30
0.0
  0
VERTEX
  5
181
330
17F
100
AcDbEntity
  8
Predefinito
  6
Continuous
 62
   255
100
AcDbVertex
100
AcDb2dVertex
 10
-63.87239567008431
 20
-330.900209290033
 30
0.0
  0
VERTEX
  5
182
330
17F
100
AcDbEntity
  8
Predefinito
  6
Continuous
 62
   255
100
AcDbVertex
100
AcDb2dVertex
 10
-68.51502058374733
 20
-330.3850164636051
 30
0.0
  0
VERTEX
  5
183
330
17F
100
AcDbEntity
  8
Predefinito
  6
Continuous
 62
   255
100
AcDbVertex
100
AcDb2dVertex
 10
-73.08735215572689
 20
-329.4693650666436
 30
0.0
  0
VERTEX
  5
184
330
17F
100
AcDbEntity
  8
Predefinito
  6
Continuous
 62
   255
100
AcDbVertex
100
AcDb2dVertex
 10
-76.57165958453675
 20
-328.3122450646106
 30
0.0
  0
VERTEX
  5
185
330
17F
100
AcDbEntity
  8
Predefinito
  6
Continuous
 62
   255
100
AcDbVertex
100
AcDb2dVertex
 10
-79.85004382433249
 20
-326.6741769508862
 30
0.0
  0
VERTEX
  5
186
330
17F
100
AcDbEntity
  8
Predefinito
  6
Continuous
 62
   255
100
AcDbVertex
100
AcDb2dVertex
 10
-82.55683285060019
 20
-324.6498245887986
 30
0.0
  0
VERTEX
  5
187
330
17F
100
AcDbEntity
  8
Predefinito
  6
Continuous
 62
   255
100
AcDbVertex
100
AcDb2dVertex
 10
-84.85477652350971
 20
-322.1696484170067
 30
0.0
  0
VERTEX
  5
188
330
17F
100
AcDbEntity
  8
Predefinito
  6
Continuous
 62
   255
100
AcDbVertex
100
AcDb2dVertex
 10
-88.65760695933464
 20
-316.9478830550864
 30
0.0
  0
SEQEND
  5
189
330
17F
100
AcDbEntity
  8
Predefinito
  6
Continuous
 62
   255
  0
POLYLINE
  5
18A
330
1F
100
AcDbEntity
  8
Predefinito
  6
PHANTOM
 62
   255
100
AcDb2dPolyline
 66
     1
 10
0.0
 20
0.0
 30
0.0
  0
VERTEX
  5
18B
330
18A
100
AcDbEntity
  8
Predefinito
  6
PHANTOM
 62
   255
100
AcDbVertex
100
AcDb2dVertex
 10
57.8889095741921
 20
-267.7497899175898
 30
0.0
  0
VERTEX
  5
18C
330
18A
100
AcDbEntity
  8
Predefinito
  6
PHANTOM
 62
   255
100
AcDbVertex
100
AcDb2dVertex
 10
57.71659798396836
 20
-268.1397731443484
 30
0.0
  0
VERTEX
  5
18D
330
18A
100
AcDbEntity
  8
Predefinito
  6
PHANTOM
 62
   255
100
AcDbVertex
100
AcDb2dVertex
 10
55.42091475037306
 20
-271.8256514339011
 30
0.0
  0
VERTEX
  5
18E
330
18A
100
AcDbEntity
  8
Predefinito
  6
PHANTOM
 62
   255
100
AcDbVertex
100
AcDb2dVertex
 10
52.8957494093461
 20
-275.3618534528578
 30
0.0
  0
VERTEX
  5
18F
330
18A
100
AcDbEntity
  8
Predefinito
  6
PHANTOM
 62
   255
100
AcDbVertex
100
AcDb2dVertex
 10
50.33894844396902
 20
-279.282619984233
 30
0.0
  0
VERTEX
  5
190
330
18A
100
AcDbEntity
  8
Predefinito
  6
PHANTOM
 62
   255
100
AcDbVertex
100
AcDb2dVertex
 10
48.40077264029302
 20
-283.5230865768814
 30
0.0
  0
VERTEX
  5
191
330
18A
100
AcDbEntity
  8
Predefinito
  6
PHANTOM
 62
   255
100
AcDbVertex
100
AcDb2dVertex
 10
47.55918043398283
 20
-286.7723594347534
 30
0.0
  0
VERTEX
  5
192
330
18A
100
AcDbEntity
  8
Predefinito
  6
PHANTOM
 62
   255
100
AcDbVertex
100
AcDb2dVertex
 10
47.25519588376633
 20
-290.1100155544124
 30
0.0
  0
VERTEX
  5
193
330
18A
100
AcDbEntity
  8
Predefinito
  6
PHANTOM
 62
   255
100
AcDbVertex
100
AcDb2dVertex
 10
47.43766483463179
 20
-292.4895350292883
 30
0.0
  0
VERTEX
  5
194
330
18A
100
AcDbEntity
  8
Predefinito
  6
PHANTOM
 62
   255
100
AcDbVertex
100
AcDb2dVertex
 10
48.02112758123469
 20
-294.7990155603236
 30
0.0
  0
VERTEX
  5
195
330
18A
100
AcDbEntity
  8
Predefinito
  6
PHANTOM
 62
   255
100
AcDbVertex
100
AcDb2dVertex
 10
49.04377799291051
 20
-296.9500069079968
 30
0.0
  0
VERTEX
  5
196
330
18A
100
AcDbEntity
  8
Predefinito
  6
PHANTOM
 62
   255
100
AcDbVertex
100
AcDb2dVertex
 10
50.41594170606654
 20
-298.9031501034123
 30
0.0
  0
VERTEX
  5
197
330
18A
100
AcDbEntity
  8
Predefinito
  6
PHANTOM
 62
   255
100
AcDbVertex
100
AcDb2dVertex
 10
53.15707557075416
 20
-301.7290275963438
 30
0.0
  0
VERTEX
  5
198
330
18A
100
AcDbEntity
  8
Predefinito
  6
PHANTOM
 62
   255
100
AcDbVertex
100
AcDb2dVertex
 10
56.24547949676328
 20
-304.2128574199928
 30
0.0
  0
VERTEX
  5
199
330
18A
100
AcDbEntity
  8
Predefinito
  6
PHANTOM
 62
   255
100
AcDbVertex
100
AcDb2dVertex
 10
59.46433630489156
 20
-306.528470525275
 30
0.0
  0
VERTEX
  5
19A
330
18A
100
AcDbEntity
  8
Predefinito
  6
PHANTOM
 62
   255
100
AcDbVertex
100
AcDb2dVertex
 10
62.35673162628219
 20
-308.6939769520705
 30
0.0
  0
VERTEX
  5
19B
330
18A
100
AcDbEntity
  8
Predefinito
  6
PHANTOM
 62
   255
100
AcDbVertex
100
AcDb2dVertex
 10
64.02394006218476
 20
-310.2032341846955
 30
0.0
  0
VERTEX
  5
19C
330
18A
100
AcDbEntity
  8
Predefinito
  6
PHANTOM
 62
   255
100
AcDbVertex
100
AcDb2dVertex
 10
65.44309789233036
 20
-311.9367699646834
 30
0.0
  0
VERTEX
  5
19D
330
18A
100
AcDbEntity
  8
Predefinito
  6
PHANTOM
 62
   255
100
AcDbVertex
100
AcDb2dVertex
 10
66.72028345684305
 20
-315.0287626177655
 30
0.0
  0
VERTEX
  5
19E
330
18A
100
AcDbEntity
  8
Predefinito
  6
PHANTOM
 62
   255
100
AcDbVertex
100
AcDb2dVertex
 10
67.00503243146453
 20
-318.1228800290331
 30
0.0
  0
VERTEX
  5
19F
330
18A
100
AcDbEntity
  8
Predefinito
  6
PHANTOM
 62
   255
100
AcDbVertex
100
AcDb2dVertex
 10
66.80507865213603
 20
-321.9312419683711
 30
0.0
  0
VERTEX
  5
1A0
330
18A
100
AcDbEntity
  8
Predefinito
  6
PHANTOM
 62
   255
100
AcDbVertex
100
AcDb2dVertex
 10
65.96444028853348
 20
-330.0419197545212
 30
0.0
  0
VERTEX
  5
1A1
330
18A
100
AcDbEntity
  8
Predefinito
  6
PHANTOM
 62
   255
100
AcDbVertex
100
AcDb2dVertex
 10
64.66118757536357
 20
-338.0937749370783
 30
0.0
  0
VERTEX
  5
1A2
330
18A
100
AcDbEntity
  8
Predefinito
  6
PHANTOM
 62
   255
100
AcDbVertex
100
AcDb2dVertex
 10
62.68387888053179
 20
-345.9852678588221
 30
0.0
  0
VERTEX
  5
1A3
330
18A
100
AcDbEntity
  8
Predefinito
  6
PHANTOM
 62
   255
100
AcDbVertex
100
AcDb2dVertex
 10
60.99736532137906
 20
-351.0501044269858
 30
0.0
  0
VERTEX
  5
1A4
330
18A
100
AcDbEntity
  8
Predefinito
  6
PHANTOM
 62
   255
100
AcDbVertex
100
AcDb2dVertex
 10
58.84080547356446
 20
-355.9199535281484
 30
0.0
  0
VERTEX
  5
1A5
330
18A
100
AcDbEntity
  8
Predefinito
  6
PHANTOM
 62
   255
100
AcDbVertex
100
AcDb2dVertex
 10
56.74523662796352
 20
-358.992221179795
 30
0.0
  0
VERTEX
  5
1A6
330
18A
100
AcDbEntity
  8
Predefinito
  6
PHANTOM
 62
   255
100
AcDbVertex
100
AcDb2dVertex
 10
55.20983517238018
 20
-360.2826765753065
 30
0.0
  0
VERTEX
  5
1A7
330
18A
100
AcDbEntity
  8
Predefinito
  6
PHANTOM
 62
   255
100
AcDbVertex
100
AcDb2dVertex
 10
53.56816244930246
 20
-360.9610090409636
 30
0.0
  0
VERTEX
  5
1A8
330
18A
100
AcDbEntity
  8
Predefinito
  6
PHANTOM
 62
   255
100
AcDbVertex
100
AcDb2dVertex
 10
52.90118248799036
 20
-361.082123436758
 30
0.0
  0
VERTEX
  5
1A9
330
18A
100
AcDbEntity
  8
Predefinito
  6
PHANTOM
 62
   255
100
AcDbVertex
100
AcDb2dVertex
 10
50.84638475831732
 20
-361.078674288636
 30
0.0
  0
VERTEX
  5
1AA
330
18A
100
AcDbEntity
  8
Predefinito
  6
PHANTOM
 62
   255
100
AcDbVertex
100
AcDb2dVertex
 10
48.81913834605173
 20
-360.6751562518023
 30
0.0
  0
VERTEX
  5
1AB
330
18A
100
AcDbEntity
  8
Predefinito
  6
PHANTOM
 62
   255
100
AcDbVertex
100
AcDb2dVertex
 10
46.36282717709391
 20
-359.840350209099
 30
0.0
  0
VERTEX
  5
1AC
330
18A
100
AcDbEntity
  8
Predefinito
  6
PHANTOM
 62
   255
100
AcDbVertex
100
AcDb2dVertex
 10
43.98969642187478
 20
-358.7831346739143
 30
0.0
  0
VERTEX
  5
1AD
330
18A
100
AcDbEntity
  8
Predefinito
  6
PHANTOM
 62
   255
100
AcDbVertex
100
AcDb2dVertex
 10
37.32082254946273
 20
-355.153772225835
 30
0.0
  0
VERTEX
  5
1AE
330
18A
100
AcDbEntity
  8
Predefinito
  6
PHANTOM
 62
   255
100
AcDbVertex
100
AcDb2dVertex
 10
36.57923384710671
 20
-354.7085448225098
 30
0.0
  0
VERTEX
  5
1AF
330
18A
100
AcDbEntity
  8
Predefinito
  6
PHANTOM
 62
   255
100
AcDbVertex
100
AcDb2dVertex
 10
24.13376209282733
 20
-347.6095637251619
 30
0.0
  0
VERTEX
  5
1B0
330
18A
100
AcDbEntity
  8
Predefinito
  6
PHANTOM
 62
   255
100
AcDbVertex
100
AcDb2dVertex
 10
24.13372656944496
 20
-347.6095359676686
 30
0.0
  0
VERTEX
  5
1B1
330
18A
100
AcDbEntity
  8
Predefinito
  6
PHANTOM
 62
   255
100
AcDbVertex
100
AcDb2dVertex
 10
20.29521602400633
 20
-345.9955419158705
 30
0.0
  0
VERTEX
  5
1B2
330
18A
100
AcDbEntity
  8
Predefinito
  6
PHANTOM
 62
   255
100
AcDbVertex
100
AcDb2dVertex
 10
16.28120296890141
 20
-344.9293522826343
 30
0.0
  0
VERTEX
  5
1B3
330
18A
100
AcDbEntity
  8
Predefinito
  6
PHANTOM
 62
   255
100
AcDbVertex
100
AcDb2dVertex
 10
13.58806181753801
 20
-344.6560508336589
 30
0.0
  0
VERTEX
  5
1B4
330
18A
100
AcDbEntity
  8
Predefinito
  6
PHANTOM
 62
   255
100
AcDbVertex
100
AcDb2dVertex
 10
10.88518613862424
 20
-344.7788039669341
 30
0.0
  0
VERTEX
  5
1B5
330
18A
100
AcDbEntity
  8
Predefinito
  6
PHANTOM
 62
   255
100
AcDbVertex
100
AcDb2dVertex
 10
8.14978785794937
 20
-345.3589756595992
 30
0.0
  0
VERTEX
  5
1B6
330
18A
100
AcDbEntity
  8
Predefinito
  6
PHANTOM
 62
   255
100
AcDbVertex
100
AcDb2dVertex
 10
5.566647312718359
 20
-346.4207528705288
 30
0.0
  0
VERTEX
  5
1B7
330
18A
100
AcDbEntity
  8
Predefinito
  6
PHANTOM
 62
   255
100
AcDbVertex
100
AcDb2dVertex
 10
3.174477421340069
 20
-347.9939554252616
 30
0.0
  0
VERTEX
  5
1B8
330
18A
100
AcDbEntity
  8
Predefinito
  6
PHANTOM
 62
   255
100
AcDbVertex
100
AcDb2dVertex
 10
1.061294340598053
 20
-349.9330966006547
 30
0.0
  0
VERTEX
  5
1B9
330
18A
100
AcDbEntity
  8
Predefinito
  6
PHANTOM
 62
   255
100
AcDbVertex
100
AcDb2dVertex
 10
-1.658554625168298
 20
-353.3460705472484
 30
0.0
  0
VERTEX
  5
1BA
330
18A
100
AcDbEntity
  8
Predefinito
  6
PHANTOM
 62
   255
100
AcDbVertex
100
AcDb2dVertex
 10
-3.888442317183937
 20
-357.1086711362649
 30
0.0
  0
VERTEX
  5
1BB
330
18A
100
AcDbEntity
  8
Predefinito
  6
PHANTOM
 62
   255
100
AcDbVertex
100
AcDb2dVertex
 10
-7.055941862012082
 20
-364.2169443425895
 30
0.0
  0
VERTEX
  5
1BC
330
18A
100
AcDbEntity
  8
Predefinito
  6
PHANTOM
 62
   255
100
AcDbVertex
100
AcDb2dVertex
 10
-10.07660279391576
 20
-371.3990868615583
 30
0.0
  0
VERTEX
  5
1BD
330
18A
100
AcDbEntity
  8
Predefinito
  6
PHANTOM
 62
   255
100
AcDbVertex
100
AcDb2dVertex
 10
-12.23521790803233
 20
-375.5068982592009
 30
0.0
  0
VERTEX
  5
1BE
330
18A
100
AcDbEntity
  8
Predefinito
  6
PHANTOM
 62
   255
100
AcDbVertex
100
AcDb2dVertex
 10
-14.96100720345594
 20
-379.2370284190291
 30
0.0
  0
VERTEX
  5
1BF
330
18A
100
AcDbEntity
  8
Predefinito
  6
PHANTOM
 62
   255
100
AcDbVertex
100
AcDb2dVertex
 10
-17.03823041309557
 20
-381.1503307248557
 30
0.0
  0
VERTEX
  5
1C0
330
18A
100
AcDbEntity
  8
Predefinito
  6
PHANTOM
 62
   255
100
AcDbVertex
100
AcDb2dVertex
 10
-19.44425595863986
 20
-382.6188955314641
 30
0.0
  0
VERTEX
  5
1C1
330
18A
100
AcDbEntity
  8
Predefinito
  6
PHANTOM
 62
   255
100
AcDbVertex
100
AcDb2dVertex
 10
-21.7838106655508
 20
-383.4911904147287
 30
0.0
  0
VERTEX
  5
1C2
330
18A
100
AcDbEntity
  8
Predefinito
  6
PHANTOM
 62
   255
100
AcDbVertex
100
AcDb2dVertex
 10
-24.22588643990942
 20
-384.0316315868725
 30
0.0
  0
VERTEX
  5
1C3
330
18A
100
AcDbEntity
  8
Predefinito
  6
PHANTOM
 62
   255
100
AcDbVertex
100
AcDb2dVertex
 10
-27.91516797582258
 20
-384.3727692789906
 30
0.0
  0
VERTEX
  5
1C4
330
18A
100
AcDbEntity
  8
Predefinito
  6
PHANTOM
 62
   255
100
AcDbVertex
100
AcDb2dVertex
 10
-31.62629040370273
 20
-384.3471811924299
 30
0.0
  0
VERTEX
  5
1C5
330
18A
100
AcDbEntity
  8
Predefinito
  6
PHANTOM
 62
   255
100
AcDbVertex
100
AcDb2dVertex
 10
-32.47822793848075
 20
-384.2699269307205
 30
0.0
  0
SEQEND
  5
1C7
330
18A
100
AcDbEntity
  8
Predefinito
  6
PHANTOM
 62
   255
  0
LINE
  5
1C8
330
1F
100
AcDbEntity
  8
Predefinito
  6
Continuous
 62
   255
100
AcDbLine
 10
-189.3954809893462
 20
-231.240906333058
 30
0.0
 11
-191.0807710201724
 21
-234.2556068985757
 31
0.0
  0
LINE
  5
1C9
330
1F
100
AcDbEntity
  8
Predefinito
  6
Continuous
 62
   255
100
AcDbLine
 10
-167.5030208769755
 20
-367.2103466936452
 30
0.0
 11
-164.207531250793
 21
-369.7894638503838
 31
0.0
  0
POLYLINE
  5
1CA
330
1F
100
AcDbEntity
  8
Predefinito
  6
Continuous
 62
   255
100
AcDb2dPolyline
 66
     1
 10
0.0
 20
0.0
 30
0.0
  0
VERTEX
  5
1CB
330
1CA
100
AcDbEntity
  8
Predefinito
  6
Continuous
 62
   255
100
AcDbVertex
100
AcDb2dVertex
 10
-191.005683864529
 20
-234.3005170346415
 30
0.0
  0
VERTEX
  5
1CC
330
1CA
100
AcDbEntity
  8
Predefinito
  6
Continuous
 62
   255
100
AcDbVertex
100
AcDb2dVertex
 10
-191.0355926348329
 20
-234.347253238417
 30
0.0
  0
VERTEX
  5
1CD
330
1CA
100
AcDbEntity
  8
Predefinito
  6
Continuous
 62
   255
100
AcDbVertex
100
AcDb2dVertex
 10
-192.1477771997285
 20
-235.8279969976102
 30
0.0
  0
VERTEX
  5
1CE
330
1CA
100
AcDbEntity
  8
Predefinito
  6
Continuous
 62
   255
100
AcDbVertex
100
AcDb2dVertex
 10
-193.1687236064588
 20
-236.8679212410847
 30
0.0
  0
VERTEX
  5
1CF
330
1CA
100
AcDbEntity
  8
Predefinito
  6
Continuous
 62
   255
100
AcDbVertex
100
AcDb2dVertex
 10
-194.3589507389551
 20
-237.6763764714023
 30
0.0
  0
VERTEX
  5
1D0
330
1CA
100
AcDbEntity
  8
Predefinito
  6
Continuous
 62
   255
100
AcDbVertex
100
AcDb2dVertex
 10
-195.8516001360613
 20
-238.3224874000352
 30
0.0
  0
VERTEX
  5
1D1
330
1CA
100
AcDbEntity
  8
Predefinito
  6
Continuous
 62
   255
100
AcDbVertex
100
AcDb2dVertex
 10
-197.5956675009044
 20
-238.7434835850071
 30
0.0
  0
VERTEX
  5
1D2
330
1CA
100
AcDbEntity
  8
Predefinito
  6
Continuous
 62
   255
100
AcDbVertex
100
AcDb2dVertex
 10
-199.5517065055284
 20
-238.9056774987207
 30
0.0
  0
VERTEX
  5
1D3
330
1CA
100
AcDbEntity
  8
Predefinito
  6
Continuous
 62
   255
100
AcDbVertex
100
AcDb2dVertex
 10
-201.6466049901002
 20
-238.780196025375
 30
0.0
  0
VERTEX
  5
1D4
330
1CA
100
AcDbEntity
  8
Predefinito
  6
Continuous
 62
   255
100
AcDbVertex
100
AcDb2dVertex
 10
-204.046627602437
 20
-238.3475040360526
 30
0.0
  0
VERTEX
  5
1D5
330
1CA
100
AcDbEntity
  8
Predefinito
  6
Continuous
 62
   255
100
AcDbVertex
100
AcDb2dVertex
 10
-206.8633806269033
 20
-237.6287194491325
 30
0.0
  0
VERTEX
  5
1D6
330
1CA
100
AcDbEntity
  8
Predefinito
  6
Continuous
 62
   255
100
AcDbVertex
100
AcDb2dVertex
 10
-210.3780125040179
 20
-236.482447485497
 30
0.0
  0
VERTEX
  5
1D7
330
1CA
100
AcDbEntity
  8
Predefinito
  6
Continuous
 62
   255
100
AcDbVertex
100
AcDb2dVertex
 10
-214.4746536500661
 20
-234.9175076620711
 30
0.0
  0
VERTEX
  5
1D8
330
1CA
100
AcDbEntity
  8
Predefinito
  6
Continuous
 62
   255
100
AcDbVertex
100
AcDb2dVertex
 10
-219.9632647261307
 20
-232.7002132873556
 30
0.0
  0
VERTEX
  5
1D9
330
1CA
100
AcDbEntity
  8
Predefinito
  6
Continuous
 62
   255
100
AcDbVertex
100
AcDb2dVertex
 10
-224.5924461369158
 20
-230.9629042213069
 30
0.0
  0
VERTEX
  5
1DA
330
1CA
100
AcDbEntity
  8
Predefinito
  6
Continuous
 62
   255
100
AcDbVertex
100
AcDb2dVertex
 10
-228.4092223534915
 20
-229.7576868339246
 30
0.0
  0
VERTEX
  5
1DB
330
1CA
100
AcDbEntity
  8
Predefinito
  6
Continuous
 62
   255
100
AcDbVertex
100
AcDb2dVertex
 10
-231.6793980850148
 20
-228.939449829332
 30
0.0
  0
VERTEX
  5
1DC
330
1CA
100
AcDbEntity
  8
Predefinito
  6
Continuous
 62
   255
100
AcDbVertex
100
AcDb2dVertex
 10
-234.1512168151481
 20
-228.5002659278722
 30
0.0
  0
VERTEX
  5
1DD
330
1CA
100
AcDbEntity
  8
Predefinito
  6
Continuous
 62
   255
100
AcDbVertex
100
AcDb2dVertex
 10
-236.050001716406
 20
-228.3801723600678
 30
0.0
  0
VERTEX
  5
1DE
330
1CA
100
AcDbEntity
  8
Predefinito
  6
Continuous
 62
   255
100
AcDbVertex
100
AcDb2dVertex
 10
-237.8552849484444
 20
-228.5047243176621
 30
0.0
  0
VERTEX
  5
1DF
330
1CA
100
AcDbEntity
  8
Predefinito
  6
Continuous
 62
   255
100
AcDbVertex
100
AcDb2dVertex
 10
-239.549973426602
 20
-228.8821867077923
 30
0.0
  0
VERTEX
  5
1E0
330
1CA
100
AcDbEntity
  8
Predefinito
  6
Continuous
 62
   255
100
AcDbVertex
100
AcDb2dVertex
 10
-241.1507028714832
 20
-229.5230387931561
 30
0.0
  0
VERTEX
  5
1E1
330
1CA
100
AcDbEntity
  8
Predefinito
  6
Continuous
 62
   255
100
AcDbVertex
100
AcDb2dVertex
 10
-242.6230843705254
 20
-230.4103721192867
 30
0.0
  0
VERTEX
  5
1E2
330
1CA
100
AcDbEntity
  8
Predefinito
  6
Continuous
 62
   255
100
AcDbVertex
100
AcDb2dVertex
 10
-243.9632538966202
 20
-231.5240027177363
 30
0.0
  0
VERTEX
  5
1E3
330
1CA
100
AcDbEntity
  8
Predefinito
  6
Continuous
 62
   255
100
AcDbVertex
100
AcDb2dVertex
 10
-245.1595207440052
 20
-232.8389735492655
 30
0.0
  0
VERTEX
  5
1E4
330
1CA
100
AcDbEntity
  8
Predefinito
  6
Continuous
 62
   255
100
AcDbVertex
100
AcDb2dVertex
 10
-246.2360701510214
 20
-234.3572504255445
 30
0.0
  0
VERTEX
  5
1E5
330
1CA
100
AcDbEntity
  8
Predefinito
  6
Continuous
 62
   255
100
AcDbVertex
100
AcDb2dVertex
 10
-247.2379026432265
 20
-236.1079568803732
 30
0.0
  0
VERTEX
  5
1E6
330
1CA
100
AcDbEntity
  8
Predefinito
  6
Continuous
 62
   255
100
AcDbVertex
100
AcDb2dVertex
 10
-248.2683730971515
 20
-238.1881605460823
 30
0.0
  0
VERTEX
  5
1E7
330
1CA
100
AcDbEntity
  8
Predefinito
  6
Continuous
 62
   255
100
AcDbVertex
100
AcDb2dVertex
 10
-248.9590896140851
 20
-239.8079081541369
 30
0.0
  0
SEQEND
  5
1E8
330
1CA
100
AcDbEntity
  8
Predefinito
  6
Continuous
 62
   255
  0
POLYLINE
  5
1E9
330
1F
100
AcDbEntity
  8
Predefinito
  6
Continuous
 62
   255
100
AcDb2dPolyline
 66
     1
 10
0.0
 20
0.0
 30
0.0
  0
VERTEX
  5
1EA
330
1E9
100
AcDbEntity
  8
Predefinito
  6
Continuous
 62
   255
100
AcDbVertex
100
AcDb2dVertex
 10
-189.4375032513522
 20
-231.491233261765
 30
0.0
  0
VERTEX
  5
1EB
330
1E9
100
AcDbEntity
  8
Predefinito
  6
Continuous
 62
   255
100
AcDbVertex
100
AcDb2dVertex
 10
-188.0554405875555
 20
-228.5794405748334
 30
0.0
  0
VERTEX
  5
1EC
330
1E9
100
AcDbEntity
  8
Predefinito
  6
Continuous
 62
   255
100
AcDbVertex
100
AcDb2dVertex
 10
-185.9834464519009
 20
-224.3930065267226
 30
0.0
  0
VERTEX
  5
1ED
330
1E9
100
AcDbEntity
  8
Predefinito
  6
Continuous
 62
   255
100
AcDbVertex
100
AcDb2dVertex
 10
-183.559186091383
 20
-220.4095915107721
 30
0.0
  0
VERTEX
  5
1EE
330
1E9
100
AcDbEntity
  8
Predefinito
  6
Continuous
 62
   255
100
AcDbVertex
100
AcDb2dVertex
 10
-181.2801456379167
 20
-217.5311718803103
 30
0.0
  0
VERTEX
  5
1EF
330
1E9
100
AcDbEntity
  8
Predefinito
  6
Continuous
 62
   255
100
AcDbVertex
100
AcDb2dVertex
 10
-178.6195916715336
 20
-215.0107506931066
 30
0.0
  0
VERTEX
  5
1F0
330
1E9
100
AcDbEntity
  8
Predefinito
  6
Continuous
 62
   255
100
AcDbVertex
100
AcDb2dVertex
 10
-175.791546324293
 20
-213.1595703041214
 30
0.0
  0
VERTEX
  5
1F1
330
1E9
100
AcDbEntity
  8
Predefinito
  6
Continuous
 62
   255
100
AcDbVertex
100
AcDb2dVertex
 10
-172.6750000530483
 20
-211.8484798014558
 30
0.0
  0
VERTEX
  5
1F2
330
1E9
100
AcDbEntity
  8
Predefinito
  6
Continuous
 62
   255
100
AcDbVertex
100
AcDb2dVertex
 10
-163.07101195204
 20
-209.0828668808337
 30
0.0
  0
VERTEX
  5
1F3
330
1E9
100
AcDbEntity
  8
Predefinito
  6
Continuous
 62
   255
100
AcDbVertex
100
AcDb2dVertex
 10
-153.3181443816175
 20
-206.9191915343416
 30
0.0
  0
VERTEX
  5
1F4
330
1E9
100
AcDbEntity
  8
Predefinito
  6
Continuous
 62
   255
100
AcDbVertex
100
AcDb2dVertex
 10
-147.9570832265411
 20
-206.2949842569171
 30
0.0
  0
VERTEX
  5
1F5
330
1E9
100
AcDbEntity
  8
Predefinito
  6
Continuous
 62
   255
100
AcDbVertex
100
AcDb2dVertex
 10
-143.8660723129588
 20
-206.3806261590643
 30
0.0
  0
SEQEND
  5
1F6
330
1E9
100
AcDbEntity
  8
Predefinito
  6
Continuous
 62
   255
  0
POLYLINE
  5
1F7
330
1F
100
AcDbEntity
  8
Predefinito
  6
Continuous
 62
   255
100
AcDb2dPolyline
 66
     1
 10
0.0
 20
0.0
 30
0.0
  0
VERTEX
  5
1F8
330
1F7
100
AcDbEntity
  8
Predefinito
  6
Continuous
 62
   255
100
AcDbVertex
100
AcDb2dVertex
 10
-94.98045965896057
 20
-316.3638084556904
 30
0.0
  0
VERTEX
  5
1F9
330
1F7
100
AcDbEntity
  8
Predefinito
  6
Continuous
 62
   255
100
AcDbVertex
100
AcDb2dVertex
 10
-94.9750157187078
 20
-316.3811939526643
 30
0.0
  0
VERTEX
  5
1FA
330
1F7
100
AcDbEntity
  8
Predefinito
  6
Continuous
 62
   255
100
AcDbVertex
100
AcDb2dVertex
 10
-94.89935625405948
 20
-320.2177295409084
 30
0.0
  0
VERTEX
  5
1FB
330
1F7
100
AcDbEntity
  8
Predefinito
  6
Continuous
 62
   255
100
AcDbVertex
100
AcDb2dVertex
 10
-95.6111533783618
 20
-322.8914242497968
 30
0.0
  0
VERTEX
  5
1FC
330
1F7
100
AcDbEntity
  8
Predefinito
  6
Continuous
 62
   255
100
AcDbVertex
100
AcDb2dVertex
 10
-97.25845820056797
 20
-325.3956353658174
 30
0.0
  0
VERTEX
  5
1FD
330
1F7
100
AcDbEntity
  8
Predefinito
  6
Continuous
 62
   255
100
AcDbVertex
100
AcDb2dVertex
 10
-99.45370799459766
 20
-327.2183512191469
 30
0.0
  0
VERTEX
  5
1FE
330
1F7
100
AcDbEntity
  8
Predefinito
  6
Continuous
 62
   255
100
AcDbVertex
100
AcDb2dVertex
 10
-101.8888556128561
 20
-328.7429985259525
 30
0.0
  0
VERTEX
  5
1FF
330
1F7
100
AcDbEntity
  8
Predefinito
  6
Continuous
 62
   255
100
AcDbVertex
100
AcDb2dVertex
 10
-104.8105001805092
 20
-330.6577710889568
 30
0.0
  0
VERTEX
  5
200
330
1F7
100
AcDbEntity
  8
Predefinito
  6
Continuous
 62
   255
100
AcDbVertex
100
AcDb2dVertex
 10
-107.5220950611713
 20
-332.8675089179199
 30
0.0
  0
VERTEX
  5
201
330
1F7
100
AcDbEntity
  8
Predefinito
  6
Continuous
 62
   255
100
AcDbVertex
100
AcDb2dVertex
 10
-109.860897730187
 20
-335.4324349344893
 30
0.0
  0
VERTEX
  5
202
330
1F7
100
AcDbEntity
  8
Predefinito
  6
Continuous
 62
   255
100
AcDbVertex
100
AcDb2dVertex
 10
-111.2393069521422
 20
-337.5384139095716
 30
0.0
  0
VERTEX
  5
203
330
1F7
100
AcDbEntity
  8
Predefinito
  6
Continuous
 62
   255
100
AcDbVertex
100
AcDb2dVertex
 10
-112.2713921606037
 20
-339.8296749039115
 30
0.0
  0
VERTEX
  5
204
330
1F7
100
AcDbEntity
  8
Predefinito
  6
Continuous
 62
   255
100
AcDbVertex
100
AcDb2dVertex
 10
-113.038937817218
 20
-343.565799506672
 30
0.0
  0
VERTEX
  5
205
330
1F7
100
AcDbEntity
  8
Predefinito
  6
Continuous
 62
   255
100
AcDbVertex
100
AcDb2dVertex
 10
-113.0910433913726
 20
-347.4059482249642
 30
0.0
  0
VERTEX
  5
206
330
1F7
100
AcDbEntity
  8
Predefinito
  6
Continuous
 62
   255
100
AcDbVertex
100
AcDb2dVertex
 10
-112.6694606858352
 20
-352.7444185730891
 30
0.0
  0
VERTEX
  5
207
330
1F7
100
AcDbEntity
  8
Predefinito
  6
Continuous
 62
   255
100
AcDbVertex
100
AcDb2dVertex
 10
-112.4445491881184
 20
-356.6478286244394
 30
0.0
  0
VERTEX
  5
208
330
1F7
100
AcDbEntity
  8
Predefinito
  6
Continuous
 62
   255
100
AcDbVertex
100
AcDb2dVertex
 10
-112.5504587912034
 20
-359.2450700059957
 30
0.0
  0
VERTEX
  5
209
330
1F7
100
AcDbEntity
  8
Predefinito
  6
Continuous
 62
   255
100
AcDbVertex
100
AcDb2dVertex
 10
-113.0656957688559
 20
-361.7803748062565
 30
0.0
  0
VERTEX
  5
20A
330
1F7
100
AcDbEntity
  8
Predefinito
  6
Continuous
 62
   255
100
AcDbVertex
100
AcDb2dVertex
 10
-114.5113484102935
 20
-364.5426502821623
 30
0.0
  0
VERTEX
  5
20B
330
1F7
100
AcDbEntity
  8
Predefinito
  6
Continuous
 62
   255
100
AcDbVertex
100
AcDb2dVertex
 10
-117.0460869038486
 20
-366.8679983735635
 30
0.0
  0
VERTEX
  5
20C
330
1F7
100
AcDbEntity
  8
Predefinito
  6
Continuous
 62
   255
100
AcDbVertex
100
AcDb2dVertex
 10
-119.2017460453486
 20
-368.0849590885076
 30
0.0
  0
VERTEX
  5
20D
330
1F7
100
AcDbEntity
  8
Predefinito
  6
Continuous
 62
   255
100
AcDbVertex
100
AcDb2dVertex
 10
-121.5227312284162
 20
-368.953696040083
 30
0.0
  0
VERTEX
  5
20E
330
1F7
100
AcDbEntity
  8
Predefinito
  6
Continuous
 62
   255
100
AcDbVertex
100
AcDb2dVertex
 10
-125.9115518848691
 20
-369.7852064421198
 30
0.0
  0
VERTEX
  5
20F
330
1F7
100
AcDbEntity
  8
Predefinito
  6
Continuous
 62
   255
100
AcDbVertex
100
AcDb2dVertex
 10
-130.4076722402881
 20
-370.0656402809764
 30
0.0
  0
VERTEX
  5
210
330
1F7
100
AcDbEntity
  8
Predefinito
  6
Continuous
 62
   255
100
AcDbVertex
100
AcDb2dVertex
 10
-134.9096212966802
 20
-370.2709671162424
 30
0.0
  0
VERTEX
  5
211
330
1F7
100
AcDbEntity
  8
Predefinito
  6
Continuous
 62
   255
100
AcDbVertex
100
AcDb2dVertex
 10
-140.3006856121306
 20
-371.1024857498507
 30
0.0
  0
VERTEX
  5
212
330
1F7
100
AcDbEntity
  8
Predefinito
  6
Continuous
 62
   255
100
AcDbVertex
100
AcDb2dVertex
 10
-145.5310432775555
 20
-372.6712664570608
 30
0.0
  0
VERTEX
  5
213
330
1F7
100
AcDbEntity
  8
Predefinito
  6
Continuous
 62
   255
100
AcDbVertex
100
AcDb2dVertex
 10
-148.2718566456544
 20
-373.7446726365033
 30
0.0
  0
VERTEX
  5
214
330
1F7
100
AcDbEntity
  8
Predefinito
  6
Continuous
 62
   255
100
AcDbVertex
100
AcDb2dVertex
 10
-151.0358909936645
 20
-374.7523144361574
 30
0.0
  0
VERTEX
  5
215
330
1F7
100
AcDbEntity
  8
Predefinito
  6
Continuous
 62
   255
100
AcDbVertex
100
AcDb2dVertex
 10
-153.2287600332925
 20
-375.2683187709363
 30
0.0
  0
VERTEX
  5
216
330
1F7
100
AcDbEntity
  8
Predefinito
  6
Continuous
 62
   255
100
AcDbVertex
100
AcDb2dVertex
 10
-155.8683189451513
 20
-375.2012337634756
 30
0.0
  0
VERTEX
  5
217
330
1F7
100
AcDbEntity
  8
Predefinito
  6
Continuous
 62
   255
100
AcDbVertex
100
AcDb2dVertex
 10
-158.2244981909076
 20
-374.2370424030856
 30
0.0
  0
VERTEX
  5
218
330
1F7
100
AcDbEntity
  8
Predefinito
  6
Continuous
 62
   255
100
AcDbVertex
100
AcDb2dVertex
 10
-160.4579379579906
 20
-372.7186193608239
 30
0.0
  0
VERTEX
  5
219
330
1F7
100
AcDbEntity
  8
Predefinito
  6
Continuous
 62
   255
100
AcDbVertex
100
AcDb2dVertex
 10
-162.582597854085
 20
-371.0391415805546
 30
0.0
  0
VERTEX
  5
21A
330
1F7
100
AcDbEntity
  8
Predefinito
  6
Continuous
 62
   255
100
AcDbVertex
100
AcDb2dVertex
 10
-164.215778320108
 20
-369.8068063406292
 30
0.0
  0
SEQEND
  5
21B
330
1F7
100
AcDbEntity
  8
Predefinito
  6
Continuous
 62
   255
  0
POLYLINE
  5
21C
330
1F
100
AcDbEntity
  8
Predefinito
  6
PHANTOM
 62
   255
100
AcDb2dPolyline
 66
     1
 10
0.0
 20
0.0
 30
0.0
  0
VERTEX
  5
21D
330
21C
100
AcDbEntity
  8
Predefinito
  6
PHANTOM
 62
   255
100
AcDbVertex
100
AcDb2dVertex
 10
-170.3582765749016
 20
-364.5963560949793
 30
0.0
  0
VERTEX
  5
21E
330
21C
100
AcDbEntity
  8
Predefinito
  6
PHANTOM
 62
   255
100
AcDbVertex
100
AcDb2dVertex
 10
-170.6658069005319
 20
-364.3010540460597
 30
0.0
  0
VERTEX
  5
21F
330
21C
100
AcDbEntity
  8
Predefinito
  6
PHANTOM
 62
   255
100
AcDbVertex
100
AcDb2dVertex
 10
-173.344229621755
 20
-360.8831728309145
 30
0.0
  0
VERTEX
  5
220
330
21C
100
AcDbEntity
  8
Predefinito
  6
PHANTOM
 62
   255
100
AcDbVertex
100
AcDb2dVertex
 10
-175.8035151527178
 20
-357.3008412723351
 30
0.0
  0
VERTEX
  5
221
330
21C
100
AcDbEntity
  8
Predefinito
  6
PHANTOM
 62
   255
100
AcDbVertex
100
AcDb2dVertex
 10
-178.6133530974422
 20
-353.5572531413444
 30
0.0
  0
VERTEX
  5
222
330
21C
100
AcDbEntity
  8
Predefinito
  6
PHANTOM
 62
   255
100
AcDbVertex
100
AcDb2dVertex
 10
-181.9351930970793
 20
-350.285638649059
 30
0.0
  0
VERTEX
  5
223
330
21C
100
AcDbEntity
  8
Predefinito
  6
PHANTOM
 62
   255
100
AcDbVertex
100
AcDb2dVertex
 10
-184.7006693375177
 20
-348.3834838945249
 30
0.0
  0
VERTEX
  5
224
330
21C
100
AcDbEntity
  8
Predefinito
  6
PHANTOM
 62
   255
100
AcDbVertex
100
AcDb2dVertex
 10
-187.7330713244483
 20
-346.956286231436
 30
0.0
  0
VERTEX
  5
225
330
21C
100
AcDbEntity
  8
Predefinito
  6
PHANTOM
 62
   255
100
AcDbVertex
100
AcDb2dVertex
 10
-190.031496272733
 20
-346.3139073662436
 30
0.0
  0
VERTEX
  5
226
330
21C
100
AcDbEntity
  8
Predefinito
  6
PHANTOM
 62
   255
100
AcDbVertex
100
AcDb2dVertex
 10
-192.401254097814
 20
-346.0722941414973
 30
0.0
  0
VERTEX
  5
227
330
21C
100
AcDbEntity
  8
Predefinito
  6
PHANTOM
 62
   255
100
AcDbVertex
100
AcDb2dVertex
 10
-194.7722918349702
 20
-346.2975888179694
 30
0.0
  0
VERTEX
  5
228
330
21C
100
AcDbEntity
  8
Predefinito
  6
PHANTOM
 62
   255
100
AcDbVertex
100
AcDb2dVertex
 10
-197.0769537128802
 20
-346.9189866181007
 30
0.0
  0
VERTEX
  5
229
330
21C
100
AcDbEntity
  8
Predefinito
  6
PHANTOM
 62
   255
100
AcDbVertex
100
AcDb2dVertex
 10
-200.6699329375082
 20
-348.5283028581808
 30
0.0
  0
VERTEX
  5
22A
330
21C
100
AcDbEntity
  8
Predefinito
  6
PHANTOM
 62
   255
100
AcDbVertex
100
AcDb2dVertex
 10
-204.0602658475004
 20
-350.5809334051769
 30
0.0
  0
VERTEX
  5
22B
330
21C
100
AcDbEntity
  8
Predefinito
  6
PHANTOM
 62
   255
100
AcDbVertex
100
AcDb2dVertex
 10
-207.33714426199
 20
-352.8136830689861
 30
0.0
  0
VERTEX
  5
22C
330
21C
100
AcDbEntity
  8
Predefinito
  6
PHANTOM
 62
   255
100
AcDbVertex
100
AcDb2dVertex
 10
-210.3613121338908
 20
-354.7909987904273
 30
0.0
  0
VERTEX
  5
22D
330
21C
100
AcDbEntity
  8
Predefinito
  6
PHANTOM
 62
   255
100
AcDbVertex
100
AcDb2dVertex
 10
-212.3497688864574
 20
-355.8414658799393
 30
0.0
  0
VERTEX
  5
22E
330
21C
100
AcDbEntity
  8
Predefinito
  6
PHANTOM
 62
   255
100
AcDbVertex
100
AcDb2dVertex
 10
-214.4641402312485
 20
-356.582133864726
 30
0.0
  0
VERTEX
  5
22F
330
21C
100
AcDbEntity
  8
Predefinito
  6
PHANTOM
 62
   255
100
AcDbVertex
100
AcDb2dVertex
 10
-217.806486100702
 20
-356.7247719447039
 30
0.0
  0
VERTEX
  5
230
330
21C
100
AcDbEntity
  8
Predefinito
  6
PHANTOM
 62
   255
100
AcDbVertex
100
AcDb2dVertex
 10
-220.8113952850273
 20
-355.9340979744638
 30
0.0
  0
VERTEX
  5
231
330
21C
100
AcDbEntity
  8
Predefinito
  6
PHANTOM
 62
   255
100
AcDbVertex
100
AcDb2dVertex
 10
-224.3216966764407
 20
-354.4436663872023
 30
0.0
  0
VERTEX
  5
232
330
21C
100
AcDbEntity
  8
Predefinito
  6
PHANTOM
 62
   255
100
AcDbVertex
100
AcDb2dVertex
 10
-231.6557254880538
 20
-350.8797095412881
 30
0.0
  0
VERTEX
  5
233
330
21C
100
AcDbEntity
  8
Predefinito
  6
PHANTOM
 62
   255
100
AcDbVertex
100
AcDb2dVertex
 10
-238.7762557069915
 20
-346.9011559201275
 30
0.0
  0
VERTEX
  5
234
330
21C
100
AcDbEntity
  8
Predefinito
  6
PHANTOM
 62
   255
100
AcDbVertex
100
AcDb2dVertex
 10
-245.5155539693331
 20
-342.3440439904299
 30
0.0
  0
VERTEX
  5
235
330
21C
100
AcDbEntity
  8
Predefinito
  6
PHANTOM
 62
   255
100
AcDbVertex
100
AcDb2dVertex
 10
-249.698121908701
 20
-339.0269635150744
 30
0.0
  0
VERTEX
  5
236
330
21C
100
AcDbEntity
  8
Predefinito
  6
PHANTOM
 62
   255
100
AcDbVertex
100
AcDb2dVertex
 10
-253.5366962651646
 20
-335.3348736522459
 30
0.0
  0
VERTEX
  5
237
330
21C
100
AcDbEntity
  8
Predefinito
  6
PHANTOM
 62
   255
100
AcDbVertex
100
AcDb2dVertex
 10
-255.7069567495749
 20
-332.3149056491349
 30
0.0
  0
VERTEX
  5
238
330
21C
100
AcDbEntity
  8
Predefinito
  6
PHANTOM
 62
   255
100
AcDbVertex
100
AcDb2dVertex
 10
-256.3944499362893
 20
-330.4307384920511
 30
0.0
  0
VERTEX
  5
239
330
21C
100
AcDbEntity
  8
Predefinito
  6
PHANTOM
 62
   255
100
AcDbVertex
100
AcDb2dVertex
 10
-256.470388808666
 20
-328.6560673813029
 30
0.0
  0
VERTEX
  5
23A
330
21C
100
AcDbEntity
  8
Predefinito
  6
PHANTOM
 62
   255
100
AcDbVertex
100
AcDb2dVertex
 10
-256.3560785307017
 20
-327.9878876704374
 30
0.0
  0
VERTEX
  5
23B
330
21C
100
AcDbEntity
  8
Predefinito
  6
PHANTOM
 62
   255
100
AcDbVertex
100
AcDb2dVertex
 10
-255.6500551776554
 20
-326.0581890847911
 30
0.0
  0
VERTEX
  5
23C
330
21C
100
AcDbEntity
  8
Predefinito
  6
PHANTOM
 62
   255
100
AcDbVertex
100
AcDb2dVertex
 10
-254.5775131476091
 20
-324.2912118874628
 30
0.0
  0
VERTEX
  5
23D
330
21C
100
AcDbEntity
  8
Predefinito
  6
PHANTOM
 62
   255
100
AcDbVertex
100
AcDb2dVertex
 10
-252.952944171434
 20
-322.2685548900136
 30
0.0
  0
VERTEX
  5
23E
330
21C
100
AcDbEntity
  8
Predefinito
  6
PHANTOM
 62
   255
100
AcDbVertex
100
AcDb2dVertex
 10
-251.1478280134102
 20
-320.4001304400441
 30
0.0
  0
VERTEX
  5
23F
330
21C
100
AcDbEntity
  8
Predefinito
  6
PHANTOM
 62
   255
100
AcDbVertex
100
AcDb2dVertex
 10
-245.4564537051294
 20
-315.3747539378593
 30
0.0
  0
VERTEX
  5
240
330
21C
100
AcDbEntity
  8
Predefinito
  6
PHANTOM
 62
   255
100
AcDbVertex
100
AcDb2dVertex
 10
-244.7844385253846
 20
-314.8301652468949
 30
0.0
  0
VERTEX
  5
241
330
21C
100
AcDbEntity
  8
Predefinito
  6
PHANTOM
 62
   255
100
AcDbVertex
100
AcDb2dVertex
 10
-233.856976339954
 20
-305.5632418095802
 30
0.0
  0
VERTEX
  5
242
330
21C
100
AcDbEntity
  8
Predefinito
  6
PHANTOM
 62
   255
100
AcDbVertex
100
AcDb2dVertex
 10
-233.8569381067301
 20
-305.5632179221418
 30
0.0
  0
VERTEX
  5
243
330
21C
100
AcDbEntity
  8
Predefinito
  6
PHANTOM
 62
   255
100
AcDbVertex
100
AcDb2dVertex
 10
-231.0274318793551
 20
-302.5082163647069
 30
0.0
  0
VERTEX
  5
244
330
21C
100
AcDbEntity
  8
Predefinito
  6
PHANTOM
 62
   255
100
AcDbVertex
100
AcDb2dVertex
 10
-228.6526680282265
 20
-299.1009362482583
 30
0.0
  0
VERTEX
  5
245
330
21C
100
AcDbEntity
  8
Predefinito
  6
PHANTOM
 62
   255
100
AcDbVertex
100
AcDb2dVertex
 10
-227.4747401507887
 20
-296.663685982337
 30
0.0
  0
VERTEX
  5
246
330
21C
100
AcDbEntity
  8
Predefinito
  6
PHANTOM
 62
   255
100
AcDbVertex
100
AcDb2dVertex
 10
-226.6656524372122
 20
-294.0818296077235
 30
0.0
  0
VERTEX
  5
247
330
21C
100
AcDbEntity
  8
Predefinito
  6
PHANTOM
 62
   255
100
AcDbVertex
100
AcDb2dVertex
 10
-226.2752741835893
 20
-291.3129656229841
 30
0.0
  0
VERTEX
  5
248
330
21C
100
AcDbEntity
  8
Predefinito
  6
PHANTOM
 62
   255
100
AcDbVertex
100
AcDb2dVertex
 10
-226.3895322941082
 20
-288.5224583203156
 30
0.0
  0
VERTEX
  5
249
330
21C
100
AcDbEntity
  8
Predefinito
  6
PHANTOM
 62
   255
100
AcDbVertex
100
AcDb2dVertex
 10
-227.0496888366837
 20
-285.7364869624711
 30
0.0
  0
VERTEX
  5
24A
330
21C
100
AcDbEntity
  8
Predefinito
  6
PHANTOM
 62
   255
100
AcDbVertex
100
AcDb2dVertex
 10
-228.149134309714
 20
-283.0875190723915
 30
0.0
  0
VERTEX
  5
24B
330
21C
100
AcDbEntity
  8
Predefinito
  6
PHANTOM
 62
   255
100
AcDbVertex
100
AcDb2dVertex
 10
-230.4260376091671
 20
-279.364391231228
 30
0.0
  0
VERTEX
  5
24C
330
21C
100
AcDbEntity
  8
Predefinito
  6
PHANTOM
 62
   255
100
AcDbVertex
100
AcDb2dVertex
 10
-233.1990591096073
 20
-275.9820970291269
 30
0.0
  0
VERTEX
  5
24D
330
21C
100
AcDbEntity
  8
Predefinito
  6
PHANTOM
 62
   255
100
AcDbVertex
100
AcDb2dVertex
 10
-238.7953023398147
 20
-270.5744484596841
 30
0.0
  0
VERTEX
  5
24E
330
21C
100
AcDbEntity
  8
Predefinito
  6
PHANTOM
 62
   255
100
AcDbVertex
100
AcDb2dVertex
 10
-244.5111817814545
 20
-265.2795182583549
 30
0.0
  0
VERTEX
  5
24F
330
21C
100
AcDbEntity
  8
Predefinito
  6
PHANTOM
 62
   255
100
AcDbVertex
100
AcDb2dVertex
 10
-247.6329719886845
 20
-261.8461293215261
 30
0.0
  0
VERTEX
  5
250
330
21C
100
AcDbEntity
  8
Predefinito
  6
PHANTOM
 62
   255
100
AcDbVertex
100
AcDb2dVertex
 10
-250.2058729289496
 20
-258.0089455829116
 30
0.0
  0
VERTEX
  5
251
330
21C
100
AcDbEntity
  8
Predefinito
  6
PHANTOM
 62
   255
100
AcDbVertex
100
AcDb2dVertex
 10
-251.2933368071872
 20
-255.4026063322238
 30
0.0
  0
VERTEX
  5
252
330
21C
100
AcDbEntity
  8
Predefinito
  6
PHANTOM
 62
   255
100
AcDbVertex
100
AcDb2dVertex
 10
-251.8504271171708
 20
-252.6394031360142
 30
0.0
  0
VERTEX
  5
253
330
21C
100
AcDbEntity
  8
Predefinito
  6
PHANTOM
 62
   255
100
AcDbVertex
100
AcDb2dVertex
 10
-251.8699413459479
 20
-250.1425984210086
 30
0.0
  0
VERTEX
  5
254
330
21C
100
AcDbEntity
  8
Predefinito
  6
PHANTOM
 62
   255
100
AcDbVertex
100
AcDb2dVertex
 10
-251.5425508210221
 20
-247.6629560692881
 30
0.0
  0
VERTEX
  5
255
330
21C
100
AcDbEntity
  8
Predefinito
  6
PHANTOM
 62
   255
100
AcDbVertex
100
AcDb2dVertex
 10
-250.6013067932957
 20
-244.0794894716368
 30
0.0
  0
VERTEX
  5
256
330
21C
100
AcDbEntity
  8
Predefinito
  6
PHANTOM
 62
   255
100
AcDbVertex
100
AcDb2dVertex
 10
-249.3079832324919
 20
-240.6009267523577
 30
0.0
  0
VERTEX
  5
257
330
21C
100
AcDbEntity
  8
Predefinito
  6
PHANTOM
 62
   255
100
AcDbVertex
100
AcDb2dVertex
 10
-248.94400817509
 20
-239.8267898512186
 30
0.0
  0
SEQEND
  5
258
330
21C
100
AcDbEntity
  8
Predefinito
  6
PHANTOM
 62
   255
  0
LINE
  5
259
330
1F
100
AcDbEntity
  8
Predefinito
  6
Continuous
 62
   255
100
AcDbLine
 10
-147.3324233896376
 20
-110.7990691849684
 30
0.0
 11
-151.4264416552707
 21
-111.6657361481801
 31
0.0
  0
LINE
  5
25A
330
1F
100
AcDbEntity
  8
Predefinito
  6
Continuous
 62
   255
100
AcDbLine
 10
-143.5108611794555
 20
-110.1916322272428
 30
0.0
 11
-147.3610750960875
 21
-110.6510541310003
 31
0.0
  0
POLYLINE
  5
25B
330
1F
100
AcDbEntity
  8
Predefinito
  6
Continuous
 62
   255
100
AcDb2dPolyline
 66
     1
 10
0.0
 20
0.0
 30
0.0
  0
VERTEX
  5
25C
330
25B
100
AcDbEntity
  8
Predefinito
  6
Continuous
 62
   255
100
AcDbVertex
100
AcDb2dVertex
 10
-30.41036638043051
 20
-178.2277765152117
 30
0.0
  0
VERTEX
  5
25D
330
25B
100
AcDbEntity
  8
Predefinito
  6
Continuous
 62
   255
100
AcDbVertex
100
AcDb2dVertex
 10
-30.42694340265292
 20
-178.1748236152091
 30
0.0
  0
VERTEX
  5
25E
330
25B
100
AcDbEntity
  8
Predefinito
  6
Continuous
 62
   255
100
AcDbVertex
100
AcDb2dVertex
 10
-30.8463604730664
 20
-176.3710370680181
 30
0.0
  0
VERTEX
  5
25F
330
25B
100
AcDbEntity
  8
Predefinito
  6
Continuous
 62
   255
100
AcDbVertex
100
AcDb2dVertex
 10
-30.98673696064459
 20
-174.9204963277021
 30
0.0
  0
VERTEX
  5
260
330
25B
100
AcDbEntity
  8
Predefinito
  6
Continuous
 62
   255
100
AcDbVertex
100
AcDb2dVertex
 10
-30.84098634385847
 20
-173.4890644417694
 30
0.0
  0
VERTEX
  5
261
330
25B
100
AcDbEntity
  8
Predefinito
  6
Continuous
 62
   255
100
AcDbVertex
100
AcDb2dVertex
 10
-30.37647949231021
 20
-171.930316566183
 30
0.0
  0
VERTEX
  5
262
330
25B
100
AcDbEntity
  8
Predefinito
  6
Continuous
 62
   255
100
AcDbVertex
100
AcDb2dVertex
 10
-29.57791638780235
 20
-170.3236723214946
 30
0.0
  0
VERTEX
  5
263
330
25B
100
AcDbEntity
  8
Predefinito
  6
Continuous
 62
   255
100
AcDbVertex
100
AcDb2dVertex
 10
-28.44484649787447
 20
-168.7210032733767
 30
0.0
  0
VERTEX
  5
264
330
25B
100
AcDbEntity
  8
Predefinito
  6
Continuous
 62
   255
100
AcDbVertex
100
AcDb2dVertex
 10
-27.00214732306976
 20
-167.196875866684
 30
0.0
  0
VERTEX
  5
265
330
25B
100
AcDbEntity
  8
Predefinito
  6
Continuous
 62
   255
100
AcDbVertex
100
AcDb2dVertex
 10
-25.12798123088956
 20
-165.6364809306905
 30
0.0
  0
VERTEX
  5
266
330
25B
100
AcDbEntity
  8
Predefinito
  6
Continuous
 62
   255
100
AcDbVertex
100
AcDb2dVertex
 10
-22.76678634860591
 20
-163.9407487551656
 30
0.0
  0
VERTEX
  5
267
330
25B
100
AcDbEntity
  8
Predefinito
  6
Continuous
 62
   255
100
AcDbVertex
100
AcDb2dVertex
 10
-19.62952925734124
 20
-161.985193951649
 30
0.0
  0
VERTEX
  5
268
330
25B
100
AcDbEntity
  8
Predefinito
  6
Continuous
 62
   255
100
AcDbVertex
100
AcDb2dVertex
 10
-15.79744563177834
 20
-159.8529086946694
 30
0.0
  0
VERTEX
  5
269
330
25B
100
AcDbEntity
  8
Predefinito
  6
Continuous
 62
   255
100
AcDbVertex
100
AcDb2dVertex
 10
-10.57088840318596
 20
-157.0736380305037
 30
0.0
  0
VERTEX
  5
26A
330
25B
100
AcDbEntity
  8
Predefinito
  6
Continuous
 62
   255
100
AcDbVertex
100
AcDb2dVertex
 10
-6.2644519933151
 20
-154.6442000764343
 30
0.0
  0
VERTEX
  5
26B
330
25B
100
AcDbEntity
  8
Predefinito
  6
Continuous
 62
   255
100
AcDbVertex
100
AcDb2dVertex
 10
-2.887825449999464
 20
-152.495078668686
 30
0.0
  0
VERTEX
  5
26C
330
25B
100
AcDbEntity
  8
Predefinito
  6
Continuous
 62
   255
100
AcDbVertex
100
AcDb2dVertex
 10
-0.1589910977561615
 20
-150.5159313298691
 30
0.0
  0
VERTEX
  5
26D
330
25B
100
AcDbEntity
  8
Predefinito
  6
Continuous
 62
   255
100
AcDbVertex
100
AcDb2dVertex
 10
1.766297742585298
 20
-148.9047102974852
 30
0.0
  0
VERTEX
  5
26E
330
25B
100
AcDbEntity
  8
Predefinito
  6
Continuous
 62
   255
100
AcDbVertex
100
AcDb2dVertex
 10
3.078810160844602
 20
-147.5273513325861
 30
0.0
  0
VERTEX
  5
26F
330
25B
100
AcDbEntity
  8
Predefinito
  6
Continuous
 62
   255
100
AcDbVertex
100
AcDb2dVertex
 10
4.143811519379037
 20
-146.0643636893235
 30
0.0
  0
VERTEX
  5
270
330
25B
100
AcDbEntity
  8
Predefinito
  6
Continuous
 62
   255
100
AcDbVertex
100
AcDb2dVertex
 10
4.943983308971638
 20
-144.5235288503148
 30
0.0
  0
VERTEX
  5
271
330
25B
100
AcDbEntity
  8
Predefinito
  6
Continuous
 62
   255
100
AcDbVertex
100
AcDb2dVertex
 10
5.481991183747564
 20
-142.8853671740129
 30
0.0
  0
VERTEX
  5
272
330
25B
100
AcDbEntity
  8
Predefinito
  6
Continuous
 62
   255
100
AcDbVertex
100
AcDb2dVertex
 10
5.748683004387022
 20
-141.1870906408218
 30
0.0
  0
VERTEX
  5
273
330
25B
100
AcDbEntity
  8
Predefinito
  6
Continuous
 62
   255
100
AcDbVertex
100
AcDb2dVertex
 10
5.757036839010659
 20
-139.4446332720683
 30
0.0
  0
VERTEX
  5
274
330
25B
100
AcDbEntity
  8
Predefinito
  6
Continuous
 62
   255
100
AcDbVertex
100
AcDb2dVertex
 10
5.518656248032022
 20
-137.6829927435354
 30
0.0
  0
VERTEX
  5
275
330
25B
100
AcDbEntity
  8
Predefinito
  6
Continuous
 62
   255
100
AcDbVertex
100
AcDb2dVertex
 10
5.047581303887771
 20
-135.8823784884018
 30
0.0
  0
VERTEX
  5
276
330
25B
100
AcDbEntity
  8
Predefinito
  6
Continuous
 62
   255
100
AcDbVertex
100
AcDb2dVertex
 10
4.350427865604605
 20
-133.9895978574499
 30
0.0
  0
VERTEX
  5
277
330
25B
100
AcDbEntity
  8
Predefinito
  6
Continuous
 62
   255
100
AcDbVertex
100
AcDb2dVertex
 10
3.419273046863624
 20
-131.86308255048
 30
0.0
  0
VERTEX
  5
278
330
25B
100
AcDbEntity
  8
Predefinito
  6
Continuous
 62
   255
100
AcDbVertex
100
AcDb2dVertex
 10
2.622458411348838
 20
-130.2928093076357
 30
0.0
  0
SEQEND
  5
279
330
25B
100
AcDbEntity
  8
Predefinito
  6
Continuous
 62
   255
  0
POLYLINE
  5
27A
330
1F
100
AcDbEntity
  8
Predefinito
  6
Continuous
 62
   255
100
AcDb2dPolyline
 66
     1
 10
0.0
 20
0.0
 30
0.0
  0
VERTEX
  5
27B
330
27A
100
AcDbEntity
  8
Predefinito
  6
Continuous
 62
   255
100
AcDbVertex
100
AcDb2dVertex
 10
-139.3302481631654
 20
-200.7834911076274
 30
0.0
  0
VERTEX
  5
27C
330
27A
100
AcDbEntity
  8
Predefinito
  6
Continuous
 62
   255
100
AcDbVertex
100
AcDb2dVertex
 10
-139.9452480795321
 20
-200.8275492223784
 30
0.0
  0
VERTEX
  5
27D
330
27A
100
AcDbEntity
  8
Predefinito
  6
Continuous
 62
   255
100
AcDbVertex
100
AcDb2dVertex
 10
-143.8802740764941
 20
-201.0988046447831
 30
0.0
  0
VERTEX
  5
27E
330
27A
100
AcDbEntity
  8
Predefinito
  6
Continuous
 62
   255
100
AcDbVertex
100
AcDb2dVertex
 10
-147.7832098364465
 20
-201.070681334893
 30
0.0
  0
VERTEX
  5
27F
330
27A
100
AcDbEntity
  8
Predefinito
  6
Continuous
 62
   255
100
AcDbVertex
100
AcDb2dVertex
 10
-151.6014672809288
 20
-200.4529788845534
 30
0.0
  0
VERTEX
  5
280
330
27A
100
AcDbEntity
  8
Predefinito
  6
Continuous
 62
   255
100
AcDbVertex
100
AcDb2dVertex
 10
-155.0151364549798
 20
-199.0310940997311
 30
0.0
  0
VERTEX
  5
281
330
27A
100
AcDbEntity
  8
Predefinito
  6
Continuous
 62
   255
100
AcDbVertex
100
AcDb2dVertex
 10
-158.0027261896139
 20
-196.6229750719494
 30
0.0
  0
VERTEX
  5
282
330
27A
100
AcDbEntity
  8
Predefinito
  6
Continuous
 62
   255
100
AcDbVertex
100
AcDb2dVertex
 10
-159.5933607918424
 20
-194.3590890092917
 30
0.0
  0
VERTEX
  5
283
330
27A
100
AcDbEntity
  8
Predefinito
  6
Continuous
 62
   255
100
AcDbVertex
100
AcDb2dVertex
 10
-160.4528306725758
 20
-191.4875044267003
 30
0.0
  0
VERTEX
  5
284
330
27A
100
AcDbEntity
  8
Predefinito
  6
Continuous
 62
   255
100
AcDbVertex
100
AcDb2dVertex
 10
-160.4380326556344
 20
-188.6342263542262
 30
0.0
  0
VERTEX
  5
285
330
27A
100
AcDbEntity
  8
Predefinito
  6
Continuous
 62
   255
100
AcDbVertex
100
AcDb2dVertex
 10
-160.040697535955
 20
-185.7887706551283
 30
0.0
  0
VERTEX
  5
286
330
27A
100
AcDbEntity
  8
Predefinito
  6
Continuous
 62
   255
100
AcDbVertex
100
AcDb2dVertex
 10
-159.6295014896856
 20
-182.3198689904421
 30
0.0
  0
VERTEX
  5
287
330
27A
100
AcDbEntity
  8
Predefinito
  6
Continuous
 62
   255
100
AcDbVertex
100
AcDb2dVertex
 10
-159.5792792825335
 20
-178.8222747030079
 30
0.0
  0
VERTEX
  5
288
330
27A
100
AcDbEntity
  8
Predefinito
  6
Continuous
 62
   255
100
AcDbVertex
100
AcDb2dVertex
 10
-160.0407732273928
 20
-175.3819452516431
 30
0.0
  0
VERTEX
  5
289
330
27A
100
AcDbEntity
  8
Predefinito
  6
Continuous
 62
   255
100
AcDbVertex
100
AcDb2dVertex
 10
-160.7680223496294
 20
-172.9723253353771
 30
0.0
  0
VERTEX
  5
28A
330
27A
100
AcDbEntity
  8
Predefinito
  6
Continuous
 62
   255
100
AcDbVertex
100
AcDb2dVertex
 10
-161.859818517939
 20
-170.7089080188901
 30
0.0
  0
VERTEX
  5
28B
330
27A
100
AcDbEntity
  8
Predefinito
  6
Continuous
 62
   255
100
AcDbVertex
100
AcDb2dVertex
 10
-164.2284871707434
 20
-167.7193993309011
 30
0.0
  0
VERTEX
  5
28C
330
27A
100
AcDbEntity
  8
Predefinito
  6
Continuous
 62
   255
100
AcDbVertex
100
AcDb2dVertex
 10
-167.1367189396794
 20
-165.2110841298926
 30
0.0
  0
VERTEX
  5
28D
330
27A
100
AcDbEntity
  8
Predefinito
  6
Continuous
 62
   255
100
AcDbVertex
100
AcDb2dVertex
 10
-171.4972126241934
 20
-162.1025326243309
 30
0.0
  0
VERTEX
  5
28E
330
27A
100
AcDbEntity
  8
Predefinito
  6
Continuous
 62
   255
100
AcDbVertex
100
AcDb2dVertex
 10
-174.6319685272535
 20
-159.7657612108165
 30
0.0
  0
VERTEX
  5
28F
330
27A
100
AcDbEntity
  8
Predefinito
  6
Continuous
 62
   255
100
AcDbVertex
100
AcDb2dVertex
 10
-176.5534934744235
 20
-158.0151551684708
 30
0.0
  0
VERTEX
  5
290
330
27A
100
AcDbEntity
  8
Predefinito
  6
Continuous
 62
   255
100
AcDbVertex
100
AcDb2dVertex
 10
-178.1644616829888
 20
-155.9907982324642
 30
0.0
  0
VERTEX
  5
291
330
27A
100
AcDbEntity
  8
Predefinito
  6
Continuous
 62
   255
100
AcDbVertex
100
AcDb2dVertex
 10
-179.3512398558435
 20
-153.1078076093574
 30
0.0
  0
VERTEX
  5
292
330
27A
100
AcDbEntity
  8
Predefinito
  6
Continuous
 62
   255
100
AcDbVertex
100
AcDb2dVertex
 10
-179.503261342126
 20
-149.6713803302488
 30
0.0
  0
VERTEX
  5
293
330
27A
100
AcDbEntity
  8
Predefinito
  6
Continuous
 62
   255
100
AcDbVertex
100
AcDb2dVertex
 10
-179.0498763484393
 20
-147.2378023546028
 30
0.0
  0
VERTEX
  5
294
330
27A
100
AcDbEntity
  8
Predefinito
  6
Continuous
 62
   255
100
AcDbVertex
100
AcDb2dVertex
 10
-178.2234669447838
 20
-144.9014112040028
 30
0.0
  0
VERTEX
  5
295
330
27A
100
AcDbEntity
  8
Predefinito
  6
Continuous
 62
   255
100
AcDbVertex
100
AcDb2dVertex
 10
-176.0393613285553
 20
-141.0048949445266
 30
0.0
  0
VERTEX
  5
296
330
27A
100
AcDbEntity
  8
Predefinito
  6
Continuous
 62
   255
100
AcDbVertex
100
AcDb2dVertex
 10
-173.3641356563513
 20
-137.3804075337098
 30
0.0
  0
VERTEX
  5
297
330
27A
100
AcDbEntity
  8
Predefinito
  6
Continuous
 62
   255
100
AcDbVertex
100
AcDb2dVertex
 10
-170.6276280646411
 20
-133.7997329302108
 30
0.0
  0
VERTEX
  5
298
330
27A
100
AcDbEntity
  8
Predefinito
  6
Continuous
 62
   255
100
AcDbVertex
100
AcDb2dVertex
 10
-167.7992989482719
 20
-129.1354481939561
 30
0.0
  0
VERTEX
  5
299
330
27A
100
AcDbEntity
  8
Predefinito
  6
Continuous
 62
   255
100
AcDbVertex
100
AcDb2dVertex
 10
-165.6390455899382
 20
-124.1203689679228
 30
0.0
  0
VERTEX
  5
29A
330
27A
100
AcDbEntity
  8
Predefinito
  6
Continuous
 62
   255
100
AcDbVertex
100
AcDb2dVertex
 10
-164.6995615554325
 20
-121.3308119253577
 30
0.0
  0
VERTEX
  5
29B
330
27A
100
AcDbEntity
  8
Predefinito
  6
Continuous
 62
   255
100
AcDbVertex
100
AcDb2dVertex
 10
-163.6947729250631
 20
-118.5657391086547
 30
0.0
  0
VERTEX
  5
29C
330
27A
100
AcDbEntity
  8
Predefinito
  6
Continuous
 62
   255
100
AcDbVertex
100
AcDb2dVertex
 10
-162.6805061300077
 20
-116.5542227734197
 30
0.0
  0
VERTEX
  5
29D
330
27A
100
AcDbEntity
  8
Predefinito
  6
Continuous
 62
   255
100
AcDbVertex
100
AcDb2dVertex
 10
-160.9324402692452
 20
-114.5753247482965
 30
0.0
  0
VERTEX
  5
29E
330
27A
100
AcDbEntity
  8
Predefinito
  6
Continuous
 62
   255
100
AcDbVertex
100
AcDb2dVertex
 10
-158.6793040101424
 20
-113.3901569899181
 30
0.0
  0
VERTEX
  5
29F
330
27A
100
AcDbEntity
  8
Predefinito
  6
Continuous
 62
   255
100
AcDbVertex
100
AcDb2dVertex
 10
-156.0804970670519
 20
-112.6552663851316
 30
0.0
  0
VERTEX
  5
2A0
330
27A
100
AcDbEntity
  8
Predefinito
  6
Continuous
 62
   255
100
AcDbVertex
100
AcDb2dVertex
 10
-153.4282373901274
 20
-112.1072299861118
 30
0.0
  0
VERTEX
  5
2A1
330
27A
100
AcDbEntity
  8
Predefinito
  6
Continuous
 62
   255
100
AcDbVertex
100
AcDb2dVertex
 10
-151.4344256595812
 20
-111.6482709887085
 30
0.0
  0
SEQEND
  5
2A2
330
27A
100
AcDbEntity
  8
Predefinito
  6
Continuous
 62
   255
  0
POLYLINE
  5
2A3
330
1F
100
AcDbEntity
  8
Predefinito
  6
Continuous
 62
   255
100
AcDb2dPolyline
 66
     1
 10
0.0
 20
0.0
 30
0.0
  0
VERTEX
  5
2A4
330
2A3
100
AcDbEntity
  8
Predefinito
  6
Continuous
 62
   255
100
AcDbVertex
100
AcDb2dVertex
 10
-29.26633722497488
 20
-181.2348453610411
 30
0.0
  0
VERTEX
  5
2A5
330
2A3
100
AcDbEntity
  8
Predefinito
  6
Continuous
 62
   255
100
AcDbVertex
100
AcDb2dVertex
 10
-27.92414737373535
 20
-184.1652310458204
 30
0.0
  0
VERTEX
  5
2A6
330
2A3
100
AcDbEntity
  8
Predefinito
  6
Continuous
 62
   255
100
AcDbVertex
100
AcDb2dVertex
 10
-26.04900499243793
 20
-188.4434585745091
 30
0.0
  0
VERTEX
  5
2A7
330
2A3
100
AcDbEntity
  8
Predefinito
  6
Continuous
 62
   255
100
AcDbVertex
100
AcDb2dVertex
 10
-24.55581657722748
 20
-192.8610395688498
 30
0.0
  0
VERTEX
  5
2A8
330
2A3
100
AcDbEntity
  8
Predefinito
  6
Continuous
 62
   255
100
AcDbVertex
100
AcDb2dVertex
 10
-23.81575817981016
 20
-196.4570983178104
 30
0.0
  0
VERTEX
  5
2A9
330
2A3
100
AcDbEntity
  8
Predefinito
  6
Continuous
 62
   255
100
AcDbVertex
100
AcDb2dVertex
 10
-23.59517465952693
 20
-200.1152964097023
 30
0.0
  0
VERTEX
  5
2AA
330
2A3
100
AcDbEntity
  8
Predefinito
  6
Continuous
 62
   255
100
AcDbVertex
100
AcDb2dVertex
 10
-23.99492071817192
 20
-203.4716206501789
 30
0.0
  0
VERTEX
  5
2AB
330
2A3
100
AcDbEntity
  8
Predefinito
  6
Continuous
 62
   255
100
AcDbVertex
100
AcDb2dVertex
 10
-24.99384445234973
 20
-206.7017863332802
 30
0.0
  0
VERTEX
  5
2AC
330
2A3
100
AcDbEntity
  8
Predefinito
  6
Continuous
 62
   255
100
AcDbVertex
100
AcDb2dVertex
 10
-26.9589957558194
 20
-211.1290053601419
 30
0.0
  0
SEQEND
  5
2AD
330
2A3
100
AcDbEntity
  8
Predefinito
  6
Continuous
 62
   255
  0
POLYLINE
  5
2AE
330
1F
100
AcDbEntity
  8
Predefinito
  6
PHANTOM
 62
   255
100
AcDb2dPolyline
 66
     1
 10
0.0
 20
0.0
 30
0.0
  0
VERTEX
  5
2AF
330
2AE
100
AcDbEntity
  8
Predefinito
  6
PHANTOM
 62
   255
100
AcDbVertex
100
AcDb2dVertex
 10
-143.4946674320507
 20
-110.2920571925478
 30
0.0
  0
VERTEX
  5
2B0
330
2AE
100
AcDbEntity
  8
Predefinito
  6
PHANTOM
 62
   255
100
AcDbVertex
100
AcDb2dVertex
 10
-143.0707762555161
 20
-110.2462917936688
 30
0.0
  0
VERTEX
  5
2B1
330
2AE
100
AcDbEntity
  8
Predefinito
  6
PHANTOM
 62
   255
100
AcDbVertex
100
AcDb2dVertex
 10
-138.7308704047082
 20
-110.3914726482279
 30
0.0
  0
VERTEX
  5
2B2
330
2AE
100
AcDbEntity
  8
Predefinito
  6
PHANTOM
 62
   255
100
AcDbVertex
100
AcDb2dVertex
 10
-134.4058469528644
 20
-110.8102289728349
 30
0.0
  0
VERTEX
  5
2B3
330
2AE
100
AcDbEntity
  8
Predefinito
  6
PHANTOM
 62
   255
100
AcDbVertex
100
AcDb2dVertex
 10
-129.731963051697
 20
-111.0641002955844
 30
0.0
  0
VERTEX
  5
2B4
330
2AE
100
AcDbEntity
  8
Predefinito
  6
PHANTOM
 62
   255
100
AcDbVertex
100
AcDb2dVertex
 10
-125.0905233567264
 20
-110.622376482244
 30
0.0
  0
VERTEX
  5
2B5
330
2AE
100
AcDbEntity
  8
Predefinito
  6
PHANTOM
 62
   255
100
AcDbVertex
100
AcDb2dVertex
 10
-121.8557744148268
 20
-109.7265802835995
 30
0.0
  0
VERTEX
  5
2B6
330
2AE
100
AcDbEntity
  8
Predefinito
  6
PHANTOM
 62
   255
100
AcDbVertex
100
AcDb2dVertex
 10
-118.8132871509974
 20
-108.3210105666155
 30
0.0
  0
VERTEX
  5
2B7
330
2AE
100
AcDbEntity
  8
Predefinito
  6
PHANTOM
 62
   255
100
AcDbVertex
100
AcDb2dVertex
 10
-116.8437973123878
 20
-106.9732280823261
 30
0.0
  0
VERTEX
  5
2B8
330
2AE
100
AcDbEntity
  8
Predefinito
  6
PHANTOM
 62
   255
100
AcDbVertex
100
AcDb2dVertex
 10
-115.1354598762671
 20
-105.3131942560885
 30
0.0
  0
VERTEX
  5
2B9
330
2AE
100
AcDbEntity
  8
Predefinito
  6
PHANTOM
 62
   255
100
AcDbVertex
100
AcDb2dVertex
 10
-113.7839719316996
 20
-103.3520573465501
 30
0.0
  0
VERTEX
  5
2BA
330
2AE
100
AcDbEntity
  8
Predefinito
  6
PHANTOM
 62
   255
100
AcDbVertex
100
AcDb2dVertex
 10
-112.778582163819
 20
-101.187157115098
 30
0.0
  0
VERTEX
  5
2BB
330
2AE
100
AcDbEntity
  8
Predefinito
  6
PHANTOM
 62
   255
100
AcDbVertex
100
AcDb2dVertex
 10
-111.7018673993014
 20
-97.40032680663899
 30
0.0
  0
VERTEX
  5
2BC
330
2AE
100
AcDbEntity
  8
Predefinito
  6
PHANTOM
 62
   255
100
AcDbVertex
100
AcDb2dVertex
 10
-111.0950096363485
 20
-93.48377563774294
 30
0.0
  0
VERTEX
  5
2BD
330
2AE
100
AcDbEntity
  8
Predefinito
  6
PHANTOM
 62
   255
100
AcDbVertex
100
AcDb2dVertex
 10
-110.6990582659022
 20
-89.5383573181183
 30
0.0
  0
VERTEX
  5
2BE
330
2AE
100
AcDbEntity
  8
Predefinito
  6
PHANTOM
 62
   255
100
AcDbVertex
100
AcDb2dVertex
 10
-110.2698723489341
 20
-85.95071627860894
 30
0.0
  0
VERTEX
  5
2BF
330
2AE
100
AcDbEntity
  8
Predefinito
  6
PHANTOM
 62
   255
100
AcDbVertex
100
AcDb2dVertex
 10
-109.7964214625867
 20
-83.75224280340112
 30
0.0
  0
VERTEX
  5
2C0
330
2AE
100
AcDbEntity
  8
Predefinito
  6
PHANTOM
 62
   255
100
AcDbVertex
100
AcDb2dVertex
 10
-109.0047143538207
 20
-81.6564481805215
 30
0.0
  0
VERTEX
  5
2C1
330
2AE
100
AcDbEntity
  8
Predefinito
  6
PHANTOM
 62
   255
100
AcDbVertex
100
AcDb2dVertex
 10
-106.9655629501932
 20
-79.00437670976571
 30
0.0
  0
VERTEX
  5
2C2
330
2AE
100
AcDbEntity
  8
Predefinito
  6
PHANTOM
 62
   255
100
AcDbVertex
100
AcDb2dVertex
 10
-104.4283531570545
 20
-77.2107181584081
 30
0.0
  0
VERTEX
  5
2C3
330
2AE
100
AcDbEntity
  8
Predefinito
  6
PHANTOM
 62
   255
100
AcDbVertex
100
AcDb2dVertex
 10
-101.0302380811177
 20
-75.47970224122025
 30
0.0
  0
VERTEX
  5
2C4
330
2AE
100
AcDbEntity
  8
Predefinito
  6
PHANTOM
 62
   255
100
AcDbVertex
100
AcDb2dVertex
 10
-93.58586589460037
 20
-72.15237752642076
 30
0.0
  0
VERTEX
  5
2C5
330
2AE
100
AcDbEntity
  8
Predefinito
  6
PHANTOM
 62
   255
100
AcDbVertex
100
AcDb2dVertex
 10
-85.96112840232762
 20
-69.2550998922983
 30
0.0
  0
VERTEX
  5
2C6
330
2AE
100
AcDbEntity
  8
Predefinito
  6
PHANTOM
 62
   255
100
AcDbVertex
100
AcDb2dVertex
 10
-78.13824071089645
 20
-67.02175299227453
 30
0.0
  0
VERTEX
  5
2C7
330
2AE
100
AcDbEntity
  8
Predefinito
  6
PHANTOM
 62
   255
100
AcDbVertex
100
AcDb2dVertex
 10
-72.908706797274
 20
-65.94989829424586
 30
0.0
  0
VERTEX
  5
2C8
330
2AE
100
AcDbEntity
  8
Predefinito
  6
PHANTOM
 62
   255
100
AcDbVertex
100
AcDb2dVertex
 10
-67.613013839163
 20
-65.38260935665343
 30
0.0
  0
VERTEX
  5
2C9
330
2AE
100
AcDbEntity
  8
Predefinito
  6
PHANTOM
 62
   255
100
AcDbVertex
100
AcDb2dVertex
 10
-63.90456758281147
 20
-65.66129138649981
 30
0.0
  0
VERTEX
  5
2CA
330
2AE
100
AcDbEntity
  8
Predefinito
  6
PHANTOM
 62
   255
100
AcDbVertex
100
AcDb2dVertex
 10
-62.01929970005614
 20
-66.34576035428682
 30
0.0
  0
VERTEX
  5
2CB
330
2AE
100
AcDbEntity
  8
Predefinito
  6
PHANTOM
 62
   255
100
AcDbVertex
100
AcDb2dVertex
 10
-60.61101019104649
 20
-67.42832440434354
 30
0.0
  0
VERTEX
  5
2CC
330
2AE
100
AcDbEntity
  8
Predefinito
  6
PHANTOM
 62
   255
100
AcDbVertex
100
AcDb2dVertex
 10
-60.17263206686841
 20
-67.94538879675774
 30
0.0
  0
VERTEX
  5
2CD
330
2AE
100
AcDbEntity
  8
Predefinito
  6
PHANTOM
 62
   255
100
AcDbVertex
100
AcDb2dVertex
 10
-59.14822025192696
 20
-69.72662040435418
 30
0.0
  0
VERTEX
  5
2CE
330
2AE
100
AcDbEntity
  8
Predefinito
  6
PHANTOM
 62
   255
100
AcDbVertex
100
AcDb2dVertex
 10
-58.4840539165775
 20
-71.68402631552398
 30
0.0
  0
VERTEX
  5
2CF
330
2AE
100
AcDbEntity
  8
Predefinito
  6
PHANTOM
 62
   255
100
AcDbVertex
100
AcDb2dVertex
 10
-57.97886157231234
 20
-74.22865720879248
 30
0.0
  0
VERTEX
  5
2D0
330
2AE
100
AcDbEntity
  8
Predefinito
  6
PHANTOM
 62
   255
100
AcDbVertex
100
AcDb2dVertex
 10
-57.70787170544828
 20
-76.81245649690679
 30
0.0
  0
VERTEX
  5
2D1
330
2AE
100
AcDbEntity
  8
Predefinito
  6
PHANTOM
 62
   255
100
AcDbVertex
100
AcDb2dVertex
 10
-57.51655484882013
 20
-84.40255190908954
 30
0.0
  0
VERTEX
  5
2D2
330
2AE
100
AcDbEntity
  8
Predefinito
  6
PHANTOM
 62
   255
100
AcDbVertex
100
AcDb2dVertex
 10
-57.53133873938269
 20
-85.267400266152
 30
0.0
  0
VERTEX
  5
2D3
330
2AE
100
AcDbEntity
  8
Predefinito
  6
PHANTOM
 62
   255
100
AcDbVertex
100
AcDb2dVertex
 10
-57.45650083353178
 20
-99.59498551611358
 30
0.0
  0
VERTEX
  5
2D4
330
2AE
100
AcDbEntity
  8
Predefinito
  6
PHANTOM
 62
   255
100
AcDbVertex
100
AcDb2dVertex
 10
-57.45650711053494
 20
-99.5950301590118
 30
0.0
  0
VERTEX
  5
2D5
330
2AE
100
AcDbEntity
  8
Predefinito
  6
PHANTOM
 62
   255
100
AcDbVertex
100
AcDb2dVertex
 10
-56.93501168822971
 20
-103.7262748299551
 30
0.0
  0
VERTEX
  5
2D6
330
2AE
100
AcDbEntity
  8
Predefinito
  6
PHANTOM
 62
   255
100
AcDbVertex
100
AcDb2dVertex
 10
-55.85135246831145
 20
-107.7356069234165
 30
0.0
  0
VERTEX
  5
2D7
330
2AE
100
AcDbEntity
  8
Predefinito
  6
PHANTOM
 62
   255
100
AcDbVertex
100
AcDb2dVertex
 10
-54.74146789033351
 20
-110.2045863009622
 30
0.0
  0
VERTEX
  5
2D8
330
2AE
100
AcDbEntity
  8
Predefinito
  6
PHANTOM
 62
   255
100
AcDbVertex
100
AcDb2dVertex
 10
-53.28372271906615
 20
-112.483968735535
 30
0.0
  0
VERTEX
  5
2D9
330
2AE
100
AcDbEntity
  8
Predefinito
  6
PHANTOM
 62
   255
100
AcDbVertex
100
AcDb2dVertex
 10
-51.41358015432409
 20
-114.5628072897352
 30
0.0
  0
VERTEX
  5
2DA
330
2AE
100
AcDbEntity
  8
Predefinito
  6
PHANTOM
 62
   255
100
AcDbVertex
100
AcDb2dVertex
 10
-49.20248384388423
 20
-116.268984017986
 30
0.0
  0
VERTEX
  5
2DB
330
2AE
100
AcDbEntity
  8
Predefinito
  6
PHANTOM
 62
   255
100
AcDbVertex
100
AcDb2dVertex
 10
-46.64396552049788
 20
-117.5540626367215
 30
0.0
  0
VERTEX
  5
2DC
330
2AE
100
AcDbEntity
  8
Predefinito
  6
PHANTOM
 62
   255
100
AcDbVertex
100
AcDb2dVertex
 10
-43.90802846071195
 20
-118.4145622797949
 30
0.0
  0
VERTEX
  5
2DD
330
2AE
100
AcDbEntity
  8
Predefinito
  6
PHANTOM
 62
   255
100
AcDbVertex
100
AcDb2dVertex
 10
-39.59238183762423
 20
-119.0635336053085
 30
0.0
  0
VERTEX
  5
2DE
330
2AE
100
AcDbEntity
  8
Predefinito
  6
PHANTOM
 62
   255
100
AcDbVertex
100
AcDb2dVertex
 10
-35.21893029723385
 20
-119.1133726996721
 30
0.0
  0
VERTEX
  5
2DF
330
2AE
100
AcDbEntity
  8
Predefinito
  6
PHANTOM
 62
   255
100
AcDbVertex
100
AcDb2dVertex
 10
-27.47923535110234
 20
-118.3023711688065
 30
0.0
  0
VERTEX
  5
2E0
330
2AE
100
AcDbEntity
  8
Predefinito
  6
PHANTOM
 62
   255
100
AcDbVertex
100
AcDb2dVertex
 10
-23.92230510569143
 20
-117.8536960164835
 30
0.0
  0
VERTEX
  5
2E1
330
2AE
100
AcDbEntity
  8
Predefinito
  6
PHANTOM
 62
   255
100
AcDbVertex
100
AcDb2dVertex
 10
-19.74898701012318
 20
-117.3272690125698
 30
0.0
  0
VERTEX
  5
2E2
330
2AE
100
AcDbEntity
  8
Predefinito
  6
PHANTOM
 62
   255
100
AcDbVertex
100
AcDb2dVertex
 10
-15.11221042875113
 20
-117.1427788395665
 30
0.0
  0
VERTEX
  5
2E3
330
2AE
100
AcDbEntity
  8
Predefinito
  6
PHANTOM
 62
   255
100
AcDbVertex
100
AcDb2dVertex
 10
-10.51892830320563
 20
-117.6383165348529
 30
0.0
  0
VERTEX
  5
2E4
330
2AE
100
AcDbEntity
  8
Predefinito
  6
PHANTOM
 62
   255
100
AcDbVertex
100
AcDb2dVertex
 10
-7.823348296420618
 20
-118.4805934508182
 30
0.0
  0
VERTEX
  5
2E5
330
2AE
100
AcDbEntity
  8
Predefinito
  6
PHANTOM
 62
   255
100
AcDbVertex
100
AcDb2dVertex
 10
-5.34852109402184
 20
-119.8299902921096
 30
0.0
  0
VERTEX
  5
2E6
330
2AE
100
AcDbEntity
  8
Predefinito
  6
PHANTOM
 62
   255
100
AcDbVertex
100
AcDb2dVertex
 10
-3.42331421206804
 20
-121.4199566602057
 30
0.0
  0
VERTEX
  5
2E7
330
2AE
100
AcDbEntity
  8
Predefinito
  6
PHANTOM
 62
   255
100
AcDbVertex
100
AcDb2dVertex
 10
-1.734240540561177
 20
-123.2646357326949
 30
0.0
  0
VERTEX
  5
2E8
330
2AE
100
AcDbEntity
  8
Predefinito
  6
PHANTOM
 62
   255
100
AcDbVertex
100
AcDb2dVertex
 10
0.4058341349581496
 20
-126.2890784184495
 30
0.0
  0
VERTEX
  5
2E9
330
2AE
100
AcDbEntity
  8
Predefinito
  6
PHANTOM
 62
   255
100
AcDbVertex
100
AcDb2dVertex
 10
2.239235415902374
 20
-129.5157987608282
 30
0.0
  0
VERTEX
  5
2EA
330
2AE
100
AcDbEntity
  8
Predefinito
  6
PHANTOM
 62
   255
100
AcDbVertex
100
AcDb2dVertex
 10
2.598300030100447
 20
-130.2922254392382
 30
0.0
  0
SEQEND
  5
2EB
330
2AE
100
AcDbEntity
  8
Predefinito
  6
PHANTOM
 62
   255
  0
POLYLINE
  5
2EC
330
1F
100
AcDbEntity
  8
Predefinito
  6
PHANTOM
 62
   255
100
AcDb2dPolyline
 66
     1
 10
0.0
 20
0.0
 30
0.0
  0
VERTEX
  5
2ED
330
2EC
100
AcDbEntity
  8
Predefinito
  6
PHANTOM
 62
   255
100
AcDbVertex
100
AcDb2dVertex
 10
-82.65695703362648
 20
-316.6985730342483
 30
0.0
  0
VERTEX
  5
2EE
330
2EC
100
AcDbEntity
  8
Predefinito
  6
PHANTOM
 62
   255
100
AcDbVertex
100
AcDb2dVertex
 10
-80.8953618200986
 20
-319.1177637458701
 30
0.0
  0
VERTEX
  5
2EF
330
2EC
100
AcDbEntity
  8
Predefinito
  6
PHANTOM
 62
   255
100
AcDbVertex
100
AcDb2dVertex
 10
-79.21943499310026
 20
-320.929932167298
 30
0.0
  0
VERTEX
  5
2F0
330
2EC
100
AcDbEntity
  8
Predefinito
  6
PHANTOM
 62
   255
100
AcDbVertex
100
AcDb2dVertex
 10
-77.2450231876307
 20
-322.4093911061957
 30
0.0
  0
VERTEX
  5
2F1
330
2EC
100
AcDbEntity
  8
Predefinito
  6
PHANTOM
 62
   255
100
AcDbVertex
100
AcDb2dVertex
 10
-74.60339205544469
 20
-323.7204074795355
 30
0.0
  0
VERTEX
  5
2F2
330
2EC
100
AcDbEntity
  8
Predefinito
  6
PHANTOM
 62
   255
100
AcDbVertex
100
AcDb2dVertex
 10
-71.79596043440887
 20
-324.6446004806335
 30
0.0
  0
VERTEX
  5
2F3
330
2EC
100
AcDbEntity
  8
Predefinito
  6
PHANTOM
 62
   255
100
AcDbVertex
100
AcDb2dVertex
 10
-67.64916254717488
 20
-325.4679030036162
 30
0.0
  0
VERTEX
  5
2F4
330
2EC
100
AcDbEntity
  8
Predefinito
  6
PHANTOM
 62
   255
100
AcDbVertex
100
AcDb2dVertex
 10
-63.43848887839386
 20
-325.9284348708454
 30
0.0
  0
VERTEX
  5
2F5
330
2EC
100
AcDbEntity
  8
Predefinito
  6
PHANTOM
 62
   255
100
AcDbVertex
100
AcDb2dVertex
 10
-59.89003909380389
 20
-326.27540296707
 30
0.0
  0
VERTEX
  5
2F6
330
2EC
100
AcDbEntity
  8
Predefinito
  6
PHANTOM
 62
   255
100
AcDbVertex
100
AcDb2dVertex
 10
-56.37916027030014
 20
-326.862316452407
 30
0.0
  0
VERTEX
  5
2F7
330
2EC
100
AcDbEntity
  8
Predefinito
  6
PHANTOM
 62
   255
100
AcDbVertex
100
AcDb2dVertex
 10
-53.01212907077139
 20
-327.9419739778915
 30
0.0
  0
VERTEX
  5
2F8
330
2EC
100
AcDbEntity
  8
Predefinito
  6
PHANTOM
 62
   255
100
AcDbVertex
100
AcDb2dVertex
 10
-51.07527271464775
 20
-328.9633738658559
 30
0.0
  0
VERTEX
  5
2F9
330
2EC
100
AcDbEntity
  8
Predefinito
  6
PHANTOM
 62
   255
100
AcDbVertex
100
AcDb2dVertex
 10
-49.33415436256357
 20
-330.286696106401
 30
0.0
  0
VERTEX
  5
2FA
330
2EC
100
AcDbEntity
  8
Predefinito
  6
PHANTOM
 62
   255
100
AcDbVertex
100
AcDb2dVertex
 10
-47.85632274459863
 20
-331.9058814351032
 30
0.0
  0
VERTEX
  5
2FB
330
2EC
100
AcDbEntity
  8
Predefinito
  6
PHANTOM
 62
   255
100
AcDbVertex
100
AcDb2dVertex
 10
-46.66177536800355
 20
-333.746975695324
 30
0.0
  0
VERTEX
  5
2FC
330
2EC
100
AcDbEntity
  8
Predefinito
  6
PHANTOM
 62
   255
100
AcDbVertex
100
AcDb2dVertex
 10
-45.41984435040609
 20
-336.6415050741249
 30
0.0
  0
VERTEX
  5
2FD
330
2EC
100
AcDbEntity
  8
Predefinito
  6
PHANTOM
 62
   255
100
AcDbVertex
100
AcDb2dVertex
 10
-44.63236525592352
 20
-339.6993270610727
 30
0.0
  0
VERTEX
  5
2FE
330
2EC
100
AcDbEntity
  8
Predefinito
  6
PHANTOM
 62
   255
100
AcDbVertex
100
AcDb2dVertex
 10
-43.96076047550962
 20
-345.0914295942642
 30
0.0
  0
VERTEX
  5
2FF
330
2EC
100
AcDbEntity
  8
Predefinito
  6
PHANTOM
 62
   255
100
AcDbVertex
100
AcDb2dVertex
 10
-43.83095507568454
 20
-350.5441568631689
 30
0.0
  0
VERTEX
  5
300
330
2EC
100
AcDbEntity
  8
Predefinito
  6
PHANTOM
 62
   255
100
AcDbVertex
100
AcDb2dVertex
 10
-43.97107514761777
 20
-356.021545230626
 30
0.0
  0
VERTEX
  5
301
330
2EC
100
AcDbEntity
  8
Predefinito
  6
PHANTOM
 62
   255
100
AcDbVertex
100
AcDb2dVertex
 10
-44.10924678247886
 20
-361.4876310594752
 30
0.0
  0
VERTEX
  5
302
330
2EC
100
AcDbEntity
  8
Predefinito
  6
PHANTOM
 62
   255
100
AcDbVertex
100
AcDb2dVertex
 10
-44.00966048570718
 20
-367.3713933767928
 30
0.0
  0
VERTEX
  5
303
330
2EC
100
AcDbEntity
  8
Predefinito
  6
PHANTOM
 62
   255
100
AcDbVertex
100
AcDb2dVertex
 10
-43.48110064217363
 20
-372.0095031277078
 30
0.0
  0
VERTEX
  5
304
330
2EC
100
AcDbEntity
  8
Predefinito
  6
PHANTOM
 62
   255
100
AcDbVertex
100
AcDb2dVertex
 10
-42.4914690019259
 20
-375.231493970823
 30
0.0
  0
VERTEX
  5
305
330
2EC
100
AcDbEntity
  8
Predefinito
  6
PHANTOM
 62
   255
100
AcDbVertex
100
AcDb2dVertex
 10
-41.48767470062737
 20
-376.7422061366486
 30
0.0
  0
VERTEX
  5
306
330
2EC
100
AcDbEntity
  8
Predefinito
  6
PHANTOM
 62
   255
100
AcDbVertex
100
AcDb2dVertex
 10
-39.98509476549577
 20
-377.7825656354879
 30
0.0
  0
VERTEX
  5
307
330
2EC
100
AcDbEntity
  8
Predefinito
  6
PHANTOM
 62
   255
100
AcDbVertex
100
AcDb2dVertex
 10
-37.89090144832466
 20
-378.5484103196926
 30
0.0
  0
VERTEX
  5
308
330
2EC
100
AcDbEntity
  8
Predefinito
  6
PHANTOM
 62
   255
100
AcDbVertex
100
AcDb2dVertex
 10
-35.69463114876381
 20
-378.9891197992834
 30
0.0
  0
VERTEX
  5
309
330
2EC
100
AcDbEntity
  8
Predefinito
  6
PHANTOM
 62
   255
100
AcDbVertex
100
AcDb2dVertex
 10
-31.43776032745478
 20
-379.3611902645978
 30
0.0
  0
VERTEX
  5
30A
330
2EC
100
AcDbEntity
  8
Predefinito
  6
PHANTOM
 62
   255
100
AcDbVertex
100
AcDb2dVertex
 10
-28.22014351814081
 20
-379.3876745194883
 30
0.0
  0
VERTEX
  5
30B
330
2EC
100
AcDbEntity
  8
Predefinito
  6
PHANTOM
 62
   255
100
AcDbVertex
100
AcDb2dVertex
 10
-25.02187306153504
 20
-379.097816535089
 30
0.0
  0
VERTEX
  5
30C
330
2EC
100
AcDbEntity
  8
Predefinito
  6
PHANTOM
 62
   255
100
AcDbVertex
100
AcDb2dVertex
 10
-21.56959959378728
 20
-378.0932271158814
 30
0.0
  0
VERTEX
  5
30D
330
2EC
100
AcDbEntity
  8
Predefinito
  6
PHANTOM
 62
   255
100
AcDbVertex
100
AcDb2dVertex
 10
-20.01112995491542
 20
-377.1316998633327
 30
0.0
  0
VERTEX
  5
30E
330
2EC
100
AcDbEntity
  8
Predefinito
  6
PHANTOM
 62
   255
100
AcDbVertex
100
AcDb2dVertex
 10
-18.66608434964374
 20
-375.8817024870915
 30
0.0
  0
VERTEX
  5
30F
330
2EC
100
AcDbEntity
  8
Predefinito
  6
PHANTOM
 62
   255
100
AcDbVertex
100
AcDb2dVertex
 10
-16.39245958167993
 20
-372.7354267234952
 30
0.0
  0
VERTEX
  5
310
330
2EC
100
AcDbEntity
  8
Predefinito
  6
PHANTOM
 62
   255
100
AcDbVertex
100
AcDb2dVertex
 10
-14.59488674793949
 20
-369.2718087776045
 30
0.0
  0
VERTEX
  5
311
330
2EC
100
AcDbEntity
  8
Predefinito
  6
PHANTOM
 62
   255
100
AcDbVertex
100
AcDb2dVertex
 10
-11.51452228786709
 20
-361.9946480290063
 30
0.0
  0
VERTEX
  5
312
330
2EC
100
AcDbEntity
  8
Predefinito
  6
PHANTOM
 62
   255
100
AcDbVertex
100
AcDb2dVertex
 10
-8.275139244908303
 20
-354.7967746754044
 30
0.0
  0
VERTEX
  5
313
330
2EC
100
AcDbEntity
  8
Predefinito
  6
PHANTOM
 62
   255
100
AcDbVertex
100
AcDb2dVertex
 10
-5.668644513879883
 20
-350.4598100484574
 30
0.0
  0
VERTEX
  5
314
330
2EC
100
AcDbEntity
  8
Predefinito
  6
PHANTOM
 62
   255
100
AcDbVertex
100
AcDb2dVertex
 10
-2.494794179990378
 20
-346.5314253916953
 30
0.0
  0
VERTEX
  5
315
330
2EC
100
AcDbEntity
  8
Predefinito
  6
PHANTOM
 62
   255
100
AcDbVertex
100
AcDb2dVertex
 10
0.2153653701896241
 20
-344.0787884800923
 30
0.0
  0
VERTEX
  5
316
330
2EC
100
AcDbEntity
  8
Predefinito
  6
PHANTOM
 62
   255
100
AcDbVertex
100
AcDb2dVertex
 10
3.276393947106686
 20
-342.0905400491248
 30
0.0
  0
VERTEX
  5
317
330
2EC
100
AcDbEntity
  8
Predefinito
  6
PHANTOM
 62
   255
100
AcDbVertex
100
AcDb2dVertex
 10
6.674472889596022
 20
-340.6910966940448
 30
0.0
  0
VERTEX
  5
318
330
2EC
100
AcDbEntity
  8
Predefinito
  6
PHANTOM
 62
   255
100
AcDbVertex
100
AcDb2dVertex
 10
10.27052270018862
 20
-339.9179858401546
 30
0.0
  0
VERTEX
  5
319
330
2EC
100
AcDbEntity
  8
Predefinito
  6
PHANTOM
 62
   255
100
AcDbVertex
100
AcDb2dVertex
 10
13.68799511375605
 20
-339.7494957446099
 30
0.0
  0
VERTEX
  5
31A
330
2EC
100
AcDbEntity
  8
Predefinito
  6
PHANTOM
 62
   255
100
AcDbVertex
100
AcDb2dVertex
 10
17.09541478332965
 20
-340.0775782934228
 30
0.0
  0
VERTEX
  5
31B
330
2EC
100
AcDbEntity
  8
Predefinito
  6
PHANTOM
 62
   255
100
AcDbVertex
100
AcDb2dVertex
 10
21.78413728786519
 20
-341.2870807783471
 30
0.0
  0
VERTEX
  5
31C
330
2EC
100
AcDbEntity
  8
Predefinito
  6
PHANTOM
 62
   255
100
AcDbVertex
100
AcDb2dVertex
 10
26.27002384445733
 20
-343.1386948157258
 30
0.0
  0
VERTEX
  5
31D
330
2EC
100
AcDbEntity
  8
Predefinito
  6
PHANTOM
 62
   255
100
AcDbVertex
100
AcDb2dVertex
 10
32.95099370579882
 20
-346.7515471992196
 30
0.0
  0
VERTEX
  5
31E
330
2EC
100
AcDbEntity
  8
Predefinito
  6
PHANTOM
 62
   255
100
AcDbVertex
100
AcDb2dVertex
 10
39.48064705462107
 20
-350.6562780709192
 30
0.0
  0
VERTEX
  5
31F
330
2EC
100
AcDbEntity
  8
Predefinito
  6
PHANTOM
 62
   255
100
AcDbVertex
100
AcDb2dVertex
 10
46.1558356898089
 20
-354.2811864375998
 30
0.0
  0
VERTEX
  5
320
330
2EC
100
AcDbEntity
  8
Predefinito
  6
PHANTOM
 62
   255
100
AcDbVertex
100
AcDb2dVertex
 10
50.13069336953551
 20
-355.8525915743532
 30
0.0
  0
VERTEX
  5
321
330
2EC
100
AcDbEntity
  8
Predefinito
  6
PHANTOM
 62
   255
100
AcDbVertex
100
AcDb2dVertex
 10
51.19085790326366
 20
-356.0937787371556
 30
0.0
  0
VERTEX
  5
322
330
2EC
100
AcDbEntity
  8
Predefinito
  6
PHANTOM
 62
   255
100
AcDbVertex
100
AcDb2dVertex
 10
52.26550973876542
 20
-356.1253280237512
 30
0.0
  0
VERTEX
  5
323
330
2EC
100
AcDbEntity
  8
Predefinito
  6
PHANTOM
 62
   255
100
AcDbVertex
100
AcDb2dVertex
 10
52.41376877358391
 20
-356.0990611628026
 30
0.0
  0
VERTEX
  5
324
330
2EC
100
AcDbEntity
  8
Predefinito
  6
PHANTOM
 62
   255
100
AcDbVertex
100
AcDb2dVertex
 10
52.59148718429618
 20
-356.0274793616489
 30
0.0
  0
VERTEX
  5
325
330
2EC
100
AcDbEntity
  8
Predefinito
  6
PHANTOM
 62
   255
100
AcDbVertex
100
AcDb2dVertex
 10
53.07682708743372
 20
-355.6006463499059
 30
0.0
  0
VERTEX
  5
326
330
2EC
100
AcDbEntity
  8
Predefinito
  6
PHANTOM
 62
   255
100
AcDbVertex
100
AcDb2dVertex
 10
54.42937719269175
 20
-353.573924448737
 30
0.0
  0
VERTEX
  5
327
330
2EC
100
AcDbEntity
  8
Predefinito
  6
PHANTOM
 62
   255
100
AcDbVertex
100
AcDb2dVertex
 10
56.38137235585344
 20
-349.1360097320785
 30
0.0
  0
VERTEX
  5
328
330
2EC
100
AcDbEntity
  8
Predefinito
  6
PHANTOM
 62
   255
100
AcDbVertex
100
AcDb2dVertex
 10
57.90548288280178
 20
-344.5206626779233
 30
0.0
  0
VERTEX
  5
329
330
2EC
100
AcDbEntity
  8
Predefinito
  6
PHANTOM
 62
   255
100
AcDbVertex
100
AcDb2dVertex
 10
59.78984545954202
 20
-336.9728632474864
 30
0.0
  0
VERTEX
  5
32A
330
2EC
100
AcDbEntity
  8
Predefinito
  6
PHANTOM
 62
   255
100
AcDbVertex
100
AcDb2dVertex
 10
61.02485185895045
 20
-329.2709462550526
 30
0.0
  0
VERTEX
  5
32B
330
2EC
100
AcDbEntity
  8
Predefinito
  6
PHANTOM
 62
   255
100
AcDbVertex
100
AcDb2dVertex
 10
61.82260875925743
 20
-321.5135822893219
 30
0.0
  0
VERTEX
  5
32C
330
2EC
100
AcDbEntity
  8
Predefinito
  6
PHANTOM
 62
   255
100
AcDbVertex
100
AcDb2dVertex
 10
62.00508356457182
 20
-318.1365938457297
 30
0.0
  0
VERTEX
  5
32D
330
2EC
100
AcDbEntity
  8
Predefinito
  6
PHANTOM
 62
   255
100
AcDbVertex
100
AcDb2dVertex
 10
61.82641631897517
 20
-316.0511417882759
 30
0.0
  0
VERTEX
  5
32E
330
2EC
100
AcDbEntity
  8
Predefinito
  6
PHANTOM
 62
   255
100
AcDbVertex
100
AcDb2dVertex
 10
61.27574252707344
 20
-314.6968464863824
 30
0.0
  0
VERTEX
  5
32F
330
2EC
100
AcDbEntity
  8
Predefinito
  6
PHANTOM
 62
   255
100
AcDbVertex
100
AcDb2dVertex
 10
60.31667253915279
 20
-313.5552851820766
 30
0.0
  0
VERTEX
  5
330
330
2EC
100
AcDbEntity
  8
Predefinito
  6
PHANTOM
 62
   255
100
AcDbVertex
100
AcDb2dVertex
 10
59.19216901890839
 20
-312.5633056973701
 30
0.0
  0
VERTEX
  5
331
330
2EC
100
AcDbEntity
  8
Predefinito
  6
PHANTOM
 62
   255
100
AcDbVertex
100
AcDb2dVertex
 10
56.56322418553362
 20
-310.5998389832397
 30
0.0
  0
VERTEX
  5
332
330
2EC
100
AcDbEntity
  8
Predefinito
  6
PHANTOM
 62
   255
100
AcDbVertex
100
AcDb2dVertex
 10
52.9943092483999
 20
-308.0109381272264
 30
0.0
  0
VERTEX
  5
333
330
2EC
100
AcDbEntity
  8
Predefinito
  6
PHANTOM
 62
   255
100
AcDbVertex
100
AcDb2dVertex
 10
49.58068289563494
 20
-305.2228949795078
 30
0.0
  0
VERTEX
  5
334
330
2EC
100
AcDbEntity
  8
Predefinito
  6
PHANTOM
 62
   255
100
AcDbVertex
100
AcDb2dVertex
 10
46.54351160171555
 20
-302.0660694301895
 30
0.0
  0
VERTEX
  5
335
330
2EC
100
AcDbEntity
  8
Predefinito
  6
PHANTOM
 62
   255
100
AcDbVertex
100
AcDb2dVertex
 10
44.69290996783459
 20
-299.4125171383588
 30
0.0
  0
VERTEX
  5
336
330
2EC
100
AcDbEntity
  8
Predefinito
  6
PHANTOM
 62
   255
100
AcDbVertex
100
AcDb2dVertex
 10
43.31616292241258
 20
-296.4907714620583
 30
0.0
  0
VERTEX
  5
337
330
2EC
100
AcDbEntity
  8
Predefinito
  6
PHANTOM
 62
   255
100
AcDbVertex
100
AcDb2dVertex
 10
42.51293880998555
 20
-293.3500659753125
 30
0.0
  0
VERTEX
  5
338
330
2EC
100
AcDbEntity
  8
Predefinito
  6
PHANTOM
 62
   255
100
AcDbVertex
100
AcDb2dVertex
 10
42.25523644597784
 20
-290.1140385069595
 30
0.0
  0
VERTEX
  5
339
330
2EC
100
AcDbEntity
  8
Predefinito
  6
PHANTOM
 62
   255
100
AcDbVertex
100
AcDb2dVertex
 10
42.62586485553294
 20
-285.9613258509416
 30
0.0
  0
VERTEX
  5
33A
330
2EC
100
AcDbEntity
  8
Predefinito
  6
PHANTOM
 62
   255
100
AcDbVertex
100
AcDb2dVertex
 10
43.66533003648689
 20
-281.9185703129222
 30
0.0
  0
VERTEX
  5
33B
330
2EC
100
AcDbEntity
  8
Predefinito
  6
PHANTOM
 62
   255
100
AcDbVertex
100
AcDb2dVertex
 10
45.8973969555114
 20
-276.9879567093012
 30
0.0
  0
VERTEX
  5
33C
330
2EC
100
AcDbEntity
  8
Predefinito
  6
PHANTOM
 62
   255
100
AcDbVertex
100
AcDb2dVertex
 10
48.84821612396903
 20
-272.4286998682465
 30
0.0
  0
VERTEX
  5
33D
330
2EC
100
AcDbEntity
  8
Predefinito
  6
PHANTOM
 62
   255
100
AcDbVertex
100
AcDb2dVertex
 10
51.0994483872943
 20
-269.3218843392363
 30
0.0
  0
VERTEX
  5
33E
330
2EC
100
AcDbEntity
  8
Predefinito
  6
PHANTOM
 62
   255
100
AcDbVertex
100
AcDb2dVertex
 10
53.16710720040554
 20
-266.0938102300914
 30
0.0
  0
VERTEX
  5
33F
330
2EC
100
AcDbEntity
  8
Predefinito
  6
PHANTOM
 62
   255
100
AcDbVertex
100
AcDb2dVertex
 10
54.72586420082098
 20
-262.6323905368082
 30
0.0
  0
VERTEX
  5
340
330
2EC
100
AcDbEntity
  8
Predefinito
  6
PHANTOM
 62
   255
100
AcDbVertex
100
AcDb2dVertex
 10
56.53869559356337
 20
-256.6974012143218
 30
0.0
  0
VERTEX
  5
341
330
2EC
100
AcDbEntity
  8
Predefinito
  6
PHANTOM
 62
   255
100
AcDbVertex
100
AcDb2dVertex
 10
57.29038891187951
 20
-254.4671261951767
 30
0.0
  0
VERTEX
  5
342
330
2EC
100
AcDbEntity
  8
Predefinito
  6
PHANTOM
 62
   255
100
AcDbVertex
100
AcDb2dVertex
 10
57.88001618642716
 20
-252.1966658712699
 30
0.0
  0
VERTEX
  5
343
330
2EC
100
AcDbEntity
  8
Predefinito
  6
PHANTOM
 62
   255
100
AcDbVertex
100
AcDb2dVertex
 10
57.94841655298066
 20
-251.1407759660186
 30
0.0
  0
VERTEX
  5
344
330
2EC
100
AcDbEntity
  8
Predefinito
  6
PHANTOM
 62
   255
100
AcDbVertex
100
AcDb2dVertex
 10
57.65426208525637
 20
-250.3517032252053
 30
0.0
  0
VERTEX
  5
345
330
2EC
100
AcDbEntity
  8
Predefinito
  6
PHANTOM
 62
   255
100
AcDbVertex
100
AcDb2dVertex
 10
56.85968798337917
 20
-249.1570474622695
 30
0.0
  0
VERTEX
  5
346
330
2EC
100
AcDbEntity
  8
Predefinito
  6
PHANTOM
 62
   255
100
AcDbVertex
100
AcDb2dVertex
 10
55.03627571499603
 20
-246.9979245321155
 30
0.0
  0
VERTEX
  5
347
330
2EC
100
AcDbEntity
  8
Predefinito
  6
PHANTOM
 62
   255
100
AcDbVertex
100
AcDb2dVertex
 10
53.16186390816479
 20
-244.8797937099355
 30
0.0
  0
VERTEX
  5
348
330
2EC
100
AcDbEntity
  8
Predefinito
  6
PHANTOM
 62
   255
100
AcDbVertex
100
AcDb2dVertex
 10
49.49196911951243
 20
-239.9331465926102
 30
0.0
  0
VERTEX
  5
349
330
2EC
100
AcDbEntity
  8
Predefinito
  6
PHANTOM
 62
   255
100
AcDbVertex
100
AcDb2dVertex
 10
46.54773106360654
 20
-234.531312276157
 30
0.0
  0
VERTEX
  5
34A
330
2EC
100
AcDbEntity
  8
Predefinito
  6
PHANTOM
 62
   255
100
AcDbVertex
100
AcDb2dVertex
 10
44.97584747316446
 20
-230.6901840468113
 30
0.0
  0
VERTEX
  5
34B
330
2EC
100
AcDbEntity
  8
Predefinito
  6
PHANTOM
 62
   255
100
AcDbVertex
100
AcDb2dVertex
 10
43.35405186532945
 20
-226.8719623970729
 30
0.0
  0
VERTEX
  5
34C
330
2EC
100
AcDbEntity
  8
Predefinito
  6
PHANTOM
 62
   255
100
AcDbVertex
100
AcDb2dVertex
 10
41.27068982708379
 20
-223.3292054394493
 30
0.0
  0
VERTEX
  5
34D
330
2EC
100
AcDbEntity
  8
Predefinito
  6
PHANTOM
 62
   255
100
AcDbVertex
100
AcDb2dVertex
 10
38.88752839687582
 20
-220.9330635648063
 30
0.0
  0
VERTEX
  5
34E
330
2EC
100
AcDbEntity
  8
Predefinito
  6
PHANTOM
 62
   255
100
AcDbVertex
100
AcDb2dVertex
 10
37.19705121800407
 20
-220.0394517268569
 30
0.0
  0
VERTEX
  5
34F
330
2EC
100
AcDbEntity
  8
Predefinito
  6
PHANTOM
 62
   255
100
AcDbVertex
100
AcDb2dVertex
 10
35.85104721520807
 20
-219.8701328304796
 30
0.0
  0
VERTEX
  5
350
330
2EC
100
AcDbEntity
  8
Predefinito
  6
PHANTOM
 62
   255
100
AcDbVertex
100
AcDb2dVertex
 10
34.0876477017447
 20
-220.1570295172172
 30
0.0
  0
VERTEX
  5
351
330
2EC
100
AcDbEntity
  8
Predefinito
  6
PHANTOM
 62
   255
100
AcDbVertex
100
AcDb2dVertex
 10
32.38130275159001
 20
-220.723653206294
 30
0.0
  0
VERTEX
  5
352
330
2EC
100
AcDbEntity
  8
Predefinito
  6
PHANTOM
 62
   255
100
AcDbVertex
100
AcDb2dVertex
 10
29.12328248174201
 20
-222.1298304603053
 30
0.0
  0
VERTEX
  5
353
330
2EC
100
AcDbEntity
  8
Predefinito
  6
PHANTOM
 62
   255
100
AcDbVertex
100
AcDb2dVertex
 10
24.07388807023138
 20
-224.428201772833
 30
0.0
  0
VERTEX
  5
354
330
2EC
100
AcDbEntity
  8
Predefinito
  6
PHANTOM
 62
   255
100
AcDbVertex
100
AcDb2dVertex
 10
19.53432509614918
 20
-225.9703549546826
 30
0.0
  0
VERTEX
  5
355
330
2EC
100
AcDbEntity
  8
Predefinito
  6
PHANTOM
 62
   255
100
AcDbVertex
100
AcDb2dVertex
 10
14.81131416362291
 20
-226.6255504434182
 30
0.0
  0
VERTEX
  5
356
330
2EC
100
AcDbEntity
  8
Predefinito
  6
PHANTOM
 62
   255
100
AcDbVertex
100
AcDb2dVertex
 10
11.52701200073286
 20
-226.3846067412315
 30
0.0
  0
VERTEX
  5
357
330
2EC
100
AcDbEntity
  8
Predefinito
  6
PHANTOM
 62
   255
100
AcDbVertex
100
AcDb2dVertex
 10
8.316255699452254
 20
-225.6367320885095
 30
0.0
  0
VERTEX
  5
358
330
2EC
100
AcDbEntity
  8
Predefinito
  6
PHANTOM
 62
   255
100
AcDbVertex
100
AcDb2dVertex
 10
4.519590001924256
 20
-224.0926555713736
 30
0.0
  0
VERTEX
  5
359
330
2EC
100
AcDbEntity
  8
Predefinito
  6
PHANTOM
 62
   255
100
AcDbVertex
100
AcDb2dVertex
 10
0.9585676910740804
 20
-222.0054088964588
 30
0.0
  0
VERTEX
  5
35A
330
2EC
100
AcDbEntity
  8
Predefinito
  6
PHANTOM
 62
   255
100
AcDbVertex
100
AcDb2dVertex
 10
-2.354850402291303
 20
-219.5551401737564
 30
0.0
  0
VERTEX
  5
35B
330
2EC
100
AcDbEntity
  8
Predefinito
  6
PHANTOM
 62
   255
100
AcDbVertex
100
AcDb2dVertex
 10
-4.073474178876934
 20
-218.1764181268877
 30
0.0
  0
VERTEX
  5
35C
330
2EC
100
AcDbEntity
  8
Predefinito
  6
PHANTOM
 62
   255
100
AcDbVertex
100
AcDb2dVertex
 10
-5.944020073977651
 20
-217.0483697580588
 30
0.0
  0
VERTEX
  5
35D
330
2EC
100
AcDbEntity
  8
Predefinito
  6
PHANTOM
 62
   255
100
AcDbVertex
100
AcDb2dVertex
 10
-7.117011629661218
 20
-216.767950705242
 30
0.0
  0
VERTEX
  5
35E
330
2EC
100
AcDbEntity
  8
Predefinito
  6
PHANTOM
 62
   255
100
AcDbVertex
100
AcDb2dVertex
 10
-8.550098840253927
 20
-216.9036558394101
 30
0.0
  0
VERTEX
  5
35F
330
2EC
100
AcDbEntity
  8
Predefinito
  6
PHANTOM
 62
   255
100
AcDbVertex
100
AcDb2dVertex
 10
-10.74650802461231
 20
-217.7570052985729
 30
0.0
  0
VERTEX
  5
360
330
2EC
100
AcDbEntity
  8
Predefinito
  6
PHANTOM
 62
   255
100
AcDbVertex
100
AcDb2dVertex
 10
-12.61496461008393
 20
-219.1862071001383
 30
0.0
  0
VERTEX
  5
361
330
2EC
100
AcDbEntity
  8
Predefinito
  6
PHANTOM
 62
   255
100
AcDbVertex
100
AcDb2dVertex
 10
-14.79693347453788
 20
-221.8969487603615
 30
0.0
  0
VERTEX
  5
362
330
2EC
100
AcDbEntity
  8
Predefinito
  6
PHANTOM
 62
   255
100
AcDbVertex
100
AcDb2dVertex
 10
-16.52860187006111
 20
-224.9556803677806
 30
0.0
  0
VERTEX
  5
363
330
2EC
100
AcDbEntity
  8
Predefinito
  6
PHANTOM
 62
   255
100
AcDbVertex
100
AcDb2dVertex
 10
-18.03973874190956
 20
-228.1754891059859
 30
0.0
  0
VERTEX
  5
364
330
2EC
100
AcDbEntity
  8
Predefinito
  6
PHANTOM
 62
   255
100
AcDbVertex
100
AcDb2dVertex
 10
-19.04383759055547
 20
-230.2848806410594
 30
0.0
  0
SEQEND
  5
365
330
2EC
100
AcDbEntity
  8
Predefinito
  6
PHANTOM
 62
   255
  0
POLYLINE
  5
366
330
1F
100
AcDbEntity
  8
Predefinito
  6
PHANTOM
 62
   255
100
AcDb2dPolyline
 66
     1
 10
0.0
 20
0.0
 30
0.0
  0
VERTEX
  5
367
330
366
100
AcDbEntity
  8
Predefinito
  6
PHANTOM
 62
   255
100
AcDbVertex
100
AcDb2dVertex
 10
-146.9197269154112
 20
-211.3029122783136
 30
0.0
  0
VERTEX
  5
368
330
366
100
AcDbEntity
  8
Predefinito
  6
PHANTOM
 62
   255
100
AcDbVertex
100
AcDb2dVertex
 10
-147.7257186793095
 20
-211.2863916601852
 30
0.0
  0
VERTEX
  5
369
330
366
100
AcDbEntity
  8
Predefinito
  6
PHANTOM
 62
   255
100
AcDbVertex
100
AcDb2dVertex
 10
-152.4036922205477
 20
-211.8345787209197
 30
0.0
  0
VERTEX
  5
36A
330
366
100
AcDbEntity
  8
Predefinito
  6
PHANTOM
 62
   255
100
AcDbVertex
100
AcDb2dVertex
 10
-161.8552897430854
 20
-213.9336856395883
 30
0.0
  0
VERTEX
  5
36B
330
366
100
AcDbEntity
  8
Predefinito
  6
PHANTOM
 62
   255
100
AcDbVertex
100
AcDb2dVertex
 10
-171.161366132438
 20
-216.6129186135179
 30
0.0
  0
VERTEX
  5
36C
330
366
100
AcDbEntity
  8
Predefinito
  6
PHANTOM
 62
   255
100
AcDbVertex
100
AcDb2dVertex
 10
-173.4374481592484
 20
-217.5679765825984
 30
0.0
  0
VERTEX
  5
36D
330
366
100
AcDbEntity
  8
Predefinito
  6
PHANTOM
 62
   255
100
AcDbVertex
100
AcDb2dVertex
 10
-175.5029734155768
 20
-218.9173120282646
 30
0.0
  0
VERTEX
  5
36E
330
366
100
AcDbEntity
  8
Predefinito
  6
PHANTOM
 62
   255
100
AcDbVertex
100
AcDb2dVertex
 10
-177.6384168857776
 20
-220.9512393021061
 30
0.0
  0
VERTEX
  5
36F
330
366
100
AcDbEntity
  8
Predefinito
  6
PHANTOM
 62
   255
100
AcDbVertex
100
AcDb2dVertex
 10
-179.467072394495
 20
-223.2732694570584
 30
0.0
  0
VERTEX
  5
370
330
366
100
AcDbEntity
  8
Predefinito
  6
PHANTOM
 62
   255
100
AcDbVertex
100
AcDb2dVertex
 10
-181.6590121077505
 20
-226.8883987846719
 30
0.0
  0
VERTEX
  5
371
330
366
100
AcDbEntity
  8
Predefinito
  6
PHANTOM
 62
   255
100
AcDbVertex
100
AcDb2dVertex
 10
-183.5319057167166
 20
-230.6876265845272
 30
0.0
  0
VERTEX
  5
372
330
366
100
AcDbEntity
  8
Predefinito
  6
PHANTOM
 62
   255
100
AcDbVertex
100
AcDb2dVertex
 10
-185.0715903802963
 20
-233.9034085843356
 30
0.0
  0
VERTEX
  5
373
330
366
100
AcDbEntity
  8
Predefinito
  6
PHANTOM
 62
   255
100
AcDbVertex
100
AcDb2dVertex
 10
-186.823899929921
 20
-237.0018192728809
 30
0.0
  0
VERTEX
  5
374
330
366
100
AcDbEntity
  8
Predefinito
  6
PHANTOM
 62
   255
100
AcDbVertex
100
AcDb2dVertex
 10
-188.9900386330396
 20
-239.7965290234251
 30
0.0
  0
VERTEX
  5
375
330
366
100
AcDbEntity
  8
Predefinito
  6
PHANTOM
 62
   255
100
AcDbVertex
100
AcDb2dVertex
 10
-190.6122844591539
 20
-241.2672393127224
 30
0.0
  0
VERTEX
  5
376
330
366
100
AcDbEntity
  8
Predefinito
  6
PHANTOM
 62
   255
100
AcDbVertex
100
AcDb2dVertex
 10
-192.4512981518427
 20
-242.4507525177136
 30
0.0
  0
VERTEX
  5
377
330
366
100
AcDbEntity
  8
Predefinito
  6
PHANTOM
 62
   255
100
AcDbVertex
100
AcDb2dVertex
 10
-194.4782828386966
 20
-243.2856659856858
 30
0.0
  0
VERTEX
  5
378
330
366
100
AcDbEntity
  8
Predefinito
  6
PHANTOM
 62
   255
100
AcDbVertex
100
AcDb2dVertex
 10
-196.6169047941498
 20
-243.7784820178946
 30
0.0
  0
VERTEX
  5
379
330
366
100
AcDbEntity
  8
Predefinito
  6
PHANTOM
 62
   255
100
AcDbVertex
100
AcDb2dVertex
 10
-199.7616381166962
 20
-243.9555280776582
 30
0.0
  0
VERTEX
  5
37A
330
366
100
AcDbEntity
  8
Predefinito
  6
PHANTOM
 62
   255
100
AcDbVertex
100
AcDb2dVertex
 10
-202.9043845862688
 20
-243.6496796575265
 30
0.0
  0
VERTEX
  5
37B
330
366
100
AcDbEntity
  8
Predefinito
  6
PHANTOM
 62
   255
100
AcDbVertex
100
AcDb2dVertex
 10
-208.2010059104854
 20
-242.4365740325371
 30
0.0
  0
VERTEX
  5
37C
330
366
100
AcDbEntity
  8
Predefinito
  6
PHANTOM
 62
   255
100
AcDbVertex
100
AcDb2dVertex
 10
-213.3692895496857
 20
-240.6936086468645
 30
0.0
  0
VERTEX
  5
37D
330
366
100
AcDbEntity
  8
Predefinito
  6
PHANTOM
 62
   255
100
AcDbVertex
100
AcDb2dVertex
 10
-218.4684270926784
 20
-238.6885616947568
 30
0.0
  0
VERTEX
  5
37E
330
366
100
AcDbEntity
  8
Predefinito
  6
PHANTOM
 62
   255
100
AcDbVertex
100
AcDb2dVertex
 10
-223.5576101282718
 20
-236.6892113704625
 30
0.0
  0
VERTEX
  5
37F
330
366
100
AcDbEntity
  8
Predefinito
  6
PHANTOM
 62
   255
100
AcDbVertex
100
AcDb2dVertex
 10
-229.1205986798085
 20
-234.7704266476072
 30
0.0
  0
VERTEX
  5
380
330
366
100
AcDbEntity
  8
Predefinito
  6
PHANTOM
 62
   255
100
AcDbVertex
100
AcDb2dVertex
 10
-233.65977430058
 20
-233.6807834704514
 30
0.0
  0
VERTEX
  5
381
330
366
100
AcDbEntity
  8
Predefinito
  6
PHANTOM
 62
   255
100
AcDbVertex
100
AcDb2dVertex
 10
-237.0259292755322
 20
-233.5087472501322
 30
0.0
  0
VERTEX
  5
382
330
366
100
AcDbEntity
  8
Predefinito
  6
PHANTOM
 62
   255
100
AcDbVertex
100
AcDb2dVertex
 10
-238.7888522206897
 20
-233.9353113563698
 30
0.0
  0
VERTEX
  5
383
330
366
100
AcDbEntity
  8
Predefinito
  6
PHANTOM
 62
   255
100
AcDbVertex
100
AcDb2dVertex
 10
-240.2803829694855
 20
-234.9914507286507
 30
0.0
  0
VERTEX
  5
384
330
366
100
AcDbEntity
  8
Predefinito
  6
PHANTOM
 62
   255
100
AcDbVertex
100
AcDb2dVertex
 10
-241.7162978663913
 20
-236.6974144266388
 30
0.0
  0
VERTEX
  5
385
330
366
100
AcDbEntity
  8
Predefinito
  6
PHANTOM
 62
   255
100
AcDbVertex
100
AcDb2dVertex
 10
-242.8815979949109
 20
-238.6105019010127
 30
0.0
  0
VERTEX
  5
386
330
366
100
AcDbEntity
  8
Predefinito
  6
PHANTOM
 62
   255
100
AcDbVertex
100
AcDb2dVertex
 10
-244.6871654340021
 20
-242.4833964055616
 30
0.0
  0
VERTEX
  5
387
330
366
100
AcDbEntity
  8
Predefinito
  6
PHANTOM
 62
   255
100
AcDbVertex
100
AcDb2dVertex
 10
-245.8125422551784
 20
-245.4979090291371
 30
0.0
  0
VERTEX
  5
388
330
366
100
AcDbEntity
  8
Predefinito
  6
PHANTOM
 62
   255
100
AcDbVertex
100
AcDb2dVertex
 10
-246.6340377661249
 20
-248.6024374458555
 30
0.0
  0
VERTEX
  5
389
330
366
100
AcDbEntity
  8
Predefinito
  6
PHANTOM
 62
   255
100
AcDbVertex
100
AcDb2dVertex
 10
-246.8707795682144
 20
-252.1901031655739
 30
0.0
  0
VERTEX
  5
38A
330
366
100
AcDbEntity
  8
Predefinito
  6
PHANTOM
 62
   255
100
AcDbVertex
100
AcDb2dVertex
 10
-246.5002675135655
 20
-253.9834472736689
 30
0.0
  0
VERTEX
  5
38B
330
366
100
AcDbEntity
  8
Predefinito
  6
PHANTOM
 62
   255
100
AcDbVertex
100
AcDb2dVertex
 10
-245.7856868938045
 20
-255.6749009853419
 30
0.0
  0
VERTEX
  5
38C
330
366
100
AcDbEntity
  8
Predefinito
  6
PHANTOM
 62
   255
100
AcDbVertex
100
AcDb2dVertex
 10
-243.6067802448032
 20
-258.8874990898409
 30
0.0
  0
VERTEX
  5
38D
330
366
100
AcDbEntity
  8
Predefinito
  6
PHANTOM
 62
   255
100
AcDbVertex
100
AcDb2dVertex
 10
-240.9668501380622
 20
-261.7612921233109
 30
0.0
  0
VERTEX
  5
38E
330
366
100
AcDbEntity
  8
Predefinito
  6
PHANTOM
 62
   255
100
AcDbVertex
100
AcDb2dVertex
 10
-235.1821025764608
 20
-267.1448234380115
 30
0.0
  0
VERTEX
  5
38F
330
366
100
AcDbEntity
  8
Predefinito
  6
PHANTOM
 62
   255
100
AcDbVertex
100
AcDb2dVertex
 10
-229.5262483533691
 20
-272.6506654554177
 30
0.0
  0
VERTEX
  5
390
330
366
100
AcDbEntity
  8
Predefinito
  6
PHANTOM
 62
   255
100
AcDbVertex
100
AcDb2dVertex
 10
-226.3423083983014
 20
-276.5832985835892
 30
0.0
  0
VERTEX
  5
391
330
366
100
AcDbEntity
  8
Predefinito
  6
PHANTOM
 62
   255
100
AcDbVertex
100
AcDb2dVertex
 10
-223.7363550708246
 20
-280.9093290051681
 30
0.0
  0
VERTEX
  5
392
330
366
100
AcDbEntity
  8
Predefinito
  6
PHANTOM
 62
   255
100
AcDbVertex
100
AcDb2dVertex
 10
-222.358559421312
 20
-284.294897163657
 30
0.0
  0
VERTEX
  5
393
330
366
100
AcDbEntity
  8
Predefinito
  6
PHANTOM
 62
   255
100
AcDbVertex
100
AcDb2dVertex
 10
-221.5371504750439
 20
-287.8513441427273
 30
0.0
  0
VERTEX
  5
394
330
366
100
AcDbEntity
  8
Predefinito
  6
PHANTOM
 62
   255
100
AcDbVertex
100
AcDb2dVertex
 10
-221.3843153280092
 20
-291.5231316667132
 30
0.0
  0
VERTEX
  5
395
330
366
100
AcDbEntity
  8
Predefinito
  6
PHANTOM
 62
   255
100
AcDbVertex
100
AcDb2dVertex
 10
-221.8877502351843
 20
-295.1667326227597
 30
0.0
  0
VERTEX
  5
396
330
366
100
AcDbEntity
  8
Predefinito
  6
PHANTOM
 62
   255
100
AcDbVertex
100
AcDb2dVertex
 10
-222.8982657404253
 20
-298.4357332381557
 30
0.0
  0
VERTEX
  5
397
330
366
100
AcDbEntity
  8
Predefinito
  6
PHANTOM
 62
   255
100
AcDbVertex
100
AcDb2dVertex
 10
-224.3719686543116
 20
-301.5254495172071
 30
0.0
  0
VERTEX
  5
398
330
366
100
AcDbEntity
  8
Predefinito
  6
PHANTOM
 62
   255
100
AcDbVertex
100
AcDb2dVertex
 10
-227.1121667572328
 20
-305.5177332423854
 30
0.0
  0
VERTEX
  5
399
330
366
100
AcDbEntity
  8
Predefinito
  6
PHANTOM
 62
   255
100
AcDbVertex
100
AcDb2dVertex
 10
-230.3863783677294
 20
-309.0997984388497
 30
0.0
  0
VERTEX
  5
39A
330
366
100
AcDbEntity
  8
Predefinito
  6
PHANTOM
 62
   255
100
AcDbVertex
100
AcDb2dVertex
 10
-236.0663753620177
 20
-314.1421882272284
 30
0.0
  0
VERTEX
  5
39B
330
366
100
AcDbEntity
  8
Predefinito
  6
PHANTOM
 62
   255
100
AcDbVertex
100
AcDb2dVertex
 10
-241.9688951225397
 20
-318.9425586830199
 30
0.0
  0
VERTEX
  5
39C
330
366
100
AcDbEntity
  8
Predefinito
  6
PHANTOM
 62
   255
100
AcDbVertex
100
AcDb2dVertex
 10
-247.6582437394674
 20
-323.9753925067454
 30
0.0
  0
VERTEX
  5
39D
330
366
100
AcDbEntity
  8
Predefinito
  6
PHANTOM
 62
   255
100
AcDbVertex
100
AcDb2dVertex
 10
-250.494362944059
 20
-327.1730847269636
 30
0.0
  0
VERTEX
  5
39E
330
366
100
AcDbEntity
  8
Predefinito
  6
PHANTOM
 62
   255
100
AcDbVertex
100
AcDb2dVertex
 10
-251.0836023669471
 20
-328.0868226481368
 30
0.0
  0
VERTEX
  5
39F
330
366
100
AcDbEntity
  8
Predefinito
  6
PHANTOM
 62
   255
100
AcDbVertex
100
AcDb2dVertex
 10
-251.4808015735555
 20
-329.0858745563487
 30
0.0
  0
VERTEX
  5
3A0
330
366
100
AcDbEntity
  8
Predefinito
  6
PHANTOM
 62
   255
100
AcDbVertex
100
AcDb2dVertex
 10
-251.5068263744889
 20
-329.2341762728788
 30
0.0
  0
VERTEX
  5
3A1
330
366
100
AcDbEntity
  8
Predefinito
  6
PHANTOM
 62
   255
100
AcDbVertex
100
AcDb2dVertex
 10
-251.5003447604656
 20
-329.425659369893
 30
0.0
  0
VERTEX
  5
3A2
330
366
100
AcDbEntity
  8
Predefinito
  6
PHANTOM
 62
   255
100
AcDbVertex
100
AcDb2dVertex
 10
-251.2652489522555
 20
-330.0277151832968
 30
0.0
  0
VERTEX
  5
3A3
330
366
100
AcDbEntity
  8
Predefinito
  6
PHANTOM
 62
   255
100
AcDbVertex
100
AcDb2dVertex
 10
-249.8233527181974
 20
-331.99187625157
 30
0.0
  0
VERTEX
  5
3A4
330
366
100
AcDbEntity
  8
Predefinito
  6
PHANTOM
 62
   255
100
AcDbVertex
100
AcDb2dVertex
 10
-246.3206986727518
 20
-335.3440079296615
 30
0.0
  0
VERTEX
  5
3A5
330
366
100
AcDbEntity
  8
Predefinito
  6
PHANTOM
 62
   255
100
AcDbVertex
100
AcDb2dVertex
 10
-242.5049676044672
 20
-338.3547450060568
 30
0.0
  0
VERTEX
  5
3A6
330
366
100
AcDbEntity
  8
Predefinito
  6
PHANTOM
 62
   255
100
AcDbVertex
100
AcDb2dVertex
 10
-236.0568461350878
 20
-342.706966057296
 30
0.0
  0
VERTEX
  5
3A7
330
366
100
AcDbEntity
  8
Predefinito
  6
PHANTOM
 62
   255
100
AcDbVertex
100
AcDb2dVertex
 10
-229.2418086371259
 20
-346.501703211078
 30
0.0
  0
VERTEX
  5
3A8
330
366
100
AcDbEntity
  8
Predefinito
  6
PHANTOM
 62
   255
100
AcDbVertex
100
AcDb2dVertex
 10
-222.2251198911602
 20
-349.9045242188661
 30
0.0
  0
VERTEX
  5
3A9
330
366
100
AcDbEntity
  8
Predefinito
  6
PHANTOM
 62
   255
100
AcDbVertex
100
AcDb2dVertex
 10
-219.1141988293043
 20
-351.2309925183858
 30
0.0
  0
VERTEX
  5
3AA
330
366
100
AcDbEntity
  8
Predefinito
  6
PHANTOM
 62
   255
100
AcDbVertex
100
AcDb2dVertex
 10
-217.0934071229656
 20
-351.7763668377116
 30
0.0
  0
VERTEX
  5
3AB
330
366
100
AcDbEntity
  8
Predefinito
  6
PHANTOM
 62
   255
100
AcDbVertex
100
AcDb2dVertex
 10
-215.6324442921793
 20
-351.7220990122603
 30
0.0
  0
VERTEX
  5
3AC
330
366
100
AcDbEntity
  8
Predefinito
  6
PHANTOM
 62
   255
100
AcDbVertex
100
AcDb2dVertex
 10
-214.2317063036205
 20
-351.2113049827077
 30
0.0
  0
VERTEX
  5
3AD
330
366
100
AcDbEntity
  8
Predefinito
  6
PHANTOM
 62
   255
100
AcDbVertex
100
AcDb2dVertex
 10
-212.9149476467066
 20
-350.4938942882217
 30
0.0
  0
VERTEX
  5
3AE
330
366
100
AcDbEntity
  8
Predefinito
  6
PHANTOM
 62
   255
100
AcDbVertex
100
AcDb2dVertex
 10
-210.1707403755733
 20
-348.6950393948283
 30
0.0
  0
VERTEX
  5
3AF
330
366
100
AcDbEntity
  8
Predefinito
  6
PHANTOM
 62
   255
100
AcDbVertex
100
AcDb2dVertex
 10
-206.5173285469158
 20
-346.2268126060207
 30
0.0
  0
VERTEX
  5
3B0
330
366
100
AcDbEntity
  8
Predefinito
  6
PHANTOM
 62
   255
100
AcDbVertex
100
AcDb2dVertex
 10
-202.729896000139
 20
-343.972620029188
 30
0.0
  0
VERTEX
  5
3B1
330
366
100
AcDbEntity
  8
Predefinito
  6
PHANTOM
 62
   255
100
AcDbVertex
100
AcDb2dVertex
 10
-198.7246765650853
 20
-342.198310503061
 30
0.0
  0
VERTEX
  5
3B2
330
366
100
AcDbEntity
  8
Predefinito
  6
PHANTOM
 62
   255
100
AcDbVertex
100
AcDb2dVertex
 10
-195.5982100215237
 20
-341.3668821388628
 30
0.0
  0
VERTEX
  5
3B3
330
366
100
AcDbEntity
  8
Predefinito
  6
PHANTOM
 62
   255
100
AcDbVertex
100
AcDb2dVertex
 10
-192.3817919478926
 20
-341.0724589745603
 30
0.0
  0
VERTEX
  5
3B4
330
366
100
AcDbEntity
  8
Predefinito
  6
PHANTOM
 62
   255
100
AcDbVertex
100
AcDb2dVertex
 10
-189.1557753518808
 20
-341.3918597439959
 30
0.0
  0
VERTEX
  5
3B5
330
366
100
AcDbEntity
  8
Predefinito
  6
PHANTOM
 62
   255
100
AcDbVertex
100
AcDb2dVertex
 10
-186.0267648197357
 20
-342.2564853127106
 30
0.0
  0
VERTEX
  5
3B6
330
366
100
AcDbEntity
  8
Predefinito
  6
PHANTOM
 62
   255
100
AcDbVertex
100
AcDb2dVertex
 10
-182.2512537623879
 20
-344.0250734720247
 30
0.0
  0
VERTEX
  5
3B7
330
366
100
AcDbEntity
  8
Predefinito
  6
PHANTOM
 62
   255
100
AcDbVertex
100
AcDb2dVertex
 10
-178.8078242458417
 20
-346.3845550606749
 30
0.0
  0
VERTEX
  5
3B8
330
366
100
AcDbEntity
  8
Predefinito
  6
PHANTOM
 62
   255
100
AcDbVertex
100
AcDb2dVertex
 10
-174.9379748741296
 20
-350.1683810449765
 30
0.0
  0
VERTEX
  5
3B9
330
366
100
AcDbEntity
  8
Predefinito
  6
PHANTOM
 62
   255
100
AcDbVertex
100
AcDb2dVertex
 10
-171.6629144592468
 20
-354.5006017210858
 30
0.0
  0
VERTEX
  5
3BA
330
366
100
AcDbEntity
  8
Predefinito
  6
PHANTOM
 62
   255
100
AcDbVertex
100
AcDb2dVertex
 10
-169.5134296138547
 20
-357.6786615591262
 30
0.0
  0
VERTEX
  5
3BB
330
366
100
AcDbEntity
  8
Predefinito
  6
PHANTOM
 62
   255
100
AcDbVertex
100
AcDb2dVertex
 10
-167.18721315775
 20
-360.7256916575854
 30
0.0
  0
VERTEX
  5
3BC
330
366
100
AcDbEntity
  8
Predefinito
  6
PHANTOM
 62
   255
100
AcDbVertex
100
AcDb2dVertex
 10
-164.4676689072207
 20
-363.3743193680811
 30
0.0
  0
VERTEX
  5
3BD
330
366
100
AcDbEntity
  8
Predefinito
  6
PHANTOM
 62
   255
100
AcDbVertex
100
AcDb2dVertex
 10
-159.5106280892082
 20
-367.1077095492832
 30
0.0
  0
VERTEX
  5
3BE
330
366
100
AcDbEntity
  8
Predefinito
  6
PHANTOM
 62
   255
100
AcDbVertex
100
AcDb2dVertex
 10
-157.6719493678618
 20
-368.5768691953027
 30
0.0
  0
VERTEX
  5
3BF
330
366
100
AcDbEntity
  8
Predefinito
  6
PHANTOM
 62
   255
100
AcDbVertex
100
AcDb2dVertex
 10
-155.7400789606488
 20
-369.907480759607
 30
0.0
  0
VERTEX
  5
3C0
330
366
100
AcDbEntity
  8
Predefinito
  6
PHANTOM
 62
   255
100
AcDbVertex
100
AcDb2dVertex
 10
-154.771261311494
 20
-370.3328916960466
 30
0.0
  0
VERTEX
  5
3C1
330
366
100
AcDbEntity
  8
Predefinito
  6
PHANTOM
 62
   255
100
AcDbVertex
100
AcDb2dVertex
 10
-153.9291687264774
 20
-370.3263556852622
 30
0.0
  0
VERTEX
  5
3C2
330
366
100
AcDbEntity
  8
Predefinito
  6
PHANTOM
 62
   255
100
AcDbVertex
100
AcDb2dVertex
 10
-152.5347991734605
 20
-369.9882966003246
 30
0.0
  0
VERTEX
  5
3C3
330
366
100
AcDbEntity
  8
Predefinito
  6
PHANTOM
 62
   255
100
AcDbVertex
100
AcDb2dVertex
 10
-149.8822435632509
 20
-369.0133130811036
 30
0.0
  0
VERTEX
  5
3C4
330
366
100
AcDbEntity
  8
Predefinito
  6
PHANTOM
 62
   255
100
AcDbVertex
100
AcDb2dVertex
 10
-147.2507650649655
 20
-367.9763855452947
 30
0.0
  0
VERTEX
  5
3C5
330
366
100
AcDbEntity
  8
Predefinito
  6
PHANTOM
 62
   255
100
AcDbVertex
100
AcDb2dVertex
 10
-141.347259329578
 20
-366.2196654493865
 30
0.0
  0
VERTEX
  5
3C6
330
366
100
AcDbEntity
  8
Predefinito
  6
PHANTOM
 62
   255
100
AcDbVertex
100
AcDb2dVertex
 10
-135.264206761833
 20
-365.3005228215495
 30
0.0
  0
VERTEX
  5
3C7
330
366
100
AcDbEntity
  8
Predefinito
  6
PHANTOM
 62
   255
100
AcDbVertex
100
AcDb2dVertex
 10
-131.1171110583302
 20
-365.1371786384097
 30
0.0
  0
VERTEX
  5
3C8
330
366
100
AcDbEntity
  8
Predefinito
  6
PHANTOM
 62
   255
100
AcDbVertex
100
AcDb2dVertex
 10
-126.9744695833094
 20
-364.9190979891967
 30
0.0
  0
VERTEX
  5
3C9
330
366
100
AcDbEntity
  8
Predefinito
  6
PHANTOM
 62
   255
100
AcDbVertex
100
AcDb2dVertex
 10
-122.9328152300725
 20
-364.1730722978461
 30
0.0
  0
VERTEX
  5
3CA
330
366
100
AcDbEntity
  8
Predefinito
  6
PHANTOM
 62
   255
100
AcDbVertex
100
AcDb2dVertex
 10
-119.8660891781864
 20
-362.7531618751322
 30
0.0
  0
VERTEX
  5
3CB
330
366
100
AcDbEntity
  8
Predefinito
  6
PHANTOM
 62
   255
100
AcDbVertex
100
AcDb2dVertex
 10
-118.448191481212
 20
-361.4702661934324
 30
0.0
  0
VERTEX
  5
3CC
330
366
100
AcDbEntity
  8
Predefinito
  6
PHANTOM
 62
   255
100
AcDbVertex
100
AcDb2dVertex
 10
-117.8287232817734
 20
-360.2633466376634
 30
0.0
  0
VERTEX
  5
3CD
330
366
100
AcDbEntity
  8
Predefinito
  6
PHANTOM
 62
   255
100
AcDbVertex
100
AcDb2dVertex
 10
-117.4951998268935
 20
-358.5081686814467
 30
0.0
  0
VERTEX
  5
3CE
330
366
100
AcDbEntity
  8
Predefinito
  6
PHANTOM
 62
   255
100
AcDbVertex
100
AcDb2dVertex
 10
-117.4440475818666
 20
-356.7109322079212
 30
0.0
  0
VERTEX
  5
3CF
330
366
100
AcDbEntity
  8
Predefinito
  6
PHANTOM
 62
   255
100
AcDbVertex
100
AcDb2dVertex
 10
-117.6511134113267
 20
-353.1684536560159
 30
0.0
  0
VERTEX
  5
3D0
330
366
100
AcDbEntity
  8
Predefinito
  6
PHANTOM
 62
   255
100
AcDbVertex
100
AcDb2dVertex
 10
-118.0838813732023
 20
-347.6374857023555
 30
0.0
  0
VERTEX
  5
3D1
330
366
100
AcDbEntity
  8
Predefinito
  6
PHANTOM
 62
   255
100
AcDbVertex
100
AcDb2dVertex
 10
-117.9804093592764
 20
-342.8442444217312
 30
0.0
  0
VERTEX
  5
3D2
330
366
100
AcDbEntity
  8
Predefinito
  6
PHANTOM
 62
   255
100
AcDbVertex
100
AcDb2dVertex
 10
-116.9807268491422
 20
-338.1819758455813
 30
0.0
  0
VERTEX
  5
3D3
330
366
100
AcDbEntity
  8
Predefinito
  6
PHANTOM
 62
   255
100
AcDbVertex
100
AcDb2dVertex
 10
-115.6310163336961
 20
-335.1781489382377
 30
0.0
  0
VERTEX
  5
3D4
330
366
100
AcDbEntity
  8
Predefinito
  6
PHANTOM
 62
   255
100
AcDbVertex
100
AcDb2dVertex
 10
-113.8301007109126
 20
-332.416813130696
 30
0.0
  0
VERTEX
  5
3D5
330
366
100
AcDbEntity
  8
Predefinito
  6
PHANTOM
 62
   255
100
AcDbVertex
100
AcDb2dVertex
 10
-111.0806072558031
 20
-329.3772196628346
 30
0.0
  0
VERTEX
  5
3D6
330
366
100
AcDbEntity
  8
Predefinito
  6
PHANTOM
 62
   255
100
AcDbVertex
100
AcDb2dVertex
 10
-107.9012955964829
 20
-326.7448336817851
 30
0.0
  0
VERTEX
  5
3D7
330
366
100
AcDbEntity
  8
Predefinito
  6
PHANTOM
 62
   255
100
AcDbVertex
100
AcDb2dVertex
 10
-104.4655404276262
 20
-324.4692804095961
 30
0.0
  0
VERTEX
  5
3D8
330
366
100
AcDbEntity
  8
Predefinito
  6
PHANTOM
 62
   255
100
AcDbVertex
100
AcDb2dVertex
 10
-102.5821615436782
 20
-323.3258530409076
 30
0.0
  0
VERTEX
  5
3D9
330
366
100
AcDbEntity
  8
Predefinito
  6
PHANTOM
 62
   255
100
AcDbVertex
100
AcDb2dVertex
 10
-100.8823784404605
 20
-321.9539301312253
 30
0.0
  0
VERTEX
  5
3DA
330
366
100
AcDbEntity
  8
Predefinito
  6
PHANTOM
 62
   255
100
AcDbVertex
100
AcDb2dVertex
 10
-100.2176839858061
 20
-320.9475875867409
 30
0.0
  0
VERTEX
  5
3DB
330
366
100
AcDbEntity
  8
Predefinito
  6
PHANTOM
 62
   255
100
AcDbVertex
100
AcDb2dVertex
 10
-99.85506040582153
 20
-319.5545122205661
 30
0.0
  0
VERTEX
  5
3DC
330
366
100
AcDbEntity
  8
Predefinito
  6
PHANTOM
 62
   255
100
AcDbVertex
100
AcDb2dVertex
 10
-99.90573041151247
 20
-317.1987000134683
 30
0.0
  0
VERTEX
  5
3DD
330
366
100
AcDbEntity
  8
Predefinito
  6
PHANTOM
 62
   255
100
AcDbVertex
100
AcDb2dVertex
 10
-100.3894849824146
 20
-315.6562401076714
 30
0.0
  0
SEQEND
  5
3DE
330
366
100
AcDbEntity
  8
Predefinito
  6
PHANTOM
 62
   255
  0
POLYLINE
  5
3DF
330
1F
100
AcDbEntity
  8
Predefinito
  6
PHANTOM
 62
   255
100
AcDb2dPolyline
 66
     1
 10
0.0
 20
0.0
 30
0.0
  0
VERTEX
  5
3E0
330
3DF
100
AcDbEntity
  8
Predefinito
  6
PHANTOM
 62
   255
100
AcDbVertex
100
AcDb2dVertex
 10
-30.24058538441333
 20
-206.2043935160164
 30
0.0
  0
VERTEX
  5
3E1
330
3DF
100
AcDbEntity
  8
Predefinito
  6
PHANTOM
 62
   255
100
AcDbVertex
100
AcDb2dVertex
 10
-29.61656145867992
 20
-204.7987749515769
 30
0.0
  0
VERTEX
  5
3E2
330
3DF
100
AcDbEntity
  8
Predefinito
  6
PHANTOM
 62
   255
100
AcDbVertex
100
AcDb2dVertex
 10
-28.88514098328657
 20
-202.4412955337985
 30
0.0
  0
VERTEX
  5
3E3
330
3DF
100
AcDbEntity
  8
Predefinito
  6
PHANTOM
 62
   255
100
AcDbVertex
100
AcDb2dVertex
 10
-28.59109786108006
 20
-199.9916752832811
 30
0.0
  0
VERTEX
  5
3E4
330
3DF
100
AcDbEntity
  8
Predefinito
  6
PHANTOM
 62
   255
100
AcDbVertex
100
AcDb2dVertex
 10
-28.7765399430834
 20
-197.0484474287103
 30
0.0
  0
VERTEX
  5
3E5
330
3DF
100
AcDbEntity
  8
Predefinito
  6
PHANTOM
 62
   255
100
AcDbVertex
100
AcDb2dVertex
 10
-29.3798811366507
 20
-194.1550438249565
 30
0.0
  0
VERTEX
  5
3E6
330
3DF
100
AcDbEntity
  8
Predefinito
  6
PHANTOM
 62
   255
100
AcDbVertex
100
AcDb2dVertex
 10
-30.74027918036489
 20
-190.1521602487609
 30
0.0
  0
VERTEX
  5
3E7
330
3DF
100
AcDbEntity
  8
Predefinito
  6
PHANTOM
 62
   255
100
AcDbVertex
100
AcDb2dVertex
 10
-32.44678371848264
 20
-186.2753439509357
 30
0.0
  0
VERTEX
  5
3E8
330
3DF
100
AcDbEntity
  8
Predefinito
  6
PHANTOM
 62
   255
100
AcDbVertex
100
AcDb2dVertex
 10
-33.92052542514445
 20
-183.0288122453151
 30
0.0
  0
VERTEX
  5
3E9
330
3DF
100
AcDbEntity
  8
Predefinito
  6
PHANTOM
 62
   255
100
AcDbVertex
100
AcDb2dVertex
 10
-35.16768284877089
 20
-179.6948452518836
 30
0.0
  0
VERTEX
  5
3EA
330
3DF
100
AcDbEntity
  8
Predefinito
  6
PHANTOM
 62
   255
100
AcDbVertex
100
AcDb2dVertex
 10
-35.91618760407857
 20
-176.2390819350146
 30
0.0
  0
VERTEX
  5
3EB
330
3DF
100
AcDbEntity
  8
Predefinito
  6
PHANTOM
 62
   255
100
AcDbVertex
100
AcDb2dVertex
 10
-36.00005753174069
 20
-174.051015183148
 30
0.0
  0
VERTEX
  5
3EC
330
3DF
100
AcDbEntity
  8
Predefinito
  6
PHANTOM
 62
   255
100
AcDbVertex
100
AcDb2dVertex
 10
-35.72458603007787
 20
-171.8815013389753
 30
0.0
  0
VERTEX
  5
3ED
330
3DF
100
AcDbEntity
  8
Predefinito
  6
PHANTOM
 62
   255
100
AcDbVertex
100
AcDb2dVertex
 10
-35.06124621096918
 20
-169.7920689509507
 30
0.0
  0
VERTEX
  5
3EE
330
3DF
100
AcDbEntity
  8
Predefinito
  6
PHANTOM
 62
   255
100
AcDbVertex
100
AcDb2dVertex
 10
-34.06408549915366
 20
-167.8370134466848
 30
0.0
  0
VERTEX
  5
3EF
330
3DF
100
AcDbEntity
  8
Predefinito
  6
PHANTOM
 62
   255
100
AcDbVertex
100
AcDb2dVertex
 10
-32.1783150339105
 20
-165.3142049462971
 30
0.0
  0
VERTEX
  5
3F0
330
3DF
100
AcDbEntity
  8
Predefinito
  6
PHANTOM
 62
   255
100
AcDbVertex
100
AcDb2dVertex
 10
-29.92390306020443
 20
-163.1033170520522
 30
0.0
  0
VERTEX
  5
3F1
330
3DF
100
AcDbEntity
  8
Predefinito
  6
PHANTOM
 62
   255
100
AcDbVertex
100
AcDb2dVertex
 10
-25.59000767685704
 20
-159.8256389843148
 30
0.0
  0
VERTEX
  5
3F2
330
3DF
100
AcDbEntity
  8
Predefinito
  6
PHANTOM
 62
   255
100
AcDbVertex
100
AcDb2dVertex
 10
-20.9327100419901
 20
-156.9868605760656
 30
0.0
  0
VERTEX
  5
3F3
330
3DF
100
AcDbEntity
  8
Predefinito
  6
PHANTOM
 62
   255
100
AcDbVertex
100
AcDb2dVertex
 10
-16.11909253341223
 20
-154.3695139342113
 30
0.0
  0
VERTEX
  5
3F4
330
3DF
100
AcDbEntity
  8
Predefinito
  6
PHANTOM
 62
   255
100
AcDbVertex
100
AcDb2dVertex
 10
-11.31623752893212
 20
-151.7561311656588
 30
0.0
  0
VERTEX
  5
3F5
330
3DF
100
AcDbEntity
  8
Predefinito
  6
PHANTOM
 62
   255
100
AcDbVertex
100
AcDb2dVertex
 10
-6.2705430406913
 20
-148.7280057441268
 30
0.0
  0
VERTEX
  5
3F6
330
3DF
100
AcDbEntity
  8
Predefinito
  6
PHANTOM
 62
   255
100
AcDbVertex
100
AcDb2dVertex
 10
-2.518102092625484
 20
-145.951204616749
 30
0.0
  0
VERTEX
  5
3F7
330
3DF
100
AcDbEntity
  8
Predefinito
  6
PHANTOM
 62
   255
100
AcDbVertex
100
AcDb2dVertex
 10
-0.2225919918507624
 20
-143.483163054348
 30
0.0
  0
VERTEX
  5
3F8
330
3DF
100
AcDbEntity
  8
Predefinito
  6
PHANTOM
 62
   255
100
AcDbVertex
100
AcDb2dVertex
 10
0.5838259709112503
 20
-141.8584956063365
 30
0.0
  0
VERTEX
  5
3F9
330
3DF
100
AcDbEntity
  8
Predefinito
  6
PHANTOM
 62
   255
100
AcDbVertex
100
AcDb2dVertex
 10
0.7335137584086882
 20
-140.0370434618762
 30
0.0
  0
VERTEX
  5
3FA
330
3DF
100
AcDbEntity
  8
Predefinito
  6
PHANTOM
 62
   255
100
AcDbVertex
100
AcDb2dVertex
 10
0.3496580516976488
 20
-137.840496506668
 30
0.0
  0
VERTEX
  5
3FB
330
3DF
100
AcDbEntity
  8
Predefinito
  6
PHANTOM
 62
   255
100
AcDbVertex
100
AcDb2dVertex
 10
-0.3668114930684974
 20
-135.7181158938757
 30
0.0
  0
VERTEX
  5
3FC
330
3DF
100
AcDbEntity
  8
Predefinito
  6
PHANTOM
 62
   255
100
AcDbVertex
100
AcDb2dVertex
 10
-2.173024428762881
 20
-131.8455223893362
 30
0.0
  0
VERTEX
  5
3FD
330
3DF
100
AcDbEntity
  8
Predefinito
  6
PHANTOM
 62
   255
100
AcDbVertex
100
AcDb2dVertex
 10
-3.758896795884397
 20
-129.0457423653812
 30
0.0
  0
VERTEX
  5
3FE
330
3DF
100
AcDbEntity
  8
Predefinito
  6
PHANTOM
 62
   255
100
AcDbVertex
100
AcDb2dVertex
 10
-5.609056402166884
 20
-126.420887893987
 30
0.0
  0
VERTEX
  5
3FF
330
3DF
100
AcDbEntity
  8
Predefinito
  6
PHANTOM
 62
   255
100
AcDbVertex
100
AcDb2dVertex
 10
-8.205193093447583
 20
-123.9334260797102
 30
0.0
  0
VERTEX
  5
400
330
3DF
100
AcDbEntity
  8
Predefinito
  6
PHANTOM
 62
   255
100
AcDbVertex
100
AcDb2dVertex
 10
-9.817134940021733
 20
-123.0645154076948
 30
0.0
  0
VERTEX
  5
401
330
3DF
100
AcDbEntity
  8
Predefinito
  6
PHANTOM
 62
   255
100
AcDbVertex
100
AcDb2dVertex
 10
-11.57218722514635
 20
-122.5246704324015
 30
0.0
  0
VERTEX
  5
402
330
3DF
100
AcDbEntity
  8
Predefinito
  6
PHANTOM
 62
   255
100
AcDbVertex
100
AcDb2dVertex
 10
-15.43375434771399
 20
-122.1287915064696
 30
0.0
  0
VERTEX
  5
403
330
3DF
100
AcDbEntity
  8
Predefinito
  6
PHANTOM
 62
   255
100
AcDbVertex
100
AcDb2dVertex
 10
-19.33212189472927
 20
-122.3038567402429
 30
0.0
  0
VERTEX
  5
404
330
3DF
100
AcDbEntity
  8
Predefinito
  6
PHANTOM
 62
   255
100
AcDbVertex
100
AcDb2dVertex
 10
-27.17451020047446
 20
-123.2747632392046
 30
0.0
  0
VERTEX
  5
405
330
3DF
100
AcDbEntity
  8
Predefinito
  6
PHANTOM
 62
   255
100
AcDbVertex
100
AcDb2dVertex
 10
-35.0277428993962
 20
-124.0683119082148
 30
0.0
  0
VERTEX
  5
406
330
3DF
100
AcDbEntity
  8
Predefinito
  6
PHANTOM
 62
   255
100
AcDbVertex
100
AcDb2dVertex
 10
-40.08691180716093
 20
-123.9795035697873
 30
0.0
  0
VERTEX
  5
407
330
3DF
100
AcDbEntity
  8
Predefinito
  6
PHANTOM
 62
   255
100
AcDbVertex
100
AcDb2dVertex
 10
-45.07591788269865
 20
-123.1950608812104
 30
0.0
  0
VERTEX
  5
408
330
3DF
100
AcDbEntity
  8
Predefinito
  6
PHANTOM
 62
   255
100
AcDbVertex
100
AcDb2dVertex
 10
-48.55504352949633
 20
-122.0743123182471
 30
0.0
  0
VERTEX
  5
409
330
3DF
100
AcDbEntity
  8
Predefinito
  6
PHANTOM
 62
   255
100
AcDbVertex
100
AcDb2dVertex
 10
-51.8074314682072
 20
-120.4175080244105
 30
0.0
  0
VERTEX
  5
40A
330
3DF
100
AcDbEntity
  8
Predefinito
  6
PHANTOM
 62
   255
100
AcDbVertex
100
AcDb2dVertex
 10
-54.71842443610865
 20
-118.1744070136898
 30
0.0
  0
VERTEX
  5
40B
330
3DF
100
AcDbEntity
  8
Predefinito
  6
PHANTOM
 62
   255
100
AcDbVertex
100
AcDb2dVertex
 10
-57.18598298081532
 20
-115.4466919513875
 30
0.0
  0
VERTEX
  5
40C
330
3DF
100
AcDbEntity
  8
Predefinito
  6
PHANTOM
 62
   255
100
AcDbVertex
100
AcDb2dVertex
 10
-59.04063589062677
 20
-112.5713190722779
 30
0.0
  0
VERTEX
  5
40D
330
3DF
100
AcDbEntity
  8
Predefinito
  6
PHANTOM
 62
   255
100
AcDbVertex
100
AcDb2dVertex
 10
-60.4602179036033
 20
-109.456365802666
 30
0.0
  0
VERTEX
  5
40E
330
3DF
100
AcDbEntity
  8
Predefinito
  6
PHANTOM
 62
   255
100
AcDbVertex
100
AcDb2dVertex
 10
-61.75711927798615
 20
-104.7910617599802
 30
0.0
  0
VERTEX
  5
40F
330
3DF
100
AcDbEntity
  8
Predefinito
  6
PHANTOM
 62
   255
100
AcDbVertex
100
AcDb2dVertex
 10
-62.39651776190846
 20
-99.98036302478705
 30
0.0
  0
VERTEX
  5
410
330
3DF
100
AcDbEntity
  8
Predefinito
  6
PHANTOM
 62
   255
100
AcDbVertex
100
AcDb2dVertex
 10
-62.60818074835054
 20
-92.38804721120025
 30
0.0
  0
VERTEX
  5
411
330
3DF
100
AcDbEntity
  8
Predefinito
  6
PHANTOM
 62
   255
100
AcDbVertex
100
AcDb2dVertex
 10
-62.4914112929285
 20
-84.78083609736429
 30
0.0
  0
VERTEX
  5
412
330
3DF
100
AcDbEntity
  8
Predefinito
  6
PHANTOM
 62
   255
100
AcDbVertex
100
AcDb2dVertex
 10
-62.68974287858629
 20
-77.18749898089811
 30
0.0
  0
VERTEX
  5
413
330
3DF
100
AcDbEntity
  8
Predefinito
  6
PHANTOM
 62
   255
100
AcDbVertex
100
AcDb2dVertex
 10
-63.31629495038368
 20
-72.9594686854504
 30
0.0
  0
VERTEX
  5
414
330
3DF
100
AcDbEntity
  8
Predefinito
  6
PHANTOM
 62
   255
100
AcDbVertex
100
AcDb2dVertex
 10
-63.63750300719423
 20
-71.9207456856494
 30
0.0
  0
VERTEX
  5
415
330
3DF
100
AcDbEntity
  8
Predefinito
  6
PHANTOM
 62
   255
100
AcDbVertex
100
AcDb2dVertex
 10
-64.14750644128215
 20
-70.97429525258354
 30
0.0
  0
VERTEX
  5
416
330
3DF
100
AcDbEntity
  8
Predefinito
  6
PHANTOM
 62
   255
100
AcDbVertex
100
AcDb2dVertex
 10
-64.24438372755043
 20
-70.8590325925644
 30
0.0
  0
VERTEX
  5
417
330
3DF
100
AcDbEntity
  8
Predefinito
  6
PHANTOM
 62
   255
100
AcDbVertex
100
AcDb2dVertex
 10
-64.39523459115438
 20
-70.74091483474425
 30
0.0
  0
VERTEX
  5
418
330
3DF
100
AcDbEntity
  8
Predefinito
  6
PHANTOM
 62
   255
100
AcDbVertex
100
AcDb2dVertex
 10
-65.00755277406648
 20
-70.53401465502843
 30
0.0
  0
VERTEX
  5
419
330
3DF
100
AcDbEntity
  8
Predefinito
  6
PHANTOM
 62
   255
100
AcDbVertex
100
AcDb2dVertex
 10
-67.439020479514
 20
-70.3760328545681
 30
0.0
  0
VERTEX
  5
41A
330
3DF
100
AcDbEntity
  8
Predefinito
  6
PHANTOM
 62
   255
100
AcDbVertex
100
AcDb2dVertex
 10
-72.25836494554994
 20
-70.90451281353499
 30
0.0
  0
VERTEX
  5
41B
330
3DF
100
AcDbEntity
  8
Predefinito
  6
PHANTOM
 62
   255
100
AcDbVertex
100
AcDb2dVertex
 10
-77.0174280052042
 20
-71.89226790610009
 30
0.0
  0
VERTEX
  5
41C
330
3DF
100
AcDbEntity
  8
Predefinito
  6
PHANTOM
 62
   255
100
AcDbVertex
100
AcDb2dVertex
 10
-84.49619534300228
 20
-74.03426175992078
 30
0.0
  0
VERTEX
  5
41D
330
3DF
100
AcDbEntity
  8
Predefinito
  6
PHANTOM
 62
   255
100
AcDbVertex
100
AcDb2dVertex
 10
-91.78375431599324
 20
-76.81567334041367
 30
0.0
  0
VERTEX
  5
41E
330
3DF
100
AcDbEntity
  8
Predefinito
  6
PHANTOM
 62
   255
100
AcDbVertex
100
AcDb2dVertex
 10
-98.9007070268715
 20
-80.00347758156889
 30
0.0
  0
VERTEX
  5
41F
330
3DF
100
AcDbEntity
  8
Predefinito
  6
PHANTOM
 62
   255
100
AcDbVertex
100
AcDb2dVertex
 10
-101.916502209966
 20
-81.53394398641211
 30
0.0
  0
VERTEX
  5
420
330
3DF
100
AcDbEntity
  8
Predefinito
  6
PHANTOM
 62
   255
100
AcDbVertex
100
AcDb2dVertex
 10
-103.6332230472971
 20
-82.7314003886499
 30
0.0
  0
VERTEX
  5
421
330
3DF
100
AcDbEntity
  8
Predefinito
  6
PHANTOM
 62
   255
100
AcDbVertex
100
AcDb2dVertex
 10
-104.530740287012
 20
-83.8854455325819
 30
0.0
  0
VERTEX
  5
422
330
3DF
100
AcDbEntity
  8
Predefinito
  6
PHANTOM
 62
   255
100
AcDbVertex
100
AcDb2dVertex
 10
-105.0398263825577
 20
-85.2868051582813
 30
0.0
  0
VERTEX
  5
423
330
3DF
100
AcDbEntity
  8
Predefinito
  6
PHANTOM
 62
   255
100
AcDbVertex
100
AcDb2dVertex
 10
-105.3366540562244
 20
-86.75664351581119
 30
0.0
  0
VERTEX
  5
424
330
3DF
100
AcDbEntity
  8
Predefinito
  6
PHANTOM
 62
   255
100
AcDbVertex
100
AcDb2dVertex
 10
-105.7225936934592
 20
-90.01510988372688
 30
0.0
  0
VERTEX
  5
425
330
3DF
100
AcDbEntity
  8
Predefinito
  6
PHANTOM
 62
   255
100
AcDbVertex
100
AcDb2dVertex
 10
-106.180190134079
 20
-94.40033131123701
 30
0.0
  0
VERTEX
  5
426
330
3DF
100
AcDbEntity
  8
Predefinito
  6
PHANTOM
 62
   255
100
AcDbVertex
100
AcDb2dVertex
 10
-106.8878931504679
 20
-98.75064002561876
 30
0.0
  0
VERTEX
  5
427
330
3DF
100
AcDbEntity
  8
Predefinito
  6
PHANTOM
 62
   255
100
AcDbVertex
100
AcDb2dVertex
 10
-108.1031986245335
 20
-102.9593202964569
 30
0.0
  0
VERTEX
  5
428
330
3DF
100
AcDbEntity
  8
Predefinito
  6
PHANTOM
 62
   255
100
AcDbVertex
100
AcDb2dVertex
 10
-109.4759415025889
 20
-105.8887644695982
 30
0.0
  0
VERTEX
  5
429
330
3DF
100
AcDbEntity
  8
Predefinito
  6
PHANTOM
 62
   255
100
AcDbVertex
100
AcDb2dVertex
 10
-111.3178739589515
 20
-108.5419352236691
 30
0.0
  0
VERTEX
  5
42A
330
3DF
100
AcDbEntity
  8
Predefinito
  6
PHANTOM
 62
   255
100
AcDbVertex
100
AcDb2dVertex
 10
-113.636192640065
 20
-110.8079004533361
 30
0.0
  0
VERTEX
  5
42B
330
3DF
100
AcDbEntity
  8
Predefinito
  6
PHANTOM
 62
   255
100
AcDbVertex
100
AcDb2dVertex
 10
-116.3098234529991
 20
-112.6490909813586
 30
0.0
  0
VERTEX
  5
42C
330
3DF
100
AcDbEntity
  8
Predefinito
  6
PHANTOM
 62
   255
100
AcDbVertex
100
AcDb2dVertex
 10
-120.0914923125053
 20
-114.4044736913286
 30
0.0
  0
VERTEX
  5
42D
330
3DF
100
AcDbEntity
  8
Predefinito
  6
PHANTOM
 62
   255
100
AcDbVertex
100
AcDb2dVertex
 10
-124.1123539001973
 20
-115.5256482072828
 30
0.0
  0
VERTEX
  5
42E
330
3DF
100
AcDbEntity
  8
Predefinito
  6
PHANTOM
 62
   255
100
AcDbVertex
100
AcDb2dVertex
 10
-129.4984239966904
 20
-116.0579283542712
 30
0.0
  0
VERTEX
  5
42F
330
3DF
100
AcDbEntity
  8
Predefinito
  6
PHANTOM
 62
   255
100
AcDbVertex
100
AcDb2dVertex
 10
-134.9222658276506
 20
-115.7820724129402
 30
0.0
  0
VERTEX
  5
430
330
3DF
100
AcDbEntity
  8
Predefinito
  6
PHANTOM
 62
   255
100
AcDbVertex
100
AcDb2dVertex
 10
-138.7384631323081
 20
-115.3858558475866
 30
0.0
  0
VERTEX
  5
431
330
3DF
100
AcDbEntity
  8
Predefinito
  6
PHANTOM
 62
   255
100
AcDbVertex
100
AcDb2dVertex
 10
-142.567886722682
 20
-115.2092478436459
 30
0.0
  0
VERTEX
  5
432
330
3DF
100
AcDbEntity
  8
Predefinito
  6
PHANTOM
 62
   255
100
AcDbVertex
100
AcDb2dVertex
 10
-146.3449426104328
 20
-115.5900345296009
 30
0.0
  0
VERTEX
  5
433
330
3DF
100
AcDbEntity
  8
Predefinito
  6
PHANTOM
 62
   255
100
AcDbVertex
100
AcDb2dVertex
 10
-152.3912098312665
 20
-116.9875711519513
 30
0.0
  0
VERTEX
  5
434
330
3DF
100
AcDbEntity
  8
Predefinito
  6
PHANTOM
 62
   255
100
AcDbVertex
100
AcDb2dVertex
 10
-154.69853131443
 20
-117.451723152007
 30
0.0
  0
VERTEX
  5
435
330
3DF
100
AcDbEntity
  8
Predefinito
  6
PHANTOM
 62
   255
100
AcDbVertex
100
AcDb2dVertex
 10
-156.9596212704919
 20
-118.076321115438
 30
0.0
  0
VERTEX
  5
436
330
3DF
100
AcDbEntity
  8
Predefinito
  6
PHANTOM
 62
   255
100
AcDbVertex
100
AcDb2dVertex
 10
-157.9082489353157
 20
-118.5450296130001
 30
0.0
  0
VERTEX
  5
437
330
3DF
100
AcDbEntity
  8
Predefinito
  6
PHANTOM
 62
   255
100
AcDbVertex
100
AcDb2dVertex
 10
-158.4445287404318
 20
-119.1943112250928
 30
0.0
  0
VERTEX
  5
438
330
3DF
100
AcDbEntity
  8
Predefinito
  6
PHANTOM
 62
   255
100
AcDbVertex
100
AcDb2dVertex
 10
-159.081843928973
 20
-120.4797604639755
 30
0.0
  0
VERTEX
  5
439
330
3DF
100
AcDbEntity
  8
Predefinito
  6
PHANTOM
 62
   255
100
AcDbVertex
100
AcDb2dVertex
 10
-160.0399931021883
 20
-123.1384432750445
 30
0.0
  0
VERTEX
  5
43A
330
3DF
100
AcDbEntity
  8
Predefinito
  6
PHANTOM
 62
   255
100
AcDbVertex
100
AcDb2dVertex
 10
-160.9371422993194
 20
-125.8207969280039
 30
0.0
  0
VERTEX
  5
43B
330
3DF
100
AcDbEntity
  8
Predefinito
  6
PHANTOM
 62
   255
100
AcDbVertex
100
AcDb2dVertex
 10
-163.3861169721539
 20
-131.4723426028556
 30
0.0
  0
VERTEX
  5
43C
330
3DF
100
AcDbEntity
  8
Predefinito
  6
PHANTOM
 62
   255
100
AcDbVertex
100
AcDb2dVertex
 10
-166.592123689284
 20
-136.7230447122856
 30
0.0
  0
VERTEX
  5
43D
330
3DF
100
AcDbEntity
  8
Predefinito
  6
PHANTOM
 62
   255
100
AcDbVertex
100
AcDb2dVertex
 10
-169.1326965198698
 20
-140.0048999480732
 30
0.0
  0
VERTEX
  5
43E
330
3DF
100
AcDbEntity
  8
Predefinito
  6
PHANTOM
 62
   255
100
AcDbVertex
100
AcDb2dVertex
 10
-171.6284756619055
 20
-143.3185269690736
 30
0.0
  0
VERTEX
  5
43F
330
3DF
100
AcDbEntity
  8
Predefinito
  6
PHANTOM
 62
   255
100
AcDbVertex
100
AcDb2dVertex
 10
-173.6549121675188
 20
-146.8941498982863
 30
0.0
  0
VERTEX
  5
440
330
3DF
100
AcDbEntity
  8
Predefinito
  6
PHANTOM
 62
   255
100
AcDbVertex
100
AcDb2dVertex
 10
-174.5384511869272
 20
-150.1560991754871
 30
0.0
  0
VERTEX
  5
441
330
3DF
100
AcDbEntity
  8
Predefinito
  6
PHANTOM
 62
   255
100
AcDbVertex
100
AcDb2dVertex
 10
-174.467103150278
 20
-152.0669012758826
 30
0.0
  0
VERTEX
  5
442
330
3DF
100
AcDbEntity
  8
Predefinito
  6
PHANTOM
 62
   255
100
AcDbVertex
100
AcDb2dVertex
 10
-173.9407356144835
 20
-153.3172343840881
 30
0.0
  0
VERTEX
  5
443
330
3DF
100
AcDbEntity
  8
Predefinito
  6
PHANTOM
 62
   255
100
AcDbVertex
100
AcDb2dVertex
 10
-172.8105760387755
 20
-154.7009348163997
 30
0.0
  0
VERTEX
  5
444
330
3DF
100
AcDbEntity
  8
Predefinito
  6
PHANTOM
 62
   255
100
AcDbVertex
100
AcDb2dVertex
 10
-171.4666930545716
 20
-155.8953610463146
 30
0.0
  0
VERTEX
  5
445
330
3DF
100
AcDbEntity
  8
Predefinito
  6
PHANTOM
 62
   255
100
AcDbVertex
100
AcDb2dVertex
 10
-168.6198976954499
 20
-158.0138007390419
 30
0.0
  0
VERTEX
  5
446
330
3DF
100
AcDbEntity
  8
Predefinito
  6
PHANTOM
 62
   255
100
AcDbVertex
100
AcDb2dVertex
 10
-164.1047525457162
 20
-161.2375189168734
 30
0.0
  0
VERTEX
  5
447
330
3DF
100
AcDbEntity
  8
Predefinito
  6
PHANTOM
 62
   255
100
AcDbVertex
100
AcDb2dVertex
 10
-160.4994272266663
 20
-164.397819183583
 30
0.0
  0
VERTEX
  5
448
330
3DF
100
AcDbEntity
  8
Predefinito
  6
PHANTOM
 62
   255
100
AcDbVertex
100
AcDb2dVertex
 10
-157.5705058227132
 20
-168.1604688891346
 30
0.0
  0
VERTEX
  5
449
330
3DF
100
AcDbEntity
  8
Predefinito
  6
PHANTOM
 62
   255
100
AcDbVertex
100
AcDb2dVertex
 10
-156.1370181082438
 20
-171.1252298469949
 30
0.0
  0
VERTEX
  5
44A
330
3DF
100
AcDbEntity
  8
Predefinito
  6
PHANTOM
 62
   255
100
AcDbVertex
100
AcDb2dVertex
 10
-155.1793184057071
 20
-174.2797636956259
 30
0.0
  0
VERTEX
  5
44B
330
3DF
100
AcDbEntity
  8
Predefinito
  6
PHANTOM
 62
   255
100
AcDbVertex
100
AcDb2dVertex
 10
-154.6181950461698
 20
-178.33981089793
 30
0.0
  0
VERTEX
  5
44C
330
3DF
100
AcDbEntity
  8
Predefinito
  6
PHANTOM
 62
   255
100
AcDbVertex
100
AcDb2dVertex
 10
-154.6452925351855
 20
-182.4673700200268
 30
0.0
  0
VERTEX
  5
44D
330
3DF
100
AcDbEntity
  8
Predefinito
  6
PHANTOM
 62
   255
100
AcDbVertex
100
AcDb2dVertex
 10
-155.1105784484616
 20
-186.5620086235915
 30
0.0
  0
VERTEX
  5
44E
330
3DF
100
AcDbEntity
  8
Predefinito
  6
PHANTOM
 62
   255
100
AcDbVertex
100
AcDb2dVertex
 10
-155.4452748775147
 20
-188.7397414970969
 30
0.0
  0
VERTEX
  5
44F
330
3DF
100
AcDbEntity
  8
Predefinito
  6
PHANTOM
 62
   255
100
AcDbVertex
100
AcDb2dVertex
 10
-155.4869204740677
 20
-190.9237059456133
 30
0.0
  0
VERTEX
  5
450
330
3DF
100
AcDbEntity
  8
Predefinito
  6
PHANTOM
 62
   255
100
AcDbVertex
100
AcDb2dVertex
 10
-155.1432747196705
 20
-192.0797559576683
 30
0.0
  0
VERTEX
  5
451
330
3DF
100
AcDbEntity
  8
Predefinito
  6
PHANTOM
 62
   255
100
AcDbVertex
100
AcDb2dVertex
 10
-154.3092070207606
 20
-193.2529933207961
 30
0.0
  0
VERTEX
  5
452
330
3DF
100
AcDbEntity
  8
Predefinito
  6
PHANTOM
 62
   255
100
AcDbVertex
100
AcDb2dVertex
 10
-152.4719801186406
 20
-194.7284647419745
 30
0.0
  0
VERTEX
  5
453
330
3DF
100
AcDbEntity
  8
Predefinito
  6
PHANTOM
 62
   255
100
AcDbVertex
100
AcDb2dVertex
 10
-150.3000267586147
 20
-195.6319947100785
 30
0.0
  0
VERTEX
  5
454
330
3DF
100
AcDbEntity
  8
Predefinito
  6
PHANTOM
 62
   255
100
AcDbVertex
100
AcDb2dVertex
 10
-146.8614711855377
 20
-196.1662643468507
 30
0.0
  0
VERTEX
  5
455
330
3DF
100
AcDbEntity
  8
Predefinito
  6
PHANTOM
 62
   255
100
AcDbVertex
100
AcDb2dVertex
 10
-143.3466977123927
 20
-196.136567364595
 30
0.0
  0
VERTEX
  5
456
330
3DF
100
AcDbEntity
  8
Predefinito
  6
PHANTOM
 62
   255
100
AcDbVertex
100
AcDb2dVertex
 10
-139.8026931138555
 20
-195.8353459151084
 30
0.0
  0
VERTEX
  5
457
330
3DF
100
AcDbEntity
  8
Predefinito
  6
PHANTOM
 62
   255
100
AcDbVertex
100
AcDb2dVertex
 10
-136.2764441646019
 20
-195.5550421501882
 30
0.0
  0
VERTEX
  5
458
330
3DF
100
AcDbEntity
  8
Predefinito
  6
PHANTOM
 62
   255
100
AcDbVertex
100
AcDb2dVertex
 10
-134.0859934078224
 20
-195.5211395363307
 30
0.0
  0
SEQEND
  5
459
330
3DF
100
AcDbEntity
  8
Predefinito
  6
PHANTOM
 62
   255
  0
LINE
  5
45A
330
1F
100
AcDbEntity
  8
Predefinito
  6
PHANTOM
 62
   255
100
AcDbLine
 10
-112.4666563564765
 20
227.6083082625174
 30
0.0
 11
-167.5602394468254
 21
226.9111235553397
 31
0.0
  0
ARC
  5
45B
330
1F
100
AcDbEntity
  8
Predefinito
  6
Continuous
 62
   255
100
AcDbCircle
 10
-117.4303468584671
 20
227.3357469360194
 30
0.0
 40
4.971168180242366
100
AcDbArc
 50
3.143013479741973
 51
90.07854369890654
  0
ARC
  5
45C
330
1F
100
AcDbEntity
  8
Predefinito
  6
PHANTOM
 62
   255
100
AcDbCircle
 10
46.34067601370885
 20
-2607.025220490264
 30
0.0
 40
2835.088294915953
100
AcDbArc
 50
90.44879587861786
 51
91.92799128831221
  0
LINE
  5
45D
330
1F
100
AcDbEntity
  8
Predefinito
  6
PHANTOM
 62
   255
100
AcDbLine
 10
-49.04146383903025
 20
226.4581282108641
 30
0.0
 11
-57.488276600009
 21
226.888588221355
 31
0.0
  0
POLYLINE
  5
45E
330
1F
100
AcDbEntity
  8
Predefinito
 62
   255
100
AcDb2dPolyline
 66
     1
 10
0.0
 20
0.0
 30
0.0
  0
VERTEX
  5
45F
330
45E
100
AcDbEntity
  8
Predefinito
 62
   255
100
AcDbVertex
100
AcDb2dVertex
 10
284.4405319794944
 20
232.3069009264027
 30
0.0
  0
VERTEX
  5
460
330
45E
100
AcDbEntity
  8
Predefinito
 62
   255
100
AcDbVertex
100
AcDb2dVertex
 10
301.1999257928715
 20
232.3069130204475
 30
0.0
  0
VERTEX
  5
461
330
45E
100
AcDbEntity
  8
Predefinito
 62
   255
100
AcDbVertex
100
AcDb2dVertex
 10
329.8914150425411
 20
232.3069130204477
 30
0.0
  0
SEQEND
  5
462
330
45E
100
AcDbEntity
  8
Predefinito
 62
   255
  0
LINE
  5
463
330
1F
100
AcDbEntity
  8
Predefinito
 62
   255
100
AcDbLine
 10
59.33791160247448
 20
228.3069130204474
 30
0.0
 11
59.33027111702329
 21
227.4906083063834
 31
0.0
  0
LINE
  5
464
330
1F
100
AcDbEntity
  8
Predefinito
 62
   255
100
AcDbLine
 10
-96.53500548252113
 20
232.3069130204479
 30
0.0
 11
-96.18500548252113
 21
232.3069130204479
 31
0.0
  0
LINE
  5
465
330
1F
100
AcDbEntity
  8
Predefinito
 62
   255
100
AcDbLine
 10
-99.85506040582138
 20
232.306913020448
 30
0.0
 11
-99.50505040582138
 21
232.3069130204479
 31
0.0
  0
LINE
  5
466
330
1F
100
AcDbEntity
  8
Predefinito
  6
PHANTOM
 62
   255
100
AcDbLine
 10
324.7940670245474
 20
226.9103849737831
 30
0.0
 11
279.5860365724666
 21
227.4909977542323
 31
0.0
  0
ARC
  5
467
330
1F
100
AcDbEntity
  8
Predefinito
  6
PHANTOM
 62
   255
100
AcDbCircle
 10
383.32863728104
 20
-3221.375612985317
 30
0.0
 40
3448.783512630192
100
AcDbArc
 50
89.47130781305209
 51
90.97250147579489
  0
LINE
  5
468
330
1F
100
AcDbEntity
  8
Predefinito
 62
   255
100
AcDbLine
 10
455.465919500947
 20
227.6247866829193
 30
0.0
 11
455.4815880051024
 21
227.0039440666967
 31
0.0
  0
LINE
  5
469
330
1F
100
AcDbEntity
  8
Predefinito
 62
   255
100
AcDbLine
 10
561.6951661292667
 20
227.9761009495857
 30
0.0
 11
561.6897087336685
 21
227.4156893025084
 31
0.0
  0
LINE
  5
46A
330
1F
100
AcDbEntity
  8
Predefinito
  6
PHANTOM
 62
   255
100
AcDbLine
 10
598.4460951189862
 20
227.0294990987076
 30
0.0
 11
589.4053525384943
 21
226.3838282558708
 31
0.0
  0
LINE
  5
46B
330
1F
100
AcDbEntity
  8
Predefinito
  6
PHANTOM
 62
   255
100
AcDbLine
 10
589.3241036899349
 20
227.0060849626848
 30
0.0
 11
581.3688207128303
 21
226.9111235553397
 31
0.0
  0
LINE
  5
46C
330
1F
100
AcDbEntity
  8
Predefinito
  6
PHANTOM
 62
   255
100
AcDbLine
 10
581.3688207128303
 20
226.9111235553397
 30
0.0
 11
581.3688020688307
 21
226.911123366979
 31
0.0
  0
LINE
  5
46D
330
1F
100
AcDbEntity
  8
Predefinito
  6
PHANTOM
 62
   255
100
AcDbLine
 10
442.6443615727071
 20
227.0018333094132
 30
0.0
 11
420.4204484707241
 21
227.12009976971
 31
0.0
  0
LINE
  5
46E
330
1F
100
AcDbEntity
  8
Predefinito
  6
PHANTOM
 62
   255
100
AcDbLine
 10
570.7621861861656
 20
227.2194554003304
 30
0.0
 11
519.6488619043186
 21
227.9759583511991
 31
0.0
  0
LINE
  5
46F
330
1F
100
AcDbEntity
  8
Predefinito
  6
PHANTOM
 62
   255
100
AcDbLine
 10
581.3687337223002
 20
226.9103849737831
 30
0.0
 11
570.756382359105
 21
227.196993425052
 31
0.0
  0
POLYLINE
  5
470
330
1F
100
AcDbEntity
  8
Predefinito
  6
PHANTOM
 62
   255
100
AcDb2dPolyline
 66
     1
 10
0.0
 20
0.0
 30
0.0
  0
VERTEX
  5
471
330
470
100
AcDbEntity
  8
Predefinito
  6
PHANTOM
 62
   255
100
AcDbVertex
100
AcDb2dVertex
 10
519.6488559948751
 20
227.9761009495856
 30
0.0
  0
VERTEX
  5
472
330
470
100
AcDbEntity
  8
Predefinito
  6
PHANTOM
 62
   255
100
AcDbVertex
100
AcDb2dVertex
 10
519.6488350621584
 20
227.9761017214236
 30
0.0
  0
VERTEX
  5
473
330
470
100
AcDbEntity
  8
Predefinito
  6
PHANTOM
 62
   255
100
AcDbVertex
100
AcDb2dVertex
 10
516.5938335047235
 20
228.0879244864059
 30
0.0
  0
VERTEX
  5
474
330
470
100
AcDbEntity
  8
Predefinito
  6
PHANTOM
 62
   255
100
AcDbVertex
100
AcDb2dVertex
 10
513.1865533882749
 20
228.1998566238491
 30
0.0
  0
VERTEX
  5
475
330
470
100
AcDbEntity
  8
Predefinito
  6
PHANTOM
 62
   255
100
AcDbVertex
100
AcDb2dVertex
 10
510.7493031223534
 20
228.2624684927265
 30
0.0
  0
VERTEX
  5
476
330
470
100
AcDbEntity
  8
Predefinito
  6
PHANTOM
 62
   255
100
AcDbVertex
100
AcDb2dVertex
 10
508.1674467477401
 20
228.3042274121119
 30
0.0
  0
VERTEX
  5
477
330
470
100
AcDbEntity
  8
Predefinito
  6
PHANTOM
 62
   255
100
AcDbVertex
100
AcDb2dVertex
 10
505.3985827630005
 20
228.3212400782812
 30
0.0
  0
VERTEX
  5
478
330
470
100
AcDbEntity
  8
Predefinito
  6
PHANTOM
 62
   255
100
AcDbVertex
100
AcDb2dVertex
 10
502.608075460332
 20
228.3089092493095
 30
0.0
  0
VERTEX
  5
479
330
470
100
AcDbEntity
  8
Predefinito
  6
PHANTOM
 62
   255
100
AcDbVertex
100
AcDb2dVertex
 10
499.8221041024875
 20
228.2613701566928
 30
0.0
  0
VERTEX
  5
47A
330
470
100
AcDbEntity
  8
Predefinito
  6
PHANTOM
 62
   255
100
AcDbVertex
100
AcDb2dVertex
 10
497.1731362124081
 20
228.1917109747149
 30
0.0
  0
VERTEX
  5
47B
330
470
100
AcDbEntity
  8
Predefinito
  6
PHANTOM
 62
   255
100
AcDbVertex
100
AcDb2dVertex
 10
493.4500083712444
 20
228.0721381476149
 30
0.0
  0
VERTEX
  5
47C
330
470
100
AcDbEntity
  8
Predefinito
  6
PHANTOM
 62
   255
100
AcDbVertex
100
AcDb2dVertex
 10
490.0677141691435
 20
227.9488046145301
 30
0.0
  0
VERTEX
  5
47D
330
470
100
AcDbEntity
  8
Predefinito
  6
PHANTOM
 62
   255
100
AcDbVertex
100
AcDb2dVertex
 10
484.6600655997006
 20
227.7289959938046
 30
0.0
  0
VERTEX
  5
47E
330
470
100
AcDbEntity
  8
Predefinito
  6
PHANTOM
 62
   255
100
AcDbVertex
100
AcDb2dVertex
 10
479.3651353983714
 20
227.5514494478787
 30
0.0
  0
VERTEX
  5
47F
330
470
100
AcDbEntity
  8
Predefinito
  6
PHANTOM
 62
   255
100
AcDbVertex
100
AcDb2dVertex
 10
475.9317464615427
 20
227.491746261545
 30
0.0
  0
VERTEX
  5
480
330
470
100
AcDbEntity
  8
Predefinito
  6
PHANTOM
 62
   255
100
AcDbVertex
100
AcDb2dVertex
 10
472.0945627229282
 20
227.4260399748416
 30
0.0
  0
VERTEX
  5
481
330
470
100
AcDbEntity
  8
Predefinito
  6
PHANTOM
 62
   255
100
AcDbVertex
100
AcDb2dVertex
 10
469.4882234722404
 20
227.3545624939409
 30
0.0
  0
VERTEX
  5
482
330
470
100
AcDbEntity
  8
Predefinito
  6
PHANTOM
 62
   255
100
AcDbVertex
100
AcDb2dVertex
 10
466.7250202760309
 20
227.271701875405
 30
0.0
  0
VERTEX
  5
483
330
470
100
AcDbEntity
  8
Predefinito
  6
PHANTOM
 62
   255
100
AcDbVertex
100
AcDb2dVertex
 10
464.2282155610253
 20
227.2080596273048
 30
0.0
  0
VERTEX
  5
484
330
470
100
AcDbEntity
  8
Predefinito
  6
PHANTOM
 62
   255
100
AcDbVertex
100
AcDb2dVertex
 10
461.7485732093047
 20
227.1523998074618
 30
0.0
  0
VERTEX
  5
485
330
470
100
AcDbEntity
  8
Predefinito
  6
PHANTOM
 62
   255
100
AcDbVertex
100
AcDb2dVertex
 10
458.1651066116534
 20
227.0716693183774
 30
0.0
  0
VERTEX
  5
486
330
470
100
AcDbEntity
  8
Predefinito
  6
PHANTOM
 62
   255
100
AcDbVertex
100
AcDb2dVertex
 10
454.6865438923743
 20
226.983879155464
 30
0.0
  0
VERTEX
  5
487
330
470
100
AcDbEntity
  8
Predefinito
  6
PHANTOM
 62
   255
100
AcDbVertex
100
AcDb2dVertex
 10
450.3107463756562
 20
226.8361179764272
 30
0.0
  0
VERTEX
  5
488
330
470
100
AcDbEntity
  8
Predefinito
  6
PHANTOM
 62
   255
100
AcDbVertex
100
AcDb2dVertex
 10
447.7662173150894
 20
226.7165149403758
 30
0.0
  0
VERTEX
  5
489
330
470
100
AcDbEntity
  8
Predefinito
  6
PHANTOM
 62
   255
100
AcDbVertex
100
AcDb2dVertex
 10
445.5053221294254
 20
226.5773660384731
 30
0.0
  0
VERTEX
  5
48A
330
470
100
AcDbEntity
  8
Predefinito
  6
PHANTOM
 62
   255
100
AcDbVertex
100
AcDb2dVertex
 10
444.4027429976402
 20
226.4933589890948
 30
0.0
  0
VERTEX
  5
48B
330
470
100
AcDbEntity
  8
Predefinito
  6
PHANTOM
 62
   255
100
AcDbVertex
100
AcDb2dVertex
 10
443.5414006088757
 20
226.4246961108215
 30
0.0
  0
VERTEX
  5
48C
330
470
100
AcDbEntity
  8
Predefinito
  6
PHANTOM
 62
   255
100
AcDbVertex
100
AcDb2dVertex
 10
442.9860674450595
 20
226.3881337046774
 30
0.0
  0
VERTEX
  5
48D
330
470
100
AcDbEntity
  8
Predefinito
  6
PHANTOM
 62
   255
100
AcDbVertex
100
AcDb2dVertex
 10
442.7028491224651
 20
226.3778753195486
 30
0.0
  0
VERTEX
  5
48E
330
470
100
AcDbEntity
  8
Predefinito
  6
PHANTOM
 62
   255
100
AcDbVertex
100
AcDb2dVertex
 10
442.6773287399558
 20
226.3820527699312
 30
0.0
  0
SEQEND
  5
48F
330
470
100
AcDbEntity
  8
Predefinito
  6
PHANTOM
 62
   255
  0
LINE
  5
490
330
1F
100
AcDbEntity
  8
Predefinito
  6
PHANTOM
 62
   255
100
AcDbLine
 10
420.3821487738887
 20
227.0015696013774
 30
0.0
 11
416.3912438578434
 21
227.189407841537
 31
0.0
  0
LINE
  5
491
330
1F
100
AcDbEntity
  8
Predefinito
  6
PHANTOM
 62
   255
100
AcDbLine
 10
416.3912343394783
 20
227.1893820673425
 30
0.0
 11
415.1644810919647
 21
227.2665879697819
 31
0.0
  0
LINE
  5
492
330
1F
100
AcDbEntity
  8
Predefinito
  6
Continuous
 62
   255
100
AcDbLine
 10
336.0854088055463
 20
234.829151943677
 30
0.0
 11
392.532777226599
 21
234.829151943677
 31
0.0
  0
LINE
  5
493
330
1F
100
AcDbEntity
  8
Predefinito
  6
Continuous
 62
   255
100
AcDbLine
 10
392.532777226599
 20
234.829151943677
 30
0.0
 11
478.585408805546
 21
234.829151943677
 31
0.0
  0
LINE
  5
494
330
1F
100
AcDbEntity
  8
Predefinito
  6
Continuous
 62
   255
100
AcDbLine
 10
478.5854088055465
 20
234.829151943677
 30
0.0
 11
538.5854088055466
 21
234.829151943677
 31
0.0
  0
LINE
  5
495
330
1F
100
AcDbEntity
  8
Predefinito
  6
Continuous
 62
   255
100
AcDbLine
 10
584.7647460624945
 20
232.3069130204475
 30
0.0
 11
593.4613507535736
 21
232.3069130204475
 31
0.0
  0
LINE
  5
496
330
1F
100
AcDbEntity
  8
Predefinito
  6
Continuous
 62
   255
100
AcDbLine
 10
598.4499812742949
 20
227.0428321084599
 30
0.0
 11
598.4460951189862
 21
227.0294990987076
 31
0.0
  0
POLYLINE
  5
497
330
1F
100
AcDbEntity
  8
Predefinito
  6
Continuous
 62
   255
100
AcDb2dPolyline
 66
     1
 10
0.0
 20
0.0
 30
0.0
  0
VERTEX
  5
498
330
497
100
AcDbEntity
  8
Predefinito
  6
Continuous
 62
   255
100
AcDbVertex
100
AcDb2dVertex
 10
557.2243119557414
 20
232.3069130204475
 30
0.0
  0
VERTEX
  5
499
330
497
100
AcDbEntity
  8
Predefinito
  6
Continuous
 62
   255
100
AcDbVertex
100
AcDb2dVertex
 10
558.7624998371775
 20
232.0073156783831
 30
0.0
  0
VERTEX
  5
49A
330
497
100
AcDbEntity
  8
Predefinito
  6
Continuous
 62
   255
100
AcDbVertex
100
AcDb2dVertex
 10
560.17656089275
 20
231.0876941065499
 30
0.0
  0
VERTEX
  5
49B
330
497
100
AcDbEntity
  8
Predefinito
  6
Continuous
 62
   255
100
AcDbVertex
100
AcDb2dVertex
 10
561.1903089362988
 20
229.6901275268097
 30
0.0
  0
VERTEX
  5
49C
330
497
100
AcDbEntity
  8
Predefinito
  6
Continuous
 62
   255
100
AcDbVertex
100
AcDb2dVertex
 10
561.6951661292667
 20
227.9761009495857
 30
0.0
  0
SEQEND
  5
49D
330
497
100
AcDbEntity
  8
Predefinito
  6
Continuous
 62
   255
  0
LINE
  5
49E
330
1F
100
AcDbEntity
  8
Predefinito
  6
Continuous
 62
   255
100
AcDbLine
 10
466.1979295664059
 20
77.30691302044778
 30
0.0
 11
466.1197614845422
 21
77.30691302044778
 31
0.0
  0
LINE
  5
49F
330
1F
100
AcDbEntity
  8
Predefinito
  6
Continuous
 62
   255
100
AcDbLine
 10
577.4599365080977
 20
232.3069130204477
 30
0.0
 11
584.4185088360628
 21
232.3069130204478
 31
0.0
  0
LINE
  5
4A0
330
1F
100
AcDbEntity
  8
Predefinito
  6
Continuous
 62
   255
100
AcDbLine
 10
568.0652720671328
 20
77.30691302044777
 30
0.0
 11
597.9927518732213
 21
77.3069130204476
 31
0.0
  0
LINE
  5
4A1
330
1F
100
AcDbEntity
  8
Predefinito
  6
Continuous
 62
   255
100
AcDbLine
 10
446.7873645127871
 20
232.3069130204477
 30
0.0
 11
425.3720088002014
 21
232.3069130204478
 31
0.0
  0
LINE
  5
4A2
330
1F
100
AcDbEntity
  8
Predefinito
  6
Continuous
 62
   255
100
AcDbLine
 10
466.5479395664058
 20
77.30691302044751
 30
0.0
 11
420.2459524688479
 21
77.30691302044784
 31
0.0
  0
LINE
  5
4A3
330
1F
100
AcDbEntity
  8
Predefinito
  6
Continuous
 62
   255
100
AcDbLine
 10
523.1854155788664
 20
232.3069130204475
 30
0.0
 11
447.5943643901487
 21
232.3069130204475
 31
0.0
  0
LINE
  5
4A4
330
1F
100
AcDbEntity
  8
Predefinito
  6
Continuous
 62
   255
100
AcDbLine
 10
566.2119939777284
 20
232.3069130204475
 30
0.0
 11
577.4599365080977
 21
232.3069130204477
 31
0.0
  0
LINE
  5
4A5
330
1F
100
AcDbEntity
  8
Predefinito
  6
Continuous
 62
   255
100
AcDbLine
 10
523.1854155788664
 20
232.3069130204475
 30
0.0
 11
565.8619839777283
 21
232.3069130204475
 31
0.0
  0
POLYLINE
  5
4A6
330
1F
100
AcDbEntity
  8
Predefinito
  6
Continuous
 62
   255
100
AcDb2dPolyline
 66
     1
 10
0.0
 20
0.0
 30
0.0
  0
VERTEX
  5
4A7
330
4A6
100
AcDbEntity
  8
Predefinito
  6
Continuous
 62
   255
100
AcDbVertex
100
AcDb2dVertex
 10
581.3688002016387
 20
226.9111233481148
 30
0.0
  0
VERTEX
  5
4A8
330
4A6
100
AcDbEntity
  8
Predefinito
  6
Continuous
 62
   255
100
AcDbVertex
100
AcDb2dVertex
 10
581.2511942781704
 20
228.5832686250079
 30
0.0
  0
VERTEX
  5
4A9
330
4A6
100
AcDbEntity
  8
Predefinito
  6
Continuous
 62
   255
100
AcDbVertex
100
AcDb2dVertex
 10
580.7061530979959
 20
230.1115144888217
 30
0.0
  0
VERTEX
  5
4AA
330
4A6
100
AcDbEntity
  8
Predefinito
  6
Continuous
 62
   255
100
AcDbVertex
100
AcDb2dVertex
 10
579.7951258637373
 20
231.3235630557881
 30
0.0
  0
VERTEX
  5
4AB
330
4A6
100
AcDbEntity
  8
Predefinito
  6
Continuous
 62
   255
100
AcDbVertex
100
AcDb2dVertex
 10
578.6208236632193
 20
232.0827652096908
 30
0.0
  0
VERTEX
  5
4AC
330
4A6
100
AcDbEntity
  8
Predefinito
  6
Continuous
 62
   255
100
AcDbVertex
100
AcDb2dVertex
 10
577.6519175877366
 20
232.3009166773806
 30
0.0
  0
VERTEX
  5
4AD
330
4A6
100
AcDbEntity
  8
Predefinito
  6
Continuous
 62
   255
100
AcDbVertex
100
AcDb2dVertex
 10
577.459936508114
 20
232.3069130204477
 30
0.0
  0
SEQEND
  5
4AE
330
4A6
100
AcDbEntity
  8
Predefinito
  6
Continuous
 62
   255
  0
POLYLINE
  5
4AF
330
1F
100
AcDbEntity
  8
Predefinito
  6
Continuous
 62
   255
100
AcDb2dPolyline
 66
     1
 10
0.0
 20
0.0
 30
0.0
  0
VERTEX
  5
4B0
330
4AF
100
AcDbEntity
  8
Predefinito
  6
Continuous
 62
   255
100
AcDbVertex
100
AcDb2dVertex
 10
523.1854155788661
 20
232.3069130204475
 30
0.0
  0
VERTEX
  5
4B1
330
4AF
100
AcDbEntity
  8
Predefinito
  6
Continuous
 62
   255
100
AcDbVertex
100
AcDb2dVertex
 10
521.968670775508
 20
232.0073156783831
 30
0.0
  0
VERTEX
  5
4B2
330
4AF
100
AcDbEntity
  8
Predefinito
  6
Continuous
 62
   255
100
AcDbVertex
100
AcDb2dVertex
 10
520.8501138310396
 20
231.0876941065499
 30
0.0
  0
VERTEX
  5
4B3
330
4AF
100
AcDbEntity
  8
Predefinito
  6
Continuous
 62
   255
100
AcDbVertex
100
AcDb2dVertex
 10
520.0482145583356
 20
229.6901275268097
 30
0.0
  0
VERTEX
  5
4B4
330
4AF
100
AcDbEntity
  8
Predefinito
  6
Continuous
 62
   255
100
AcDbVertex
100
AcDb2dVertex
 10
519.6488559948751
 20
227.9761009495857
 30
0.0
  0
SEQEND
  5
4B5
330
4AF
100
AcDbEntity
  8
Predefinito
  6
Continuous
 62
   255
  0
LINE
  5
4B6
330
1F
100
AcDbEntity
  8
Predefinito
  6
Continuous
 62
   255
100
AcDbLine
 10
581.3688002016387
 20
226.9111233481148
 30
0.0
 11
581.3687337223002
 21
226.9103849737831
 31
0.0
  0
LINE
  5
4B7
330
1F
100
AcDbEntity
  8
Predefinito
  6
Continuous
 62
   255
100
AcDbLine
 10
567.926487993115
 20
77.30691302044745
 30
0.0
 11
525.89276284594
 21
77.30691302044731
 31
0.0
  0
LINE
  5
4B8
330
1F
100
AcDbEntity
  8
Predefinito
  6
Continuous
 62
   255
100
AcDbLine
 10
568.8940463028715
 20
120.9957062134244
 30
0.0
 11
581.3687337223002
 21
226.9103849737831
 31
0.0
  0
LINE
  5
4B9
330
1F
100
AcDbEntity
  8
Predefinito
  6
Continuous
 62
   255
100
AcDbLine
 10
570.7511452193264
 20
227.2153009537249
 30
0.0
 11
570.7621861861656
 21
227.2194554003304
 31
0.0
  0
LINE
  5
4BA
330
1F
100
AcDbEntity
  8
Predefinito
  6
Continuous
 62
   255
100
AcDbLine
 10
467.1557926226177
 20
77.30691302044751
 30
0.0
 11
466.5479395664058
 21
77.30691302044751
 31
0.0
  0
LINE
  5
4BB
330
1F
100
AcDbEntity
  8
Predefinito
  6
Continuous
 62
   255
100
AcDbLine
 10
525.89276284594
 20
77.30691302044731
 30
0.0
 11
467.1751549847983
 21
77.30691302044745
 31
0.0
  0
LINE
  5
4BC
330
1F
100
AcDbEntity
  8
Predefinito
  6
Continuous
 62
   255
100
AcDbLine
 10
519.6488619043186
 20
227.9759583511991
 30
0.0
 11
525.89276284594
 21
77.30691302044735
 31
0.0
  0
LINE
  5
4BD
330
1F
100
AcDbEntity
  8
Predefinito
  6
Continuous
 62
   255
100
AcDbLine
 10
519.6488619043184
 20
227.975958351199
 30
0.0
 11
519.6488559948751
 21
227.9761009495855
 31
0.0
  0
LINE
  5
4BE
330
1F
100
AcDbEntity
  8
Predefinito
  6
Continuous
 62
   255
100
AcDbLine
 10
461.7442407644638
 20
116.8654994397173
 30
0.0
 11
466.5479395664035
 21
77.30691302044757
 31
0.0
  0
LINE
  5
4BF
330
1F
100
AcDbEntity
  8
Predefinito
  6
Continuous
 62
   255
100
AcDbLine
 10
419.895942468848
 20
77.3069130204479
 30
0.0
 11
414.6147374752034
 21
77.30691302044781
 31
0.0
  0
LINE
  5
4C0
330
1F
100
AcDbEntity
  8
Predefinito
  6
Continuous
 62
   255
100
AcDbLine
 10
411.6227340619468
 20
232.3069130204479
 30
0.0
 11
425.0219988002013
 21
232.3069130204479
 31
0.0
  0
LINE
  5
4C1
330
1F
100
AcDbEntity
  8
Predefinito
  6
Continuous
 62
   255
100
AcDbLine
 10
333.7401667884794
 20
77.30691302044777
 30
0.0
 11
270.2273314817299
 21
77.30691302044723
 31
0.0
  0
POLYLINE
  5
4C2
330
1F
100
AcDbEntity
  8
Predefinito
  6
Continuous
 62
   255
100
AcDb2dPolyline
 66
     1
 10
0.0
 20
0.0
 30
0.0
  0
VERTEX
  5
4C3
330
4C2
100
AcDbEntity
  8
Predefinito
  6
Continuous
 62
   255
100
AcDbVertex
100
AcDb2dVertex
 10
279.5860365724666
 20
227.4909977542323
 30
0.0
  0
VERTEX
  5
4C4
330
4C2
100
AcDbEntity
  8
Predefinito
  6
Continuous
 62
   255
100
AcDbVertex
100
AcDb2dVertex
 10
279.4682264966695
 20
227.4951896288519
 30
0.0
  0
VERTEX
  5
4C5
330
4C2
100
AcDbEntity
  8
Predefinito
  6
Continuous
 62
   255
100
AcDbVertex
100
AcDb2dVertex
 10
279.5295704470631
 20
227.4977655873692
 30
0.0
  0
SEQEND
  5
4C6
330
4C2
100
AcDbEntity
  8
Predefinito
  6
Continuous
 62
   255
  0
POLYLINE
  5
4C7
330
1F
100
AcDbEntity
  8
Predefinito
  6
Continuous
 62
   255
100
AcDb2dPolyline
 66
     1
 10
0.0
 20
0.0
 30
0.0
  0
VERTEX
  5
4C8
330
4C7
100
AcDbEntity
  8
Predefinito
  6
Continuous
 62
   255
100
AcDbVertex
100
AcDb2dVertex
 10
416.3912349095784
 20
227.1894084096811
 30
0.0
  0
VERTEX
  5
4C9
330
4C7
100
AcDbEntity
  8
Predefinito
  6
Continuous
 62
   255
100
AcDbVertex
100
AcDb2dVertex
 10
416.1595329232897
 20
228.850602988595
 30
0.0
  0
VERTEX
  5
4CA
330
4C7
100
AcDbEntity
  8
Predefinito
  6
Continuous
 62
   255
100
AcDbVertex
100
AcDb2dVertex
 10
415.4163414061006
 20
230.3377582328821
 30
0.0
  0
VERTEX
  5
4CB
330
4C7
100
AcDbEntity
  8
Predefinito
  6
Continuous
 62
   255
100
AcDbVertex
100
AcDb2dVertex
 10
414.2454495140349
 20
231.483208776404
 30
0.0
  0
VERTEX
  5
4CC
330
4C7
100
AcDbEntity
  8
Predefinito
  6
Continuous
 62
   255
100
AcDbVertex
100
AcDb2dVertex
 10
412.7788662724673
 20
232.1578137857008
 30
0.0
  0
VERTEX
  5
4CD
330
4C7
100
AcDbEntity
  8
Predefinito
  6
Continuous
 62
   255
100
AcDbVertex
100
AcDb2dVertex
 10
411.9424637684574
 20
232.2956672035248
 30
0.0
  0
VERTEX
  5
4CE
330
4C7
100
AcDbEntity
  8
Predefinito
  6
Continuous
 62
   255
100
AcDbVertex
100
AcDb2dVertex
 10
411.6227340619053
 20
232.3069130204479
 30
0.0
  0
SEQEND
  5
4CF
330
4C7
100
AcDbEntity
  8
Predefinito
  6
Continuous
 62
   255
  0
LINE
  5
4D0
330
1F
100
AcDbEntity
  8
Predefinito
  6
Continuous
 62
   255
100
AcDbLine
 10
410.1858162861178
 20
232.3069130204479
 30
0.0
 11
411.6227340619468
 21
232.3069130204479
 31
0.0
  0
LINE
  5
4D1
330
1F
100
AcDbEntity
  8
Predefinito
  6
Continuous
 62
   255
100
AcDbLine
 10
329.6756516696171
 20
232.3069130204477
 30
0.0
 11
410.2518814868671
 21
232.3069130204479
 31
0.0
  0
POLYLINE
  5
4D2
330
1F
100
AcDbEntity
  8
Predefinito
  6
Continuous
 62
   255
100
AcDb2dPolyline
 66
     1
 10
0.0
 20
0.0
 30
0.0
  0
VERTEX
  5
4D3
330
4D2
100
AcDbEntity
  8
Predefinito
  6
Continuous
 62
   255
100
AcDbVertex
100
AcDb2dVertex
 10
324.7940162372728
 20
226.9111233481148
 30
0.0
  0
VERTEX
  5
4D4
330
4D2
100
AcDbEntity
  8
Predefinito
  6
Continuous
 62
   255
100
AcDbVertex
100
AcDb2dVertex
 10
324.9408899290124
 20
228.5832686250079
 30
0.0
  0
VERTEX
  5
4D5
330
4D2
100
AcDbEntity
  8
Predefinito
  6
Continuous
 62
   255
100
AcDbVertex
100
AcDb2dVertex
 10
325.621571717528
 20
230.1115144888217
 30
0.0
  0
VERTEX
  5
4D6
330
4D2
100
AcDbEntity
  8
Predefinito
  6
Continuous
 62
   255
100
AcDbVertex
100
AcDb2dVertex
 10
326.7593199657988
 20
231.3235630557881
 30
0.0
  0
VERTEX
  5
4D7
330
4D2
100
AcDbEntity
  8
Predefinito
  6
Continuous
 62
   255
100
AcDbVertex
100
AcDb2dVertex
 10
328.2258625934872
 20
232.0827652096908
 30
0.0
  0
VERTEX
  5
4D8
330
4D2
100
AcDbEntity
  8
Predefinito
  6
Continuous
 62
   255
100
AcDbVertex
100
AcDb2dVertex
 10
329.4358935922773
 20
232.3009166773806
 30
0.0
  0
VERTEX
  5
4D9
330
4D2
100
AcDbEntity
  8
Predefinito
  6
Continuous
 62
   255
100
AcDbVertex
100
AcDb2dVertex
 10
329.675651669608
 20
232.3069130204477
 30
0.0
  0
SEQEND
  5
4DA
330
4D2
100
AcDbEntity
  8
Predefinito
  6
Continuous
 62
   255
  0
LINE
  5
4DB
330
1F
100
AcDbEntity
  8
Predefinito
  6
Continuous
 62
   255
100
AcDbLine
 10
416.3912348889658
 20
227.1894084109898
 30
0.0
 11
416.3912343394783
 21
227.1893820673425
 31
0.0
  0
LINE
  5
4DC
330
1F
100
AcDbEntity
  8
Predefinito
  6
Continuous
 62
   255
100
AcDbLine
 10
416.3912343394783
 20
227.1893820673425
 30
0.0
 11
414.4577104605286
 21
134.4919731717013
 31
0.0
  0
LINE
  5
4DD
330
1F
100
AcDbEntity
  8
Predefinito
  6
Continuous
 62
   255
100
AcDbLine
 10
324.7940162372728
 20
226.9111233481148
 30
0.0
 11
324.7940670245474
 21
226.9103849737831
 31
0.0
  0
LINE
  5
4DE
330
1F
100
AcDbEntity
  8
Predefinito
  6
Continuous
 62
   255
100
AcDbLine
 10
333.7401667884793
 20
77.30691302044751
 30
0.0
 11
324.7940670245474
 21
226.9103849737831
 31
0.0
  0
LINE
  5
4DF
330
1F
100
AcDbEntity
  8
Predefinito
  6
Continuous
 62
   255
100
AcDbLine
 10
328.509087743255
 20
77.30691302044765
 30
0.0
 11
414.5748976495005
 21
77.30691302044795
 31
0.0
  0
LINE
  5
4E0
330
1F
100
AcDbEntity
  8
Predefinito
  6
Continuous
 62
   255
100
AcDbLine
 10
382.0854088055463
 20
232.3069130204479
 30
0.0
 11
382.0854088055463
 21
234.829151943677
 31
0.0
  0
LINE
  5
4E1
330
1F
100
AcDbEntity
  8
Predefinito
  6
Continuous
 62
   255
100
AcDbLine
 10
350.0854088055464
 20
234.829151943677
 30
0.0
 11
350.0854088055464
 21
232.3069130204478
 31
0.0
  0
LINE
  5
4E2
330
1F
100
AcDbEntity
  8
Predefinito
  6
Continuous
 62
   255
100
AcDbLine
 10
524.5854088055466
 20
232.3069130204477
 30
0.0
 11
524.5854088055466
 21
234.829151943677
 31
0.0
  0
LINE
  5
4E3
330
1F
100
AcDbEntity
  8
Predefinito
  6
Continuous
 62
   255
100
AcDbLine
 10
492.5854088055466
 20
234.829151943677
 30
0.0
 11
492.5854088055466
 21
232.3069130204479
 31
0.0
  0
LINE
  5
4E4
330
1F
100
AcDbEntity
  8
Predefinito
  6
Continuous
 62
   255
100
AcDbLine
 10
593.6852116391312
 20
121.6524437932112
 30
0.0
 11
598.4811237801637
 21
227.0411523150771
 31
0.0
  0
POLYLINE
  5
4E5
330
1F
100
AcDbEntity
  8
Predefinito
  6
Continuous
 62
   255
100
AcDb2dPolyline
 66
     1
 10
0.0
 20
0.0
 30
0.0
  0
VERTEX
  5
4E6
330
4E5
100
AcDbEntity
  8
Predefinito
  6
Continuous
 62
   255
100
AcDbVertex
100
AcDb2dVertex
 10
593.5028482016768
 20
232.3068853898913
 30
0.0
  0
VERTEX
  5
4E7
330
4E5
100
AcDbEntity
  8
Predefinito
  6
Continuous
 62
   255
100
AcDbVertex
100
AcDb2dVertex
 10
594.5106957501102
 20
232.200830825331
 30
0.0
  0
VERTEX
  5
4E8
330
4E5
100
AcDbEntity
  8
Predefinito
  6
Continuous
 62
   255
100
AcDbVertex
100
AcDb2dVertex
 10
595.476456706345
 20
231.8937275450621
 30
0.0
  0
VERTEX
  5
4E9
330
4E5
100
AcDbEntity
  8
Predefinito
  6
Continuous
 62
   255
100
AcDbVertex
100
AcDb2dVertex
 10
596.3604563133307
 20
231.3981917642623
 30
0.0
  0
VERTEX
  5
4EA
330
4E5
100
AcDbEntity
  8
Predefinito
  6
Continuous
 62
   255
100
AcDbVertex
100
AcDb2dVertex
 10
597.1263786800455
 20
230.7345807582863
 30
0.0
  0
VERTEX
  5
4EB
330
4E5
100
AcDbEntity
  8
Predefinito
  6
Continuous
 62
   255
100
AcDbVertex
100
AcDb2dVertex
 10
597.7427586870698
 20
229.9301565584556
 30
0.0
  0
VERTEX
  5
4EC
330
4E5
100
AcDbEntity
  8
Predefinito
  6
Continuous
 62
   255
100
AcDbVertex
100
AcDb2dVertex
 10
598.1842746159482
 20
229.0179659912001
 30
0.0
  0
VERTEX
  5
4ED
330
4E5
100
AcDbEntity
  8
Predefinito
  6
Continuous
 62
   255
100
AcDbVertex
100
AcDb2dVertex
 10
598.4327883993885
 20
228.0354830700487
 30
0.0
  0
VERTEX
  5
4EE
330
4E5
100
AcDbEntity
  8
Predefinito
  6
Continuous
 62
   255
100
AcDbVertex
100
AcDb2dVertex
 10
598.4780907574258
 20
227.0230695128268
 30
0.0
  0
SEQEND
  5
4EF
330
4E5
100
AcDbEntity
  8
Predefinito
  6
Continuous
 62
   255
  0
ARC
  5
4F0
330
1F
100
AcDbEntity
  8
Predefinito
  6
Continuous
 62
   255
100
AcDbCircle
 10
472.1614106256133
 20
227.3069130204479
 30
0.0
 40
5.000000000000015
100
AcDbArc
 50
89.99660183815541
 51
90.0000045662488
  0
POLYLINE
  5
4F1
330
1F
100
AcDbEntity
  8
Predefinito
  6
Continuous
 62
   255
100
AcDb2dPolyline
 66
     1
 10
0.0
 20
0.0
 30
0.0
  0
VERTEX
  5
4F2
330
4F1
100
AcDbEntity
  8
Predefinito
  6
Continuous
 62
   255
100
AcDbVertex
100
AcDb2dVertex
 10
584.438922684476
 20
232.3069058700852
 30
0.0
  0
VERTEX
  5
4F3
330
4F1
100
AcDbEntity
  8
Predefinito
  6
Continuous
 62
   255
100
AcDbVertex
100
AcDb2dVertex
 10
585.4231128276926
 20
232.2105201495059
 30
0.0
  0
VERTEX
  5
4F4
330
4F1
100
AcDbEntity
  8
Predefinito
  6
Continuous
 62
   255
100
AcDbVertex
100
AcDb2dVertex
 10
586.4014519445984
 20
231.9081405442791
 30
0.0
  0
VERTEX
  5
4F5
330
4F1
100
AcDbEntity
  8
Predefinito
  6
Continuous
 62
   255
100
AcDbVertex
100
AcDb2dVertex
 10
587.2976294390226
 20
231.4122973012047
 30
0.0
  0
VERTEX
  5
4F6
330
4F1
100
AcDbEntity
  8
Predefinito
  6
Continuous
 62
   255
100
AcDbVertex
100
AcDb2dVertex
 10
588.0739645491835
 20
230.7438386911213
 30
0.0
  0
VERTEX
  5
4F7
330
4F1
100
AcDbEntity
  8
Predefinito
  6
Continuous
 62
   255
100
AcDbVertex
100
AcDb2dVertex
 10
588.6978154172676
 20
229.9308707865471
 30
0.0
  0
VERTEX
  5
4F8
330
4F1
100
AcDbEntity
  8
Predefinito
  6
Continuous
 62
   255
100
AcDbVertex
100
AcDb2dVertex
 10
589.1429515520008
 20
229.0075757111562
 30
0.0
  0
VERTEX
  5
4F9
330
4F1
100
AcDbEntity
  8
Predefinito
  6
Continuous
 62
   255
100
AcDbVertex
100
AcDb2dVertex
 10
589.3906567183097
 20
228.0127744150465
 30
0.0
  0
VERTEX
  5
4FA
330
4F1
100
AcDbEntity
  8
Predefinito
  6
Continuous
 62
   255
100
AcDbVertex
100
AcDb2dVertex
 10
589.4305158818712
 20
226.9882944054831
 30
0.0
  0
SEQEND
  5
4FB
330
4F1
100
AcDbEntity
  8
Predefinito
  6
Continuous
 62
   255
  0
POLYLINE
  5
4FC
330
1F
100
AcDbEntity
  8
Predefinito
  6
Continuous
 62
   255
100
AcDb2dPolyline
 66
     1
 10
0.0
 20
0.0
 30
0.0
  0
VERTEX
  5
4FD
330
4FC
100
AcDbEntity
  8
Predefinito
  6
Continuous
 62
   255
100
AcDbVertex
100
AcDb2dVertex
 10
597.6917465672472
 20
77.3069130204479
 30
0.0
  0
VERTEX
  5
4FE
330
4FC
100
AcDbEntity
  8
Predefinito
  6
Continuous
 62
   255
100
AcDbVertex
100
AcDb2dVertex
 10
596.9040570633088
 20
85.74539000995804
 30
0.0
  0
VERTEX
  5
4FF
330
4FC
100
AcDbEntity
  8
Predefinito
  6
Continuous
 62
   255
100
AcDbVertex
100
AcDb2dVertex
 10
596.1766370415932
 20
93.62956874806416
 30
0.0
  0
VERTEX
  5
500
330
4FC
100
AcDbEntity
  8
Predefinito
  6
Continuous
 62
   255
100
AcDbVertex
100
AcDb2dVertex
 10
595.4129846685928
 20
102.0297837480692
 30
0.0
  0
VERTEX
  5
501
330
4FC
100
AcDbEntity
  8
Predefinito
  6
Continuous
 62
   255
100
AcDbVertex
100
AcDb2dVertex
 10
594.593338241818
 20
111.2244783470789
 30
0.0
  0
VERTEX
  5
502
330
4FC
100
AcDbEntity
  8
Predefinito
  6
Continuous
 62
   255
100
AcDbVertex
100
AcDb2dVertex
 10
593.7228331338251
 20
121.2136525450929
 30
0.0
  0
VERTEX
  5
503
330
4FC
100
AcDbEntity
  8
Predefinito
  6
Continuous
 62
   255
100
AcDbVertex
100
AcDb2dVertex
 10
592.5289067600211
 20
135.1387889062612
 30
0.0
  0
VERTEX
  5
504
330
4FC
100
AcDbEntity
  8
Predefinito
  6
Continuous
 62
   255
100
AcDbVertex
100
AcDb2dVertex
 10
591.3673993322706
 20
148.5742058000708
 30
0.0
  0
VERTEX
  5
505
330
4FC
100
AcDbEntity
  8
Predefinito
  6
Continuous
 62
   255
100
AcDbVertex
100
AcDb2dVertex
 10
590.242502612494
 20
161.3545938054232
 30
0.0
  0
VERTEX
  5
506
330
4FC
100
AcDbEntity
  8
Predefinito
  6
Continuous
 62
   255
100
AcDbVertex
100
AcDb2dVertex
 10
589.319827034299
 20
171.6759546471507
 30
0.0
  0
VERTEX
  5
507
330
4FC
100
AcDbEntity
  8
Predefinito
  6
Continuous
 62
   255
100
AcDbVertex
100
AcDb2dVertex
 10
588.4790347999544
 20
180.9869430942364
 30
0.0
  0
VERTEX
  5
508
330
4FC
100
AcDbEntity
  8
Predefinito
  6
Continuous
 62
   255
100
AcDbVertex
100
AcDb2dVertex
 10
588.0957602011298
 20
185.2208221015201
 30
0.0
  0
VERTEX
  5
509
330
4FC
100
AcDbEntity
  8
Predefinito
  6
Continuous
 62
   255
100
AcDbVertex
100
AcDb2dVertex
 10
587.749781119425
 20
189.1707688048429
 30
0.0
  0
VERTEX
  5
50A
330
4FC
100
AcDbEntity
  8
Predefinito
  6
Continuous
 62
   255
100
AcDbVertex
100
AcDb2dVertex
 10
587.5872638176946
 20
191.0253905566441
 30
0.0
  0
VERTEX
  5
50B
330
4FC
100
AcDbEntity
  8
Predefinito
  6
Continuous
 62
   255
100
AcDbVertex
100
AcDb2dVertex
 10
587.4379476792268
 20
192.6874403324798
 30
0.0
  0
VERTEX
  5
50C
330
4FC
100
AcDbEntity
  8
Predefinito
  6
Continuous
 62
   255
100
AcDbVertex
100
AcDb2dVertex
 10
587.3071030915073
 20
194.1342768774064
 30
0.0
  0
VERTEX
  5
50D
330
4FC
100
AcDbEntity
  8
Predefinito
  6
Continuous
 62
   255
100
AcDbVertex
100
AcDb2dVertex
 10
587.2479576284653
 20
194.7784877746055
 30
0.0
  0
VERTEX
  5
50E
330
4FC
100
AcDbEntity
  8
Predefinito
  6
Continuous
 62
   255
100
AcDbVertex
100
AcDb2dVertex
 10
587.1909052337143
 20
195.3701313712884
 30
0.0
  0
VERTEX
  5
50F
330
4FC
100
AcDbEntity
  8
Predefinito
  6
Continuous
 62
   255
100
AcDbVertex
100
AcDb2dVertex
 10
587.0826089628082
 20
196.3957166631061
 30
0.0
  0
VERTEX
  5
510
330
4FC
100
AcDbEntity
  8
Predefinito
  6
Continuous
 62
   255
100
AcDbVertex
100
AcDb2dVertex
 10
587.0200528736445
 20
197.2110327528593
 30
0.0
  0
VERTEX
  5
511
330
4FC
100
AcDbEntity
  8
Predefinito
  6
Continuous
 62
   255
100
AcDbVertex
100
AcDb2dVertex
 10
587.0776815137071
 20
197.816079640548
 30
0.0
  0
VERTEX
  5
512
330
4FC
100
AcDbEntity
  8
Predefinito
  6
Continuous
 62
   255
100
AcDbVertex
100
AcDb2dVertex
 10
587.299104926267
 20
198.4016639584813
 30
0.0
  0
VERTEX
  5
513
330
4FC
100
AcDbEntity
  8
Predefinito
  6
Continuous
 62
   255
100
AcDbVertex
100
AcDb2dVertex
 10
587.6127201231177
 20
199.2600865923597
 30
0.0
  0
VERTEX
  5
514
330
4FC
100
AcDbEntity
  8
Predefinito
  6
Continuous
 62
   255
100
AcDbVertex
100
AcDb2dVertex
 10
587.8862911676727
 20
200.394514448351
 30
0.0
  0
VERTEX
  5
515
330
4FC
100
AcDbEntity
  8
Predefinito
  6
Continuous
 62
   255
100
AcDbVertex
100
AcDb2dVertex
 10
588.0441696132845
 20
201.8049475264553
 30
0.0
  0
VERTEX
  5
516
330
4FC
100
AcDbEntity
  8
Predefinito
  6
Continuous
 62
   255
100
AcDbVertex
100
AcDb2dVertex
 10
588.1389459119926
 20
203.4913858266725
 30
0.0
  0
VERTEX
  5
517
330
4FC
100
AcDbEntity
  8
Predefinito
  6
Continuous
 62
   255
100
AcDbVertex
100
AcDb2dVertex
 10
588.2610023514392
 20
206.0517335347723
 30
0.0
  0
VERTEX
  5
518
330
4FC
100
AcDbEntity
  8
Predefinito
  6
Continuous
 62
   255
100
AcDbVertex
100
AcDb2dVertex
 10
588.3881849987209
 20
208.6031200917879
 30
0.0
  0
VERTEX
  5
519
330
4FC
100
AcDbEntity
  8
Predefinito
  6
Continuous
 62
   255
100
AcDbVertex
100
AcDb2dVertex
 10
588.5229903545775
 20
211.1939408272464
 30
0.0
  0
VERTEX
  5
51A
330
4FC
100
AcDbEntity
  8
Predefinito
  6
Continuous
 62
   255
100
AcDbVertex
100
AcDb2dVertex
 10
588.6745505402273
 20
213.9978259801852
 30
0.0
  0
VERTEX
  5
51B
330
4FC
100
AcDbEntity
  8
Predefinito
  6
Continuous
 62
   255
100
AcDbVertex
100
AcDb2dVertex
 10
588.891714662042
 20
217.8520152046147
 30
0.0
  0
VERTEX
  5
51C
330
4FC
100
AcDbEntity
  8
Predefinito
  6
Continuous
 62
   255
100
AcDbVertex
100
AcDb2dVertex
 10
589.1811845912936
 20
222.756508500535
 30
0.0
  0
VERTEX
  5
51D
330
4FC
100
AcDbEntity
  8
Predefinito
  6
Continuous
 62
   255
100
AcDbVertex
100
AcDb2dVertex
 10
589.4433474691549
 20
226.9986340936765
 30
0.0
  0
SEQEND
  5
51E
330
4FC
100
AcDbEntity
  8
Predefinito
  6
Continuous
 62
   255
  0
POLYLINE
  5
51F
330
1F
100
AcDbEntity
  8
Predefinito
  6
Continuous
 62
   255
100
AcDb2dPolyline
 66
     1
 10
0.0
 20
0.0
 30
0.0
  0
VERTEX
  5
520
330
51F
100
AcDbEntity
  8
Predefinito
  6
Continuous
 62
   255
100
AcDbVertex
100
AcDb2dVertex
 10
420.3406821475693
 20
227.1090262432649
 30
0.0
  0
VERTEX
  5
521
330
51F
100
AcDbEntity
  8
Predefinito
  6
Continuous
 62
   255
100
AcDbVertex
100
AcDb2dVertex
 10
420.4014252169177
 20
228.1084267799487
 30
0.0
  0
VERTEX
  5
522
330
51F
100
AcDbEntity
  8
Predefinito
  6
Continuous
 62
   255
100
AcDbVertex
100
AcDb2dVertex
 10
420.6600736285793
 20
229.075686898481
 30
0.0
  0
VERTEX
  5
523
330
51F
100
AcDbEntity
  8
Predefinito
  6
Continuous
 62
   255
100
AcDbVertex
100
AcDb2dVertex
 10
421.1062556727652
 20
229.9720198103601
 30
0.0
  0
VERTEX
  5
524
330
51F
100
AcDbEntity
  8
Predefinito
  6
Continuous
 62
   255
100
AcDbVertex
100
AcDb2dVertex
 10
421.722079607379
 20
230.7614828829745
 30
0.0
  0
VERTEX
  5
525
330
51F
100
AcDbEntity
  8
Predefinito
  6
Continuous
 62
   255
100
AcDbVertex
100
AcDb2dVertex
 10
422.4828511105433
 20
231.412418926453
 30
0.0
  0
VERTEX
  5
526
330
51F
100
AcDbEntity
  8
Predefinito
  6
Continuous
 62
   255
100
AcDbVertex
100
AcDb2dVertex
 10
423.3580635141696
 20
231.8987256357766
 30
0.0
  0
VERTEX
  5
527
330
51F
100
AcDbEntity
  8
Predefinito
  6
Continuous
 62
   255
100
AcDbVertex
100
AcDb2dVertex
 10
424.3126211105542
 20
232.2009022839742
 30
0.0
  0
VERTEX
  5
528
330
51F
100
AcDbEntity
  8
Predefinito
  6
Continuous
 62
   255
100
AcDbVertex
100
AcDb2dVertex
 10
425.308246477839
 20
232.3068316943743
 30
0.0
  0
SEQEND
  5
529
330
51F
100
AcDbEntity
  8
Predefinito
  6
Continuous
 62
   255
  0
POLYLINE
  5
52A
330
1F
100
AcDbEntity
  8
Predefinito
  6
Continuous
 62
   255
100
AcDb2dPolyline
 66
     1
 10
0.0
 20
0.0
 30
0.0
  0
VERTEX
  5
52B
330
52A
100
AcDbEntity
  8
Predefinito
  6
Continuous
 62
   255
100
AcDbVertex
100
AcDb2dVertex
 10
420.3408968218633
 20
227.1168654149664
 30
0.0
  0
VERTEX
  5
52C
330
52A
100
AcDbEntity
  8
Predefinito
  6
Continuous
 62
   255
100
AcDbVertex
100
AcDb2dVertex
 10
420.7482208310056
 20
217.1437139079173
 30
0.0
  0
VERTEX
  5
52D
330
52A
100
AcDbEntity
  8
Predefinito
  6
Continuous
 62
   255
100
AcDbVertex
100
AcDb2dVertex
 10
421.1731336674277
 20
206.8578810670975
 30
0.0
  0
VERTEX
  5
52E
330
52A
100
AcDbEntity
  8
Predefinito
  6
Continuous
 62
   255
100
AcDbVertex
100
AcDb2dVertex
 10
421.5530140739469
 20
197.6992441889404
 30
0.0
  0
VERTEX
  5
52F
330
52A
100
AcDbEntity
  8
Predefinito
  6
Continuous
 62
   255
100
AcDbVertex
100
AcDb2dVertex
 10
421.8857878063223
 20
189.667803273446
 30
0.0
  0
VERTEX
  5
530
330
52A
100
AcDbEntity
  8
Predefinito
  6
Continuous
 62
   255
100
AcDbVertex
100
AcDb2dVertex
 10
422.1706130346714
 20
182.7635583206143
 30
0.0
  0
VERTEX
  5
531
330
52A
100
AcDbEntity
  8
Predefinito
  6
Continuous
 62
   255
100
AcDbVertex
100
AcDb2dVertex
 10
422.3713064691226
 20
177.8710733313997
 30
0.0
  0
VERTEX
  5
532
330
52A
100
AcDbEntity
  8
Predefinito
  6
Continuous
 62
   255
100
AcDbVertex
100
AcDb2dVertex
 10
422.5389333297965
 20
173.7613633162563
 30
0.0
  0
VERTEX
  5
533
330
52A
100
AcDbEntity
  8
Predefinito
  6
Continuous
 62
   255
100
AcDbVertex
100
AcDb2dVertex
 10
422.6738737728056
 20
170.4344282751843
 30
0.0
  0
VERTEX
  5
534
330
52A
100
AcDbEntity
  8
Predefinito
  6
Continuous
 62
   255
100
AcDbVertex
100
AcDb2dVertex
 10
422.7538805503672
 20
168.4529230711146
 30
0.0
  0
VERTEX
  5
535
330
52A
100
AcDbEntity
  8
Predefinito
  6
Continuous
 62
   255
100
AcDbVertex
100
AcDb2dVertex
 10
422.8159044485735
 20
166.9117287899601
 30
0.0
  0
VERTEX
  5
536
330
52A
100
AcDbEntity
  8
Predefinito
  6
Continuous
 62
   255
100
AcDbVertex
100
AcDb2dVertex
 10
422.8739119329965
 20
165.4659472544747
 30
0.0
  0
VERTEX
  5
537
330
52A
100
AcDbEntity
  8
Predefinito
  6
Continuous
 62
   255
100
AcDbVertex
100
AcDb2dVertex
 10
422.9121196755352
 20
164.5109177166077
 30
0.0
  0
VERTEX
  5
538
330
52A
100
AcDbEntity
  8
Predefinito
  6
Continuous
 62
   255
100
AcDbVertex
100
AcDb2dVertex
 10
422.9704421878944
 20
163.0480555997613
 30
0.0
  0
VERTEX
  5
539
330
52A
100
AcDbEntity
  8
Predefinito
  6
Continuous
 62
   255
100
AcDbVertex
100
AcDb2dVertex
 10
423.0502648447448
 20
161.0351417413576
 30
0.0
  0
VERTEX
  5
53A
330
52A
100
AcDbEntity
  8
Predefinito
  6
Continuous
 62
   255
100
AcDbVertex
100
AcDb2dVertex
 10
423.1511260898284
 20
158.4721761413962
 30
0.0
  0
VERTEX
  5
53B
330
52A
100
AcDbEntity
  8
Predefinito
  6
Continuous
 62
   255
100
AcDbVertex
100
AcDb2dVertex
 10
423.2706292572627
 20
155.4030526678252
 30
0.0
  0
VERTEX
  5
53C
330
52A
100
AcDbEntity
  8
Predefinito
  6
Continuous
 62
   255
100
AcDbVertex
100
AcDb2dVertex
 10
423.3897267639377
 20
152.2867164923898
 30
0.0
  0
VERTEX
  5
53D
330
52A
100
AcDbEntity
  8
Predefinito
  6
Continuous
 62
   255
100
AcDbVertex
100
AcDb2dVertex
 10
423.6830244433639
 20
144.1032074613812
 30
0.0
  0
VERTEX
  5
53E
330
52A
100
AcDbEntity
  8
Predefinito
  6
Continuous
 62
   255
100
AcDbVertex
100
AcDb2dVertex
 10
423.9089955894222
 20
136.4864410924831
 30
0.0
  0
VERTEX
  5
53F
330
52A
100
AcDbEntity
  8
Predefinito
  6
Continuous
 62
   255
100
AcDbVertex
100
AcDb2dVertex
 10
423.9900190115448
 20
132.8549929652616
 30
0.0
  0
VERTEX
  5
540
330
52A
100
AcDbEntity
  8
Predefinito
  6
Continuous
 62
   255
100
AcDbVertex
100
AcDb2dVertex
 10
424.0305970867275
 20
129.3901802279509
 30
0.0
  0
VERTEX
  5
541
330
52A
100
AcDbEntity
  8
Predefinito
  6
Continuous
 62
   255
100
AcDbVertex
100
AcDb2dVertex
 10
424.0093342074201
 20
126.1127134119886
 30
0.0
  0
VERTEX
  5
542
330
52A
100
AcDbEntity
  8
Predefinito
  6
Continuous
 62
   255
100
AcDbVertex
100
AcDb2dVertex
 10
423.9219808376348
 20
123.0225925173749
 30
0.0
  0
VERTEX
  5
543
330
52A
100
AcDbEntity
  8
Predefinito
  6
Continuous
 62
   255
100
AcDbVertex
100
AcDb2dVertex
 10
423.7534918268955
 20
120.11981754411
 30
0.0
  0
VERTEX
  5
544
330
52A
100
AcDbEntity
  8
Predefinito
  6
Continuous
 62
   255
100
AcDbVertex
100
AcDb2dVertex
 10
423.4667916259111
 20
117.4043884921936
 30
0.0
  0
VERTEX
  5
545
330
52A
100
AcDbEntity
  8
Predefinito
  6
Continuous
 62
   255
100
AcDbVertex
100
AcDb2dVertex
 10
423.0098872719038
 20
114.8112548039653
 30
0.0
  0
VERTEX
  5
546
330
52A
100
AcDbEntity
  8
Predefinito
  6
Continuous
 62
   255
100
AcDbVertex
100
AcDb2dVertex
 10
422.4530055877815
 20
111.7954137505689
 30
0.0
  0
VERTEX
  5
547
330
52A
100
AcDbEntity
  8
Predefinito
  6
Continuous
 62
   255
100
AcDbVertex
100
AcDb2dVertex
 10
421.9536081687919
 20
108.2342098477011
 30
0.0
  0
VERTEX
  5
548
330
52A
100
AcDbEntity
  8
Predefinito
  6
Continuous
 62
   255
100
AcDbVertex
100
AcDb2dVertex
 10
421.601840313137
 20
104.1276430953621
 30
0.0
  0
VERTEX
  5
549
330
52A
100
AcDbEntity
  8
Predefinito
  6
Continuous
 62
   255
100
AcDbVertex
100
AcDb2dVertex
 10
421.3373942802128
 20
99.47601471891085
 30
0.0
  0
VERTEX
  5
54A
330
52A
100
AcDbEntity
  8
Predefinito
  6
Continuous
 62
   255
100
AcDbVertex
100
AcDb2dVertex
 10
421.1030099286003
 20
94.82153147755908
 30
0.0
  0
VERTEX
  5
54B
330
52A
100
AcDbEntity
  8
Predefinito
  6
Continuous
 62
   255
100
AcDbVertex
100
AcDb2dVertex
 10
420.9353051521556
 20
91.4509595876534
 30
0.0
  0
VERTEX
  5
54C
330
52A
100
AcDbEntity
  8
Predefinito
  6
Continuous
 62
   255
100
AcDbVertex
100
AcDb2dVertex
 10
420.7840458575319
 20
88.39417854501485
 30
0.0
  0
VERTEX
  5
54D
330
52A
100
AcDbEntity
  8
Predefinito
  6
Continuous
 62
   255
100
AcDbVertex
100
AcDb2dVertex
 10
420.647258659029
 20
85.63195472626224
 30
0.0
  0
VERTEX
  5
54E
330
52A
100
AcDbEntity
  8
Predefinito
  6
Continuous
 62
   255
100
AcDbVertex
100
AcDb2dVertex
 10
420.4729689415862
 20
82.13209589172659
 30
0.0
  0
VERTEX
  5
54F
330
52A
100
AcDbEntity
  8
Predefinito
  6
Continuous
 62
   255
100
AcDbVertex
100
AcDb2dVertex
 10
420.2308508530279
 20
77.30691302044774
 30
0.0
  0
SEQEND
  5
550
330
52A
100
AcDbEntity
  8
Predefinito
  6
Continuous
 62
   255
  0
POLYLINE
  5
551
330
1F
100
AcDbEntity
  8
Predefinito
  6
Continuous
 62
   255
100
AcDb2dPolyline
 66
     1
 10
0.0
 20
0.0
 30
0.0
  0
VERTEX
  5
552
330
551
100
AcDbEntity
  8
Predefinito
  6
Continuous
 62
   255
100
AcDbVertex
100
AcDb2dVertex
 10
442.6418303145473
 20
226.3751268079836
 30
0.0
  0
VERTEX
  5
553
330
551
100
AcDbEntity
  8
Predefinito
  6
Continuous
 62
   255
100
AcDbVertex
100
AcDb2dVertex
 10
442.5565093026394
 20
227.457482900809
 30
0.0
  0
VERTEX
  5
554
330
551
100
AcDbEntity
  8
Predefinito
  6
Continuous
 62
   255
100
AcDbVertex
100
AcDb2dVertex
 10
442.7068332568648
 20
228.5327394757724
 30
0.0
  0
VERTEX
  5
555
330
551
100
AcDbEntity
  8
Predefinito
  6
Continuous
 62
   255
100
AcDbVertex
100
AcDb2dVertex
 10
443.0857142550206
 20
229.55019712844
 30
0.0
  0
VERTEX
  5
556
330
551
100
AcDbEntity
  8
Predefinito
  6
Continuous
 62
   255
100
AcDbVertex
100
AcDb2dVertex
 10
443.6752876856225
 20
230.4618817303773
 30
0.0
  0
VERTEX
  5
557
330
551
100
AcDbEntity
  8
Predefinito
  6
Continuous
 62
   255
100
AcDbVertex
100
AcDb2dVertex
 10
444.4477545818956
 20
231.2248064564618
 30
0.0
  0
VERTEX
  5
558
330
551
100
AcDbEntity
  8
Predefinito
  6
Continuous
 62
   255
100
AcDbVertex
100
AcDb2dVertex
 10
445.3666923703837
 20
231.802998655941
 30
0.0
  0
VERTEX
  5
559
330
551
100
AcDbEntity
  8
Predefinito
  6
Continuous
 62
   255
100
AcDbVertex
100
AcDb2dVertex
 10
446.3887722310886
 20
232.1691959982747
 30
0.0
  0
VERTEX
  5
55A
330
551
100
AcDbEntity
  8
Predefinito
  6
Continuous
 62
   255
100
AcDbVertex
100
AcDb2dVertex
 10
447.4658020939238
 20
232.306131918818
 30
0.0
  0
SEQEND
  5
55B
330
551
100
AcDbEntity
  8
Predefinito
  6
Continuous
 62
   255
  0
POLYLINE
  5
55C
330
1F
100
AcDbEntity
  8
Predefinito
  6
Continuous
 62
   255
100
AcDb2dPolyline
 66
     1
 10
0.0
 20
0.0
 30
0.0
  0
VERTEX
  5
55D
330
55C
100
AcDbEntity
  8
Predefinito
  6
Continuous
 62
   255
100
AcDbVertex
100
AcDb2dVertex
 10
565.9120197289857
 20
232.3069130198627
 30
0.0
  0
VERTEX
  5
55E
330
55C
100
AcDbEntity
  8
Predefinito
  6
Continuous
 62
   255
100
AcDbVertex
100
AcDb2dVertex
 10
566.8171401562246
 20
232.2243185122756
 30
0.0
  0
VERTEX
  5
55F
330
55C
100
AcDbEntity
  8
Predefinito
  6
Continuous
 62
   255
100
AcDbVertex
100
AcDb2dVertex
 10
567.7851781107139
 20
231.9428038927151
 30
0.0
  0
VERTEX
  5
560
330
55C
100
AcDbEntity
  8
Predefinito
  6
Continuous
 62
   255
100
AcDbVertex
100
AcDb2dVertex
 10
568.6770663451935
 20
231.4728181811949
 30
0.0
  0
VERTEX
  5
561
330
55C
100
AcDbEntity
  8
Predefinito
  6
Continuous
 62
   255
100
AcDbVertex
100
AcDb2dVertex
 10
569.4565453457767
 20
230.8334685402209
 30
0.0
  0
VERTEX
  5
562
330
55C
100
AcDbEntity
  8
Predefinito
  6
Continuous
 62
   255
100
AcDbVertex
100
AcDb2dVertex
 10
570.0919255704864
 20
230.0507475844379
 30
0.0
  0
VERTEX
  5
563
330
55C
100
AcDbEntity
  8
Predefinito
  6
Continuous
 62
   255
100
AcDbVertex
100
AcDb2dVertex
 10
570.5573757803954
 20
229.1564766567767
 30
0.0
  0
VERTEX
  5
564
330
55C
100
AcDbEntity
  8
Predefinito
  6
Continuous
 62
   255
100
AcDbVertex
100
AcDb2dVertex
 10
570.8339732027877
 20
228.1870121389744
 30
0.0
  0
VERTEX
  5
565
330
55C
100
AcDbEntity
  8
Predefinito
  6
Continuous
 62
   255
100
AcDbVertex
100
AcDb2dVertex
 10
570.9104728321895
 20
227.1817673911212
 30
0.0
  0
SEQEND
  5
566
330
55C
100
AcDbEntity
  8
Predefinito
  6
Continuous
 62
   255
  0
LINE
  5
567
330
1F
100
AcDbEntity
  8
Predefinito
  6
Continuous
 62
   255
100
AcDbLine
 10
568.0652720671328
 20
77.30691302044748
 30
0.0
 11
570.9084961131499
 21
227.2164927830097
 31
0.0
  0
POLYLINE
  5
568
330
1F
100
AcDbEntity
  8
Predefinito
  6
Continuous
 62
   255
100
AcDb2dPolyline
 66
     1
 10
0.0
 20
0.0
 30
0.0
  0
VERTEX
  5
569
330
568
100
AcDbEntity
  8
Predefinito
  6
Continuous
 62
   255
100
AcDbVertex
100
AcDb2dVertex
 10
442.6412561530367
 20
226.3752579879423
 30
0.0
  0
VERTEX
  5
56A
330
568
100
AcDbEntity
  8
Predefinito
  6
Continuous
 62
   255
100
AcDbVertex
100
AcDb2dVertex
 10
443.6261323855468
 20
221.1458823377213
 30
0.0
  0
VERTEX
  5
56B
330
568
100
AcDbEntity
  8
Predefinito
  6
Continuous
 62
   255
100
AcDbVertex
100
AcDb2dVertex
 10
444.9246968438577
 20
214.2122699066591
 30
0.0
  0
VERTEX
  5
56C
330
568
100
AcDbEntity
  8
Predefinito
  6
Continuous
 62
   255
100
AcDbVertex
100
AcDb2dVertex
 10
446.0009607947791
 20
208.4341591433978
 30
0.0
  0
VERTEX
  5
56D
330
568
100
AcDbEntity
  8
Predefinito
  6
Continuous
 62
   255
100
AcDbVertex
100
AcDb2dVertex
 10
446.6639595048135
 20
204.8588740404461
 30
0.0
  0
VERTEX
  5
56E
330
568
100
AcDbEntity
  8
Predefinito
  6
Continuous
 62
   255
100
AcDbVertex
100
AcDb2dVertex
 10
447.2046312694484
 20
201.9335586256324
 30
0.0
  0
VERTEX
  5
56F
330
568
100
AcDbEntity
  8
Predefinito
  6
Continuous
 62
   255
100
AcDbVertex
100
AcDb2dVertex
 10
447.6240019589654
 20
199.6582128989566
 30
0.0
  0
VERTEX
  5
570
330
568
100
AcDbEntity
  8
Predefinito
  6
Continuous
 62
   255
100
AcDbVertex
100
AcDb2dVertex
 10
447.9229274310496
 20
198.0328368604189
 30
0.0
  0
VERTEX
  5
571
330
568
100
AcDbEntity
  8
Predefinito
  6
Continuous
 62
   255
100
AcDbVertex
100
AcDb2dVertex
 10
448.1792179425163
 20
196.6368771430078
 30
0.0
  0
VERTEX
  5
572
330
568
100
AcDbEntity
  8
Predefinito
  6
Continuous
 62
   255
100
AcDbVertex
100
AcDb2dVertex
 10
448.4391317121144
 20
195.2188732089778
 30
0.0
  0
VERTEX
  5
573
330
568
100
AcDbEntity
  8
Predefinito
  6
Continuous
 62
   255
100
AcDbVertex
100
AcDb2dVertex
 10
448.8018605419077
 20
193.2359904046242
 30
0.0
  0
VERTEX
  5
574
330
568
100
AcDbEntity
  8
Predefinito
  6
Continuous
 62
   255
100
AcDbVertex
100
AcDb2dVertex
 10
449.2666602089019
 20
190.6882287299472
 30
0.0
  0
VERTEX
  5
575
330
568
100
AcDbEntity
  8
Predefinito
  6
Continuous
 62
   255
100
AcDbVertex
100
AcDb2dVertex
 10
449.8325393237693
 20
187.5755881849465
 30
0.0
  0
VERTEX
  5
576
330
568
100
AcDbEntity
  8
Predefinito
  6
Continuous
 62
   255
100
AcDbVertex
100
AcDb2dVertex
 10
450.4982312558292
 20
183.8980687696223
 30
0.0
  0
VERTEX
  5
577
330
568
100
AcDbEntity
  8
Predefinito
  6
Continuous
 62
   255
100
AcDbVertex
100
AcDb2dVertex
 10
451.2621599415581
 20
179.6556704839747
 30
0.0
  0
VERTEX
  5
578
330
568
100
AcDbEntity
  8
Predefinito
  6
Continuous
 62
   255
100
AcDbVertex
100
AcDb2dVertex
 10
452.1166570064001
 20
174.8804510192701
 30
0.0
  0
VERTEX
  5
579
330
568
100
AcDbEntity
  8
Predefinito
  6
Continuous
 62
   255
100
AcDbVertex
100
AcDb2dVertex
 10
453.8096983476978
 20
165.3026615736975
 30
0.0
  0
VERTEX
  5
57A
330
568
100
AcDbEntity
  8
Predefinito
  6
Continuous
 62
   255
100
AcDbVertex
100
AcDb2dVertex
 10
455.2621756301829
 20
156.9260179063843
 30
0.0
  0
VERTEX
  5
57B
330
568
100
AcDbEntity
  8
Predefinito
  6
Continuous
 62
   255
100
AcDbVertex
100
AcDb2dVertex
 10
456.4814716865568
 20
149.7505200173305
 30
0.0
  0
VERTEX
  5
57C
330
568
100
AcDbEntity
  8
Predefinito
  6
Continuous
 62
   255
100
AcDbVertex
100
AcDb2dVertex
 10
457.0162668456571
 20
146.5589380818578
 30
0.0
  0
VERTEX
  5
57D
330
568
100
AcDbEntity
  8
Predefinito
  6
Continuous
 62
   255
100
AcDbVertex
100
AcDb2dVertex
 10
457.492255418306
 20
143.6991384891187
 30
0.0
  0
VERTEX
  5
57E
330
568
100
AcDbEntity
  8
Predefinito
  6
Continuous
 62
   255
100
AcDbVertex
100
AcDb2dVertex
 10
457.9048455903681
 20
141.205221130574
 30
0.0
  0
VERTEX
  5
57F
330
568
100
AcDbEntity
  8
Predefinito
  6
Continuous
 62
   255
100
AcDbVertex
100
AcDb2dVertex
 10
458.2773619965275
 20
138.9378270087565
 30
0.0
  0
VERTEX
  5
580
330
568
100
AcDbEntity
  8
Predefinito
  6
Continuous
 62
   255
100
AcDbVertex
100
AcDb2dVertex
 10
458.7540630231832
 20
136.0114316675403
 30
0.0
  0
VERTEX
  5
581
330
568
100
AcDbEntity
  8
Predefinito
  6
Continuous
 62
   255
100
AcDbVertex
100
AcDb2dVertex
 10
459.3445661554661
 20
132.3444112149372
 30
0.0
  0
VERTEX
  5
582
330
568
100
AcDbEntity
  8
Predefinito
  6
Continuous
 62
   255
100
AcDbVertex
100
AcDb2dVertex
 10
460.0452995664313
 20
127.9269350114875
 30
0.0
  0
VERTEX
  5
583
330
568
100
AcDbEntity
  8
Predefinito
  6
Continuous
 62
   255
100
AcDbVertex
100
AcDb2dVertex
 10
460.7195463926613
 20
123.6021091079495
 30
0.0
  0
VERTEX
  5
584
330
568
100
AcDbEntity
  8
Predefinito
  6
Continuous
 62
   255
100
AcDbVertex
100
AcDb2dVertex
 10
461.3131351825415
 20
119.7280957399268
 30
0.0
  0
VERTEX
  5
585
330
568
100
AcDbEntity
  8
Predefinito
  6
Continuous
 62
   255
100
AcDbVertex
100
AcDb2dVertex
 10
461.8937071557196
 20
115.8730234510897
 30
0.0
  0
VERTEX
  5
586
330
568
100
AcDbEntity
  8
Predefinito
  6
Continuous
 62
   255
100
AcDbVertex
100
AcDb2dVertex
 10
462.3844036020606
 20
112.5599589421788
 30
0.0
  0
VERTEX
  5
587
330
568
100
AcDbEntity
  8
Predefinito
  6
Continuous
 62
   255
100
AcDbVertex
100
AcDb2dVertex
 10
462.8153623677739
 20
109.6070419473469
 30
0.0
  0
VERTEX
  5
588
330
568
100
AcDbEntity
  8
Predefinito
  6
Continuous
 62
   255
100
AcDbVertex
100
AcDb2dVertex
 10
463.2025466999714
 20
106.9182150058463
 30
0.0
  0
VERTEX
  5
589
330
568
100
AcDbEntity
  8
Predefinito
  6
Continuous
 62
   255
100
AcDbVertex
100
AcDb2dVertex
 10
463.5609293558077
 20
104.3984388588804
 30
0.0
  0
VERTEX
  5
58A
330
568
100
AcDbEntity
  8
Predefinito
  6
Continuous
 62
   255
100
AcDbVertex
100
AcDb2dVertex
 10
464.0496535893265
 20
100.9124863716631
 30
0.0
  0
VERTEX
  5
58B
330
568
100
AcDbEntity
  8
Predefinito
  6
Continuous
 62
   255
100
AcDbVertex
100
AcDb2dVertex
 10
464.6620759894838
 20
96.46035754419466
 30
0.0
  0
VERTEX
  5
58C
330
568
100
AcDbEntity
  8
Predefinito
  6
Continuous
 62
   255
100
AcDbVertex
100
AcDb2dVertex
 10
465.3900799932299
 20
91.04205237647469
 30
0.0
  0
VERTEX
  5
58D
330
568
100
AcDbEntity
  8
Predefinito
  6
Continuous
 62
   255
100
AcDbVertex
100
AcDb2dVertex
 10
466.2244923747569
 20
84.65757086850343
 30
0.0
  0
VERTEX
  5
58E
330
568
100
AcDbEntity
  8
Predefinito
  6
Continuous
 62
   255
100
AcDbVertex
100
AcDb2dVertex
 10
467.1557926226177
 20
77.3069130204476
 30
0.0
  0
SEQEND
  5
58F
330
568
100
AcDbEntity
  8
Predefinito
  6
Continuous
 62
   255
  0
POLYLINE
  5
590
330
1F
100
AcDbEntity
  8
Predefinito
  6
Continuous
 62
   255
100
AcDb2dPolyline
 66
     1
 10
0.0
 20
0.0
 30
0.0
  0
VERTEX
  5
591
330
590
100
AcDbEntity
  8
Predefinito
  6
Continuous
 62
   255
100
AcDbVertex
100
AcDb2dVertex
 10
451.4434988029392
 20
232.2124742890827
 30
0.0
  0
VERTEX
  5
592
330
590
100
AcDbEntity
  8
Predefinito
  6
Continuous
 62
   255
100
AcDbVertex
100
AcDb2dVertex
 10
451.4589998236188
 20
232.2093923918095
 30
0.0
  0
VERTEX
  5
593
330
590
100
AcDbEntity
  8
Predefinito
  6
Continuous
 62
   255
100
AcDbVertex
100
AcDb2dVertex
 10
452.3534705843598
 20
231.9411348636714
 30
0.0
  0
VERTEX
  5
594
330
590
100
AcDbEntity
  8
Predefinito
  6
Continuous
 62
   255
100
AcDbVertex
100
AcDb2dVertex
 10
453.1824569497561
 20
231.5112084600045
 30
0.0
  0
VERTEX
  5
595
330
590
100
AcDbEntity
  8
Predefinito
  6
Continuous
 62
   255
100
AcDbVertex
100
AcDb2dVertex
 10
453.9170390065936
 20
230.9346115388055
 30
0.0
  0
VERTEX
  5
596
330
590
100
AcDbEntity
  8
Predefinito
  6
Continuous
 62
   255
100
AcDbVertex
100
AcDb2dVertex
 10
454.531590218394
 20
230.2314591871456
 30
0.0
  0
VERTEX
  5
597
330
590
100
AcDbEntity
  8
Predefinito
  6
Continuous
 62
   255
100
AcDbVertex
100
AcDb2dVertex
 10
455.0046714295175
 20
229.4262814887937
 30
0.0
  0
VERTEX
  5
598
330
590
100
AcDbEntity
  8
Predefinito
  6
Continuous
 62
   255
100
AcDbVertex
100
AcDb2dVertex
 10
455.3197787888273
 20
228.5471677708252
 30
0.0
  0
VERTEX
  5
599
330
590
100
AcDbEntity
  8
Predefinito
  6
Continuous
 62
   255
100
AcDbVertex
100
AcDb2dVertex
 10
455.465919500947
 20
227.6247866829193
 30
0.0
  0
SEQEND
  5
59A
330
590
100
AcDbEntity
  8
Predefinito
  6
Continuous
 62
   255
  0
POLYLINE
  5
59B
330
1F
100
AcDbEntity
  8
Predefinito
  6
Continuous
 62
   255
100
AcDb2dPolyline
 66
     1
 10
0.0
 20
0.0
 30
0.0
  0
VERTEX
  5
59C
330
59B
100
AcDbEntity
  8
Predefinito
  6
Continuous
 62
   255
100
AcDbVertex
100
AcDb2dVertex
 10
279.5310776514681
 20
227.4929388707981
 30
0.0
  0
VERTEX
  5
59D
330
59B
100
AcDbEntity
  8
Predefinito
  6
Continuous
 62
   255
100
AcDbVertex
100
AcDb2dVertex
 10
279.037774154506
 20
215.483332866638
 30
0.0
  0
VERTEX
  5
59E
330
59B
100
AcDbEntity
  8
Predefinito
  6
Continuous
 62
   255
100
AcDbVertex
100
AcDb2dVertex
 10
278.5352801268883
 20
203.2328569235115
 30
0.0
  0
VERTEX
  5
59F
330
59B
100
AcDbEntity
  8
Predefinito
  6
Continuous
 62
   255
100
AcDbVertex
100
AcDb2dVertex
 10
278.0778555226352
 20
192.128544793804
 30
0.0
  0
VERTEX
  5
5A0
330
59B
100
AcDbEntity
  8
Predefinito
  6
Continuous
 62
   255
100
AcDbVertex
100
AcDb2dVertex
 10
277.6633874674276
 20
182.1703964775157
 30
0.0
  0
VERTEX
  5
5A1
330
59B
100
AcDbEntity
  8
Predefinito
  6
Continuous
 62
   255
100
AcDbVertex
100
AcDb2dVertex
 10
277.2907592252548
 20
173.3584119746463
 30
0.0
  0
VERTEX
  5
5A2
330
59B
100
AcDbEntity
  8
Predefinito
  6
Continuous
 62
   255
100
AcDbVertex
100
AcDb2dVertex
 10
277.0121792743994
 20
166.8906333575059
 30
0.0
  0
VERTEX
  5
5A3
330
59B
100
AcDbEntity
  8
Predefinito
  6
Continuous
 62
   255
100
AcDbVertex
100
AcDb2dVertex
 10
276.7632490910531
 20
161.2188018330176
 30
0.0
  0
VERTEX
  5
5A4
330
59B
100
AcDbEntity
  8
Predefinito
  6
Continuous
 62
   255
100
AcDbVertex
100
AcDb2dVertex
 10
276.5457831038627
 20
156.3598292796908
 30
0.0
  0
VERTEX
  5
5A5
330
59B
100
AcDbEntity
  8
Predefinito
  6
Continuous
 62
   255
100
AcDbVertex
100
AcDb2dVertex
 10
276.3624370131491
 20
152.3418501021171
 30
0.0
  0
VERTEX
  5
5A6
330
59B
100
AcDbEntity
  8
Predefinito
  6
Continuous
 62
   255
100
AcDbVertex
100
AcDb2dVertex
 10
276.2148673609364
 20
149.1652947277638
 30
0.0
  0
VERTEX
  5
5A7
330
59B
100
AcDbEntity
  8
Predefinito
  6
Continuous
 62
   255
100
AcDbVertex
100
AcDb2dVertex
 10
276.1043846573652
 20
146.822573552047
 30
0.0
  0
VERTEX
  5
5A8
330
59B
100
AcDbEntity
  8
Predefinito
  6
Continuous
 62
   255
100
AcDbVertex
100
AcDb2dVertex
 10
275.9901281588277
 20
144.4323195580354
 30
0.0
  0
VERTEX
  5
5A9
330
59B
100
AcDbEntity
  8
Predefinito
  6
Continuous
 62
   255
100
AcDbVertex
100
AcDb2dVertex
 10
275.8137900514423
 20
140.8106707520544
 30
0.0
  0
VERTEX
  5
5AA
330
59B
100
AcDbEntity
  8
Predefinito
  6
Continuous
 62
   255
100
AcDbVertex
100
AcDb2dVertex
 10
275.5776479989106
 20
136.0992875093486
 30
0.0
  0
VERTEX
  5
5AB
330
59B
100
AcDbEntity
  8
Predefinito
  6
Continuous
 62
   255
100
AcDbVertex
100
AcDb2dVertex
 10
275.3247128357015
 20
131.2419927540094
 30
0.0
  0
VERTEX
  5
5AC
330
59B
100
AcDbEntity
  8
Predefinito
  6
Continuous
 62
   255
100
AcDbVertex
100
AcDb2dVertex
 10
275.0485256629226
 20
126.1835875310721
 30
0.0
  0
VERTEX
  5
5AD
330
59B
100
AcDbEntity
  8
Predefinito
  6
Continuous
 62
   255
100
AcDbVertex
100
AcDb2dVertex
 10
274.7562392723366
 20
121.1560736671315
 30
0.0
  0
VERTEX
  5
5AE
330
59B
100
AcDbEntity
  8
Predefinito
  6
Continuous
 62
   255
100
AcDbVertex
100
AcDb2dVertex
 10
274.4604693732773
 20
116.4703689363551
 30
0.0
  0
VERTEX
  5
5AF
330
59B
100
AcDbEntity
  8
Predefinito
  6
Continuous
 62
   255
100
AcDbVertex
100
AcDb2dVertex
 10
274.2858811779254
 20
113.9114322414233
 30
0.0
  0
VERTEX
  5
5B0
330
59B
100
AcDbEntity
  8
Predefinito
  6
Continuous
 62
   255
100
AcDbVertex
100
AcDb2dVertex
 10
274.1242792512572
 20
111.6838097905789
 30
0.0
  0
VERTEX
  5
5B1
330
59B
100
AcDbEntity
  8
Predefinito
  6
Continuous
 62
   255
100
AcDbVertex
100
AcDb2dVertex
 10
273.9783624842571
 20
109.7875015838222
 30
0.0
  0
VERTEX
  5
5B2
330
59B
100
AcDbEntity
  8
Predefinito
  6
Continuous
 62
   255
100
AcDbVertex
100
AcDb2dVertex
 10
273.8436940123325
 20
108.1296488480526
 30
0.0
  0
VERTEX
  5
5B3
330
59B
100
AcDbEntity
  8
Predefinito
  6
Continuous
 62
   255
100
AcDbVertex
100
AcDb2dVertex
 10
273.6486744593919
 20
105.8626309758592
 30
0.0
  0
VERTEX
  5
5B4
330
59B
100
AcDbEntity
  8
Predefinito
  6
Continuous
 62
   255
100
AcDbVertex
100
AcDb2dVertex
 10
273.3632415044003
 20
102.7823522785582
 30
0.0
  0
VERTEX
  5
5B5
330
59B
100
AcDbEntity
  8
Predefinito
  6
Continuous
 62
   255
100
AcDbVertex
100
AcDb2dVertex
 10
272.8857425593639
 20
98.10795873675124
 30
0.0
  0
VERTEX
  5
5B6
330
59B
100
AcDbEntity
  8
Predefinito
  6
Continuous
 62
   255
100
AcDbVertex
100
AcDb2dVertex
 10
272.2212436369505
 20
92.30392101313039
 30
0.0
  0
VERTEX
  5
5B7
330
59B
100
AcDbEntity
  8
Predefinito
  6
Continuous
 62
   255
100
AcDbVertex
100
AcDb2dVertex
 10
271.3313047671062
 20
85.37023910769582
 30
0.0
  0
VERTEX
  5
5B8
330
59B
100
AcDbEntity
  8
Predefinito
  6
Continuous
 62
   255
100
AcDbVertex
100
AcDb2dVertex
 10
270.1833831544085
 20
77.30691302044745
 30
0.0
  0
SEQEND
  5
5B9
330
59B
100
AcDbEntity
  8
Predefinito
  6
Continuous
 62
   255
  0
POLYLINE
  5
5BA
330
1F
100
AcDbEntity
  8
Predefinito
  6
Continuous
 62
   255
100
AcDb2dPolyline
 66
     1
 10
0.0
 20
0.0
 30
0.0
  0
VERTEX
  5
5BB
330
5BA
100
AcDbEntity
  8
Predefinito
  6
Continuous
 62
   255
100
AcDbVertex
100
AcDb2dVertex
 10
279.4558984265847
 20
227.5148770357544
 30
0.0
  0
VERTEX
  5
5BC
330
5BA
100
AcDbEntity
  8
Predefinito
  6
Continuous
 62
   255
100
AcDbVertex
100
AcDb2dVertex
 10
279.5860790909966
 20
228.4588648064504
 30
0.0
  0
VERTEX
  5
5BD
330
5BA
100
AcDbEntity
  8
Predefinito
  6
Continuous
 62
   255
100
AcDbVertex
100
AcDb2dVertex
 10
279.8929846192951
 20
229.3610109141567
 30
0.0
  0
VERTEX
  5
5BE
330
5BA
100
AcDbEntity
  8
Predefinito
  6
Continuous
 62
   255
100
AcDbVertex
100
AcDb2dVertex
 10
280.3654674636048
 20
230.1885472396996
 30
0.0
  0
VERTEX
  5
5BF
330
5BA
100
AcDbEntity
  8
Predefinito
  6
Continuous
 62
   255
100
AcDbVertex
100
AcDb2dVertex
 10
280.9863659091904
 20
230.9114156708682
 30
0.0
  0
VERTEX
  5
5C0
330
5BA
100
AcDbEntity
  8
Predefinito
  6
Continuous
 62
   255
100
AcDbVertex
100
AcDb2dVertex
 10
281.7331274292651
 20
231.5033598854359
 30
0.0
  0
VERTEX
  5
5C1
330
5BA
100
AcDbEntity
  8
Predefinito
  6
Continuous
 62
   255
100
AcDbVertex
100
AcDb2dVertex
 10
282.578627847074
 20
231.9428790440138
 30
0.0
  0
VERTEX
  5
5C2
330
5BA
100
AcDbEntity
  8
Predefinito
  6
Continuous
 62
   255
100
AcDbVertex
100
AcDb2dVertex
 10
283.4921565513142
 20
232.2140087523155
 30
0.0
  0
VERTEX
  5
5C3
330
5BA
100
AcDbEntity
  8
Predefinito
  6
Continuous
 62
   255
100
AcDbVertex
100
AcDb2dVertex
 10
284.4405319794944
 20
232.3069009264027
 30
0.0
  0
SEQEND
  5
5C4
330
5BA
100
AcDbEntity
  8
Predefinito
  6
Continuous
 62
   255
  0
LINE
  5
5C5
330
1F
100
AcDbEntity
  8
Predefinito
  6
Continuous
 62
   255
100
AcDbLine
 10
414.6147374752034
 20
77.30691302044778
 30
0.0
 11
414.4577104605287
 21
134.4919731717014
 31
0.0
  0
ARC
  5
5C6
330
1F
100
AcDbEntity
  8
Predefinito
  6
Continuous
 62
   255
100
AcDbCircle
 10
-169.181253700326
 20
-294.4997916655303
 30
0.0
 40
30.0
100
AcDbArc
 50
58.1665785968282
 51
1.833421403171826
  0
ARC
  5
5C7
330
1F
100
AcDbEntity
  8
Predefinito
  6
Continuous
 62
   255
100
AcDbCircle
 10
-4.636426981282692
 20
-294.4997916655303
 30
0.0
 40
30.00000000000007
100
AcDbArc
 50
178.1665785968248
 51
121.8334214031718
  0
ARC
  5
5C8
330
1F
100
AcDbEntity
  8
Predefinito
  6
Continuous
 62
   255
100
AcDbCircle
 10
-86.90884034080437
 20
-151.9997916655303
 30
0.0
 40
30.0
100
AcDbArc
 50
298.1665785968289
 51
241.8334214031727
  0
POLYLINE
  5
5C9
330
1F
100
AcDbEntity
  8
Predefinito
  6
Continuous
 62
   255
100
AcDb2dPolyline
 66
     1
 10
0.0
 20
0.0
 30
0.0
  0
VERTEX
  5
5CA
330
5C9
100
AcDbEntity
  8
Predefinito
  6
Continuous
 62
   255
100
AcDbVertex
100
AcDb2dVertex
 10
-80.5234969284282
 20
-326.1705150958981
 30
0.0
  0
VERTEX
  5
5CB
330
5C9
100
AcDbEntity
  8
Predefinito
  6
Continuous
 62
   255
100
AcDbVertex
100
AcDb2dVertex
 10
-82.68869360531968
 20
-325.3756853579528
 30
0.0
  0
VERTEX
  5
5CC
330
5C9
100
AcDbEntity
  8
Predefinito
  6
Continuous
 62
   255
100
AcDbVertex
100
AcDb2dVertex
 10
-85.6667959674538
 20
-323.7824748457058
 30
0.0
  0
VERTEX
  5
5CD
330
5C9
100
AcDbEntity
  8
Predefinito
  6
Continuous
 62
   255
100
AcDbVertex
100
AcDb2dVertex
 10
-88.40062641790252
 20
-321.8376407147167
 30
0.0
  0
VERTEX
  5
5CE
330
5C9
100
AcDbEntity
  8
Predefinito
  6
Continuous
 62
   255
100
AcDbVertex
100
AcDb2dVertex
 10
-90.55654663353843
 20
-319.533632003588
 30
0.0
  0
VERTEX
  5
5CF
330
5C9
100
AcDbEntity
  8
Predefinito
  6
Continuous
 62
   255
100
AcDbVertex
100
AcDb2dVertex
 10
-91.79991397877782
 20
-316.8630548736261
 30
0.0
  0
VERTEX
  5
5D0
330
5C9
100
AcDbEntity
  8
Predefinito
  6
Continuous
 62
   255
100
AcDbVertex
100
AcDb2dVertex
 10
-91.80731034961485
 20
-316.7788961804783
 30
0.0
  0
SEQEND
  5
5D1
330
5C9
100
AcDbEntity
  8
Predefinito
  6
Continuous
 62
   255
  0
LINE
  5
5D2
330
1F
100
AcDbEntity
  8
Predefinito
  6
Continuous
 62
   255
100
AcDbLine
 10
24.1337706006094
 20
-347.6095784610728
 30
0.0
 11
24.13375358504521
 21
-347.609548989251
 31
0.0
  0
LINE
  5
5D3
330
1F
100
AcDbEntity
  8
Predefinito
  6
Continuous
 62
   255
100
AcDbLine
 10
-233.8569930970136
 20
-305.5632447643018
 30
0.0
 11
-233.8569595828945
 21
-305.5632388548584
 31
0.0
  0
POLYLINE
  5
5D4
330
1F
100
AcDbEntity
  8
Predefinito
  6
Continuous
 62
   255
100
AcDb2dPolyline
 66
     1
 10
0.0
 20
0.0
 30
0.0
  0
VERTEX
  5
5D5
330
5D4
100
AcDbEntity
  8
Predefinito
  6
Continuous
 62
   255
100
AcDbVertex
100
AcDb2dVertex
 10
-23.6946320688157
 20
-200.9503548335987
 30
0.0
  0
VERTEX
  5
5D6
330
5D4
100
AcDbEntity
  8
Predefinito
  6
Continuous
 62
   255
100
AcDbVertex
100
AcDb2dVertex
 10
-23.30037647511366
 20
-203.2228850289503
 30
0.0
  0
VERTEX
  5
5D7
330
5D4
100
AcDbEntity
  8
Predefinito
  6
Continuous
 62
   255
100
AcDbVertex
100
AcDb2dVertex
 10
-23.19108607122897
 20
-206.5986025857524
 30
0.0
  0
VERTEX
  5
5D8
330
5D4
100
AcDbEntity
  8
Predefinito
  6
Continuous
 62
   255
100
AcDbVertex
100
AcDb2dVertex
 10
-23.50844660958812
 20
-209.938586270975
 30
0.0
  0
VERTEX
  5
5D9
330
5D4
100
AcDbEntity
  8
Predefinito
  6
Continuous
 62
   255
100
AcDbVertex
100
AcDb2dVertex
 10
-24.42581657614824
 20
-212.9576723018125
 30
0.0
  0
VERTEX
  5
5DA
330
5D4
100
AcDbEntity
  8
Predefinito
  6
Continuous
 62
   255
100
AcDbVertex
100
AcDb2dVertex
 10
-25.27803196210619
 20
-214.1732146659634
 30
0.0
  0
SEQEND
  5
5DB
330
5D4
100
AcDbEntity
  8
Predefinito
  6
Continuous
 62
   255
  0
LINE
  5
5DC
330
1F
100
AcDbEntity
  8
Predefinito
  6
Continuous
 62
   255
100
AcDbLine
 10
-57.45649232574965
 20
-99.59497078020274
 30
0.0
 11
-57.45650934131385
 21
-99.59500025202443
 31
0.0
  0
LINE
  5
5DD
330
1F
100
AcDbEntity
  8
Predefinito
  6
Continuous
 62
   255
100
AcDbLine
 10
-170.4247974213377
 20
-364.6733131485934
 30
0.0
 11
-167.5979900246634
 21
-367.3274374168947
 31
0.0
  0
LINE
  5
5DE
330
1F
100
AcDbEntity
  8
Predefinito
  6
Continuous
 62
   255
100
AcDbLine
 10
-119.2334618704269
 20
-108.515123083862
 30
0.0
 11
-121.148392360102
 21
-109.4427574138299
 31
0.0
  0
LINE
  5
5DF
330
1F
100
AcDbEntity
  8
Predefinito
  6
Continuous
 62
   255
100
AcDbLine
 10
-112.1505097408808
 20
-99.22909055803203
 30
0.0
 11
-112.5960648120833
 21
-100.545239439081
 31
0.0
  0
LINE
  5
5E0
330
1F
100
AcDbEntity
  8
Predefinito
  6
Continuous
 62
   255
100
AcDbLine
 10
-29.10158706162426
 20
-181.4279433294819
 30
0.0
 11
-30.32769812696336
 21
-178.1991240958939
 31
0.0
  0
LINE
  5
5E1
330
1F
100
AcDbEntity
  8
Predefinito
  6
PHANTOM
 62
   255
100
AcDbLine
 10
-57.48836301394239
 20
226.8893974469242
 30
0.0
 11
-94.79128083955484
 21
227.2779422532619
 31
0.0
  0
LINE
  5
5E2
330
1F
100
AcDbEntity
  8
Predefinito
  6
PHANTOM
 62
   255
100
AcDbLine
 10
66.84786435877271
 20
227.3215692361415
 30
0.0
 11
24.13377060060955
 21
227.9759583511991
 31
0.0
  0
LINE
  5
5E3
330
1F
100
AcDbEntity
  8
Predefinito
  6
PHANTOM
 62
   255
100
AcDbLine
 10
-167.5602547856031
 20
226.9103849737831
 30
0.0
 11
-256.4434491485878
 21
227.4852313086792
 31
0.0
  0
LINE
  5
5E4
330
1F
100
AcDbEntity
  8
Predefinito
  6
PHANTOM
 62
   255
100
AcDbLine
 10
-94.9286442726734
 20
227.2318442201054
 30
0.0
 11
-112.4666563564765
 21
227.6083082625174
 31
0.0
  0
LINE
  5
5E5
330
1F
100
AcDbEntity
  8
Predefinito
  6
PHANTOM
 62
   255
100
AcDbLine
 10
-167.5602394468255
 20
226.9111235553397
 30
0.0
 11
-167.5602629473237
 21
226.911123366979
 31
0.0
  0
LINE
  5
5E6
330
1F
100
AcDbEntity
  8
Predefinito
  6
Continuous
 62
   255
100
AcDbLine
 10
-139.1966116602433
 20
234.829151943677
 30
0.0
 11
-34.62106902136542
 21
234.829151943677
 31
0.0
  0
LINE
  5
5E7
330
1F
100
AcDbEntity
  8
Predefinito
  6
Continuous
 62
   255
100
AcDbLine
 10
-199.181253700326
 20
234.829151943677
 30
0.0
 11
-139.181253700326
 21
234.829151943677
 31
0.0
  0
LINE
  5
5E8
330
1F
100
AcDbEntity
  8
Predefinito
  6
Continuous
 62
   255
100
AcDbLine
 10
-34.63642698128269
 20
234.829151943677
 30
0.0
 11
25.36357301871731
 21
234.829151943677
 31
0.0
  0
LINE
  5
5E9
330
1F
100
AcDbEntity
  8
Predefinito
  6
Continuous
 62
   255
100
AcDbLine
 10
-96.18500548252113
 20
232.3069130204479
 30
0.0
 11
-56.37916027030013
 21
232.3069130204477
 31
0.0
  0
LINE
  5
5EA
330
1F
100
AcDbEntity
  8
Predefinito
  6
Continuous
 62
   255
100
AcDbLine
 10
-91.38740078403612
 20
77.30691302044781
 30
0.0
 11
-96.64458141295293
 21
77.30691302044795
 31
0.0
  0
LINE
  5
5EB
330
1F
100
AcDbEntity
  8
Predefinito
  6
Continuous
 62
   255
100
AcDbLine
 10
-41.51505304353224
 20
77.30691302044757
 30
0.0
 11
-92.06348394119192
 21
77.30691302044784
 31
0.0
  0
LINE
  5
5EC
330
1F
100
AcDbEntity
  8
Predefinito
  6
Continuous
 62
   255
100
AcDbLine
 10
26.27002384445738
 20
232.3069130204475
 30
0.0
 11
61.98727242869633
 21
232.3069130204475
 31
0.0
  0
POLYLINE
  5
5ED
330
1F
100
AcDbEntity
  8
Predefinito
  6
Continuous
 62
   255
100
AcDb2dPolyline
 66
     1
 10
0.0
 20
0.0
 30
0.0
  0
VERTEX
  5
5EE
330
5ED
100
AcDbEntity
  8
Predefinito
  6
Continuous
 62
   255
100
AcDbVertex
100
AcDb2dVertex
 10
59.33791160247448
 20
228.3069130204474
 30
0.0
  0
VERTEX
  5
5EF
330
5ED
100
AcDbEntity
  8
Predefinito
  6
Continuous
 62
   255
100
AcDbVertex
100
AcDb2dVertex
 10
59.31438749831988
 20
228.5832686250079
 30
0.0
  0
VERTEX
  5
5F0
330
5ED
100
AcDbEntity
  8
Predefinito
  6
Continuous
 62
   255
100
AcDbVertex
100
AcDb2dVertex
 10
58.65472933162516
 20
230.1115144888217
 30
0.0
  0
VERTEX
  5
5F1
330
5ED
100
AcDbEntity
  8
Predefinito
  6
Continuous
 62
   255
100
AcDbVertex
100
AcDb2dVertex
 10
57.552121717069
 20
231.3235630557882
 30
0.0
  0
VERTEX
  5
5F2
330
5ED
100
AcDbEntity
  8
Predefinito
  6
Continuous
 62
   255
100
AcDbVertex
100
AcDb2dVertex
 10
56.13087490854007
 20
232.0827652096908
 30
0.0
  0
VERTEX
  5
5F3
330
5ED
100
AcDbEntity
  8
Predefinito
  6
Continuous
 62
   255
100
AcDbVertex
100
AcDb2dVertex
 10
54.95821707981338
 20
232.3009166773806
 30
0.0
  0
VERTEX
  5
5F4
330
5ED
100
AcDbEntity
  8
Predefinito
  6
Continuous
 62
   255
100
AcDbVertex
100
AcDb2dVertex
 10
54.72586420083597
 20
232.3069130204477
 30
0.0
  0
SEQEND
  5
5F5
330
5ED
100
AcDbEntity
  8
Predefinito
  6
Continuous
 62
   255
  0
LINE
  5
5F6
330
1F
100
AcDbEntity
  8
Predefinito
  6
Continuous
 62
   255
100
AcDbLine
 10
67.81707304196321
 20
77.30691302044745
 30
0.0
 11
42.11236682237387
 21
77.30691302044731
 31
0.0
  0
LINE
  5
5F7
330
1F
100
AcDbEntity
  8
Predefinito
  6
Continuous
 62
   255
100
AcDbLine
 10
66.98299612409964
 20
227.2935093920592
 30
0.0
 11
66.84786435877271
 21
227.3215692361415
 31
0.0
  0
LINE
  5
5F8
330
1F
100
AcDbEntity
  8
Predefinito
  6
Continuous
 62
   255
100
AcDbLine
 10
-44.0815279991284
 20
232.3069130204475
 30
0.0
 11
26.27002384445738
 21
232.3069130204475
 31
0.0
  0
LINE
  5
5F9
330
1F
100
AcDbEntity
  8
Predefinito
  6
Continuous
 62
   255
100
AcDbLine
 10
-56.37916027030024
 20
232.3069130204477
 30
0.0
 11
-43.96076047550965
 21
232.3069130204476
 31
0.0
  0
LINE
  5
5FA
330
1F
100
AcDbEntity
  8
Predefinito
  6
Continuous
 62
   255
100
AcDbLine
 10
-57.48827660000896
 20
226.888588221355
 30
0.0
 11
-57.4883630139424
 21
226.8893974469242
 31
0.0
  0
POLYLINE
  5
5FB
330
1F
100
AcDbEntity
  8
Predefinito
  6
Continuous
 62
   255
100
AcDb2dPolyline
 66
     1
 10
0.0
 20
0.0
 30
0.0
  0
VERTEX
  5
5FC
330
5FB
100
AcDbEntity
  8
Predefinito
  6
Continuous
 62
   255
100
AcDbVertex
100
AcDb2dVertex
 10
26.27002384445715
 20
232.3069130204475
 30
0.0
  0
VERTEX
  5
5FD
330
5FB
100
AcDbEntity
  8
Predefinito
  6
Continuous
 62
   255
100
AcDbVertex
100
AcDb2dVertex
 10
25.53504567349957
 20
232.0073156783831
 30
0.0
  0
VERTEX
  5
5FE
330
5FB
100
AcDbEntity
  8
Predefinito
  6
Continuous
 62
   255
100
AcDbVertex
100
AcDb2dVertex
 10
24.85937836961129
 20
231.0876941065499
 30
0.0
  0
VERTEX
  5
5FF
330
5FB
100
AcDbEntity
  8
Predefinito
  6
Continuous
 62
   255
100
AcDbVertex
100
AcDb2dVertex
 10
24.37498910073232
 20
229.6901275268097
 30
0.0
  0
VERTEX
  5
600
330
5FB
100
AcDbEntity
  8
Predefinito
  6
Continuous
 62
   255
100
AcDbVertex
100
AcDb2dVertex
 10
24.13375358504519
 20
227.9761009495856
 30
0.0
  0
SEQEND
  5
601
330
5FB
100
AcDbEntity
  8
Predefinito
  6
Continuous
 62
   255
  0
LINE
  5
602
330
1F
100
AcDbEntity
  8
Predefinito
  6
Continuous
 62
   255
100
AcDbLine
 10
-56.37916027030024
 20
232.3069130204477
 30
0.0
 11
-57.4883630139424
 21
226.8893974469242
 31
0.0
  0
LINE
  5
603
330
1F
100
AcDbEntity
  8
Predefinito
  6
Continuous
 62
   255
100
AcDbLine
 10
42.11236682237387
 20
77.30691302044731
 30
0.0
 11
-41.51505304353224
 21
77.30691302044757
 31
0.0
  0
LINE
  5
604
330
1F
100
AcDbEntity
  8
Predefinito
  6
Continuous
 62
   255
100
AcDbLine
 10
24.13377060060954
 20
227.9759583511991
 30
0.0
 11
42.11236682237373
 21
77.30691302044735
 31
0.0
  0
LINE
  5
605
330
1F
100
AcDbEntity
  8
Predefinito
  6
Continuous
 62
   255
100
AcDbLine
 10
24.1337706006094
 20
227.975958351199
 30
0.0
 11
24.13375358504521
 21
227.9761009495855
 31
0.0
  0
LINE
  5
606
330
1F
100
AcDbEntity
  8
Predefinito
  6
Continuous
 62
   255
100
AcDbLine
 10
-57.488276600009
 20
226.888588221355
 30
0.0
 11
-41.51505304353483
 21
77.3069130204476
 31
0.0
  0
LINE
  5
607
330
1F
100
AcDbEntity
  8
Predefinito
  6
Continuous
 62
   255
100
AcDbLine
 10
-117.2089442061243
 20
232.3069130204479
 30
0.0
 11
-99.85506040582138
 21
232.306913020448
 31
0.0
  0
LINE
  5
608
330
1F
100
AcDbEntity
  8
Predefinito
  6
Continuous
 62
   255
100
AcDbLine
 10
-164.4676689072207
 20
232.3069130204477
 30
0.0
 11
-117.4545980317863
 21
232.3069130204479
 31
0.0
  0
LINE
  5
609
330
1F
100
AcDbEntity
  8
Predefinito
  6
Continuous
 62
   255
100
AcDbLine
 10
-251.1308015735555
 20
232.3069130204475
 30
0.0
 11
-164.4676689072207
 21
232.3069130204477
 31
0.0
  0
POLYLINE
  5
60A
330
1F
100
AcDbEntity
  8
Predefinito
  6
Continuous
 62
   255
100
AcDb2dPolyline
 66
     1
 10
0.0
 20
0.0
 30
0.0
  0
VERTEX
  5
60B
330
60A
100
AcDbEntity
  8
Predefinito
  6
Continuous
 62
   255
100
AcDbVertex
100
AcDb2dVertex
 10
-167.5602653008931
 20
226.9111233481148
 30
0.0
  0
VERTEX
  5
60C
330
60A
100
AcDbEntity
  8
Predefinito
  6
Continuous
 62
   255
100
AcDbVertex
100
AcDb2dVertex
 10
-167.4672184000916
 20
228.5832686250079
 30
0.0
  0
VERTEX
  5
60D
330
60A
100
AcDbEntity
  8
Predefinito
  6
Continuous
 62
   255
100
AcDbVertex
100
AcDb2dVertex
 10
-167.0359952849084
 20
230.1115144888217
 30
0.0
  0
VERTEX
  5
60E
330
60A
100
AcDbEntity
  8
Predefinito
  6
Continuous
 62
   255
100
AcDbVertex
100
AcDb2dVertex
 10
-166.3152130444497
 20
231.3235630557882
 30
0.0
  0
VERTEX
  5
60F
330
60A
100
AcDbEntity
  8
Predefinito
  6
Continuous
 62
   255
100
AcDbVertex
100
AcDb2dVertex
 10
-165.386134151494
 20
232.0827652096908
 30
0.0
  0
VERTEX
  5
610
330
60A
100
AcDbEntity
  8
Predefinito
  6
Continuous
 62
   255
100
AcDbVertex
100
AcDb2dVertex
 10
-164.6195595959382
 20
232.3009166773806
 30
0.0
  0
VERTEX
  5
611
330
60A
100
AcDbEntity
  8
Predefinito
  6
Continuous
 62
   255
100
AcDbVertex
100
AcDb2dVertex
 10
-164.4676689072187
 20
232.3069130204477
 30
0.0
  0
SEQEND
  5
612
330
60A
100
AcDbEntity
  8
Predefinito
  6
Continuous
 62
   255
  0
LINE
  5
613
330
1F
100
AcDbEntity
  8
Predefinito
  6
Continuous
 62
   255
100
AcDbLine
 10
-170.6672026252395
 20
77.30691302044777
 30
0.0
 11
-273.3095093029676
 21
77.30691302044734
 31
0.0
  0
LINE
  5
614
330
1F
100
AcDbEntity
  8
Predefinito
  6
Continuous
 62
   255
100
AcDbLine
 10
-96.99459141295291
 20
77.30691302044795
 30
0.0
 11
-170.6672026252395
 21
77.30691302044777
 31
0.0
  0
LINE
  5
615
330
1F
100
AcDbEntity
  8
Predefinito
  6
Continuous
 62
   255
100
AcDbLine
 10
-94.93406390652137
 20
227.2241985663953
 30
0.0
 11
-94.9286442726734
 21
227.2318442201054
 31
0.0
  0
LINE
  5
616
330
1F
100
AcDbEntity
  8
Predefinito
  6
Continuous
 62
   255
100
AcDbLine
 10
-167.5602653008931
 20
226.9111233481148
 30
0.0
 11
-167.560254785603
 21
226.9103849737831
 31
0.0
  0
LINE
  5
617
330
1F
100
AcDbEntity
  8
Predefinito
  6
Continuous
 62
   255
100
AcDbLine
 10
-170.6672026252402
 20
77.30691302044752
 30
0.0
 11
-167.5602547856031
 21
226.9103849737831
 31
0.0
  0
LINE
  5
618
330
1F
100
AcDbEntity
  8
Predefinito
  6
Continuous
 62
   255
100
AcDbLine
 10
-99.50505040582138
 20
232.3069130204479
 30
0.0
 11
-96.53500548252113
 21
232.3069130204479
 31
0.0
  0
LINE
  5
619
330
1F
100
AcDbEntity
  8
Predefinito
  6
Continuous
 62
   255
100
AcDbLine
 10
-70.90884034080437
 20
232.3069130204478
 30
0.0
 11
-70.90884034080437
 21
234.829151943677
 31
0.0
  0
LINE
  5
61A
330
1F
100
AcDbEntity
  8
Predefinito
  6
Continuous
 62
   255
100
AcDbLine
 10
-102.9088403408044
 20
234.829151943677
 30
0.0
 11
-102.9088403408044
 21
232.3069130204479
 31
0.0
  0
LINE
  5
61B
330
1F
100
AcDbEntity
  8
Predefinito
  6
Continuous
 62
   255
100
AcDbLine
 10
-153.181253700326
 20
232.3069130204478
 30
0.0
 11
-153.181253700326
 21
234.829151943677
 31
0.0
  0
LINE
  5
61C
330
1F
100
AcDbEntity
  8
Predefinito
  6
Continuous
 62
   255
100
AcDbLine
 10
-185.181253700326
 20
234.829151943677
 30
0.0
 11
-185.181253700326
 21
232.3069130204475
 31
0.0
  0
LINE
  5
61D
330
1F
100
AcDbEntity
  8
Predefinito
  6
Continuous
 62
   255
100
AcDbLine
 10
11.36357301871731
 20
232.3069130204475
 30
0.0
 11
11.36357301871731
 21
234.829151943677
 31
0.0
  0
LINE
  5
61E
330
1F
100
AcDbEntity
  8
Predefinito
  6
Continuous
 62
   255
100
AcDbLine
 10
-20.63642698128269
 20
234.829151943677
 30
0.0
 11
-20.63642698128269
 21
232.3069130204474
 31
0.0
  0
POLYLINE
  5
61F
330
1F
100
AcDbEntity
  8
Predefinito
  6
Continuous
 62
   255
100
AcDb2dPolyline
 66
     1
 10
0.0
 20
0.0
 30
0.0
  0
VERTEX
  5
620
330
61F
100
AcDbEntity
  8
Predefinito
  6
Continuous
 62
   255
100
AcDbVertex
100
AcDb2dVertex
 10
61.99880766341531
 20
232.3069111773527
 30
0.0
  0
VERTEX
  5
621
330
61F
100
AcDbEntity
  8
Predefinito
  6
Continuous
 62
   255
100
AcDbVertex
100
AcDb2dVertex
 10
62.97258569390365
 20
232.2120032718396
 30
0.0
  0
VERTEX
  5
622
330
61F
100
AcDbEntity
  8
Predefinito
  6
Continuous
 62
   255
100
AcDbVertex
100
AcDb2dVertex
 10
63.91311188559789
 20
231.9276409917079
 30
0.0
  0
VERTEX
  5
623
330
61F
100
AcDbEntity
  8
Predefinito
  6
Continuous
 62
   255
100
AcDbVertex
100
AcDb2dVertex
 10
64.77986363862622
 20
231.4648025044226
 30
0.0
  0
VERTEX
  5
624
330
61F
100
AcDbEntity
  8
Predefinito
  6
Continuous
 62
   255
100
AcDbVertex
100
AcDb2dVertex
 10
65.53936255599437
 20
230.8413650055791
 30
0.0
  0
VERTEX
  5
625
330
61F
100
AcDbEntity
  8
Predefinito
  6
Continuous
 62
   255
100
AcDbVertex
100
AcDb2dVertex
 10
66.16227289516307
 20
230.0814088480749
 30
0.0
  0
VERTEX
  5
626
330
61F
100
AcDbEntity
  8
Predefinito
  6
Continuous
 62
   255
100
AcDbVertex
100
AcDb2dVertex
 10
66.62453466484456
 20
229.2142874354079
 30
0.0
  0
VERTEX
  5
627
330
61F
100
AcDbEntity
  8
Predefinito
  6
Continuous
 62
   255
100
AcDbVertex
100
AcDb2dVertex
 10
66.90829294523445
 20
228.2734934427228
 30
0.0
  0
VERTEX
  5
628
330
61F
100
AcDbEntity
  8
Predefinito
  6
Continuous
 62
   255
100
AcDbVertex
100
AcDb2dVertex
 10
67.00258753656607
 20
227.2953651579632
 30
0.0
  0
SEQEND
  5
629
330
61F
100
AcDbEntity
  8
Predefinito
  6
Continuous
 62
   255
  0
LINE
  5
62A
330
1F
100
AcDbEntity
  8
Predefinito
  6
Continuous
 62
   255
100
AcDbLine
 10
67.83622372549716
 20
77.30691302044728
 30
0.0
 11
66.87746324275315
 21
227.3217696852228
 31
0.0
  0
POLYLINE
  5
62B
330
1F
100
AcDbEntity
  8
Predefinito
  6
Continuous
 62
   255
100
AcDb2dPolyline
 66
     1
 10
0.0
 20
0.0
 30
0.0
  0
VERTEX
  5
62C
330
62B
100
AcDbEntity
  8
Predefinito
  6
Continuous
 62
   255
100
AcDbVertex
100
AcDb2dVertex
 10
-49.04146383903025
 20
226.4581282108641
 30
0.0
  0
VERTEX
  5
62D
330
62B
100
AcDbEntity
  8
Predefinito
  6
Continuous
 62
   255
100
AcDbVertex
100
AcDb2dVertex
 10
-49.10867526768699
 20
227.5383344984358
 30
0.0
  0
VERTEX
  5
62E
330
62B
100
AcDbEntity
  8
Predefinito
  6
Continuous
 62
   255
100
AcDbVertex
100
AcDb2dVertex
 10
-48.941866265975
 20
228.6076976433434
 30
0.0
  0
VERTEX
  5
62F
330
62B
100
AcDbEntity
  8
Predefinito
  6
Continuous
 62
   255
100
AcDbVertex
100
AcDb2dVertex
 10
-48.54885258988613
 20
229.6161131468997
 30
0.0
  0
VERTEX
  5
630
330
62B
100
AcDbEntity
  8
Predefinito
  6
Continuous
 62
   255
100
AcDbVertex
100
AcDb2dVertex
 10
-47.94804870723832
 20
230.5163321830025
 30
0.0
  0
VERTEX
  5
631
330
62B
100
AcDbEntity
  8
Predefinito
  6
Continuous
 62
   255
100
AcDbVertex
100
AcDb2dVertex
 10
-47.16760499659349
 20
231.2661754192824
 30
0.0
  0
VERTEX
  5
632
330
62B
100
AcDbEntity
  8
Predefinito
  6
Continuous
 62
   255
100
AcDbVertex
100
AcDb2dVertex
 10
-46.24408877473411
 20
231.8305093095476
 30
0.0
  0
VERTEX
  5
633
330
62B
100
AcDbEntity
  8
Predefinito
  6
Continuous
 62
   255
100
AcDbVertex
100
AcDb2dVertex
 10
-45.2207709525252
 20
232.1828922592858
 30
0.0
  0
VERTEX
  5
634
330
62B
100
AcDbEntity
  8
Predefinito
  6
Continuous
 62
   255
100
AcDbVertex
100
AcDb2dVertex
 10
-44.1455985970819
 20
232.3068135339289
 30
0.0
  0
SEQEND
  5
635
330
62B
100
AcDbEntity
  8
Predefinito
  6
Continuous
 62
   255
  0
POLYLINE
  5
636
330
1F
100
AcDbEntity
  8
Predefinito
  6
Continuous
 62
   255
100
AcDb2dPolyline
 66
     1
 10
0.0
 20
0.0
 30
0.0
  0
VERTEX
  5
637
330
636
100
AcDbEntity
  8
Predefinito
  6
Continuous
 62
   255
100
AcDbVertex
100
AcDb2dVertex
 10
-99.72028075822702
 20
232.3063981574557
 30
0.0
  0
VERTEX
  5
638
330
636
100
AcDbEntity
  8
Predefinito
  6
Continuous
 62
   255
100
AcDbVertex
100
AcDb2dVertex
 10
-98.748338020277
 20
232.1967545379328
 30
0.0
  0
VERTEX
  5
639
330
636
100
AcDbEntity
  8
Predefinito
  6
Continuous
 62
   255
100
AcDbVertex
100
AcDb2dVertex
 10
-97.8163408296022
 20
231.8999600516166
 30
0.0
  0
VERTEX
  5
63A
330
636
100
AcDbEntity
  8
Predefinito
  6
Continuous
 62
   255
100
AcDbVertex
100
AcDb2dVertex
 10
-96.95995988871098
 20
231.4273740329916
 30
0.0
  0
VERTEX
  5
63B
330
636
100
AcDbEntity
  8
Predefinito
  6
Continuous
 62
   255
100
AcDbVertex
100
AcDb2dVertex
 10
-96.21197180903751
 20
230.7970839564073
 30
0.0
  0
VERTEX
  5
63C
330
636
100
AcDbEntity
  8
Predefinito
  6
Continuous
 62
   255
100
AcDbVertex
100
AcDb2dVertex
 10
-95.60100463853821
 20
230.0332131669132
 30
0.0
  0
VERTEX
  5
63D
330
636
100
AcDbEntity
  8
Predefinito
  6
Continuous
 62
   255
100
AcDbVertex
100
AcDb2dVertex
 10
-95.15044216892338
 20
229.1649975977927
 30
0.0
  0
VERTEX
  5
63E
330
636
100
AcDbEntity
  8
Predefinito
  6
Continuous
 62
   255
100
AcDbVertex
100
AcDb2dVertex
 10
-94.87752895841261
 20
228.2256668119558
 30
0.0
  0
VERTEX
  5
63F
330
636
100
AcDbEntity
  8
Predefinito
  6
Continuous
 62
   255
100
AcDbVertex
100
AcDb2dVertex
 10
-94.79271032383753
 20
227.2511721935416
 30
0.0
  0
SEQEND
  5
640
330
636
100
AcDbEntity
  8
Predefinito
  6
Continuous
 62
   255
  0
POLYLINE
  5
641
330
1F
100
AcDbEntity
  8
Predefinito
  6
Continuous
 62
   255
100
AcDb2dPolyline
 66
     1
 10
0.0
 20
0.0
 30
0.0
  0
VERTEX
  5
642
330
641
100
AcDbEntity
  8
Predefinito
  6
Continuous
 62
   255
100
AcDbVertex
100
AcDb2dVertex
 10
-256.5087265391568
 20
227.4981220890941
 30
0.0
  0
VERTEX
  5
643
330
641
100
AcDbEntity
  8
Predefinito
  6
Continuous
 62
   255
100
AcDbVertex
100
AcDb2dVertex
 10
-256.3785262029772
 20
228.4561256345567
 30
0.0
  0
VERTEX
  5
644
330
641
100
AcDbEntity
  8
Predefinito
  6
Continuous
 62
   255
100
AcDbVertex
100
AcDb2dVertex
 10
-256.0663903298135
 20
229.3711613284145
 30
0.0
  0
VERTEX
  5
645
330
641
100
AcDbEntity
  8
Predefinito
  6
Continuous
 62
   255
100
AcDbVertex
100
AcDb2dVertex
 10
-255.5839893518503
 20
230.2090169479472
 30
0.0
  0
VERTEX
  5
646
330
641
100
AcDbEntity
  8
Predefinito
  6
Continuous
 62
   255
100
AcDbVertex
100
AcDb2dVertex
 10
-254.9493597345605
 20
230.9383659522829
 30
0.0
  0
VERTEX
  5
647
330
641
100
AcDbEntity
  8
Predefinito
  6
Continuous
 62
   255
100
AcDbVertex
100
AcDb2dVertex
 10
-254.1862296122204
 20
231.5319387488311
 30
0.0
  0
VERTEX
  5
648
330
641
100
AcDbEntity
  8
Predefinito
  6
Continuous
 62
   255
100
AcDbVertex
100
AcDb2dVertex
 10
-253.3231316179122
 20
231.9675422746848
 30
0.0
  0
VERTEX
  5
649
330
641
100
AcDbEntity
  8
Predefinito
  6
Continuous
 62
   255
100
AcDbVertex
100
AcDb2dVertex
 10
-252.3923360783663
 20
232.2288897719126
 30
0.0
  0
VERTEX
  5
64A
330
641
100
AcDbEntity
  8
Predefinito
  6
Continuous
 62
   255
100
AcDbVertex
100
AcDb2dVertex
 10
-251.5124763627124
 20
232.3069130203827
 30
0.0
  0
SEQEND
  5
64B
330
641
100
AcDbEntity
  8
Predefinito
  6
Continuous
 62
   255
  0
POLYLINE
  5
64C
330
1F
100
AcDbEntity
  8
Predefinito
  6
Continuous
 62
   255
100
AcDb2dPolyline
 66
     1
 10
0.0
 20
0.0
 30
0.0
  0
VERTEX
  5
64D
330
64C
100
AcDbEntity
  8
Predefinito
  6
Continuous
 62
   255
100
AcDbVertex
100
AcDb2dVertex
 10
-256.5100887858525
 20
227.4876825572398
 30
0.0
  0
VERTEX
  5
64E
330
64C
100
AcDbEntity
  8
Predefinito
  6
Continuous
 62
   255
100
AcDbVertex
100
AcDb2dVertex
 10
-256.7499496232731
 20
220.8945194024638
 30
0.0
  0
VERTEX
  5
64F
330
64C
100
AcDbEntity
  8
Predefinito
  6
Continuous
 62
   255
100
AcDbVertex
100
AcDb2dVertex
 10
-257.0107266904321
 20
214.0568421292289
 30
0.0
  0
VERTEX
  5
650
330
64C
100
AcDbEntity
  8
Predefinito
  6
Continuous
 62
   255
100
AcDbVertex
100
AcDb2dVertex
 10
-257.2379414827818
 20
208.3669408034787
 30
0.0
  0
VERTEX
  5
651
330
64C
100
AcDbEntity
  8
Predefinito
  6
Continuous
 62
   255
100
AcDbVertex
100
AcDb2dVertex
 10
-257.4270215661207
 20
203.8248154252134
 30
0.0
  0
VERTEX
  5
652
330
64C
100
AcDbEntity
  8
Predefinito
  6
Continuous
 62
   255
100
AcDbVertex
100
AcDb2dVertex
 10
-257.5789870300559
 20
200.3017772381693
 30
0.0
  0
VERTEX
  5
653
330
64C
100
AcDbEntity
  8
Predefinito
  6
Continuous
 62
   255
100
AcDbVertex
100
AcDb2dVertex
 10
-257.7087221459415
 20
197.3849650547779
 30
0.0
  0
VERTEX
  5
654
330
64C
100
AcDbEntity
  8
Predefinito
  6
Continuous
 62
   255
100
AcDbVertex
100
AcDb2dVertex
 10
-257.8106589803355
 20
195.1524915972206
 30
0.0
  0
VERTEX
  5
655
330
64C
100
AcDbEntity
  8
Predefinito
  6
Continuous
 62
   255
100
AcDbVertex
100
AcDb2dVertex
 10
-257.9275109938095
 20
192.6572476751312
 30
0.0
  0
VERTEX
  5
656
330
64C
100
AcDbEntity
  8
Predefinito
  6
Continuous
 62
   255
100
AcDbVertex
100
AcDb2dVertex
 10
-258.0844838447465
 20
189.4102384181796
 30
0.0
  0
VERTEX
  5
657
330
64C
100
AcDbEntity
  8
Predefinito
  6
Continuous
 62
   255
100
AcDbVertex
100
AcDb2dVertex
 10
-258.2864736454135
 20
185.4114638263659
 30
0.0
  0
VERTEX
  5
658
330
64C
100
AcDbEntity
  8
Predefinito
  6
Continuous
 62
   255
100
AcDbVertex
100
AcDb2dVertex
 10
-258.5135630504286
 20
181.1646771368173
 30
0.0
  0
VERTEX
  5
659
330
64C
100
AcDbEntity
  8
Predefinito
  6
Continuous
 62
   255
100
AcDbVertex
100
AcDb2dVertex
 10
-258.8362411470412
 20
175.5797814975655
 30
0.0
  0
VERTEX
  5
65A
330
64C
100
AcDbEntity
  8
Predefinito
  6
Continuous
 62
   255
100
AcDbVertex
100
AcDb2dVertex
 10
-259.1336009952645
 20
170.8728503526883
 30
0.0
  0
VERTEX
  5
65B
330
64C
100
AcDbEntity
  8
Predefinito
  6
Continuous
 62
   255
100
AcDbVertex
100
AcDb2dVertex
 10
-259.4473734092836
 20
166.3210919146728
 30
0.0
  0
VERTEX
  5
65C
330
64C
100
AcDbEntity
  8
Predefinito
  6
Continuous
 62
   255
100
AcDbVertex
100
AcDb2dVertex
 10
-259.8228637069835
 20
161.3882297663243
 30
0.0
  0
VERTEX
  5
65D
330
64C
100
AcDbEntity
  8
Predefinito
  6
Continuous
 62
   255
100
AcDbVertex
100
AcDb2dVertex
 10
-260.3199557507168
 20
155.6042427975932
 30
0.0
  0
VERTEX
  5
65E
330
64C
100
AcDbEntity
  8
Predefinito
  6
Continuous
 62
   255
100
AcDbVertex
100
AcDb2dVertex
 10
-260.9524099506685
 20
149.287221675077
 30
0.0
  0
VERTEX
  5
65F
330
64C
100
AcDbEntity
  8
Predefinito
  6
Continuous
 62
   255
100
AcDbVertex
100
AcDb2dVertex
 10
-261.8138184964672
 20
142.1351264874419
 30
0.0
  0
VERTEX
  5
660
330
64C
100
AcDbEntity
  8
Predefinito
  6
Continuous
 62
   255
100
AcDbVertex
100
AcDb2dVertex
 10
-262.6724009960405
 20
136.0504814155244
 30
0.0
  0
VERTEX
  5
661
330
64C
100
AcDbEntity
  8
Predefinito
  6
Continuous
 62
   255
100
AcDbVertex
100
AcDb2dVertex
 10
-263.4360904917502
 20
131.1329108985797
 30
0.0
  0
VERTEX
  5
662
330
64C
100
AcDbEntity
  8
Predefinito
  6
Continuous
 62
   255
100
AcDbVertex
100
AcDb2dVertex
 10
-264.0591216663715
 20
127.3211513947846
 30
0.0
  0
VERTEX
  5
663
330
64C
100
AcDbEntity
  8
Predefinito
  6
Continuous
 62
   255
100
AcDbVertex
100
AcDb2dVertex
 10
-264.9526162367537
 20
122.0613304161393
 30
0.0
  0
VERTEX
  5
664
330
64C
100
AcDbEntity
  8
Predefinito
  6
Continuous
 62
   255
100
AcDbVertex
100
AcDb2dVertex
 10
-266.1574720624104
 20
115.2384778760378
 30
0.0
  0
VERTEX
  5
665
330
64C
100
AcDbEntity
  8
Predefinito
  6
Continuous
 62
   255
100
AcDbVertex
100
AcDb2dVertex
 10
-267.3183786775656
 20
108.8712390829025
 30
0.0
  0
VERTEX
  5
666
330
64C
100
AcDbEntity
  8
Predefinito
  6
Continuous
 62
   255
100
AcDbVertex
100
AcDb2dVertex
 10
-268.4981299667855
 20
102.5505518019159
 30
0.0
  0
VERTEX
  5
667
330
64C
100
AcDbEntity
  8
Predefinito
  6
Continuous
 62
   255
100
AcDbVertex
100
AcDb2dVertex
 10
-269.8637807056116
 20
95.3826628592499
 30
0.0
  0
VERTEX
  5
668
330
64C
100
AcDbEntity
  8
Predefinito
  6
Continuous
 62
   255
100
AcDbVertex
100
AcDb2dVertex
 10
-271.4995800417278
 20
86.96811659876042
 30
0.0
  0
VERTEX
  5
669
330
64C
100
AcDbEntity
  8
Predefinito
  6
Continuous
 62
   255
100
AcDbVertex
100
AcDb2dVertex
 10
-273.4144491622634
 20
77.30691302044751
 30
0.0
  0
SEQEND
  5
66A
330
64C
100
AcDbEntity
  8
Predefinito
  6
Continuous
 62
   255
  0
LINE
  5
66B
330
1F
100
AcDbEntity
  8
Predefinito
  6
Continuous
 62
   255
100
AcDbLine
 10
-96.91776141946974
 20
77.30691302044798
 30
0.0
 11
-94.7921145882212
 21
227.2218990932976
 31
0.0
  0
LINE
  5
66C
330
1F
100
AcDbEntity
  8
Predefinito
  6
Continuous
 62
   255
100
AcDbLine
 10
-62.5928126861921
 20
232.306913020411
 30
0.0
 11
-62.60045677484324
 21
232.3069072063794
 31
0.0
  0
CIRCLE
  5
66D
330
1F
100
AcDbEntity
  8
Predefinito
  6
Continuous
 62
   255
100
AcDbCircle
 10
-86.90884034080437
 20
-246.9997916655303
 30
0.0
 40
70.00000000000003
  0
CIRCLE
  5
66E
330
1F
100
AcDbEntity
  8
Predefinito
  6
Continuous
 62
   255
100
AcDbCircle
 10
-86.90884034080437
 20
-246.9997916655304
 30
0.0
 40
65.0
  0
ENDSEC
  0
SECTION
  2
OBJECTS
  0
DICTIONARY
  5
C
330
0
100
AcDbDictionary
281
     1
  3
ACAD_GROUP
350
D
  3
ACAD_LAYOUT
350
1A
  3
ACAD_MLEADERSTYLE
350
670
  3
ACAD_MLINESTYLE
350
17
  3
ACAD_PLOTSETTINGS
350
19
  3
ACAD_PLOTSTYLENAME
350
E
  3
ACAD_TABLESTYLE
350
66F
  3
ACAD_VISUALSTYLE
350
2A
  0
DICTIONARY
  5
D
102
{ACAD_REACTORS
330
C
102
}
330
C
100
AcDbDictionary
281
     1
  0
DICTIONARY
  5
1A
102
{ACAD_REACTORS
330
C
102
}
330
C
100
AcDbDictionary
281
     1
  3
Layout1
350
1E
  3
Layout2
350
26
  3
Model
350
22
  0
DICTIONARY
  5
670
102
{ACAD_REACTORS
330
C
102
}
330
C
100
AcDbDictionary
281
     1
  0
DICTIONARY
  5
17
102
{ACAD_REACTORS
330
C
102
}
330
C
100
AcDbDictionary
281
     1
  3
Standard
350
18
  0
DICTIONARY
  5
19
102
{ACAD_REACTORS
330
C
102
}
330
C
100
AcDbDictionary
281
     1
  0
ACDBDICTIONARYWDFLT
  5
E
102
{ACAD_REACTORS
330
C
102
}
330
C
100
AcDbDictionary
281
     1
  3
Normal
350
F
100
AcDbDictionaryWithDefault
340
F
  0
DICTIONARY
  5
66F
102
{ACAD_REACTORS
330
C
102
}
330
C
100
AcDbDictionary
281
     1
  0
DICTIONARY
  5
2A
102
{ACAD_REACTORS
330
C
102
}
330
C
100
AcDbDictionary
281
     1
  3
2dWireframe
350
2F
  3
3D Hidden
350
31
  3
3dWireframe
350
30
  3
Basic
350
32
  3
Brighten
350
36
  3
ColorChange
350
3A
  3
Conceptual
350
34
  3
Dim
350
35
  3
Facepattern
350
39
  3
Flat
350
2B
  3
FlatWithEdges
350
2C
  3
Gouraud
350
2D
  3
GouraudWithEdges
350
2E
  3
Linepattern
350
38
  3
Realistic
350
33
  3
Thicken
350
37
  0
LAYOUT
  5
1E
102
{ACAD_REACTORS
330
1A
102
}
330
1A
100
AcDbPlotSettings
  1

  2
none_device
  4

  6

 40
0.0
 41
0.0
 42
0.0
 43
0.0
 44
0.0
 45
0.0
 46
0.0
 47
0.0
 48
0.0
 49
0.0
140
0.0
141
0.0
142
1.0
143
1.0
 70
   688
 72
     0
 73
     0
 74
     5
  7

 75
    16
 76
     0
 77
     2
 78
   300
147
1.0
148
0.0
149
0.0
100
AcDbLayout
  1
Layout1
 70
     1
 71
     1
 10
0.0
 20
0.0
 11
12.0
 21
9.0
 12
0.0
 22
0.0
 32
0.0
 14
1.000000000000000E+20
 24
1.000000000000000E+20
 34
1.000000000000000E+20
 15
-1.000000000000000E+20
 25
-1.000000000000000E+20
 35
-1.000000000000000E+20
146
0.0
 13
0.0
 23
0.0
 33
0.0
 16
1.0
 26
0.0
 36
0.0
 17
0.0
 27
1.0
 37
0.0
 76
     0
330
1B
  0
LAYOUT
  5
26
102
{ACAD_REACTORS
330
1A
102
}
330
1A
100
AcDbPlotSettings
  1

  2
none_device
  4

  6

 40
0.0
 41
0.0
 42
0.0
 43
0.0
 44
0.0
 45
0.0
 46
0.0
 47
0.0
 48
0.0
 49
0.0
140
0.0
141
0.0
142
1.0
143
1.0
 70
   688
 72
     0
 73
     0
 74
     5
  7

 75
    16
 76
     0
 77
     2
 78
   300
147
1.0
148
0.0
149
0.0
100
AcDbLayout
  1
Layout2
 70
     1
 71
     2
 10
0.0
 20
0.0
 11
0.0
 21
0.0
 12
0.0
 22
0.0
 32
0.0
 14
0.0
 24
0.0
 34
0.0
 15
0.0
 25
0.0
 35
0.0
146
0.0
 13
0.0
 23
0.0
 33
0.0
 16
1.0
 26
0.0
 36
0.0
 17
0.0
 27
1.0
 37
0.0
 76
     0
330
23
  0
LAYOUT
  5
22
102
{ACAD_REACTORS
330
1A
102
}
330
1A
100
AcDbPlotSettings
  1

  2
none_device
  4

  6

 40
0.0
 41
0.0
 42
0.0
 43
0.0
 44
0.0
 45
0.0
 46
0.0
 47
0.0
 48
0.0
 49
0.0
140
0.0
141
0.0
142
1.0
143
1.0
 70
  1712
 72
     0
 73
     0
 74
     0
  7

 75
     0
 76
     0
 77
     2
 78
   300
147
1.0
148
0.0
149
0.0
100
AcDbLayout
  1
Model
 70
     1
 71
     0
 10
0.0
 20
0.0
 11
12.0
 21
9.0
 12
0.0
 22
0.0
 32
0.0
 14
-273.4144491622634
 24
-384.3727692789906
 34
0.0
 15
598.4811237801637
 25
279.829151943677
 35
0.0
146
0.0
 13
0.0
 23
0.0
 33
0.0
 16
1.0
 26
0.0
 36
0.0
 17
0.0
 27
1.0
 37
0.0
 76
     0
330
1F
331
29
  0
MLINESTYLE
  5
18
102
{ACAD_REACTORS
330
17
102
}
330
17
100
AcDbMlineStyle
  2
Standard
 70
     0
  3

 62
   256
 51
90.0
 52
90.0
 71
     2
 49
0.5
 62
   256
  6
BYLAYER
 49
-0.5
 62
   256
  6
BYLAYER
  0
ACDBPLACEHOLDER
  5
F
102
{ACAD_REACTORS
330
E
102
}
330
E
  0
VISUALSTYLE
  5
2F
102
{ACAD_REACTORS
330
2A
102
}
330
2A
100
AcDbVisualStyle
  2
2dWireframe
 70
     4
 71
     0
 72
     2
 73
     0
 90
        0
 40
-0.6
 41
-30.0
 62
     5
 63
     7
421
 16777215
 74
     1
 91
        4
 64
     7
 65
   257
 75
     1
175
     1
 42
1.0
 92
        0
 66
   257
 43
1.0
 76
     1
 77
     6
 78
     2
 67
     7
 79
     5
170
     0
171
     0
290
     0
174
     0
 93
        1
 44
0.0
173
     0
291
     0
 45
0.0
1001
ACAD
1000
AcDbSavedByObjectVersion
1070
     0
  0
VISUALSTYLE
  5
31
102
{ACAD_REACTORS
330
2A
102
}
330
2A
100
AcDbVisualStyle
  2
3D Hidden
 70
     6
 71
     1
 72
     2
 73
     2
 90
        0
 40
-0.6
 41
-30.0
 62
     5
 63
     7
421
 16777215
 74
     2
 91
        2
 64
     7
 65
   257
 75
     2
175
     1
 42
40.0
 92
        0
 66
   257
 43
1.0
 76
     1
 77
     6
 78
     2
 67
     7
 79
     3
170
     0
171
     0
290
     0
174
     0
 93
        1
 44
0.0
173
     0
291
     0
 45
0.0
1001
ACAD
1000
AcDbSavedByObjectVersion
1070
     0
  0
VISUALSTYLE
  5
30
102
{ACAD_REACTORS
330
2A
102
}
330
2A
100
AcDbVisualStyle
  2
3dWireframe
 70
     5
 71
     0
 72
     2
 73
     0
 90
        0
 40
-0.6
 41
-30.0
 62
     5
 63
     7
421
 16777215
 74
     1
 91
        4
 64
     7
 65
   257
 75
     1
175
     1
 42
1.0
 92
        0
 66
   257
 43
1.0
 76
     1
 77
     6
 78
     2
 67
     7
 79
     5
170
     0
171
     0
290
     0
174
     0
 93
        1
 44
0.0
173
     0
291
     0
 45
0.0
1001
ACAD
1000
AcDbSavedByObjectVersion
1070
     0
  0
VISUALSTYLE
  5
32
102
{ACAD_REACTORS
330
2A
102
}
330
2A
100
AcDbVisualStyle
  2
Basic
 70
     7
 71
     1
 72
     0
 73
     1
 90
        0
 40
-0.6
 41
-30.0
 62
     5
 63
     7
421
 16777215
 74
     0
 91
        4
 64
     7
 65
   257
 75
     1
175
     1
 42
1.0
 92
        8
 66
     7
 43
1.0
 76
     1
 77
     6
 78
     2
 67
     7
 79
     5
170
     0
171
     0
290
     0
174
     0
 93
        1
 44
0.0
173
     0
291
     1
 45
0.0
1001
ACAD
1000
AcDbSavedByObjectVersion
1070
     0
  0
VISUALSTYLE
  5
36
102
{ACAD_REACTORS
330
2A
102
}
330
2A
100
AcDbVisualStyle
  2
Brighten
 70
    12
 71
     2
 72
     2
 73
     0
 90
        0
 40
-0.6
 41
-30.0
 62
     5
 63
     7
421
 16777215
 74
     1
 91
        4
 64
     7
 65
   257
 75
     1
175
     1
 42
1.0
 92
        8
 66
     7
 43
1.0
 76
     1
 77
     6
 78
     2
 67
     7
 79
     5
170
     0
171
     0
290
     0
174
     0
 93
        1
 44
50.0
173
     0
291
     1
 45
0.0
1001
ACAD
1000
AcDbSavedByObjectVersion
1070
     0
  0
VISUALSTYLE
  5
3A
102
{ACAD_REACTORS
330
2A
102
}
330
2A
100
AcDbVisualStyle
  2
ColorChange
 70
    16
 71
     2
 72
     2
 73
     3
 90
        0
 40
-0.6
 41
-30.0
 62
     5
 63
     8
421
  8421504
 74
     1
 91
        4
 64
     7
 65
   257
 75
     1
175
     1
 42
1.0
 92
        8
 66
     8
424
  8421504
 43
1.0
 76
     1
 77
     6
 78
     2
 67
     7
 79
     5
170
     0
171
     0
290
     0
174
     0
 93
        1
 44
0.0
173
     0
291
     1
 45
0.0
1001
ACAD
1000
AcDbSavedByObjectVersion
1070
     0
  0
VISUALSTYLE
  5
34
102
{ACAD_REACTORS
330
2A
102
}
330
2A
100
AcDbVisualStyle
  2
Conceptual
 70
     9
 71
     3
 72
     2
 73
     0
 90
        0
 40
-0.6
 41
-30.0
 62
     5
 63
     7
421
 16777215
 74
     2
 91
        2
 64
     7
 65
   257
 75
     1
175
     1
 42
40.0
 92
        8
 66
     7
 43
1.0
 76
     1
 77
     6
 78
     2
 67
     7
 79
     3
170
     0
171
     0
290
     0
174
     0
 93
        1
 44
0.0
173
     0
291
     0
 45
0.0
1001
ACAD
1000
AcDbSavedByObjectVersion
1070
     0
  0
VISUALSTYLE
  5
35
102
{ACAD_REACTORS
330
2A
102
}
330
2A
100
AcDbVisualStyle
  2
Dim
 70
    11
 71
     2
 72
     2
 73
     0
 90
        0
 40
-0.6
 41
-30.0
 62
     5
 63
     7
421
 16777215
 74
     1
 91
        4
 64
     7
 65
   257
 75
     1
175
     1
 42
1.0
 92
        8
 66
     7
 43
1.0
 76
     1
 77
     6
 78
     2
 67
     7
 79
     5
170
     0
171
     0
290
     0
174
     0
 93
        1
 44
-50.0
173
     0
291
     1
 45
0.0
1001
ACAD
1000
AcDbSavedByObjectVersion
1070
     0
  0
VISUALSTYLE
  5
39
102
{ACAD_REACTORS
330
2A
102
}
330
2A
100
AcDbVisualStyle
  2
Facepattern
 70
    15
 71
     2
 72
     2
 73
     0
 90
        0
 40
-0.6
 41
-30.0
 62
     5
 63
     7
421
 16777215
 74
     1
 91
        4
 64
     7
 65
   257
 75
     1
175
     1
 42
1.0
 92
        8
 66
     7
 43
1.0
 76
     1
 77
     6
 78
     2
 67
     7
 79
     5
170
     0
171
     0
290
     0
174
     0
 93
        1
 44
0.0
173
     0
291
     1
 45
0.0
1001
ACAD
1000
AcDbSavedByObjectVersion
1070
     0
  0
VISUALSTYLE
  5
2B
102
{ACAD_REACTORS
330
2A
102
}
330
2A
100
AcDbVisualStyle
  2
Flat
 70
     0
 71
     2
 72
     1
 73
     1
 90
        2
 40
-0.6
 41
30.0
 62
     5
 63
     7
421
 16777215
 74
     0
 91
        4
 64
     7
 65
   257
 75
     1
175
     1
 42
1.0
 92
        8
 66
     7
 43
1.0
 76
     1
 77
     6
 78
     2
 67
     7
 79
     5
170
     0
171
     0
290
     0
174
     0
 93
       13
 44
0.0
173
     0
291
     1
 45
0.0
1001
ACAD
1000
AcDbSavedByObjectVersion
1070
     0
  0
VISUALSTYLE
  5
2C
102
{ACAD_REACTORS
330
2A
102
}
330
2A
100
AcDbVisualStyle
  2
FlatWithEdges
 70
     1
 71
     2
 72
     1
 73
     1
 90
        2
 40
-0.6
 41
30.0
 62
     5
 63
     7
421
 16777215
 74
     1
 91
        4
 64
     7
 65
   257
 75
     1
175
     1
 42
1.0
 92
        0
 66
   257
 43
1.0
 76
     1
 77
     6
 78
     2
 67
     7
 79
     5
170
     0
171
     0
290
     0
174
     0
 93
       13
 44
0.0
173
     0
291
     1
 45
0.0
1001
ACAD
1000
AcDbSavedByObjectVersion
1070
     0
  0
VISUALSTYLE
  5
2D
102
{ACAD_REACTORS
330
2A
102
}
330
2A
100
AcDbVisualStyle
  2
Gouraud
 70
     2
 71
     2
 72
     2
 73
     1
 90
        2
 40
-0.6
 41
30.0
 62
     5
 63
     7
421
 16777215
 74
     0
 91
        4
 64
     7
 65
   257
 75
     1
175
     1
 42
1.0
 92
        0
 66
     7
 43
1.0
 76
     1
 77
     6
 78
     2
 67
     7
 79
     5
170
     0
171
     0
290
     0
174
     0
 93
       13
 44
0.0
173
     0
291
     1
 45
0.0
1001
ACAD
1000
AcDbSavedByObjectVersion
1070
     0
  0
VISUALSTYLE
  5
2E
102
{ACAD_REACTORS
330
2A
102
}
330
2A
100
AcDbVisualStyle
  2
GouraudWithEdges
 70
     3
 71
     2
 72
     2
 73
     1
 90
        2
 40
-0.6
 41
30.0
 62
     5
 63
     7
421
 16777215
 74
     1
 91
        4
 64
     7
 65
   257
 75
     1
175
     1
 42
1.0
 92
        0
 66
   257
 43
1.0
 76
     1
 77
     6
 78
     2
 67
     7
 79
     5
170
     0
171
     0
290
     0
174
     0
 93
       13
 44
0.0
173
     0
291
     1
 45
0.0
1001
ACAD
1000
AcDbSavedByObjectVersion
1070
     0
  0
VISUALSTYLE
  5
38
102
{ACAD_REACTORS
330
2A
102
}
330
2A
100
AcDbVisualStyle
  2
Linepattern
 70
    14
 71
     2
 72
     2
 73
     0
 90
        0
 40
-0.6
 41
-30.0
 62
     5
 63
     7
421
 16777215
 74
     1
 91
        4
 64
     7
 65
   257
 75
     7
175
     7
 42
1.0
 92
        8
 66
     7
 43
1.0
 76
     1
 77
     6
 78
     2
 67
     7
 79
     5
170
     0
171
     0
290
     0
174
     0
 93
        1
 44
0.0
173
     0
291
     1
 45
0.0
1001
ACAD
1000
AcDbSavedByObjectVersion
1070
     0
  0
VISUALSTYLE
  5
33
102
{ACAD_REACTORS
330
2A
102
}
330
2A
100
AcDbVisualStyle
  2
Realistic
 70
     8
 71
     2
 72
     2
 73
     0
 90
        0
 40
-0.6
 41
-30.0
 62
     5
 63
     7
421
 16777215
 74
     1
 91
        0
 64
     7
 65
   257
 75
     1
175
     1
 42
1.0
 92
        8
 66
     8
424
  7895160
 43
1.0
 76
     1
 77
     6
 78
     2
 67
     7
 79
     5
170
     0
171
     0
290
     0
174
     0
 93
       13
 44
0.0
173
     0
291
     0
 45
0.0
1001
ACAD
1000
AcDbSavedByObjectVersion
1070
     0
  0
VISUALSTYLE
  5
37
102
{ACAD_REACTORS
330
2A
102
}
330
2A
100
AcDbVisualStyle
  2
Thicken
 70
    13
 71
     2
 72
     2
 73
     0
 90
        0
 40
-0.6
 41
-30.0
 62
     5
 63
     7
421
 16777215
 74
     1
 91
        4
 64
     7
 65
   257
 75
     1
175
     1
 42
1.0
 92
       12
 66
     7
 43
1.0
 76
     1
 77
     6
 78
     2
 67
     7
 79
     5
170
     0
171
     0
290
     0
174
     0
 93
        1
 44
0.0
173
     0
291
     1
 45
0.0
1001
ACAD
1000
AcDbSavedByObjectVersion
1070
     0
  0
ENDSEC
  0
EOF
