  0
SECTION
  2
HEADER
  9
$ACADVER
  1
AC1015
  9
$ACADMAINTVER
 70
    20
  9
$DWGCODEPAGE
  3
ANSI_1252
  9
$INSBASE
 10
0.0
 20
0.0
 30
0.0
  9
$EXTMIN
 10
-56.84644109008874
 20
-293.0310852701995
 30
0.0
  9
$EXTMAX
 10
537.0250306727171
 20
281.4650632301583
 30
0.0
  9
$LIMMIN
 10
0.0
 20
0.0
  9
$LIMMAX
 10
0.0
 20
0.0
  9
$ORTHOMODE
 70
     0
  9
$REGENMODE
 70
     1
  9
$FILLMODE
 70
     1
  9
$QTEXTMODE
 70
     0
  9
$MIRRTEXT
 70
     1
  9
$LTSCALE
 40
1.0
  9
$ATTMODE
 70
     1
  9
$TEXTSIZE
 40
0.0
  9
$TRACEWID
 40
0.05
  9
$TEXTSTYLE
  7
STANDARD
  9
$CLAYER
  8
0
  9
$CELTYPE
  6
CONTINUOUS
  9
$CECOLOR
 62
   256
  9
$CELTSCALE
 40
1.0
  9
$DISPSILH
 70
     0
  9
$DIMSCALE
 40
1.0
  9
$DIMASZ
 40
6.0
  9
$DIMEXO
 40
1.0
  9
$DIMDLI
 40
0.38
  9
$DIMRND
 40
0.0
  9
$DIMDLE
 40
1.0
  9
$DIMEXE
 40
0.18
  9
$DIMTP
 40
0.0
  9
$DIMTM
 40
0.0
  9
$DIMTXT
 40
3.5
  9
$DIMCEN
 40
0.09
  9
$DIMTSZ
 40
0.0
  9
$DIMTOL
 70
     0
  9
$DIMLIM
 70
     0
  9
$DIMTIH
 70
     1
  9
$DIMTOH
 70
     1
  9
$DIMSE1
 70
     0
  9
$DIMSE2
 70
     0
  9
$DIMTAD
 70
     1
  9
$DIMZIN
 70
     0
  9
$DIMBLK
  1

  9
$DIMASO
 70
     1
  9
$DIMSHO
 70
     1
  9
$DIMPOST
  1

  9
$DIMAPOST
  1

  9
$DIMALT
 70
     0
  9
$DIMALTD
 70
     2
  9
$DIMALTF
 40
0.0394
  9
$DIMLFAC
 40
1.0
  9
$DIMTOFL
 70
     0
  9
$DIMTVP
 40
0.0
  9
$DIMTIX
 70
     0
  9
$DIMSOXD
 70
     0
  9
$DIMSAH
 70
     0
  9
$DIMBLK1
  1

  9
$DIMBLK2
  1

  9
$DIMSTYLE
  2
STANDARD
  9
$DIMCLRD
 70
     0
  9
$DIMCLRE
 70
     0
  9
$DIMCLRT
 70
     0
  9
$DIMTFAC
 40
1.0
  9
$DIMGAP
 40
1.0
  9
$DIMJUST
 70
     0
  9
$DIMSD1
 70
     0
  9
$DIMSD2
 70
     0
  9
$DIMTOLJ
 70
     1
  9
$DIMTZIN
 70
     0
  9
$DIMALTZ
 70
     0
  9
$DIMALTTZ
 70
     0
  9
$DIMUPT
 70
     0
  9
$DIMDEC
 70
     4
  9
$DIMTDEC
 70
     4
  9
$DIMALTU
 70
     2
  9
$DIMALTTD
 70
     2
  9
$DIMTXSTY
  7
STANDARD
  9
$DIMAUNIT
 70
     0
  9
$DIMADEC
 70
     0
  9
$DIMALTRND
 40
0.0
  9
$DIMAZIN
 70
     0
  9
$DIMDSEP
 70
    46
  9
$DIMATFIT
 70
     3
  9
$DIMFRAC
 70
     0
  9
$DIMLDRBLK
  1

  9
$DIMLUNIT
 70
     2
  9
$DIMLWD
 70
    -2
  9
$DIMLWE
 70
    -2
  9
$DIMTMOVE
 70
     0
  9
$LUNITS
 70
     2
  9
$LUPREC
 70
     2
  9
$SKETCHINC
 40
0.1
  9
$FILLETRAD
 40
0.0
  9
$AUNITS
 70
     0
  9
$AUPREC
 70
     2
  9
$MENU
  1
acad
  9
$ELEVATION
 40
0.0
  9
$PELEVATION
 40
0.0
  9
$THICKNESS
 40
0.0
  9
$LIMCHECK
 70
     0
  9
$CHAMFERA
 40
0.0
  9
$CHAMFERB
 40
0.0
  9
$CHAMFERC
 40
0.0
  9
$CHAMFERD
 40
0.0
  9
$SKPOLY
 70
     0
  9
$TDCREATE
 40
2444972.041666667
  9
$TDUCREATE
 40
2444972.000000000
  9
$TDUPDATE
 40
2453768.801212385
  9
$TDUUPDATE
 40
2453768.759545718
  9
$TDINDWG
 40
0.0438055208
  9
$TDUSRTIMER
 40
0.0438055208
  9
$USRTIMER
 70
     1
  9
$ANGBASE
 50
0.0
  9
$ANGDIR
 70
     0
  9
$PDMODE
 70
     0
  9
$PDSIZE
 40
-1.0
  9
$PLINEWID
 40
0.0
  9
$SPLFRAME
 70
     0
  9
$SPLINETYPE
 70
     6
  9
$SPLINESEGS
 70
     8
  9
$HANDSEED
  5
4F8
  9
$SURFTAB1
 70
     6
  9
$SURFTAB2
 70
     6
  9
$SURFTYPE
 70
     6
  9
$SURFU
 70
     6
  9
$SURFV
 70
     6
  9
$UCSBASE
  2

  9
$UCSNAME
  2

  9
$UCSORG
 10
0.0
 20
0.0
 30
0.0
  9
$UCSXDIR
 10
1.0
 20
0.0
 30
0.0
  9
$UCSYDIR
 10
0.0
 20
1.0
 30
0.0
  9
$UCSORTHOREF
  2

  9
$UCSORTHOVIEW
 70
     1
  9
$UCSORGTOP
 10
0.0
 20
0.0
 30
0.0
  9
$UCSORGBOTTOM
 10
0.0
 20
0.0
 30
0.0
  9
$UCSORGLEFT
 10
0.0
 20
0.0
 30
0.0
  9
$UCSORGRIGHT
 10
0.0
 20
0.0
 30
0.0
  9
$UCSORGFRONT
 10
0.0
 20
0.0
 30
0.0
  9
$UCSORGBACK
 10
0.0
 20
0.0
 30
0.0
  9
$PUCSBASE
  2

  9
$PUCSNAME
  2

  9
$PUCSORG
 10
0.0
 20
0.0
 30
0.0
  9
$PUCSXDIR
 10
1.0
 20
0.0
 30
0.0
  9
$PUCSYDIR
 10
0.0
 20
1.0
 30
0.0
  9
$PUCSORTHOREF
  2

  9
$PUCSORTHOVIEW
 70
     0
  9
$PUCSORGTOP
 10
0.0
 20
0.0
 30
0.0
  9
$PUCSORGBOTTOM
 10
0.0
 20
0.0
 30
0.0
  9
$PUCSORGLEFT
 10
0.0
 20
0.0
 30
0.0
  9
$PUCSORGRIGHT
 10
0.0
 20
0.0
 30
0.0
  9
$PUCSORGFRONT
 10
0.0
 20
0.0
 30
0.0
  9
$PUCSORGBACK
 10
0.0
 20
0.0
 30
0.0
  9
$USERI1
 70
     0
  9
$USERI2
 70
     0
  9
$USERI3
 70
     0
  9
$USERI4
 70
     0
  9
$USERI5
 70
     0
  9
$USERR1
 40
0.0
  9
$USERR2
 40
0.0
  9
$USERR3
 40
0.0
  9
$USERR4
 40
0.0
  9
$USERR5
 40
0.0
  9
$WORLDVIEW
 70
     1
  9
$SHADEDGE
 70
     3
  9
$SHADEDIF
 70
    70
  9
$TILEMODE
 70
     1
  9
$MAXACTVP
 70
    16
  9
$PINSBASE
 10
0.0
 20
0.0
 30
0.0
  9
$PLIMCHECK
 70
     0
  9
$PEXTMIN
 10
1.000000000000000E+20
 20
1.000000000000000E+20
 30
1.000000000000000E+20
  9
$PEXTMAX
 10
-1.000000000000000E+20
 20
-1.000000000000000E+20
 30
-1.000000000000000E+20
  9
$PLIMMIN
 10
0.0
 20
0.0
  9
$PLIMMAX
 10
12.0
 20
9.0
  9
$UNITMODE
 70
     0
  9
$VISRETAIN
 70
     0
  9
$PLINEGEN
 70
     1
  9
$PSLTSCALE
 70
     1
  9
$TREEDEPTH
 70
  3020
  9
$CMLSTYLE
  2
STANDARD
  9
$CMLJUST
 70
     0
  9
$CMLSCALE
 40
1.0
  9
$PROXYGRAPHICS
 70
     0
  9
$MEASUREMENT
 70
     0
  9
$CELWEIGHT
370
    -1
  9
$ENDCAPS
280
     0
  9
$JOINSTYLE
280
     0
  9
$LWDISPLAY
290
     0
  9
$INSUNITS
 70
     0
  9
$HYPERLINKBASE
  1

  9
$STYLESHEET
  1

  9
$XEDIT
290
     1
  9
$CEPSNTYPE
380
     0
  9
$PSTYLEMODE
290
     1
  9
$FINGERPRINTGUID
  2
{A692E16E-3D73-4D94-AC14-5382E3BC0728}
  9
$VERSIONGUID
  2
{13824712-AF1A-4162-AA98-320C96A6DD3C}
  9
$EXTNAMES
290
     1
  9
$PSVPSCALE
 40
0.0
  9
$OLESTARTUP
290
     0
  0
ENDSEC
  0
SECTION
  2
CLASSES
  0
CLASS
  1
IMAGE
  2
AcDbRasterImage
  3
ISM
 90
    32895
280
     0
281
     1
  0
CLASS
  1
DICTIONARYVAR
  2
AcDbDictionaryVar
  3
ObjectDBX Classes
 90
        0
280
     0
281
     0
  0
CLASS
  1
RASTERVARIABLES
  2
AcDbRasterVariables
  3
ISM
 90
    32768
280
     0
281
     0
  0
CLASS
  1
IMAGEDEF
  2
AcDbRasterImageDef
  3
ISM
 90
    32768
280
     0
281
     0
  0
CLASS
  1
IMAGEDEF_REACTOR
  2
AcDbRasterImageDefReactor
  3
ISM
 90
    32769
280
     0
281
     0
  0
CLASS
  1
IDBUFFER
  2
AcDbIdBuffer
  3
ObjectDBX Classes
 90
    32768
280
     0
281
     0
  0
CLASS
  1
SPATIAL_FILTER
  2
AcDbSpatialFilter
  3
ObjectDBX Classes
 90
    32768
280
     0
281
     0
  0
CLASS
  1
SORTENTSTABLE
  2
AcDbSortentsTable
  3
ObjectDBX Classes
 90
    32768
280
     0
281
     0
  0
CLASS
  1
LAYER_INDEX
  2
AcDbLayerIndex
  3
ObjectDBX Classes
 90
    32768
280
     0
281
     0
  0
CLASS
  1
SPATIAL_INDEX
  2
AcDbSpatialIndex
  3
ObjectDBX Classes
 90
    32768
280
     0
281
     0
  0
CLASS
  1
OBJECT_PTR
  2
CAseDLPNTableRecord
  3
ASE-LPNTableRecord
 90
    32769
280
     0
281
     0
  0
CLASS
  1
LAYOUT
  2
AcDbLayout
  3
ObjectDBX Classes
 90
        0
280
     0
281
     0
  0
CLASS
  1
PLOTSETTINGS
  2
AcDbPlotSettings
  3
ObjectDBX Classes
 90
    32768
280
     0
281
     0
  0
CLASS
  1
ACDBDICTIONARYWDFLT
  2
AcDbDictionaryWithDefault
  3
ObjectDBX Classes
 90
        0
280
     0
281
     0
  0
CLASS
  1
ACDBPLACEHOLDER
  2
AcDbPlaceHolder
  3
ObjectDBX Classes
 90
        0
280
     0
281
     0
  0
CLASS
  1
VBA_PROJECT
  2
AcDbVbaProject
  3
acad
 90
    32768
280
     0
281
     0
  0
CLASS
  1
WIPEOUT
  2
AcDbWipeout
  3
"WipeOut|Product Desc: Object Enabler for WipeOut entity^I^I^I^I^I^I|Company: Autodesk, Inc.^I^I^I^I^I^I|WEB Address: www.autodesk.com"
 90
    32895
280
     0
281
     1
  0
CLASS
  1
WIPEOUTVARIABLES
  2
AcDbWipeoutVariables
  3
"WipeOut|Product Desc:     WipeOut Dbx Application|Company:          Autodesk, Inc.|WEB Address:      www.autodesk.com"
 90
    32768
280
     0
281
     0
  0
CLASS
  1
RTEXT
  2
RText
  3
RText|AutoCAD Express Tool|expresstools@autodesk.com
 90
    32768
280
     0
281
     1
  0
CLASS
  1
ARCALIGNEDTEXT
  2
AcDbArcAlignedText
  3
ATEXT|AutoCAD Express Tool|expresstools@autodesk.com
 90
    32768
280
     0
281
     1
  0
ENDSEC
  0
SECTION
  2
TABLES
  0
TABLE
  2
VPORT
  5
7
330
0
100
AcDbSymbolTable
 70
     2
  0
VPORT
  5
4F0
330
7
100
AcDbSymbolTableRecord
100
AcDbViewportTableRecord
  2
*Active
 70
     0
 10
0.0
 20
0.0
 11
1.0
 21
1.0
 12
271.1319590732612
 22
-5.783011020020637
 13
0.0
 23
0.0
 14
1.0
 24
1.0
 15
0.0
 25
0.0
 16
0.0
 26
0.0
 36
1.0
 17
0.0
 27
0.0
 37
0.0
 40
579.3013265924717
 41
1.569570871261378
 42
50.0
 43
0.0
 44
0.0
 50
0.0
 51
0.0
 71
     0
 72
  2000
 73
     1
 74
     1
 75
     0
 76
     0
 77
     0
 78
     0
281
     0
 65
     1
110
0.0
120
0.0
130
0.0
111
1.0
121
0.0
131
0.0
112
0.0
122
1.0
132
0.0
 79
     1
146
0.0
  0
ENDTAB
  0
TABLE
  2
LTYPE
  5
4
330
0
100
AcDbSymbolTable
 70
     6
  0
LTYPE
  5
11
330
4
100
AcDbSymbolTableRecord
100
AcDbLinetypeTableRecord
  2
BYBLOCK
 70
     0
  3

 72
    65
 73
     0
 40
0.0
  0
LTYPE
  5
12
330
4
100
AcDbSymbolTableRecord
100
AcDbLinetypeTableRecord
  2
BYLAYER
 70
     0
  3

 72
    65
 73
     0
 40
0.0
  0
LTYPE
  5
13
330
4
100
AcDbSymbolTableRecord
100
AcDbLinetypeTableRecord
  2
CONTINUOUS
 70
     0
  3
Solid line
 72
    65
 73
     0
 40
0.0
  0
LTYPE
  5
1E
330
4
100
AcDbSymbolTableRecord
100
AcDbLinetypeTableRecord
  2
HIDDEN
 70
     0
  3
Hidden __ __ __ __ __ __ __ __ __ __ __ __ __ __
 72
    65
 73
     2
 40
1.905
 49
1.27
 74
     0
 49
-0.635
 74
     0
  0
LTYPE
  5
1F
330
4
100
AcDbSymbolTableRecord
100
AcDbLinetypeTableRecord
  2
PHANTOM
 70
     0
  3
Phantom ______  __  __  ______  __  __  ______
 72
    65
 73
     6
 40
12.7
 49
6.349999999999999
 74
     0
 49
-1.27
 74
     0
 49
1.27
 74
     0
 49
-1.27
 74
     0
 49
1.27
 74
     0
 49
-1.27
 74
     0
  0
LTYPE
  5
20
330
4
100
AcDbSymbolTableRecord
100
AcDbLinetypeTableRecord
  2
CENTER
 70
     0
  3
Center ____ _ ____ _ ____ _ ____ _ ____ _ ____
 72
    65
 73
     4
 40
10.16
 49
6.349999999999999
 74
     0
 49
-1.27
 74
     0
 49
1.27
 74
     0
 49
-1.27
 74
     0
  0
LTYPE
  5
21
330
4
100
AcDbSymbolTableRecord
100
AcDbLinetypeTableRecord
  2
CENTERX2
 70
     0
  3
Center (2x) ________  __  ________  __  _____
 72
    65
 73
     4
 40
20.32
 49
12.7
 74
     0
 49
-2.54
 74
     0
 49
2.54
 74
     0
 49
-2.54
 74
     0
  0
LTYPE
  5
22
330
4
100
AcDbSymbolTableRecord
100
AcDbLinetypeTableRecord
  2
DOT2
 70
     0
  3
Dot (.5x) ........................................
 72
    65
 73
     2
 40
0.635
 49
0.0
 74
     0
 49
-0.635
 74
     0
  0
ENDTAB
  0
TABLE
  2
LAYER
  5
2
330
0
100
AcDbSymbolTable
 70
     2
  0
LAYER
  5
14
330
2
100
AcDbSymbolTableRecord
100
AcDbLayerTableRecord
  2
0
 70
     0
 62
     7
  6
CONTINUOUS
370
    -3
390
4D5
  0
LAYER
  5
26
330
2
100
AcDbSymbolTableRecord
100
AcDbLayerTableRecord
  2
DEFPOINTS
 70
     0
 62
     7
  6
CONTINUOUS
290
     0
370
    -3
390
4D5
  0
ENDTAB
  0
TABLE
  2
STYLE
  5
3
330
0
100
AcDbSymbolTable
 70
     1
  0
STYLE
  5
17
330
3
100
AcDbSymbolTableRecord
100
AcDbTextStyleTableRecord
  2
STANDARD
 70
     0
 40
0.0
 41
1.0
 50
0.0
 71
     0
 42
0.0
  3
Century Gothic
  4

  0
ENDTAB
  0
TABLE
  2
VIEW
  5
5
330
0
100
AcDbSymbolTable
 70
     0
  0
ENDTAB
  0
TABLE
  2
UCS
  5
6
330
0
100
AcDbSymbolTable
 70
     0
  0
ENDTAB
  0
TABLE
  2
APPID
  5
8
330
0
100
AcDbSymbolTable
 70
     2
  0
APPID
  5
16
330
8
100
AcDbSymbolTableRecord
100
AcDbRegAppTableRecord
  2
ACAD
 70
     0
  0
APPID
  5
4E0
330
8
100
AcDbSymbolTableRecord
100
AcDbRegAppTableRecord
  2
DCO15
 70
     0
  0
ENDTAB
  0
TABLE
  2
DIMSTYLE
  5
9
330
0
100
AcDbSymbolTable
 70
     1
100
AcDbDimStyleTable
 71
     0
  0
DIMSTYLE
105
18
330
9
100
AcDbSymbolTableRecord
100
AcDbDimStyleTableRecord
  2
STANDARD
 70
     0
289
     0
340
17
  0
ENDTAB
  0
TABLE
  2
BLOCK_RECORD
  5
1
330
0
100
AcDbSymbolTable
 70
     0
  0
BLOCK_RECORD
  5
A
330
1
100
AcDbSymbolTableRecord
100
AcDbBlockTableRecord
  2
*MODEL_SPACE
340
4DA
  0
BLOCK_RECORD
  5
B
330
1
100
AcDbSymbolTableRecord
100
AcDbBlockTableRecord
  2
*PAPER_SPACE
340
4DB
  0
ENDTAB
  0
ENDSEC
  0
SECTION
  2
BLOCKS
  0
BLOCK
  5
D
330
A
100
AcDbEntity
  8
0
100
AcDbBlockBegin
  2
*MODEL_SPACE
 70
     0
 10
0.0
 20
0.0
 30
0.0
  3
*MODEL_SPACE
  1

  0
ENDBLK
  5
E
330
A
100
AcDbEntity
  8
0
100
AcDbBlockEnd
  0
BLOCK
  5
F
330
B
100
AcDbEntity
 67
     1
  8
0
100
AcDbBlockBegin
  2
*PAPER_SPACE
 70
     0
 10
0.0
 20
0.0
 30
0.0
  3
*PAPER_SPACE
  1

  0
ENDBLK
  5
10
330
B
100
AcDbEntity
 67
     1
  8
0
100
AcDbBlockEnd
  0
ENDSEC
  0
SECTION
  2
ENTITIES
  0
LINE
  5
27
330
A
100
AcDbEntity
  8
0
  6
Continuous
 62
     7
100
AcDbLine
 10
9.205468346758809
 20
281.4650632301583
 30
0.0
 11
15.39296232928432
 21
264.4650632301583
 31
0.0
  0
LINE
  5
28
330
A
100
AcDbEntity
  8
0
  6
Continuous
 62
     7
100
AcDbLine
 10
121.0179743642333
 20
264.4650632301583
 30
0.0
 11
127.2054683467588
 21
281.4650632301583
 31
0.0
  0
LINE
  5
29
330
A
100
AcDbEntity
  8
0
  6
Continuous
 62
     7
100
AcDbLine
 10
43.20546834675881
 20
264.4650632301583
 30
0.0
 11
43.20546834675881
 21
263.4521473061318
 31
0.0
  0
LINE
  5
2A
330
A
100
AcDbEntity
  8
0
  6
Continuous
 62
     7
100
AcDbLine
 10
93.2054683467588
 20
263.4521473061316
 30
0.0
 11
93.2054683467588
 21
264.4650632301583
 31
0.0
  0
LWPOLYLINE
  5
2B
330
A
100
AcDbEntity
  8
0
  6
Continuous
 62
     7
100
AcDbPolyline
 90
       38
 70
   128
 43
0.0
 10
135.9518710185328
 20
43.45215330613175
 10
136.0462765938857
 20
51.42829663429746
 10
136.1382873743585
 20
58.23750054130913
 10
136.2217796047862
 20
63.87976502716703
 10
136.2922053999073
 20
68.35509009187079
 10
136.3522830758175
 20
72.01581468982965
 10
136.4191883902451
 20
75.95507463986412
 10
136.541597260771
 20
82.86556553809246
 10
136.6862654191752
 20
90.65633175710528
 10
136.8542671693992
 20
99.32737329690242
 10
137.0246491282731
 20
107.8132297737872
 10
137.2061419076013
 20
116.5905717873396
 10
137.3793546862928
 20
124.7675013197828
 10
137.5420893686554
 20
132.3130747243141
 10
137.693182622259
 20
139.2272920009336
 10
137.8318044853697
 20
145.510153149641
 10
137.9519605761538
 20
150.9184683540846
 10
138.0636371514082
 20
155.9190893453284
 10
138.187395913202
 20
161.4329786009968
 10
138.3265544381679
 20
167.6003644638644
 10
138.4219845497244
 20
171.8114905758009
 10
138.5236034964336
 20
176.2808145309083
 10
138.6314438243058
 20
181.0083363291868
 10
138.7402276931421
 20
185.7624735335609
 10
138.8334435003344
 20
189.8254435895062
 10
138.90616011976
 20
192.9886922162949
 10
138.9636568790096
 20
195.4863174035049
 10
139.0058737359357
 20
197.3183191511362
 10
139.0300461429631
 20
198.3666023984979
 10
139.0678264647138
 20
200.0040121003795
 10
139.123368011365
 20
202.4088762365295
 10
139.1967295886923
 20
205.5811948069481
 10
139.3223917167852
 20
211.0047709097015
 10
139.480060325385
 20
217.7927104511546
 10
139.669941942847
 20
225.945013431307
 10
139.8922269228964
 20
235.4616798501591
 10
140.1470574024939
 20
246.3427097077106
 10
140.3782321710592
 20
256.1914078708522
  0
LWPOLYLINE
  5
53
330
A
100
AcDbEntity
  8
0
  6
Continuous
 62
     7
100
AcDbPolyline
 90
       37
 70
   128
 43
0.0
 10
-44.24994538910257
 20
255.0357976140111
 10
-42.21955824236927
 20
244.2342018837324
 10
-39.66876120850042
 20
230.521161821735
 10
-37.3568174467429
 20
217.952887571634
 10
-35.27987128741571
 20
206.5293791334293
 10
-33.80989071305992
 20
198.3568536214508
 10
-32.47962980905143
 20
190.8910457790614
 10
-31.29959258337019
 20
184.2074011677099
 10
-30.32347924290981
 20
178.6306558779711
 10
-29.78759955624263
 20
175.5484627089581
 10
-29.3422082157421
 20
172.974779159262
 10
-28.97132152118615
 20
170.8229899799171
 10
-28.48250422303908
 20
167.9742978153906
 10
-27.81951508380096
 20
164.0858374211442
 10
-26.98670083540125
 20
159.1576087971778
 10
-25.58904637141876
 20
150.7651395261525
 10
-24.35555671701896
 20
143.215107899881
 10
-23.28177899466323
 20
136.5180231961583
 10
-22.38515758077059
 20
130.8264540328671
 10
-21.62550808460514
 20
125.9266253629177
 10
-20.99317674909923
 20
121.7895045080326
 10
-20.48355046855982
 20
118.414189666156
 10
-20.07163787869762
 20
115.6580629106131
 10
-19.64932306707412
 20
112.8055006829615
 10
-19.09536282819682
 20
109.0210382467589
 10
-18.41507856990804
 20
104.3046756020052
 10
-17.62129957923385
 20
98.70113559454294
 10
-16.84266272984624
 20
93.09474041627538
 10
-16.12525260580732
 20
87.82917617898801
 10
-15.46614734104755
 20
82.90444288268075
 10
-14.86265637975408
 20
78.32054052735355
 10
-14.31234336002698
 20
74.07746911300655
 10
-13.77151641591297
 20
69.84865216905209
 10
-13.12927241060917
 20
64.75101712772519
 10
-12.37423266048893
 20
58.65238897008995
 10
-11.51247779681646
 20
51.55276769614666
 10
-10.55048824917605
 20
43.45215330613175
  0
LWPOLYLINE
  5
7A
330
A
100
AcDbEntity
  8
0
  6
Continuous
 62
     7
100
AcDbPolyline
 90
        9
 70
   128
 43
0.0
 10
133.2180347739847
 20
263.4520040424283
 10
134.6047202276974
 20
263.3233276038711
 10
135.9628839476295
 20
262.9149420389447
 10
137.2125873176731
 20
262.2430455587188
 10
138.3036272692565
 20
261.3346295804196
 10
139.1921745587236
 20
260.226186979671
 10
139.8425344751762
 20
258.9622460991399
 10
140.2285807679659
 20
257.5935819564957
 10
140.3348051901174
 20
256.1751765110191
  0
LINE
  5
85
330
A
100
AcDbEntity
  8
0
  6
Continuous
 62
     7
100
AcDbLine
 10
133.1926710661664
 20
259.4513438429959
 30
0.0
 11
133.2180424377948
 21
259.4518190913305
 31
0.0
  0
LWPOLYLINE
  5
86
330
A
100
AcDbEntity
  8
0
  6
Continuous
 62
     7
100
AcDbPolyline
 90
        9
 70
   128
 43
0.0
 10
-44.23361019978655
 20
255.0338607568963
 10
-44.35423345284177
 20
256.5753121192364
 10
-44.13841943220844
 20
258.1063236126372
 10
-43.59641221467729
 20
259.5542224827526
 10
-42.75393933890048
 20
260.8502810947091
 10
-41.65099059241938
 20
261.9329792381551
 10
-40.3399198103649
 20
262.7509243163999
 10
-38.88295978803947
 20
263.2652908065808
 10
-37.34926826740037
 20
263.4516631966357
  0
LINE
  5
91
330
A
100
AcDbEntity
  8
0
  6
Continuous
 62
     7
100
AcDbLine
 10
-12.91724100020906
 20
263.4521473009586
 30
0.0
 11
-12.91751403267395
 21
263.4521473061317
 31
0.0
  0
LWPOLYLINE
  5
92
330
A
100
AcDbEntity
  8
0
  6
Continuous
 62
     7
100
AcDbPolyline
 90
        9
 70
   128
 43
0.0
 10
174.4756289021711
 20
263.4521414270869
 10
175.9049903539054
 20
263.3084551374683
 10
177.2819194852267
 20
262.8771153981163
 10
178.5431239089761
 20
262.1759567229606
 10
179.6364248007461
 20
261.2339876015873
 10
180.5165898776637
 20
260.0901793858694
 10
181.1472047582589
 20
258.7918539586985
 10
181.502179506195
 20
257.3927259227293
 10
181.5668280288033
 20
255.9506803081261
  0
LWPOLYLINE
  5
9D
330
A
100
AcDbEntity
  8
0
  6
Continuous
 62
     7
100
AcDbPolyline
 90
       20
 70
   128
 43
0.0
 10
200.562843578741
 20
43.45215330613225
 10
198.7179641681977
 20
60.77786272211969
 10
197.0461503677946
 20
76.76635983670002
 10
195.5485128534106
 20
91.41764464911943
 10
194.2194253603868
 20
104.7317171593779
 10
193.0506516686923
 20
116.7085773674754
 10
192.0509093159075
 20
127.1699577528689
 10
191.191171606323
 20
136.3414570113374
 10
190.4654922033554
 20
144.2230751428809
 10
189.8687481417022
 20
150.8148121474994
 10
189.3800885823959
 20
156.2698477606351
 10
188.8094844763807
 20
162.6672485875253
 10
188.1584247752367
 20
170.0080926221589
 10
187.4286362799733
 20
178.2923798645357
 10
186.6219245937393
 20
187.5201103146557
 10
185.7401020415906
 20
197.6912839725191
 10
184.6067305781323
 20
210.8899319935131
 10
183.3739184937189
 20
225.399051510977
 10
182.0435236031442
 20
241.2186425249108
 10
181.265732009002
 20
250.5548472648221
  0
LWPOLYLINE
  5
B3
330
A
100
AcDbEntity
  8
0
  6
Continuous
 62
     7
100
AcDbPolyline
 90
        9
 70
   128
 43
0.0
 10
180.1638899770789
 20
240.0565191904433
 10
180.2474078157392
 20
240.0418559949582
 10
180.4446840325543
 20
240.4316055197222
 10
180.6224384747723
 20
241.2762797267276
 10
180.7910921680626
 20
242.9149708804221
 10
180.9676978930391
 20
245.4415589881279
 10
181.1694972150362
 20
248.8560440498453
 10
181.4132210573246
 20
253.1584260655741
 10
181.5743847434537
 20
255.9530864776335
  0
LWPOLYLINE
  5
BE
330
A
100
AcDbEntity
  8
0
  6
Continuous
 62
     7
100
AcDbPolyline
 90
        9
 70
   128
 43
0.0
 10
-53.77588230828655
 20
256.2633938048939
 10
-53.65538313285001
 20
257.6607891549382
 10
-53.2624133394653
 20
259.0071947501267
 10
-52.61232239202063
 20
260.2500197694596
 10
-51.73050294839924
 20
261.3407192660359
 10
-50.6513990191426
 20
262.236690340555
 10
-49.41716057881007
 20
262.9029362174768
 10
-48.07599718113395
 20
263.3134332247514
 10
-46.68029488602877
 20
263.4521472826724
  0
LWPOLYLINE
  5
C9
330
A
100
AcDbEntity
  8
0
  6
Continuous
 62
     7
100
AcDbPolyline
 90
       23
 70
   128
 43
0.0
 10
-53.78012102321186
 20
256.2596805774097
 10
-53.69703667401402
 20
247.8814762370994
 10
-53.683597645379
 20
237.5884829467246
 10
-53.74726453886752
 20
227.4763274378021
 10
-53.84847475790297
 20
218.1916679147782
 10
-53.96006154654592
 20
209.7745696204445
 10
-54.06939024515741
 20
202.3075811065636
 10
-54.17719236172542
 20
195.3296243712551
 10
-54.28184563198358
 20
188.783808168751
 10
-54.38202439794072
 20
182.670132499051
 10
-54.44467362602814
 20
178.9014418979736
 10
-54.51859008985788
 20
174.4864655526257
 10
-54.60991132251961
 20
169.0707892572481
 10
-54.71897725685101
 20
162.6544130118408
 10
-54.84614864646446
 20
155.2373368164037
 10
-54.99178789391246
 20
146.8195606709369
 10
-55.15623731960667
 20
137.4010845754404
 10
-55.37226295104089
 20
125.1480889160736
 10
-55.61464179898245
 20
111.5330294358329
 10
-55.8835281922341
 20
96.55590613471844
 10
-56.17881619336023
 20
80.21671901273016
 10
-56.50006839414523
 20
62.51546806986812
 10
-56.84644109008874
 20
43.45215330613208
  0
LINE
  5
E2
330
A
100
AcDbEntity
  8
0
  6
Continuous
 62
     7
100
AcDbLine
 10
68.2054683467588
 20
264.4650632301583
 30
0.0
 11
121.0179743642333
 21
264.4650632301583
 31
0.0
  0
LINE
  5
E3
330
A
100
AcDbEntity
  8
0
  6
Continuous
 62
     7
100
AcDbLine
 10
15.39296232928432
 20
264.4650632301583
 30
0.0
 11
68.2054683467588
 21
264.4650632301583
 31
0.0
  0
LINE
  5
E4
330
A
100
AcDbEntity
  8
0
  6
Continuous
 62
     7
100
AcDbLine
 10
68.2054683467588
 20
281.4650632301583
 30
0.0
 11
127.2054683467588
 21
281.4650632301583
 31
0.0
  0
LINE
  5
E5
330
A
100
AcDbEntity
  8
0
  6
Continuous
 62
     7
100
AcDbLine
 10
9.205468346758809
 20
281.4650632301583
 30
0.0
 11
68.2054683467588
 21
281.4650632301583
 31
0.0
  0
LINE
  5
E6
330
A
100
AcDbEntity
  8
0
  6
Continuous
 62
     7
100
AcDbLine
 10
64.25974221864358
 20
257.3049860077517
 30
0.0
 11
64.25974221819334
 21
43.45215330613153
 31
0.0
  0
LINE
  5
E7
330
A
100
AcDbEntity
  8
0
  6
Continuous
 62
     7
100
AcDbLine
 10
140.3327496171244
 20
256.1879873280097
 30
0.0
 11
140.319135728656
 21
256.1927587164418
 31
0.0
  0
LINE
  5
E8
330
A
100
AcDbEntity
  8
0
  6
Continuous
 62
     7
100
AcDbLine
 10
141.4759313453674
 20
43.45215330613197
 30
0.0
 11
166.8713106223878
 21
255.7925593197641
 31
0.0
  0
LINE
  5
E9
330
A
100
AcDbEntity
  8
0
  6
Continuous
 62
     7
100
AcDbLine
 10
141.4759313453687
 20
43.45215330613192
 30
0.0
 11
135.9518710185328
 21
43.45215330613197
 31
0.0
  0
LINE
  5
EA
330
A
100
AcDbEntity
  8
0
  6
Continuous
 62
     7
100
AcDbLine
 10
135.8583039900686
 20
43.45215330613175
 30
0.0
 11
64.25974221819342
 21
43.45215330613153
 31
0.0
  0
LINE
  5
EB
330
A
100
AcDbEntity
  8
0
  6
Continuous
 62
     7
100
AcDbLine
 10
-44.202444259691
 20
255.0447283663457
 30
0.0
 11
-44.1963850414501
 21
255.041198921601
 31
0.0
  0
LINE
  5
EC
330
A
100
AcDbEntity
  8
0
  6
Continuous
 62
     7
100
AcDbLine
 10
64.25974221864358
 20
257.3049860077517
 30
0.0
 11
64.25974221864358
 21
257.305188405456
 31
0.0
  0
LINE
  5
ED
330
A
100
AcDbEntity
  8
0
  6
Continuous
 62
     7
100
AcDbLine
 10
64.25974221819348
 20
43.45215330613153
 30
0.0
 11
-10.54747979530218
 21
43.45215330613175
 31
0.0
  0
LINE
  5
EE
330
A
100
AcDbEntity
  8
0
  6
Continuous
 62
     7
100
AcDbLine
 10
166.871400954963
 20
255.7936073349158
 30
0.0
 11
166.8713106223878
 21
255.7925593197641
 31
0.0
  0
LWPOLYLINE
  5
EF
330
A
100
AcDbEntity
  8
0
  6
Continuous
 62
     7
100
AcDbPolyline
 90
        5
 70
   128
 43
0.0
 10
70.05850404867486
 20
263.4521473061318
 10
68.06345367883536
 20
263.0269123806053
 10
66.22939807052467
 20
261.7216430884404
 10
64.91455400659238
 20
259.7380002551666
 10
64.25974221864358
 20
257.3051884054561
  0
LINE
  5
F6
330
A
100
AcDbEntity
  8
0
  6
Continuous
 62
     7
100
AcDbLine
 10
70.05850404867484
 20
263.4521473061318
 30
0.0
 11
133.271976393966
 21
263.4521473061318
 31
0.0
  0
LINE
  5
F7
330
A
100
AcDbEntity
  8
0
  6
Continuous
 62
     7
100
AcDbLine
 10
133.621986393966
 20
263.452147306132
 30
0.0
 11
162.169851280437
 21
263.452147306132
 31
0.0
  0
LWPOLYLINE
  5
F8
330
A
100
AcDbEntity
  8
0
  6
Continuous
 62
     7
100
AcDbPolyline
 90
        7
 70
   128
 43
0.0
 10
166.871400954963
 20
255.7936073349158
 10
166.7299455000894
 20
258.1669747599715
 10
166.0743743708585
 20
260.3360978623557
 10
164.9785981722942
 20
262.0564248137129
 10
163.5661569717744
 20
263.1340020350247
 10
162.4007645719403
 20
263.4436363678172
 10
162.1698512804606
 20
263.452147306132
  0
LINE
  5
101
330
A
100
AcDbEntity
  8
0
  6
Continuous
 62
     7
100
AcDbLine
 10
-37.21032099489796
 20
263.4521473061318
 30
0.0
 11
70.05850404867482
 21
263.4521473061318
 31
0.0
  0
LINE
  5
102
330
A
100
AcDbEntity
  8
0
  6
Continuous
 62
     7
100
AcDbLine
 10
181.5090509268862
 20
255.9620836029369
 30
0.0
 11
181.5237704162343
 21
255.9557987507947
 31
0.0
  0
LINE
  5
103
330
A
100
AcDbEntity
  8
0
  6
Continuous
 62
     7
100
AcDbLine
 10
162.169851280437
 20
263.452147306132
 30
0.0
 11
174.4847563351852
 21
263.4521473061321
 31
0.0
  0
LINE
  5
104
330
A
100
AcDbEntity
  8
0
  6
Continuous
 62
     7
100
AcDbLine
 10
200.5139105544844
 20
43.45215330613225
 30
0.0
 11
141.4759313453687
 21
43.45215330613192
 31
0.0
  0
LINE
  5
105
330
A
100
AcDbEntity
  8
0
  6
Continuous
 62
     7
100
AcDbLine
 10
-53.73823521145497
 20
256.2668224494646
 30
0.0
 11
-53.72425910326993
 21
256.2612542823866
 31
0.0
  0
LINE
  5
106
330
A
100
AcDbEntity
  8
0
  6
Continuous
 62
     7
100
AcDbLine
 10
-46.57141403899205
 20
263.4521473061322
 30
0.0
 11
-37.19347352184166
 21
263.4521473061321
 31
0.0
  0
LINE
  5
107
330
A
100
AcDbEntity
  8
0
  6
Continuous
 62
     7
100
AcDbLine
 10
-10.55048824917609
 20
43.45215330613203
 30
0.0
 11
-56.84259610529912
 21
43.45215330613213
 31
0.0
  0
LWPOLYLINE
  5
108
330
A
100
AcDbEntity
  8
0
  6
PHANTOM
 62
     7
100
AcDbPolyline
 90
        9
 70
   128
 43
0.0
 10
166.8713106223878
 20
255.7925593197641
 10
166.8712788426526
 20
255.792559569774
 10
161.9375882431986
 20
255.889641770062
 10
156.4999560579194
 20
256.0503806501267
 10
150.8864669491823
 20
256.18692780389
 10
146.9001401934902
 20
256.2414256883228
 10
143.0814900939288
 20
256.2771896499727
 10
139.5694108748925
 20
256.3080658732038
 10
136.347272579003
 20
256.345006063315
  0
LWPOLYLINE
  5
113
330
A
100
AcDbEntity
  8
0
  6
PHANTOM
 62
     7
100
AcDbPolyline
 90
       24
 70
   128
 43
0.0
 10
140.319135728656
 20
256.1927587164418
 10
140.2627958816268
 20
256.2125046762391
 10
139.7288381024845
 20
256.2569835678933
 10
137.8830255774687
 20
256.3298541242708
 10
134.9345345296688
 20
256.3887857458104
 10
128.1452593877526
 20
256.4644900233005
 10
120.8290850024096
 20
256.5194813845193
 10
112.7981682873802
 20
256.5652428186999
 10
107.1307103036911
 20
256.5939548443568
 10
101.0238508832389
 20
256.6226046139982
 10
98.71628774610323
 20
256.6328197524098
 10
96.26766436825345
 20
256.6392145156482
 10
93.46454599356873
 20
256.6304151386752
 10
90.96520907168704
 20
256.5964049584775
 10
90.05940694538486
 20
256.5846744097874
 10
87.536102878174
 20
256.5659445590323
 10
85.33058466507354
 20
256.5691893538045
 10
82.90373655626442
 20
256.5951644573928
 10
80.73697257894183
 20
256.6403165133085
 10
75.1152872348233
 20
256.8212917245984
 10
69.87914138212754
 20
257.0448035766268
 10
64.25976618020381
 20
257.3049849155235
 10
64.25974221864359
 20
257.3049860077517
 10
64.25974221864358
 20
257.3049860077517
  0
LWPOLYLINE
  5
12D
330
A
100
AcDbEntity
  8
0
  6
PHANTOM
 62
     7
100
AcDbPolyline
 90
       31
 70
   128
 43
0.0
 10
64.25974221864358
 20
257.305188405456
 10
64.2597182522631
 20
257.3051895009679
 10
60.68684650317625
 20
257.4639056791948
 10
56.50948312517195
 20
257.6227770957491
 10
53.39303711800168
 20
257.7116455523774
 10
49.98355446952583
 20
257.7709162750499
 10
46.20947551238842
 20
257.7950632844379
 10
42.28076680263382
 20
257.777561463149
 10
38.223851699322
 20
257.7100866238559
 10
34.25016806535547
 20
257.6112155295513
 10
28.48482654605263
 20
257.4414992634574
 10
23.07362198173669
 20
257.2664452212725
 10
17.0522851424282
 20
257.0566508391341
 10
11.23306328953662
 20
256.8589317481196
 10
5.325566669632047
 20
256.702457258181
 10
1.657124669278406
 20
256.642215212146
 10
-2.190842858862673
 20
256.5922725705395
 10
-6.240740095864227
 20
256.5244567206604
 10
-10.15188469109479
 20
256.4230048150522
 10
-14.15157208225737
 20
256.3053961984021
 10
-17.64639440823008
 20
256.2150652680783
 10
-21.0317262760271
 20
256.1360642356171
 10
-25.80867894014661
 20
256.0214790284289
 10
-30.35222137287674
 20
255.8968736393051
 10
-35.96159934989876
 20
255.6871481005853
 10
-39.12606659947926
 20
255.5173889572711
 10
-41.80406409838
 20
255.3198872954408
 10
-43.01089034847962
 20
255.2006514866719
 10
-43.84060429872365
 20
255.1031945008129
 10
-44.21372529089174
 20
255.0512994741527
 10
-44.202444259691
 20
255.0447283663457
  0
LWPOLYLINE
  5
14E
330
A
100
AcDbEntity
  8
0
  6
PHANTOM
 62
     7
100
AcDbPolyline
 90
       11
 70
   128
 43
0.0
 10
181.5237704162343
 20
255.9557987507947
 10
181.5652194718525
 20
255.9381010454036
 10
181.3572294451878
 20
255.913657323318
 10
180.8208808168213
 20
255.9162669013891
 10
179.9719372011286
 20
255.9342372497334
 10
178.892418552874
 20
255.947553710519
 10
176.2195072930748
 20
255.9436940539647
 10
173.3482858695051
 20
255.8914289106144
 10
166.8714678294485
 20
255.793607466328
 10
166.8714359975446
 20
255.7936076290416
 10
166.8714359975446
 20
255.7936076290416
  0
LINE
  5
15B
330
A
100
AcDbEntity
  8
0
  6
PHANTOM
 62
     7
100
AcDbLine
 10
166.8714359975446
 20
255.7936076290416
 30
0.0
 11
166.8714041449891
 21
255.793607361691
 31
0.0
  0
LWPOLYLINE
  5
15C
330
A
100
AcDbEntity
  8
0
  6
PHANTOM
 62
     7
100
AcDbPolyline
 90
        4
 70
   128
 43
0.0
 10
136.3418904930592
 20
256.5871737223948
 10
136.7060756412955
 20
256.58592705869
 10
140.1717288856486
 20
256.5582104471797
 10
140.255772070422
 20
256.5573029169032
  0
LWPOLYLINE
  5
162
330
A
100
AcDbEntity
  8
0
  6
PHANTOM
 62
     7
100
AcDbPolyline
 90
        8
 70
   128
 43
0.0
 10
-44.25451418078115
 20
256.0541042856656
 10
-45.83222065660333
 20
256.0779029188053
 10
-48.69950183773915
 20
256.1288575255924
 10
-50.59004251679557
 20
256.168084443472
 10
-51.65454372962225
 20
256.220458719666
 10
-53.1532149344044
 20
256.4166843101933
 10
-53.77380876671207
 20
256.2809951716993
 10
-53.73823521145497
 20
256.2668224494646
  0
LWPOLYLINE
  5
16C
330
A
100
AcDbEntity
  8
0
  6
Continuous
 62
     7
100
AcDbPolyline
 90
       12
 70
   128
 43
0.0
 10
166.8908318040329
 20
-155.9017398028229
 10
173.2033576967479
 20
-150.0290170005185
 10
175.8159254322668
 20
-147.6783207752999
 10
177.5542805360187
 20
-146.0420520043127
 10
178.838151963505
 20
-144.6338647750584
 10
179.8467940545888
 20
-143.2822448305934
 10
180.667561210526
 20
-141.718919227994
 10
181.1949385612528
 20
-140.1447487292612
 10
181.4854377137042
 20
-138.5321950974428
 10
181.565317964217
 20
-136.8854941454591
 10
181.4621513891786
 20
-135.1995783885639
 10
181.433438455138
 20
-134.9919573885532
  0
LWPOLYLINE
  5
17A
330
A
100
AcDbEntity
  8
0
  6
Continuous
 62
     7
100
AcDbPolyline
 90
        7
 70
   128
 43
0.0
 10
-40.90047730239815
 20
-143.4143335799912
 10
-40.06294534275745
 20
-144.1999211468849
 10
-37.13945649709986
 20
-146.6140398359225
 10
-33.7026034924861
 20
-149.1821459435243
 10
-29.55688254157564
 20
-152.140300154718
 10
-26.05387454121802
 20
-154.9222288942023
 10
-24.86563455810448
 20
-155.9667124832152
  0
LWPOLYLINE
  5
183
330
A
100
AcDbEntity
  8
0
  6
Continuous
 62
     7
100
AcDbPolyline
 90
       13
 70
   128
 43
0.0
 10
64.24673734225294
 20
-64.96038915071706
 10
61.53810658983442
 20
-65.49476731140432
 10
57.861032869593
 20
-65.99999387866265
 10
54.4873904294389
 20
-66.20559985504882
 10
50.93174844511397
 20
-66.11770844834326
 10
47.40914621993623
 20
-65.71571900434459
 10
44.00371714323266
 20
-65.00637877448143
 10
40.73181296277619
 20
-63.99797208388638
 10
37.53415915040502
 20
-62.67878798818954
 10
34.2856677148987
 20
-61.05732455861285
 10
30.51696467743602
 20
-58.90520075286137
 10
25.99933960844682
 20
-56.09621496889064
 10
25.12530662738451
 20
-55.54343011148546
  0
LWPOLYLINE
  5
192
330
A
100
AcDbEntity
  8
0
  6
Continuous
 62
     7
100
AcDbPolyline
 90
        5
 70
   128
 43
0.0
 10
156.8895605496071
 20
-162.384463145157
 10
159.6799989422337
 20
-160.9860704152266
 10
162.4100766890707
 20
-159.3650391652532
 10
165.2272655213837
 20
-157.3241540361535
 10
166.9219734891413
 20
-155.948302475598
  0
LWPOLYLINE
  5
199
330
A
100
AcDbEntity
  8
0
  6
Continuous
 62
     7
100
AcDbPolyline
 90
       34
 70
   128
 43
0.0
 10
-24.80763838536468
 20
-155.8948874631728
 10
-23.72192872001706
 20
-156.9634179892914
 10
-22.34773709857096
 20
-158.5929491138551
 10
-21.26920542124151
 20
-160.3247113202006
 10
-20.53332872820615
 20
-162.1017584414658
 10
-20.11913197961654
 20
-163.9078829177939
 10
-20.01685214624602
 20
-165.8229912966984
 10
-20.19583741529
 20
-167.9077475127774
 10
-20.68852113458904
 20
-170.2921834995154
 10
-21.52528398090786
 20
-172.9635635845238
 10
-22.71727054984728
 20
-175.9871693225632
 10
-24.44067297590962
 20
-179.6555490614996
 10
-26.59610764059781
 20
-183.6384276549708
 10
-29.33478953654072
 20
-188.226483028895
 10
-33.01983423284431
 20
-194.1193703520031
 10
-36.58008080613071
 20
-199.9821063642061
 10
-39.06013632252101
 20
-204.4578855884214
 10
-41.16315364272218
 20
-208.7682051484695
 10
-42.55717057171636
 20
-212.0215274877066
 10
-43.51442294123422
 20
-214.7035438978627
 10
-44.09234863696426
 20
-216.9848693356861
 10
-44.39575196222696
 20
-219.1754097829988
 10
-44.42514726962775
 20
-221.2842719131881
 10
-44.1831089431109
 20
-223.3213840688868
 10
-43.5976646242064
 20
-225.4974209810651
 10
-42.8074277426815
 20
-227.359410605586
 10
-41.74213819091213
 20
-229.1883519013409
 10
-40.44645178877992
 20
-230.9043247346042
 10
-38.91361368373329
 20
-232.5379920705221
 10
-37.12230428310431
 20
-234.129315128002
 10
-35.03161514421925
 20
-235.7453848236223
 10
-32.25093121580165
 20
-237.7240663787734
 10
-28.60900140929341
 20
-240.0422954914871
 10
-26.40035561694401
 20
-241.2537264918648
  0
LWPOLYLINE
  5
1BD
330
A
100
AcDbEntity
  8
0
  6
Continuous
 62
     7
100
AcDbPolyline
 90
        3
 70
   128
 43
0.0
 10
130.9810622687146
 20
-48.11439883159572
 10
125.8317684441702
 20
-45.73665413447356
 10
120.7794423153621
 20
-43.40380081077041
  0
LWPOLYLINE
  5
1C2
330
A
100
AcDbEntity
  8
0
  6
Continuous
 62
     7
100
AcDbPolyline
 90
        3
 70
   128
 43
0.0
 10
-12.44325323060423
 20
-245.5171524734521
 10
-4.640579845673259
 20
-245.486309216771
 10
4.426757559678182
 20
-245.4536418050186
  0
LWPOLYLINE
  5
1C7
330
A
100
AcDbEntity
  8
0
  6
Continuous
 62
     7
100
AcDbPolyline
 90
        3
 70
   128
 43
0.0
 10
131.6890442743784
 20
-239.1102284314415
 10
133.9484933840911
 20
-234.1942625625797
 10
136.7854287531636
 20
-229.3255467771204
  0
LWPOLYLINE
  5
1CC
330
A
100
AcDbEntity
  8
0
  6
Continuous
 62
     7
100
AcDbPolyline
 90
        6
 70
   128
 43
0.0
 10
131.7768314529787
 20
-195.0897792988379
 10
131.7233310223283
 20
-194.8614330000236
 10
131.6747223391278
 20
-194.5937863968967
 10
131.634334441759
 20
-194.3247804388803
 10
131.5976596327182
 20
-194.052200854551
 10
131.5765583617346
 20
-193.8894784762296
  0
LWPOLYLINE
  5
1D4
330
A
100
AcDbEntity
  8
0
  6
Continuous
 62
     7
100
AcDbPolyline
 90
        4
 70
   128
 43
0.0
 10
133.7195366133547
 20
-178.7398797873544
 10
133.7775003514847
 20
-178.6294830317673
 10
134.7297088758804
 20
-177.1336300217653
 10
135.6097681523784
 20
-175.9604874379586
  0
LWPOLYLINE
  5
1DA
330
A
100
AcDbEntity
  8
0
  6
Continuous
 62
     7
100
AcDbPolyline
 90
        7
 70
   128
 43
0.0
 10
-53.70994810561458
 20
-98.81928399239987
 10
-53.71598232148783
 20
-101.2886771212767
 10
-53.96930900641679
 20
-103.788210066183
 10
-54.4081517890789
 20
-106.1943511787241
 10
-54.97457980270717
 20
-108.509254488718
 10
-55.61834262169077
 20
-110.7330184931624
 10
-56.29908050289126
 20
-112.8634217225885
  0
LWPOLYLINE
  5
1E3
330
A
100
AcDbEntity
  8
0
  6
Continuous
 62
     7
100
AcDbPolyline
 90
        3
 70
   128
 43
0.0
 10
9.386594960979946
 20
-46.77393607428511
 10
8.770433309995413
 20
-46.40955216902639
 10
8.174170102116143
 20
-45.81975447420144
  0
CIRCLE
  5
1E8
330
A
100
AcDbEntity
  8
0
  6
Continuous
 62
     7
100
AcDbCircle
 10
68.2054683467588
 20
-145.2257802106413
 30
0.0
 40
59.0
  0
LINE
  5
1E9
330
A
100
AcDbEntity
  8
0
  6
Continuous
 62
     7
100
AcDbLine
 10
64.2597422180875
 20
-65.00395164260492
 30
0.0
 11
64.2597422180875
 21
-65.00395254317639
 31
0.0
  0
LWPOLYLINE
  5
1EA
330
A
100
AcDbEntity
  8
0
  6
Continuous
 62
     7
100
AcDbPolyline
 90
       19
 70
   128
 43
0.0
 10
64.2597422180875
 20
-65.00395254317639
 10
64.25978377579294
 20
-65.00394329771285
 10
70.84458541071779
 20
-63.06241460841214
 10
77.19491735452944
 20
-60.35795100695057
 10
83.31261560078063
 20
-57.09725476328584
 10
89.19951614302403
 20
-53.48702814737567
 10
93.81222614438819
 20
-50.36426757579884
 10
98.45664568661369
 20
-47.23824212077339
 10
103.2740823160584
 20
-44.50298591525495
 10
108.4058435790801
 20
-42.55253309219909
 10
110.9862739025028
 20
-42.03949408439908
 10
113.610996055161
 20
-41.87770618631136
 10
116.3334173161251
 20
-42.09796367177526
 10
118.9923209821866
 20
-42.71753471138945
 10
122.5541535372999
 20
-44.37145994946045
 10
124.2323219902551
 20
-45.69226021854319
 10
125.6485102864286
 20
-47.29125765434656
 10
127.6552275677055
 20
-50.80900121469667
 10
127.7344542062322
 20
-51.00459548025336
  0
LWPOLYLINE
  5
1FF
330
A
100
AcDbEntity
  8
0
  6
Continuous
 62
     7
100
AcDbPolyline
 90
        9
 70
   128
 43
0.0
 10
146.0994824714007
 20
-73.47954999347894
 10
148.9287967926134
 20
-74.25227939122383
 10
152.5121094275261
 20
-74.84675845173706
 10
160.0780853015334
 20
-75.57323779138851
 10
165.5896726980786
 20
-76.22092551688798
 10
169.1939715460639
 20
-77.00910293308957
 10
172.61080970764
 20
-78.35416931123035
 10
174.4834804854084
 20
-79.55057431161623
 10
175.986890682442
 20
-80.93701970740447
  0
LWPOLYLINE
  5
20A
330
A
100
AcDbEntity
  8
0
  6
Continuous
 62
     7
100
AcDbPolyline
 90
        6
 70
   128
 43
0.0
 10
178.9465633038103
 20
-117.8858664765856
 10
178.9286145086163
 20
-118.7206151794277
 10
179.8323252693864
 20
-126.4182200791622
 10
180.6571996069488
 20
-130.5138666894782
 10
181.3844258089471
 20
-134.6257625509351
 10
181.4047789526031
 20
-134.985146901124
  0
LINE
  5
212
330
A
100
AcDbEntity
  8
0
  6
Continuous
 62
     7
100
AcDbLine
 10
166.8383309439598
 20
-155.8453071991129
 30
0.0
 11
162.1698512804606
 21
-150.5962730942502
 31
0.0
  0
LWPOLYLINE
  5
213
330
A
100
AcDbEntity
  8
0
  6
Continuous
 62
     7
100
AcDbPolyline
 90
        7
 70
   128
 43
0.0
 10
64.25974212260218
 20
-65.00395166395108
 10
64.33463335640547
 20
-65.34045646881356
 10
64.57484939004332
 20
-66.4198063658699
 10
64.95330773060693
 20
-68.12031289901217
 10
65.4273401485754
 20
-70.25025706285983
 10
65.69768411638897
 20
-71.46497884849627
 10
65.80102790147868
 20
-71.92932781492995
  0
LWPOLYLINE
  5
21C
330
A
100
AcDbEntity
  8
0
  6
Continuous
 62
     7
100
AcDbPolyline
 90
        7
 70
   128
 43
0.0
 10
-40.86489637074265
 20
-143.3697854242723
 10
-42.37050123924549
 20
-142.0459515781782
 10
-45.83222065660333
 20
-138.1508885430759
 10
-48.69950183773915
 20
-133.8107844143923
 10
-50.59004251679557
 20
-129.4015089302531
 10
-51.65454372962225
 20
-124.7220843510401
 10
-52.56570778883855
 20
-116.145894054801
  0
LWPOLYLINE
  5
225
330
A
100
AcDbEntity
  8
0
  6
Continuous
 62
     7
100
AcDbPolyline
 90
       22
 70
   128
 43
0.0
 10
-53.29644588415115
 20
-107.3466662880049
 10
-53.77380876671207
 20
-96.45032020552433
 10
-53.32498843442318
 20
-88.80282654220417
 10
-51.83704149158094
 20
-81.28763883288137
 10
-50.43577816091482
 20
-76.97999454185854
 10
-48.58142657886848
 20
-72.83620207914428
 10
-46.24199330446889
 20
-68.97069151784208
 10
-43.06928212763824
 20
-65.12101015376074
 10
-39.39195810835566
 20
-61.70838507089563
 10
-35.3783525289389
 20
-58.71341301873924
 10
-28.64041274462215
 20
-54.57968455208558
 10
-21.7070781397425
 20
-50.76646175711872
 10
-17.47483065448524
 20
-48.53367964205087
 10
-13.1132651436722
 20
-46.56615016308221
 10
-8.581400502634368
 20
-45.10663181190283
 10
-3.538963472427006
 20
-44.40720238151962
 10
1.55051749357167
 20
-44.65818327883581
 10
7.230849202198033
 20
-46.00339130439884
 10
12.64643896930827
 20
-48.2156679607176
 10
17.41880169274705
 20
-50.77548574594306
 10
22.04692784372982
 20
-53.59592660607607
 10
25.11365025971442
 20
-55.55025631497887
  0
LWPOLYLINE
  5
23D
330
A
100
AcDbEntity
  8
0
  6
Continuous
 62
     7
100
AcDbPolyline
 90
        7
 70
   128
 43
0.0
 10
-19.98267317327663
 20
-150.6988006006067
 10
-20.20963553489848
 20
-150.9433626421295
 10
-21.43197917197422
 20
-152.2604922855879
 10
-22.87450217565202
 20
-153.8148749843294
 10
-23.99099328592328
 20
-155.0179438112067
 10
-24.65557706249067
 20
-155.7340623854752
 10
-24.75976736109386
 20
-155.846274366512
  0
LWPOLYLINE
  5
246
330
A
100
AcDbEntity
  8
0
  6
Continuous
 62
     7
100
AcDbPolyline
 90
       37
 70
   128
 43
0.0
 10
156.5524442620411
 20
-162.3618590734688
 10
156.4999560579194
 20
-162.38986636074
 10
150.8864669491823
 20
-164.9445036096468
 10
146.9001401934902
 20
-166.8716070748116
 10
143.0814900939288
 20
-169.1196281041798
 10
139.5694108748925
 20
-171.7862860163345
 10
136.2289924819298
 20
-175.1830245161457
 10
133.4866763722784
 20
-179.0699314875253
 10
132.0222755223518
 20
-182.1243245247689
 10
131.100480224553
 20
-185.3772021147586
 10
130.8310094164852
 20
-188.7469467865567
 10
131.1315677820174
 20
-192.1215387321226
 10
132.49550077331
 20
-197.5404205096584
 10
134.5290406917487
 20
-202.7853079251429
 10
136.8423125457908
 20
-207.916003264482
 10
138.8608261345923
 20
-212.6305055387365
 10
139.8390685167402
 20
-215.6688606229367
 10
140.3532423442409
 20
-218.8068623861326
 10
140.2627958816268
 20
-221.1889958298681
 10
139.7288381024845
 20
-223.5139211802799
 10
137.8830255774687
 20
-227.5192819027024
 10
134.9345345296688
 20
-232.0586074902176
 10
128.1452593877526
 20
-241.4316487896941
 10
120.8290850024096
 20
-250.4040785540407
 10
112.7981682873802
 20
-258.7010291616432
 10
107.1307103036911
 20
-263.7298321082575
 10
101.0238508832389
 20
-268.1853757561955
 10
98.71628774610325
 20
-269.483930130633
 10
96.26766436825345
 20
-270.474621050956
 10
93.46454599356873
 20
-270.9712056437215
 10
90.96520907168704
 20
-270.6399520585943
 10
90.05940694538486
 20
-270.3154849437694
 10
87.536102878174
 20
-268.8530017498428
 10
85.33058466507354
 20
-266.9183074998874
 10
82.90373655626442
 20
-264.1489776306896
 10
80.73697257894183
 20
-261.1652938705266
 10
80.24347486488725
 20
-260.3582059883291
  0
LINE
  5
26D
330
A
100
AcDbEntity
  8
0
  6
Continuous
 62
     7
100
AcDbLine
 10
64.25974221864358
 20
-233.3394867768656
 30
0.0
 11
64.25974221864358
 21
-233.3394384746201
 31
0.0
  0
LWPOLYLINE
  5
26E
330
A
100
AcDbEntity
  8
0
  6
Continuous
 62
     7
100
AcDbPolyline
 90
        5
 70
   128
 43
0.0
 10
70.05850404867486
 20
-229.3599392576027
 10
68.06345367883536
 20
-230.7290782721362
 10
66.2293980705246
 20
-231.9877325076833
 10
64.91455400659235
 20
-232.8900687627406
 10
64.25974221864358
 20
-233.3394384746201
  0
LWPOLYLINE
  5
275
330
A
100
AcDbEntity
  8
0
  6
Continuous
 62
     7
100
AcDbPolyline
 90
       11
 70
   128
 43
0.0
 10
5.426874558805222
 20
-238.2275522594305
 10
5.325566669632047
 20
-238.3031577553138
 10
1.657124669278406
 20
-240.7137146198535
 10
-2.190842858862673
 20
-242.831075475853
 10
-6.240740095864227
 20
-244.471183041437
 10
-10.15188469109479
 20
-245.348850729578
 10
-14.15157208225737
 20
-245.4465046914823
 10
-17.64639440823008
 20
-244.8583981172598
 10
-21.0317262760271
 20
-243.7896209681671
 10
-25.80867894014661
 20
-241.5907467746741
 10
-26.38883405850973
 20
-241.2504392062275
  0
LWPOLYLINE
  5
282
330
A
100
AcDbEntity
  8
0
  6
Continuous
 62
     7
100
AcDbPolyline
 90
       30
 70
   128
 43
0.0
 10
130.9751399504574
 20
-48.1244040333857
 10
133.9295931771138
 20
-49.87209424119201
 10
136.9238536983955
 20
-52.21978051313206
 10
142.6026120057092
 20
-57.06877417508723
 10
148.115037405085
 20
-61.37230569960657
 10
153.9715593784365
 20
-65.03151293312956
 10
160.4009081926766
 20
-67.96103901170678
 10
167.2858993906756
 20
-70.07240031769069
 10
174.4400502600019
 20
-71.46229598716444
 10
178.7166527141847
 20
-72.24760027645108
 10
182.8782381111688
 20
-73.22739164308028
 10
186.8404510818858
 20
-74.59063892384904
 10
190.5189362572673
 20
-76.52631095555435
 10
193.8245305526407
 20
-79.19756144899235
 10
196.6230022920187
 20
-82.52554740402038
 10
198.7554730480069
 20
-86.29908459122244
 10
200.0663435035067
 20
-90.30751929478118
 10
200.5490879296417
 20
-94.419488988613
 10
200.3979783634243
 20
-98.61043406151054
 10
199.7694979988985
 20
-103.1690271137225
 10
198.9090209205092
 20
-107.7777937908173
 10
198.0729135753765
 20
-112.4157925996228
 10
197.4802241028831
 20
-117.0571935744482
 10
196.9303202832138
 20
-121.6211911618313
 10
195.9583770496703
 20
-125.9923721438719
 10
194.1362903148654
 20
-130.0588743546024
 10
190.9219795636158
 20
-134.3246084871052
 10
186.8526445705597
 20
-138.0024652879931
 10
182.2650051813443
 20
-141.0166285232462
 10
180.6209048800863
 20
-141.8077861318073
  0
LWPOLYLINE
  5
2A2
330
A
100
AcDbEntity
  8
0
  6
Continuous
 62
     7
100
AcDbPolyline
 90
       21
 70
   128
 43
0.0
 10
64.25974221819346
 20
-284.3755004668905
 10
62.77196395846727
 20
-282.8076100064465
 10
59.26722972818288
 20
-278.4514667473529
 10
56.34146034431359
 20
-273.9341393868981
 10
53.8048324244859
 20
-269.3085892618282
 10
51.46692043084808
 20
-264.627235334504
 10
49.13729882554838
 20
-259.9424965672864
 10
46.625542070735
 20
-255.3067919225367
 10
43.74356120347481
 20
-250.8056082668379
 10
40.31562495921472
 20
-246.6993222951268
 10
37.64225453462826
 20
-244.3382105584184
 10
34.60054962219843
 20
-242.3879339163116
 10
31.21810114283097
 20
-240.9306600407866
 10
27.63585084226642
 20
-240.0311336263302
 10
24.0038246327583
 20
-239.7527030544431
 10
20.47204842656015
 20
-240.158716706626
 10
16.77377743323466
 20
-241.4657444353587
 10
13.21684156855578
 20
-243.2349484738888
 10
9.465918195288484
 20
-244.7459027178221
 10
5.339942051249726
 20
-245.4289611695785
 10
4.425390606011131
 20
-245.3723886541136
  0
LINE
  5
2B9
330
A
100
AcDbEntity
  8
0
  6
Continuous
 62
     7
100
AcDbLine
 10
64.25974221864358
 20
-233.3394867768656
 30
0.0
 11
64.25974221819334
 21
-284.3755004668904
 31
0.0
  0
LWPOLYLINE
  5
2BA
330
A
100
AcDbEntity
  8
0
  6
Continuous
 62
     7
100
AcDbPolyline
 90
       18
 70
   128
 43
0.0
 10
131.6139048987632
 20
-239.0698333944054
 10
129.9184516062748
 20
-243.1580500228091
 10
126.6188334745719
 20
-249.3957500760359
 10
121.7995915664785
 20
-256.8431876736779
 10
116.4945484096693
 20
-263.7371864227979
 10
110.7181212158783
 20
-270.291804569064
 10
104.4476495149317
 20
-276.7594854779241
 10
100.5299399039405
 20
-280.6147006173995
 10
96.4302883606753
 20
-284.5389197406007
 10
92.14864235324194
 20
-288.2100301412299
 10
88.65812537680819
 20
-290.5963530364563
 10
85.05747777164994
 20
-292.2831701045928
 10
81.3476821386674
 20
-293.0310852701995
 10
77.78956334607364
 20
-292.727190660693
 10
74.21916018694658
 20
-291.5499535466596
 10
70.71902243206903
 20
-289.6591052570486
 10
67.37169985222381
 20
-287.2143771208092
 10
64.25974221819342
 20
-284.3755004668905
  0
LWPOLYLINE
  5
2CE
330
A
100
AcDbEntity
  8
0
  6
Continuous
 62
     7
100
AcDbPolyline
 90
        8
 70
   128
 43
0.0
 10
-49.03530779260648
 20
-133.0275899660383
 10
-51.26725238570602
 20
-130.2001564403067
 10
-53.32237310039332
 20
-126.9704552947896
 10
-55.07768546547908
 20
-123.546491910576
 10
-56.32282139195021
 20
-120.0436331168036
 10
-56.84259610529912
 20
-116.5795204894392
 10
-56.42551852477136
 20
-113.270426730279
 10
-56.2520490416957
 20
-112.8716074122889
  0
LWPOLYLINE
  5
2D8
330
A
100
AcDbEntity
  8
0
  6
Continuous
 62
     7
100
AcDbPolyline
 90
       21
 70
   128
 43
0.0
 10
-45.65963030351972
 20
-68.26406810747414
 10
-45.77055886395852
 20
-67.41930662403932
 10
-46.80353299746712
 20
-62.30588159507402
 10
-47.50034849313431
 20
-58.75207229389086
 10
-47.60627493944736
 20
-55.26980553539084
 10
-46.64068996613287
 20
-51.94820379605793
 10
-44.65085645182582
 20
-48.91972087301629
 10
-41.9394008624512
 20
-46.33777201572023
 10
-38.81061567946733
 20
-44.35590922806703
 10
-35.52400348788931
 20
-43.07850542230779
 10
-32.14323162423916
 20
-42.39490734635558
 10
-26.9177463178337
 20
-42.11232118178867
 10
-21.53754042552836
 20
-42.21288768808638
 10
-16.03689542794147
 20
-42.12485883833355
 10
-10.46114456676195
 20
-41.3527648957949
 10
-6.788339672391854
 20
-40.65298204358406
 10
-3.248672857246295
 20
-40.19968407328135
 10
0.0732757155520736
 20
-40.33712305392604
 10
3.098212718734574
 20
-41.38643874972394
 10
5.821297562040084
 20
-43.34328808393192
 10
8.166111308084589
 20
-45.8285979259972
  0
LWPOLYLINE
  5
2EF
330
A
100
AcDbEntity
  8
0
  6
PHANTOM
 62
     7
100
AcDbPolyline
 90
        9
 70
   128
 43
0.0
 10
127.7344542062322
 20
-51.00459548025336
 10
129.1861799082747
 20
-54.58860747118029
 10
131.1425399470121
 20
-59.14438862019796
 10
133.5629705650497
 20
-63.47926368841024
 10
136.5717617425859
 20
-67.38059558565424
 10
139.1757472072544
 20
-69.82638164774607
 10
142.1240762408189
 20
-71.83374506708678
 10
145.4214000844175
 20
-73.2943552307103
 10
146.0994824714007
 20
-73.47954999347894
  0
LWPOLYLINE
  5
2FA
330
A
100
AcDbEntity
  8
0
  6
PHANTOM
 62
     7
100
AcDbPolyline
 90
       11
 70
   128
 43
0.0
 10
175.986890682442
 20
-80.93701970740447
 10
176.1155875394005
 20
-81.05570399272764
 10
177.5841421529219
 20
-83.01162783779927
 10
178.7412067187031
 20
-85.17186496009086
 10
179.9109623928074
 20
-88.48496955415589
 10
180.5532261708894
 20
-91.94333935734233
 10
180.7153152214842
 20
-96.69575221008344
 10
180.3321645328379
 20
-101.4595785483316
 10
179.695001019612
 20
-106.224472366063
 10
179.0950515964679
 20
-110.9800876572533
 10
178.9465633038103
 20
-117.8858664765856
  0
LWPOLYLINE
  5
307
330
A
100
AcDbEntity
  8
0
  6
PHANTOM
 62
     7
100
AcDbPolyline
 90
       46
 70
   128
 43
0.0
 10
162.169851280437
 20
-150.5962730942489
 10
168.610106550148
 20
-144.5875256311554
 10
171.1168617346829
 20
-142.3795373283641
 10
173.4529243761637
 20
-140.0071387483361
 10
174.286343125638
 20
-138.7577839074451
 10
174.4847563351852
 20
-137.5791030362046
 10
174.3558881792912
 20
-135.5467440987806
 10
173.6468354644271
 20
-131.5987215151529
 10
172.8460030812908
 20
-127.6648931006862
 10
172.0553895487721
 20
-121.8921128122524
 10
171.7706155753789
 20
-116.0630318299781
 10
172.0600121536256
 20
-110.2506669201678
 10
172.6358758500177
 20
-105.8742868361151
 10
173.2644468208725
 20
-101.4912466369772
 10
173.6566397435386
 20
-97.10926744522874
 10
173.5233692953647
 20
-92.736070383344
 10
173.0896571245829
 20
-90.36788717541332
 10
172.2944814026686
 20
-88.09946342001873
 10
170.8507275211525
 20
-85.80134470018524
 10
169.3163848107259
 20
-84.63798974649167
 10
166.9452147709373
 20
-83.73919760128689
 10
164.4456601153769
 20
-83.22473547009726
 10
159.442978133862
 20
-82.64106141917819
 10
151.605173909691
 20
-81.88277216507861
 10
147.1367285625943
 20
-81.11245760105738
 10
142.7696039634564
 20
-79.86545345307797
 10
138.6602342535335
 20
-78.01030788105766
 10
134.7941711573704
 20
-75.38334550978248
 10
131.3782678756929
 20
-72.18545881168349
 10
127.80721280704
 20
-67.59307626365322
 10
124.9112855416325
 20
-62.50026120273856
 10
122.5773412582553
 20
-57.13693953313276
 10
121.4432614062164
 20
-54.22254964332239
 10
119.9445418501148
 20
-51.50847147112441
 10
118.7017108450915
 20
-50.33133552720887
 10
116.8438570286305
 20
-49.48111430800818
 10
113.538433933778
 20
-48.97130721163806
 10
110.2274598993852
 20
-49.4020768153862
 10
105.6216375389406
 20
-51.18561919188658
 10
101.3223627043488
 20
-53.7164779427134
 10
97.17985182688684
 20
-56.60183850835416
 10
93.04432133783159
 20
-59.44888632929639
 10
86.61740135748969
 20
-63.37826692550507
 10
79.93141439621727
 20
-66.90709353422668
 10
72.99105754665269
 20
-69.82692691188089
 10
65.80102790143431
 20
-71.92932781488737
  0
LWPOLYLINE
  5
337
330
A
100
AcDbEntity
  8
0
  6
PHANTOM
 62
     7
100
AcDbPolyline
 90
        3
 70
   128
 43
0.0
 10
-52.56570778883855
 20
-116.145894054801
 10
-53.1532149344044
 20
-110.6160742272863
 10
-53.29644588415115
 20
-107.3466662880049
  0
LWPOLYLINE
  5
33C
330
A
100
AcDbEntity
  8
0
  6
PHANTOM
 62
     7
100
AcDbPolyline
 90
       37
 70
   128
 43
0.0
 10
65.80102790143431
 20
-71.9293278148874
 10
59.7909062219876
 20
-72.94898789969579
 10
53.70782120995102
 20
-73.31085164628101
 10
48.40482819121188
 20
-73.01797176331844
 10
43.15422370597498
 20
-72.11412807187262
 10
38.07285530347212
 20
-70.58541862889879
 10
31.21577814375124
 20
-67.45941040283195
 10
24.67442293274084
 20
-63.64767227320083
 10
18.27298312266139
 20
-59.59925286384972
 10
13.97839853364367
 20
-56.97954117458039
 10
9.550153542922629
 20
-54.60083618872056
 10
5.164186582616247
 20
-52.79170870081088
 10
0.5644640838250309
 20
-51.6848608924065
 10
-3.188885809243147
 20
-51.49289232773774
 10
-6.907611187248488
 20
-52.00180895256436
 10
-10.84777496323322
 20
-53.28831285313354
 10
-14.63439705148736
 20
-55.03031609170743
 10
-18.3151266100175
 20
-56.98842923737193
 10
-24.95344867017274
 20
-60.62635083779996
 10
-31.40107484696351
 20
-64.57701145879079
 10
-34.73481966747963
 20
-67.05413949929848
 10
-37.79811823755955
 20
-69.86934012021662
 10
-40.43716114993674
 20
-73.05301002921243
 10
-43.14892179601442
 20
-77.89966102484386
 10
-44.99582738237999
 20
-83.15299665564657
 10
-46.29101699360988
 20
-89.70965118799325
 10
-46.67773825326627
 20
-96.38359413566158
 10
-46.07314408874374
 20
-110.1123213363013
 10
-44.62178823352283
 20
-123.7806230435409
 10
-43.84779845336001
 20
-127.1975029924576
 10
-42.47079533893826
 20
-130.4172453826384
 10
-40.15410813843793
 20
-133.9034491007226
 10
-37.35909961734761
 20
-137.0318354285841
 10
-32.84614598748078
 20
-140.9867254212032
 10
-27.99722628274913
 20
-144.5410298968219
 10
-23.88171675584752
 20
-147.4857767658281
 10
-19.98267317327662
 20
-150.6988006006067
  0
LWPOLYLINE
  5
363
330
A
100
AcDbEntity
  8
0
  6
PHANTOM
 62
     7
100
AcDbPolyline
 90
        6
 70
   128
 43
0.0
 10
80.24347486488725
 20
-260.3582059883291
 10
75.1152872348233
 20
-251.9713422278999
 10
69.87914138212754
 20
-242.5331166573457
 10
64.25976618020381
 20
-233.3395219587063
 10
64.25974221864359
 20
-233.3394867768656
 10
64.25974221864358
 20
-233.3394867768656
  0
LWPOLYLINE
  5
36B
330
A
100
AcDbEntity
  8
0
  6
PHANTOM
 62
     7
100
AcDbPolyline
 90
       39
 70
   128
 43
0.0
 10
70.05850404867484
 20
-229.3599392576027
 10
75.70677456960189
 20
-238.5421810231643
 10
80.96190767318333
 20
-247.9758131331978
 10
86.59451606764944
 20
-257.1687712753623
 10
88.37304799033489
 20
-259.6331818855867
 10
90.36520973844273
 20
-261.9212049118435
 10
91.49719605685879
 20
-262.9700463343476
 10
92.79576539062704
 20
-263.7714827532067
 10
92.99664599555413
 20
-263.8444116846438
 10
93.26589697514158
 20
-263.8825462665963
 10
94.16538922235815
 20
-263.7023190357025
 10
95.76206046461123
 20
-263.0375289012012
 10
97.26625890784328
 20
-262.1709521610691
 10
102.8151338964597
 20
-258.1011661647579
 10
107.9639739595842
 20
-253.5096207596896
 10
115.6367300526211
 20
-245.5691755089393
 10
122.6206730274855
 20
-236.9784559613725
 10
129.1064995564484
 20
-228.0092750554983
 10
131.7273694754526
 20
-223.9877881773582
 10
132.9877503710624
 20
-221.2975600039918
 10
133.271976393966
 20
-219.2420631119499
 10
132.903230399464
 20
-217.1582287277326
 10
132.2249791145994
 20
-215.1408554752653
 10
130.3869151400012
 20
-210.8616647304601
 10
127.8372989145083
 20
-205.146616479191
 10
125.6198897835902
 20
-199.2969878567014
 10
124.1269347356983
 20
-193.2612145441733
 10
123.7353462696792
 20
-188.6861450391029
 10
124.1165493747054
 20
-184.1176968385832
 10
125.3581161573436
 20
-179.6871200911661
 10
127.3378846638191
 20
-175.5265182760744
 10
130.7405464299259
 20
-170.6850416404421
 10
134.887306477183
 20
-166.4533823398358
 10
138.9556576589708
 20
-163.3463065534453
 10
143.3734294619113
 20
-160.7145538015405
 10
147.9928427170755
 20
-158.4666362041487
 10
152.9648881347651
 20
-156.2453955609016
 10
157.7973400344473
 20
-153.7448262678229
 10
162.169851280437
 20
-150.5962730942489
  0
LWPOLYLINE
  5
394
330
A
100
AcDbEntity
  8
0
  6
PHANTOM
 62
     7
100
AcDbPolyline
 90
       43
 70
   128
 43
0.0
 10
-19.98267317327663
 20
-150.6988006006067
 10
-16.61013601296736
 20
-154.4154186781388
 10
-14.95422179968678
 20
-157.0454638597105
 10
-13.75317568535814
 20
-159.9077203482576
 10
-13.085728264523
 20
-162.946802305091
 10
-12.92397682577388
 20
-166.0576137005755
 10
-13.45158063880981
 20
-170.4969318132124
 10
-14.65368060857118
 20
-174.8144545019231
 10
-17.65479912285117
 20
-181.9190351857585
 10
-21.36491998517692
 20
-188.7136328561432
 10
-25.42433393661163
 20
-195.3469838756324
 10
-29.47333171821852
 20
-201.9678246067814
 10
-33.52649365330908
 20
-209.2708035863366
 10
-36.16835098240778
 20
-215.3470626086971
 10
-36.84893897358711
 20
-217.6480813025211
 10
-37.23847251294606
 20
-220.0098443074976
 10
-37.07672953619044
 20
-222.5791777735108
 10
-35.96808194038339
 20
-224.9243318965095
 10
-33.93740780466377
 20
-227.3519077935365
 10
-31.55051980973273
 20
-229.452270097898
 10
-26.58203563149793
 20
-232.9306231310031
 10
-22.64574496985654
 20
-235.2466474374022
 10
-18.50873385510623
 20
-237.1600950437407
 10
-16.06993996031497
 20
-237.9406975572743
 10
-13.55227417501435
 20
-238.3752568868758
 10
-10.95423332068221
 20
-238.299360852207
 10
-8.413811987788456
 20
-237.7174159031256
 10
-5.016628727002133
 20
-236.3257182852152
 10
-1.795841302717648
 20
-234.5205263751121
 10
1.281385350132946
 20
-232.4817892398941
 10
7.281179824607297
 20
-228.0218910448169
 10
13.19868165887501
 20
-223.4470526007644
 10
19.32220657120881
 20
-219.1740981811546
 10
25.60394867332312
 20
-215.6928833155679
 10
32.29312278750136
 20
-213.116533300912
 10
37.3650246130775
 20
-212.0250975806404
 10
42.53864769428116
 20
-211.7534907519535
 10
47.70871052409351
 20
-212.4448385679975
 10
52.67762459220571
 20
-214.0465680629908
 10
56.99794611582348
 20
-216.2647634271805
 10
60.95350445036912
 20
-219.0862103466923
 10
65.85851297922518
 20
-223.900407948516
 10
70.05850404867482
 20
-229.3599392576027
  0
LWPOLYLINE
  5
3C1
330
A
100
AcDbEntity
  8
0
  6
PHANTOM
 62
     7
100
AcDbPolyline
 90
       15
 70
   128
 43
0.0
 10
64.25974221864358
 20
-233.3394384746202
 10
64.2597182522631
 20
-233.339403296165
 10
60.68684650317625
 20
-228.6313819594731
 10
56.50948312517195
 20
-224.4721701778025
 10
53.39303711800168
 20
-222.2249673607362
 10
49.98355446952583
 20
-220.4576853980818
 10
46.20947551238842
 20
-219.2295805444452
 10
42.28076680263382
 20
-218.701517773982
 10
38.22385169932199
 20
-218.9376252194251
 10
34.25016806535547
 20
-219.8215340688002
 10
28.48482654605263
 20
-222.086537133548
 10
23.07362198173669
 20
-225.1290147708452
 10
17.0522851424282
 20
-229.3644051222667
 10
11.23306328953662
 20
-233.8944269543696
 10
5.426874558805222
 20
-238.2275522594305
  0
LINE
  5
3D2
330
A
100
AcDbEntity
  8
0
  6
Continuous
 62
     7
100
AcDbLine
 10
330.2030835279453
 20
281.4650632301583
 30
0.0
 11
336.3905775104708
 21
264.4650632301583
 31
0.0
  0
LINE
  5
3D3
330
A
100
AcDbEntity
  8
0
  6
Continuous
 62
     7
100
AcDbLine
 10
442.0155895454199
 20
264.4650632301583
 30
0.0
 11
448.2030835279453
 21
281.4650632301583
 31
0.0
  0
LINE
  5
3D4
330
A
100
AcDbEntity
  8
0
  6
Continuous
 62
     7
100
AcDbLine
 10
364.2030835279454
 20
264.4650632301583
 30
0.0
 11
364.2030835279454
 21
263.4521473061322
 31
0.0
  0
LINE
  5
3D5
330
A
100
AcDbEntity
  8
0
  6
Continuous
 62
     7
100
AcDbLine
 10
414.2030835279454
 20
263.452147306132
 30
0.0
 11
414.2030835279454
 21
264.4650632301583
 31
0.0
  0
LWPOLYLINE
  5
3D6
330
A
100
AcDbEntity
  8
0
  6
Continuous
 62
     7
100
AcDbPolyline
 90
       11
 70
   128
 43
0.0
 10
288.3529134159119
 20
256.4929160155131
 10
287.8723577165096
 20
231.8313715352157
 10
287.3836698929565
 20
206.6068038521191
 10
286.9305746517381
 20
182.4556220278777
 10
286.5337904841401
 20
159.3778260624914
 10
286.2223577378973
 20
137.3734159559603
 10
286.0275118294638
 20
116.4423917082844
 10
285.9690807849845
 20
96.58475331946364
 10
286.0324122185927
 20
77.80050078949813
 10
286.1371382022623
 20
60.08963411838769
 10
286.1200151018852
 20
43.45215330613242
  0
ARC
  5
3E3
330
A
100
AcDbEntity
  8
0
  6
Continuous
 62
     7
100
AcDbCircle
 10
295.4477899033863
 20
256.3553733061324
 30
0.0
 40
7.096774000000013
100
AcDbArc
 50
90.01131182354733
 51
179.010356979593
  0
LWPOLYLINE
  5
3E4
330
A
100
AcDbEntity
  8
0
  6
Continuous
 62
     7
100
AcDbPolyline
 90
        9
 70
   128
 43
0.0
 10
482.3974866327889
 20
263.4521473040063
 10
483.7701459852326
 20
263.3181641424234
 10
485.1014532107422
 20
262.9168972332853
 10
486.3289651129564
 20
262.2637413943745
 10
487.4055590016642
 20
261.3837704846091
 10
488.2899057457923
 20
260.3107655178443
 10
488.9480563485223
 20
259.085917850801
 10
489.3547452080226
 20
257.7562478969401
 10
489.4943600331997
 20
256.3728000699293
  0
LWPOLYLINE
  5
3EF
330
A
100
AcDbEntity
  8
0
  6
Continuous
 62
     7
100
AcDbPolyline
 90
        4
 70
   128
 43
0.0
 10
489.4310213387651
 20
43.45215330613175
 10
489.4623654785532
 20
153.4486246265333
 10
489.4712853650946
 20
182.9293531547911
 10
489.4944916068999
 20
256.3525611557321
  0
LWPOLYLINE
  5
3F5
330
A
100
AcDbEntity
  8
0
  6
Continuous
 62
     7
100
AcDbPolyline
 90
        5
 70
   128
 43
0.0
 10
285.8530799082317
 20
256.1487296858072
 10
286.2991149246308
 20
240.5180209550589
 10
286.7601382919087
 20
223.7403736904654
 10
287.1788008389364
 20
208.0157632415342
 10
287.3130510703704
 20
202.8426327257473
  0
LWPOLYLINE
  5
3FC
330
A
100
AcDbEntity
  8
0
  6
Continuous
 62
     7
100
AcDbPolyline
 90
        9
 70
   128
 43
0.0
 10
285.8627013147927
 20
256.167263972356
 10
285.9650544392779
 20
257.5710310975453
 10
286.3423003511722
 20
258.926980992609
 10
286.979600290168
 20
260.1817781147417
 10
287.8518864139358
 20
261.2860657097861
 10
288.9248478279044
 20
262.1964072329928
 10
290.156280185415
 20
262.8769949015995
 10
291.4977457724669
 20
263.3010581742579
 10
292.896478778538
 20
263.4519167555434
  0
LWPOLYLINE
  5
407
330
A
100
AcDbEntity
  8
0
  6
Continuous
 62
     7
100
AcDbPolyline
 90
        9
 70
   128
 43
0.0
 10
507.7693221975221
 20
263.4518786292002
 10
509.1088704313544
 20
263.3328927475155
 10
510.4012899601654
 20
262.9567187351134
 10
511.5989427994949
 20
262.3372221916367
 10
512.6576840211085
 20
261.4972374723805
 10
513.5384889145789
 20
260.4677260245454
 10
514.2088914200143
 20
259.2866351626528
 10
514.6441808119703
 20
257.9974993481298
 10
514.828312525329
 20
256.6478355292507
  0
LWPOLYLINE
  5
412
330
A
100
AcDbEntity
  8
0
  6
Continuous
 62
     7
100
AcDbPolyline
 90
       38
 70
   128
 43
0.0
 10
537.0250306727171
 20
43.45215330613158
 10
535.3240398654894
 20
52.13156337878579
 10
533.7716144634182
 20
60.16338391946337
 10
532.3658509396007
 20
67.54761492816443
 10
531.1043592378885
 20
74.28425640488881
 10
529.9963350344438
 20
80.30631495055637
 10
529.1041330890301
 20
85.24176873242273
 10
528.5563037029445
 20
88.31716352178645
 10
528.1389488667275
 20
90.68639196804257
 10
527.7776578675005
 20
92.75755758625189
 10
527.3360842291793
 20
95.31626976264851
 10
526.8145003240127
 20
98.38214441760518
 10
526.218619365139
 20
101.9551815511218
 10
525.324935595779
 20
107.5054434916937
 10
524.4281133220812
 20
113.4114677552297
 10
523.5744377655239
 20
119.4802684434511
 10
522.775439693534
 20
125.7118455563576
 10
522.0390529299739
 20
132.1052600538062
 10
521.4416400140009
 20
137.8914431578386
 10
521.0166228995795
 20
142.4024436146448
 10
520.6783867053107
 20
146.2573353602561
 10
520.2383188440136
 20
151.6588055881435
 10
519.7606736497013
 20
158.0628793843569
 10
519.3176169337779
 20
164.553573011531
 10
518.9118210046352
 20
170.9882475650225
 10
518.5374694563064
 20
177.3463886844419
 10
518.1948060417122
 20
183.5184162150122
 10
517.8795318504411
 20
189.48814682042
 10
517.5862969574349
 20
195.2863540228789
 10
517.0444029007658
 20
206.6077565896579
 10
516.5788782864837
 20
216.9148079348436
 10
516.4623496952414
 20
219.5756152504114
 10
516.3160875476331
 20
222.9582618710998
 10
516.1409253921589
 20
227.0710971302993
 10
515.9381421171677
 20
231.9141210280097
 10
515.626999817806
 20
239.5073352181963
 10
515.2720267892624
 20
248.3986625435135
 10
514.9521249445923
 20
256.629374088361
  0
LINE
  5
43A
330
A
100
AcDbEntity
  8
0
  6
Continuous
 62
     7
100
AcDbLine
 10
336.3905775104708
 20
264.4650632301583
 30
0.0
 11
442.0155895454199
 21
264.4650632301583
 31
0.0
  0
LINE
  5
43B
330
A
100
AcDbEntity
  8
0
  6
Continuous
 62
     7
100
AcDbLine
 10
330.2030835279453
 20
281.4650632301583
 30
0.0
 11
448.2030835279453
 21
281.4650632301583
 31
0.0
  0
LINE
  5
43C
330
A
100
AcDbEntity
  8
0
  6
Continuous
 62
     7
100
AcDbLine
 10
288.4287104975474
 20
256.4914363046272
 30
0.0
 11
288.4381444029078
 21
256.4912987189948
 31
0.0
  0
LINE
  5
43D
330
A
100
AcDbEntity
  8
0
  6
Continuous
 62
     7
100
AcDbLine
 10
399.8597619018762
 20
255.7616219945807
 30
0.0
 11
399.8597619018763
 21
255.7627705727766
 31
0.0
  0
LINE
  5
43E
330
A
100
AcDbEntity
  8
0
  6
Continuous
 62
     7
100
AcDbLine
 10
399.8597619018763
 20
255.7616219945807
 30
0.0
 11
399.8597618977953
 21
43.45215330613203
 31
0.0
  0
LINE
  5
43F
330
A
100
AcDbEntity
  8
0
  6
Continuous
 62
     7
100
AcDbLine
 10
399.8597618977975
 20
43.45215330613192
 30
0.0
 11
286.0896244990939
 21
43.45215330613235
 31
0.0
  0
LWPOLYLINE
  5
440
330
A
100
AcDbEntity
  8
0
  6
Continuous
 62
     7
100
AcDbPolyline
 90
        7
 70
   128
 43
0.0
 10
308.9812549812552
 20
256.1885925728183
 10
309.3177597861177
 20
258.5464170721337
 10
310.397109683174
 20
260.6572180064579
 10
312.0976162163163
 20
262.2830187335686
 10
314.227560380164
 20
263.2405225916177
 10
315.4422821658004
 20
263.4361855019026
 10
315.906631132234
 20
263.4521473061323
  0
LINE
  5
449
330
A
100
AcDbEntity
  8
0
  6
Continuous
 62
     7
100
AcDbLine
 10
394.6761039179111
 20
263.452147306132
 30
0.0
 11
295.4701956450421
 21
263.4521473061324
 31
0.0
  0
LWPOLYLINE
  5
44A
330
A
100
AcDbEntity
  8
0
  6
Continuous
 62
     7
100
AcDbPolyline
 90
        7
 70
   128
 43
0.0
 10
394.6761039179111
 20
263.452147306132
 10
394.9206659594338
 20
263.4442997969677
 10
396.2377956028923
 20
263.1247777206088
 10
397.7921783016339
 20
262.0379450355009
 10
398.9952471285112
 20
260.3104461796333
 10
399.7113657027796
 20
258.1370432647645
 10
399.8597619018763
 20
255.7627705727766
  0
LWPOLYLINE
  5
453
330
A
100
AcDbEntity
  8
0
  6
Continuous
 62
     7
100
AcDbPolyline
 90
        5
 70
   128
 43
0.0
 10
473.3372425749068
 20
263.4521473061318
 10
474.7063815894403
 20
263.0269123806053
 10
475.9650358249873
 20
261.7216430884404
 10
476.8673720800448
 20
259.7380002551666
 10
477.3167417919243
 20
257.3051884054561
  0
LINE
  5
45A
330
A
100
AcDbEntity
  8
0
  6
Continuous
 62
     7
100
AcDbLine
 10
462.7190481789959
 20
257.7660653569023
 30
0.0
 11
462.7521604434559
 21
257.7566025264571
 31
0.0
  0
LINE
  5
45B
330
A
100
AcDbEntity
  8
0
  6
Continuous
 62
     7
100
AcDbLine
 10
394.6761039179111
 20
263.452147306132
 30
0.0
 11
482.3525602041802
 21
263.4521473061318
 31
0.0
  0
LINE
  5
45C
330
A
100
AcDbEntity
  8
0
  6
Continuous
 62
     7
100
AcDbLine
 10
489.4786857675758
 20
206.3437989413769
 30
0.0
 11
528.3528037841952
 21
43.45215330613153
 31
0.0
  0
LINE
  5
45D
330
A
100
AcDbEntity
  8
0
  6
Continuous
 62
     7
100
AcDbLine
 10
528.3528037841953
 20
43.45215330613147
 30
0.0
 11
489.4310213387651
 21
43.45215330613175
 31
0.0
  0
LINE
  5
45E
330
A
100
AcDbEntity
  8
0
  6
Continuous
 62
     7
100
AcDbLine
 10
489.3470994768166
 20
43.45215330613175
 30
0.0
 11
399.8597618977975
 21
43.45215330613192
 31
0.0
  0
LWPOLYLINE
  5
45F
330
A
100
AcDbEntity
  8
0
  6
Continuous
 62
     7
100
AcDbPolyline
 90
        3
 70
   128
 43
0.0
 10
285.8680722766937
 20
256.1492251314358
 10
285.8550095036153
 20
256.1559731077841
 10
285.8868663734413
 20
256.1676081942053
  0
LINE
  5
464
330
A
100
AcDbEntity
  8
0
  6
Continuous
 62
     7
100
AcDbLine
 10
292.948610528942
 20
263.4521473061324
 30
0.0
 11
295.4654037048318
 21
263.4521473061324
 31
0.0
  0
LWPOLYLINE
  5
465
330
A
100
AcDbEntity
  8
0
  6
Continuous
 62
     7
100
AcDbPolyline
 90
        3
 70
   128
 43
0.0
 10
514.7338480300183
 20
256.634218886276
 10
514.9485089610254
 20
256.6304151386752
 10
514.9302144679463
 20
256.6285368223816
  0
LINE
  5
46A
330
A
100
AcDbEntity
  8
0
  6
Continuous
 62
     7
100
AcDbLine
 10
482.4582637039584
 20
263.4521473061318
 30
0.0
 11
507.8598495839003
 21
263.4521473061316
 31
0.0
  0
LINE
  5
46B
330
A
100
AcDbEntity
  8
0
  6
Continuous
 62
     7
100
AcDbLine
 10
536.9607079718672
 20
43.45215330613147
 30
0.0
 11
528.3528037841953
 21
43.45215330613147
 31
0.0
  0
LWPOLYLINE
  5
46C
330
A
100
AcDbEntity
  8
0
  6
PHANTOM
 62
     7
100
AcDbPolyline
 90
       27
 70
   128
 43
0.0
 10
399.8597619018763
 20
255.7627705727766
 10
399.8597330520707
 20
255.7627717931352
 10
396.9711915393054
 20
255.8640009641482
 10
394.3216911311595
 20
255.9221002386695
 10
390.3936515149302
 20
255.9740288224116
 10
386.0232548954828
 20
256.0256852270426
 10
382.1281918603804
 20
256.0779029188053
 10
377.7880877316968
 20
256.1288575255924
 10
373.3788122475576
 20
256.168084443472
 10
368.6993876683446
 20
256.220458719666
 10
354.5933775445909
 20
256.4166843101933
 10
340.4276235228289
 20
256.2809951716993
 10
332.7801298595087
 20
256.102182403145
 10
325.2649421501859
 20
256.0682654654266
 10
320.9572978591631
 20
256.1125368681278
 10
316.8135053964488
 20
256.1914246533721
 10
312.9479948351466
 20
256.3024541554479
 10
309.0983134710652
 20
256.4643695982156
 10
305.6856883882001
 20
256.6349448883717
 10
302.6907163360437
 20
256.7599431781722
 10
298.55698786939
 20
256.8161877187284
 10
294.7437650744232
 20
256.7374553676642
 10
292.5109829593553
 20
256.6433477127717
 10
290.5434534803866
 20
256.5499217829022
 10
289.0839351292072
 20
256.4938028321581
 10
288.384505698824
 20
256.4920809947052
 10
288.4287104975474
 20
256.4914363046272
  0
LWPOLYLINE
  5
489
330
A
100
AcDbEntity
  8
0
  6
PHANTOM
 62
     7
100
AcDbPolyline
 90
        8
 70
   128
 43
0.0
 10
477.3167417919243
 20
257.305188405456
 10
477.3167066134691
 20
257.3051895009679
 10
472.6086852767772
 20
257.4639056791948
 10
468.4494734951066
 20
257.6227770957491
 10
466.2022706780403
 20
257.7116455523774
 10
464.4349887153859
 20
257.7709162750499
 10
463.2068838617493
 20
257.7950632844379
 10
462.6788210912862
 20
257.777561463149
  0
LWPOLYLINE
  5
493
330
A
100
AcDbEntity
  8
0
  6
PHANTOM
 62
     7
100
AcDbPolyline
 90
       31
 70
   128
 43
0.0
 10
489.3818769650132
 20
256.3558954506262
 10
489.4238080087866
 20
256.3053961984021
 10
488.8357014345642
 20
256.2150652680783
 10
487.7669242854715
 20
256.1360642356171
 10
485.5680500919786
 20
256.0214790284289
 10
482.9028975690135
 20
255.8968736393051
 10
478.9486361591904
 20
255.6871481005853
 10
476.0969065242003
 20
255.5173889572711
 10
472.8046189673395
 20
255.3198872954408
 10
470.6366772100446
 20
255.2006514866719
 10
468.3018313832643
 20
255.1031945008129
 10
465.8787576060657
 20
255.0512994741527
 10
463.4220425766606
 20
255.0367391859799
 10
460.2001874322506
 20
255.0457375145874
 10
457.0604172800272
 20
255.0676462449594
 10
453.5223182902233
 20
255.0954467950197
 10
450.0867184995353
 20
255.1222331345875
 10
442.3947024324179
 20
255.1725536942937
 10
436.0753503358846
 20
255.2173107955309
 10
429.7527918225473
 20
255.2604490659324
 10
423.2768830349732
 20
255.2987111824693
 10
416.4974801157297
 20
255.3288398221122
 10
413.2262457998908
 20
255.3426132054969
 10
409.8629957310168
 20
255.3733784469537
 10
407.9119527599088
 20
255.4087985114041
 10
406.0079554815565
 20
255.468589566161
 10
404.2291075451368
 20
255.550712662387
 10
402.5962964398184
 20
255.635050279492
 10
399.8597908134537
 20
255.7616208398231
 10
399.8597619018763
 20
255.7616219945807
 10
399.8597619018763
 20
255.7616219945807
  0
LWPOLYLINE
  5
4B4
330
A
100
AcDbEntity
  8
0
  6
PHANTOM
 62
     7
100
AcDbPolyline
 90
        4
 70
   128
 43
0.0
 10
288.3416804438736
 20
255.9164533080505
 10
286.5298364095031
 20
255.9952816888691
 10
286.0167974017031
 20
256.072396603532
 10
285.8680722766937
 20
256.1492251314358
  0
LWPOLYLINE
  5
4BA
330
A
100
AcDbEntity
  8
0
  6
PHANTOM
 62
     7
100
AcDbPolyline
 90
        9
 70
   128
 43
0.0
 10
514.9302144679463
 20
256.6285368223816
 10
514.6172553758983
 20
256.5964049584775
 10
514.2927882610734
 20
256.5846744097874
 10
512.8303050671468
 20
256.5659445590323
 10
510.8956108171915
 20
256.5691893538045
 10
508.1262809479936
 20
256.5951644573928
 10
505.1425971878306
 20
256.6403165133085
 10
495.9486455452039
 20
256.8212917245984
 10
489.3473986009006
 20
256.9776195130359
  0
LWPOLYLINE
  5
4C5
330
A
100
AcDbEntity
  8
0
  6
PHANTOM
 62
     7
100
AcDbPolyline
 90
       12
 70
   128
 43
0.0
 10
414.2030835279454
 20
256.3410321707115
 10
416.6251022605552
 20
256.351593083818
 10
421.050038212997
 20
256.3675957411085
 10
424.727935140967
 20
256.3758927473235
 10
428.6446024388571
 20
256.3774411895319
 10
432.6899764766936
 20
256.3726707230927
 10
436.7412047973741
 20
256.3646928820002
 10
442.5077696384617
 20
256.3479840910172
 10
448.0935198853535
 20
256.3264412629576
 10
453.553588544254
 20
256.3017093295731
 10
458.022733404309
 20
256.2825139995376
 10
458.8942846541737
 20
256.2800684008627
  0
ENDSEC
  0
SECTION
  2
OBJECTS
  0
DICTIONARY
  5
19
330
0
100
AcDbDictionary
281
     1
  3
ACAD_COLOR
350
4D7
  3
ACAD_GROUP
350
1A
  3
ACAD_LAYOUT
350
4D8
  3
ACAD_MATERIAL
350
4D6
  3
ACAD_MLINESTYLE
350
1B
  3
ACAD_PLOTSETTINGS
350
4D9
  3
ACAD_PLOTSTYLENAME
350
4D4
  3
ACDBHEADERROUNDTRIPXREC
350
4F1
  3
AcDbVariableDictionary
350
4EA
  3
ASE_INDEX_DICTIONARY
350
4DF
  0
DICTIONARY
  5
4D7
102
{ACAD_REACTORS
330
19
102
}
330
19
100
AcDbDictionary
281
     1
  0
DICTIONARY
  5
1A
102
{ACAD_REACTORS
330
19
102
}
330
19
100
AcDbDictionary
281
     1
  0
DICTIONARY
  5
4D8
102
{ACAD_REACTORS
330
19
102
}
330
19
100
AcDbDictionary
281
     1
  3
Layout1
350
4DB
  3
Model
350
4DA
  0
DICTIONARY
  5
4D6
102
{ACAD_REACTORS
330
19
102
}
330
19
100
AcDbDictionary
281
     1
  0
DICTIONARY
  5
1B
102
{ACAD_REACTORS
330
19
102
}
330
19
100
AcDbDictionary
281
     1
  3
STANDARD
350
1C
  0
DICTIONARY
  5
4D9
102
{ACAD_REACTORS
330
19
102
}
330
19
100
AcDbDictionary
281
     1
  0
ACDBDICTIONARYWDFLT
  5
4D4
102
{ACAD_REACTORS
330
19
102
}
330
19
100
AcDbDictionary
281
     1
  3
Normal
350
4D5
100
AcDbDictionaryWithDefault
340
4D5
  0
DICTIONARY
  5
4F1
102
{ACAD_REACTORS
330
19
102
}
330
19
100
AcDbDictionary
281
     1
  3
COLORDICT
350
4F3
  3
MATERIALDICT
350
4F2
  0
DICTIONARY
  5
4EA
102
{ACAD_REACTORS
330
19
102
}
330
19
100
AcDbDictionary
281
     1
  3
DIMASSOC
350
4EB
  3
PROJECTNAME
350
4EC
  0
DICTIONARY
  5
4DF
102
{ACAD_REACTORS
330
19
102
}
330
19
100
AcDbDictionary
281
     1
  3
ASEBlockHierarchyIndexRecord
350
4E1
1001
DCO15
1040
1521898478.796
  0
LAYOUT
  5
4DB
102
{ACAD_XDICTIONARY
360
4F6
102
}
102
{ACAD_REACTORS
330
4D8
102
}
330
4D8
100
AcDbPlotSettings
  1

  2
ProgeSOFT PDF Wizard
  4

  6

 40
0.0
 41
0.0
 42
0.0
 43
0.0
 44
0.0
 45
0.0
 46
0.0
 47
0.0
 48
0.0
 49
0.0
140
0.0
141
0.0
142
1.0
143
1.0
 70
   688
 72
     0
 73
     0
 74
     5
  7

 75
    16
147
1.0
148
0.0
149
0.0
100
AcDbLayout
  1
Layout1
 70
     1
 71
     1
 10
0.0
 20
0.0
 11
12.0
 21
9.0
 12
0.0
 22
0.0
 32
0.0
 14
1.000000000000000E+20
 24
1.000000000000000E+20
 34
1.000000000000000E+20
 15
-1.000000000000000E+20
 25
-1.000000000000000E+20
 35
-1.000000000000000E+20
146
0.0
 13
0.0
 23
0.0
 33
0.0
 16
1.0
 26
0.0
 36
0.0
 17
0.0
 27
1.0
 37
0.0
 76
     0
330
B
  0
LAYOUT
  5
4DA
102
{ACAD_XDICTIONARY
360
4F4
102
}
102
{ACAD_REACTORS
330
4D8
102
}
330
4D8
100
AcDbPlotSettings
  1

  2
ProgeSOFT PDF Wizard
  4

  6

 40
0.0
 41
0.0
 42
0.0
 43
0.0
 44
0.0
 45
0.0
 46
0.0
 47
0.0
 48
0.0
 49
0.0
140
0.0
141
0.0
142
1.0
143
1.0
 70
  1712
 72
     0
 73
     0
 74
     0
  7

 75
     0
147
1.0
148
0.0
149
0.0
100
AcDbLayout
  1
Model
 70
     1
 71
     0
 10
0.0
 20
0.0
 11
12.0
 21
9.0
 12
0.0
 22
0.0
 32
0.0
 14
0.0
 24
0.0
 34
0.0
 15
0.0
 25
0.0
 35
0.0
146
0.0
 13
0.0
 23
0.0
 33
0.0
 16
1.0
 26
0.0
 36
0.0
 17
0.0
 27
1.0
 37
0.0
 76
     0
330
A
  0
MLINESTYLE
  5
1C
102
{ACAD_REACTORS
330
1B
102
}
330
1B
100
AcDbMlineStyle
  2
STANDARD
 70
     0
  3

 62
     0
 51
90.0
 52
90.0
 71
     2
 49
0.5
 62
   256
  6
BYLAYER
 49
-0.5
 62
   256
  6
BYLAYER
  0
ACDBPLACEHOLDER
  5
4D5
102
{ACAD_REACTORS
330
4D4
102
}
330
4D4
  0
XRECORD
  5
4F3
102
{ACAD_REACTORS
330
4F1
102
}
330
4F1
100
AcDbXrecord
280
     1
340
4D7
  0
XRECORD
  5
4F2
102
{ACAD_REACTORS
330
4F1
102
}
330
4F1
100
AcDbXrecord
280
     1
340
4D6
  0
DICTIONARYVAR
  5
4EB
102
{ACAD_REACTORS
330
4EA
102
}
330
4EA
100
DictionaryVariables
280
     0
  1
1
  0
DICTIONARYVAR
  5
4EC
102
{ACAD_REACTORS
330
4EA
102
}
330
4EA
100
DictionaryVariables
280
     0
  1

  0
XRECORD
  5
4E1
102
{ACAD_REACTORS
330
4DF
102
}
330
4DF
100
AcDbXrecord
280
     1
  0
DICTIONARY
  5
4F6
330
4DB
100
AcDbDictionary
280
     1
281
     1
  3
ACAD_XREC_ROUNDTRIP
360
4F7
  0
DICTIONARY
  5
4F4
330
4DA
100
AcDbDictionary
280
     1
281
     1
  3
ACAD_XREC_ROUNDTRIP
360
4F5
  0
XRECORD
  5
4F7
102
{ACAD_REACTORS
330
4F6
102
}
330
4F6
100
AcDbXrecord
280
     1
102
SHADEPLOT
 70
     0
102
SHADEPLOTRESLEVEL
 70
     2
102
SHADEPLOTCUSTOMDPI
 70
   300
  0
XRECORD
  5
4F5
102
{ACAD_REACTORS
330
4F4
102
}
330
4F4
100
AcDbXrecord
280
     1
102
SHADEPLOT
 70
     0
102
SHADEPLOTRESLEVEL
 70
     2
102
SHADEPLOTCUSTOMDPI
 70
   300
  0
ENDSEC
  0
EOF
