  0
SECTION
  2
HEADER
  9
$ACADVER
  1
AC1015
  9
$ACADMAINTVER
 70
    20
  9
$DWGCODEPAGE
  3
ANSI_1252
  9
$INSBASE
 10
0.0
 20
0.0
 30
0.0
  9
$EXTMIN
 10
-210.313156938438
 20
-598.9603936636099
 30
0.0
  9
$EXTMAX
 10
1049.984184664447
 20
296.4650632301585
 30
0.0
  9
$LIMMIN
 10
0.0
 20
0.0
  9
$LIMMAX
 10
0.0
 20
0.0
  9
$ORTHOMODE
 70
     0
  9
$REGENMODE
 70
     1
  9
$FILLMODE
 70
     1
  9
$QTEXTMODE
 70
     0
  9
$MIRRTEXT
 70
     1
  9
$LTSCALE
 40
1.0
  9
$ATTMODE
 70
     1
  9
$TEXTSIZE
 40
0.0
  9
$TRACEWID
 40
0.05
  9
$TEXTSTYLE
  7
STANDARD
  9
$CLAYER
  8
0
  9
$CELTYPE
  6
CONTINUOUS
  9
$CECOLOR
 62
   256
  9
$CELTSCALE
 40
1.0
  9
$DISPSILH
 70
     0
  9
$DIMSCALE
 40
1.0
  9
$DIMASZ
 40
6.0
  9
$DIMEXO
 40
1.0
  9
$DIMDLI
 40
0.38
  9
$DIMRND
 40
0.0
  9
$DIMDLE
 40
1.0
  9
$DIMEXE
 40
0.18
  9
$DIMTP
 40
0.0
  9
$DIMTM
 40
0.0
  9
$DIMTXT
 40
3.5
  9
$DIMCEN
 40
0.09
  9
$DIMTSZ
 40
0.0
  9
$DIMTOL
 70
     0
  9
$DIMLIM
 70
     0
  9
$DIMTIH
 70
     1
  9
$DIMTOH
 70
     1
  9
$DIMSE1
 70
     0
  9
$DIMSE2
 70
     0
  9
$DIMTAD
 70
     1
  9
$DIMZIN
 70
     0
  9
$DIMBLK
  1

  9
$DIMASO
 70
     1
  9
$DIMSHO
 70
     1
  9
$DIMPOST
  1

  9
$DIMAPOST
  1

  9
$DIMALT
 70
     0
  9
$DIMALTD
 70
     2
  9
$DIMALTF
 40
0.0394
  9
$DIMLFAC
 40
1.0
  9
$DIMTOFL
 70
     0
  9
$DIMTVP
 40
0.0
  9
$DIMTIX
 70
     0
  9
$DIMSOXD
 70
     0
  9
$DIMSAH
 70
     0
  9
$DIMBLK1
  1

  9
$DIMBLK2
  1

  9
$DIMSTYLE
  2
STANDARD
  9
$DIMCLRD
 70
     0
  9
$DIMCLRE
 70
     0
  9
$DIMCLRT
 70
     0
  9
$DIMTFAC
 40
1.0
  9
$DIMGAP
 40
1.0
  9
$DIMJUST
 70
     0
  9
$DIMSD1
 70
     0
  9
$DIMSD2
 70
     0
  9
$DIMTOLJ
 70
     1
  9
$DIMTZIN
 70
     0
  9
$DIMALTZ
 70
     0
  9
$DIMALTTZ
 70
     0
  9
$DIMUPT
 70
     0
  9
$DIMDEC
 70
     4
  9
$DIMTDEC
 70
     4
  9
$DIMALTU
 70
     2
  9
$DIMALTTD
 70
     2
  9
$DIMTXSTY
  7
STANDARD
  9
$DIMAUNIT
 70
     0
  9
$DIMADEC
 70
     0
  9
$DIMALTRND
 40
0.0
  9
$DIMAZIN
 70
     0
  9
$DIMDSEP
 70
    46
  9
$DIMATFIT
 70
     3
  9
$DIMFRAC
 70
     0
  9
$DIMLDRBLK
  1

  9
$DIMLUNIT
 70
     2
  9
$DIMLWD
 70
    -2
  9
$DIMLWE
 70
    -2
  9
$DIMTMOVE
 70
     0
  9
$LUNITS
 70
     2
  9
$LUPREC
 70
     2
  9
$SKETCHINC
 40
0.1
  9
$FILLETRAD
 40
0.0
  9
$AUNITS
 70
     0
  9
$AUPREC
 70
     2
  9
$MENU
  1
acad
  9
$ELEVATION
 40
0.0
  9
$PELEVATION
 40
0.0
  9
$THICKNESS
 40
0.0
  9
$LIMCHECK
 70
     0
  9
$CHAMFERA
 40
0.0
  9
$CHAMFERB
 40
0.0
  9
$CHAMFERC
 40
0.0
  9
$CHAMFERD
 40
0.0
  9
$SKPOLY
 70
     0
  9
$TDCREATE
 40
2444972.041666667
  9
$TDUCREATE
 40
2444972.000000000
  9
$TDUPDATE
 40
2453768.784301933
  9
$TDUUPDATE
 40
2453768.742635266
  9
$TDINDWG
 40
0.0268348611
  9
$TDUSRTIMER
 40
0.0268348611
  9
$USRTIMER
 70
     1
  9
$ANGBASE
 50
0.0
  9
$ANGDIR
 70
     0
  9
$PDMODE
 70
     0
  9
$PDSIZE
 40
-1.0
  9
$PLINEWID
 40
0.0
  9
$SPLFRAME
 70
     0
  9
$SPLINETYPE
 70
     6
  9
$SPLINESEGS
 70
     8
  9
$HANDSEED
  5
A2E
  9
$SURFTAB1
 70
     6
  9
$SURFTAB2
 70
     6
  9
$SURFTYPE
 70
     6
  9
$SURFU
 70
     6
  9
$SURFV
 70
     6
  9
$UCSBASE
  2

  9
$UCSNAME
  2

  9
$UCSORG
 10
0.0
 20
0.0
 30
0.0
  9
$UCSXDIR
 10
1.0
 20
0.0
 30
0.0
  9
$UCSYDIR
 10
0.0
 20
1.0
 30
0.0
  9
$UCSORTHOREF
  2

  9
$UCSORTHOVIEW
 70
     1
  9
$UCSORGTOP
 10
0.0
 20
0.0
 30
0.0
  9
$UCSORGBOTTOM
 10
0.0
 20
0.0
 30
0.0
  9
$UCSORGLEFT
 10
0.0
 20
0.0
 30
0.0
  9
$UCSORGRIGHT
 10
0.0
 20
0.0
 30
0.0
  9
$UCSORGFRONT
 10
0.0
 20
0.0
 30
0.0
  9
$UCSORGBACK
 10
0.0
 20
0.0
 30
0.0
  9
$PUCSBASE
  2

  9
$PUCSNAME
  2

  9
$PUCSORG
 10
0.0
 20
0.0
 30
0.0
  9
$PUCSXDIR
 10
1.0
 20
0.0
 30
0.0
  9
$PUCSYDIR
 10
0.0
 20
1.0
 30
0.0
  9
$PUCSORTHOREF
  2

  9
$PUCSORTHOVIEW
 70
     0
  9
$PUCSORGTOP
 10
0.0
 20
0.0
 30
0.0
  9
$PUCSORGBOTTOM
 10
0.0
 20
0.0
 30
0.0
  9
$PUCSORGLEFT
 10
0.0
 20
0.0
 30
0.0
  9
$PUCSORGRIGHT
 10
0.0
 20
0.0
 30
0.0
  9
$PUCSORGFRONT
 10
0.0
 20
0.0
 30
0.0
  9
$PUCSORGBACK
 10
0.0
 20
0.0
 30
0.0
  9
$USERI1
 70
     0
  9
$USERI2
 70
     0
  9
$USERI3
 70
     0
  9
$USERI4
 70
     0
  9
$USERI5
 70
     0
  9
$USERR1
 40
0.0
  9
$USERR2
 40
0.0
  9
$USERR3
 40
0.0
  9
$USERR4
 40
0.0
  9
$USERR5
 40
0.0
  9
$WORLDVIEW
 70
     1
  9
$SHADEDGE
 70
     3
  9
$SHADEDIF
 70
    70
  9
$TILEMODE
 70
     1
  9
$MAXACTVP
 70
    16
  9
$PINSBASE
 10
0.0
 20
0.0
 30
0.0
  9
$PLIMCHECK
 70
     0
  9
$PEXTMIN
 10
1.000000000000000E+20
 20
1.000000000000000E+20
 30
1.000000000000000E+20
  9
$PEXTMAX
 10
-1.000000000000000E+20
 20
-1.000000000000000E+20
 30
-1.000000000000000E+20
  9
$PLIMMIN
 10
0.0
 20
0.0
  9
$PLIMMAX
 10
12.0
 20
9.0
  9
$UNITMODE
 70
     0
  9
$VISRETAIN
 70
     0
  9
$PLINEGEN
 70
     1
  9
$PSLTSCALE
 70
     1
  9
$TREEDEPTH
 70
  3020
  9
$CMLSTYLE
  2
STANDARD
  9
$CMLJUST
 70
     0
  9
$CMLSCALE
 40
1.0
  9
$PROXYGRAPHICS
 70
     0
  9
$MEASUREMENT
 70
     0
  9
$CELWEIGHT
370
    -1
  9
$ENDCAPS
280
     0
  9
$JOINSTYLE
280
     0
  9
$LWDISPLAY
290
     0
  9
$INSUNITS
 70
     0
  9
$HYPERLINKBASE
  1

  9
$STYLESHEET
  1

  9
$XEDIT
290
     1
  9
$CEPSNTYPE
380
     0
  9
$PSTYLEMODE
290
     1
  9
$FINGERPRINTGUID
  2
{806537A0-637C-4DBF-9A65-237129D0C863}
  9
$VERSIONGUID
  2
{A2A7C9D7-D65F-495B-8612-DB395627F937}
  9
$EXTNAMES
290
     1
  9
$PSVPSCALE
 40
0.0
  9
$OLESTARTUP
290
     0
  0
ENDSEC
  0
SECTION
  2
CLASSES
  0
CLASS
  1
IMAGE
  2
AcDbRasterImage
  3
ISM
 90
    32895
280
     0
281
     1
  0
CLASS
  1
DICTIONARYVAR
  2
AcDbDictionaryVar
  3
ObjectDBX Classes
 90
        0
280
     0
281
     0
  0
CLASS
  1
RASTERVARIABLES
  2
AcDbRasterVariables
  3
ISM
 90
    32768
280
     0
281
     0
  0
CLASS
  1
IMAGEDEF
  2
AcDbRasterImageDef
  3
ISM
 90
    32768
280
     0
281
     0
  0
CLASS
  1
IMAGEDEF_REACTOR
  2
AcDbRasterImageDefReactor
  3
ISM
 90
    32769
280
     0
281
     0
  0
CLASS
  1
IDBUFFER
  2
AcDbIdBuffer
  3
ObjectDBX Classes
 90
    32768
280
     0
281
     0
  0
CLASS
  1
SPATIAL_FILTER
  2
AcDbSpatialFilter
  3
ObjectDBX Classes
 90
    32768
280
     0
281
     0
  0
CLASS
  1
SORTENTSTABLE
  2
AcDbSortentsTable
  3
ObjectDBX Classes
 90
    32768
280
     0
281
     0
  0
CLASS
  1
LAYER_INDEX
  2
AcDbLayerIndex
  3
ObjectDBX Classes
 90
    32768
280
     0
281
     0
  0
CLASS
  1
SPATIAL_INDEX
  2
AcDbSpatialIndex
  3
ObjectDBX Classes
 90
    32768
280
     0
281
     0
  0
CLASS
  1
OBJECT_PTR
  2
CAseDLPNTableRecord
  3
ASE-LPNTableRecord
 90
    32769
280
     0
281
     0
  0
CLASS
  1
LAYOUT
  2
AcDbLayout
  3
ObjectDBX Classes
 90
        0
280
     0
281
     0
  0
CLASS
  1
PLOTSETTINGS
  2
AcDbPlotSettings
  3
ObjectDBX Classes
 90
    32768
280
     0
281
     0
  0
CLASS
  1
ACDBDICTIONARYWDFLT
  2
AcDbDictionaryWithDefault
  3
ObjectDBX Classes
 90
        0
280
     0
281
     0
  0
CLASS
  1
ACDBPLACEHOLDER
  2
AcDbPlaceHolder
  3
ObjectDBX Classes
 90
        0
280
     0
281
     0
  0
CLASS
  1
VBA_PROJECT
  2
AcDbVbaProject
  3
acad
 90
    32768
280
     0
281
     0
  0
CLASS
  1
WIPEOUT
  2
AcDbWipeout
  3
"WipeOut|Product Desc: Object Enabler for WipeOut entity^I^I^I^I^I^I|Company: Autodesk, Inc.^I^I^I^I^I^I|WEB Address: www.autodesk.com"
 90
    32895
280
     0
281
     1
  0
CLASS
  1
WIPEOUTVARIABLES
  2
AcDbWipeoutVariables
  3
"WipeOut|Product Desc:     WipeOut Dbx Application|Company:          Autodesk, Inc.|WEB Address:      www.autodesk.com"
 90
    32768
280
     0
281
     0
  0
CLASS
  1
RTEXT
  2
RText
  3
RText|AutoCAD Express Tool|expresstools@autodesk.com
 90
    32768
280
     0
281
     1
  0
CLASS
  1
ARCALIGNEDTEXT
  2
AcDbArcAlignedText
  3
ATEXT|AutoCAD Express Tool|expresstools@autodesk.com
 90
    32768
280
     0
281
     1
  0
ENDSEC
  0
SECTION
  2
TABLES
  0
TABLE
  2
VPORT
  5
7
330
0
100
AcDbSymbolTable
 70
     2
  0
VPORT
  5
A26
330
7
100
AcDbSymbolTableRecord
100
AcDbViewportTableRecord
  2
*Active
 70
     0
 10
0.0
 20
0.0
 11
1.0
 21
1.0
 12
468.2194619894121
 22
-151.2476652167257
 13
0.0
 23
0.0
 14
1.0
 24
1.0
 15
0.0
 25
0.0
 16
0.0
 26
0.0
 36
1.0
 17
0.0
 27
0.0
 37
0.0
 40
902.9824299025186
 41
1.569570871261378
 42
50.0
 43
0.0
 44
0.0
 50
0.0
 51
0.0
 71
     0
 72
  2000
 73
     1
 74
     1
 75
     0
 76
     0
 77
     0
 78
     0
281
     0
 65
     1
110
0.0
120
0.0
130
0.0
111
1.0
121
0.0
131
0.0
112
0.0
122
1.0
132
0.0
 79
     1
146
0.0
  0
ENDTAB
  0
TABLE
  2
LTYPE
  5
4
330
0
100
AcDbSymbolTable
 70
     6
  0
LTYPE
  5
11
330
4
100
AcDbSymbolTableRecord
100
AcDbLinetypeTableRecord
  2
BYBLOCK
 70
     0
  3

 72
    65
 73
     0
 40
0.0
  0
LTYPE
  5
12
330
4
100
AcDbSymbolTableRecord
100
AcDbLinetypeTableRecord
  2
BYLAYER
 70
     0
  3

 72
    65
 73
     0
 40
0.0
  0
LTYPE
  5
13
330
4
100
AcDbSymbolTableRecord
100
AcDbLinetypeTableRecord
  2
CONTINUOUS
 70
     0
  3
Solid line
 72
    65
 73
     0
 40
0.0
  0
LTYPE
  5
1E
330
4
100
AcDbSymbolTableRecord
100
AcDbLinetypeTableRecord
  2
HIDDEN
 70
     0
  3
Hidden __ __ __ __ __ __ __ __ __ __ __ __ __ __
 72
    65
 73
     2
 40
1.905
 49
1.27
 74
     0
 49
-0.635
 74
     0
  0
LTYPE
  5
1F
330
4
100
AcDbSymbolTableRecord
100
AcDbLinetypeTableRecord
  2
PHANTOM
 70
     0
  3
Phantom ______  __  __  ______  __  __  ______
 72
    65
 73
     6
 40
12.7
 49
6.349999999999999
 74
     0
 49
-1.27
 74
     0
 49
1.27
 74
     0
 49
-1.27
 74
     0
 49
1.27
 74
     0
 49
-1.27
 74
     0
  0
LTYPE
  5
20
330
4
100
AcDbSymbolTableRecord
100
AcDbLinetypeTableRecord
  2
CENTER
 70
     0
  3
Center ____ _ ____ _ ____ _ ____ _ ____ _ ____
 72
    65
 73
     4
 40
10.16
 49
6.349999999999999
 74
     0
 49
-1.27
 74
     0
 49
1.27
 74
     0
 49
-1.27
 74
     0
  0
LTYPE
  5
21
330
4
100
AcDbSymbolTableRecord
100
AcDbLinetypeTableRecord
  2
CENTERX2
 70
     0
  3
Center (2x) ________  __  ________  __  _____
 72
    65
 73
     4
 40
20.32
 49
12.7
 74
     0
 49
-2.54
 74
     0
 49
2.54
 74
     0
 49
-2.54
 74
     0
  0
LTYPE
  5
22
330
4
100
AcDbSymbolTableRecord
100
AcDbLinetypeTableRecord
  2
DOT2
 70
     0
  3
Dot (.5x) ........................................
 72
    65
 73
     2
 40
0.635
 49
0.0
 74
     0
 49
-0.635
 74
     0
  0
ENDTAB
  0
TABLE
  2
LAYER
  5
2
330
0
100
AcDbSymbolTable
 70
     2
  0
LAYER
  5
14
330
2
100
AcDbSymbolTableRecord
100
AcDbLayerTableRecord
  2
0
 70
     0
 62
     7
  6
CONTINUOUS
370
    -3
390
A0B
  0
LAYER
  5
26
330
2
100
AcDbSymbolTableRecord
100
AcDbLayerTableRecord
  2
DEFPOINTS
 70
     0
 62
     7
  6
CONTINUOUS
290
     0
370
    -3
390
A0B
  0
ENDTAB
  0
TABLE
  2
STYLE
  5
3
330
0
100
AcDbSymbolTable
 70
     1
  0
STYLE
  5
17
330
3
100
AcDbSymbolTableRecord
100
AcDbTextStyleTableRecord
  2
STANDARD
 70
     0
 40
0.0
 41
1.0
 50
0.0
 71
     0
 42
0.0
  3
Century Gothic
  4

  0
ENDTAB
  0
TABLE
  2
VIEW
  5
5
330
0
100
AcDbSymbolTable
 70
     0
  0
ENDTAB
  0
TABLE
  2
UCS
  5
6
330
0
100
AcDbSymbolTable
 70
     0
  0
ENDTAB
  0
TABLE
  2
APPID
  5
8
330
0
100
AcDbSymbolTable
 70
     2
  0
APPID
  5
16
330
8
100
AcDbSymbolTableRecord
100
AcDbRegAppTableRecord
  2
ACAD
 70
     0
  0
APPID
  5
A16
330
8
100
AcDbSymbolTableRecord
100
AcDbRegAppTableRecord
  2
DCO15
 70
     0
  0
ENDTAB
  0
TABLE
  2
DIMSTYLE
  5
9
330
0
100
AcDbSymbolTable
 70
     1
100
AcDbDimStyleTable
 71
     0
  0
DIMSTYLE
105
18
330
9
100
AcDbSymbolTableRecord
100
AcDbDimStyleTableRecord
  2
STANDARD
 70
     0
289
     0
340
17
  0
ENDTAB
  0
TABLE
  2
BLOCK_RECORD
  5
1
330
0
100
AcDbSymbolTable
 70
     0
  0
BLOCK_RECORD
  5
A
330
1
100
AcDbSymbolTableRecord
100
AcDbBlockTableRecord
  2
*MODEL_SPACE
340
A10
  0
BLOCK_RECORD
  5
B
330
1
100
AcDbSymbolTableRecord
100
AcDbBlockTableRecord
  2
*PAPER_SPACE
340
A11
  0
ENDTAB
  0
ENDSEC
  0
SECTION
  2
BLOCKS
  0
BLOCK
  5
D
330
A
100
AcDbEntity
  8
0
100
AcDbBlockBegin
  2
*MODEL_SPACE
 70
     0
 10
0.0
 20
0.0
 30
0.0
  3
*MODEL_SPACE
  1

  0
ENDBLK
  5
E
330
A
100
AcDbEntity
  8
0
100
AcDbBlockEnd
  0
BLOCK
  5
F
330
B
100
AcDbEntity
 67
     1
  8
0
100
AcDbBlockBegin
  2
*PAPER_SPACE
 70
     0
 10
0.0
 20
0.0
 30
0.0
  3
*PAPER_SPACE
  1

  0
ENDBLK
  5
10
330
B
100
AcDbEntity
 67
     1
  8
0
100
AcDbBlockEnd
  0
ENDSEC
  0
SECTION
  2
ENTITIES
  0
LWPOLYLINE
  5
27
330
A
100
AcDbEntity
  8
0
  6
Continuous
 62
     7
100
AcDbPolyline
 90
        7
 70
   128
 43
0.0
 10
37.66696760634737
 20
28.45215330613285
 10
39.47978186207095
 20
116.3140534646921
 10
39.93395319434482
 20
137.7734416950226
 10
40.09450037318202
 20
145.2864517752536
 10
40.31779201385145
 20
155.664392191514
 10
40.7455613394342
 20
175.2872464125623
 10
42.27334830458569
 20
241.1782787087724
  0
LWPOLYLINE
  5
30
330
A
100
AcDbEntity
  8
0
  6
Continuous
 62
     7
100
AcDbPolyline
 90
        9
 70
   128
 43
0.0
 10
35.2459782344008
 20
248.4517488687366
 10
36.63801347802387
 20
248.2987019168521
 10
37.972871151786
 20
247.8750708213418
 10
39.19853134697083
 20
247.1973646463188
 10
40.2672296219274
 20
246.291993857898
 10
41.13731840043745
 20
245.194241098337
 10
41.77488999352194
 20
243.9468862081145
 10
42.15509799491278
 20
242.5985390793575
 10
42.26312555490805
 20
241.2017453099484
  0
LWPOLYLINE
  5
3B
330
A
100
AcDbEntity
  8
0
  6
Continuous
 62
     7
100
AcDbPolyline
 90
       40
 70
   128
 43
0.0
 10
-187.608439165994
 20
241.6253377430297
 10
-187.8454605295282
 20
235.4008170885391
 10
-188.1263793125199
 20
228.1924330791572
 10
-188.3746793296601
 20
221.9629509758158
 10
-188.588480730587
 20
216.7123707785149
 10
-188.7657861883482
 20
212.4406924872545
 10
-188.9274035235166
 20
208.6143944894209
 10
-189.0992980660582
 20
204.6185862232086
 10
-189.3538235439439
 20
198.8463285234884
 10
-189.6314409475577
 20
192.7521513847722
 10
-189.9122428502212
 20
186.805406258019
 10
-190.1643492921138
 20
181.6581331090615
 10
-190.362655567039
 20
177.7415109656558
 10
-190.5620037585343
 20
173.9223470753509
 10
-190.8075333246629
 20
169.3773988409791
 10
-191.1056275780847
 20
164.0981855438757
 10
-191.4584095023069
 20
158.1996843926354
 10
-191.8252126205526
 20
152.4693656825057
 10
-192.1975907340074
 20
147.0562084016997
 10
-192.5749228890469
 20
141.9602125502173
 10
-193.0493322392855
 20
136.0599440748558
 10
-193.4808334266059
 20
131.1372673614943
 10
-193.9220987339725
 20
126.4979974093611
 10
-194.5307702597887
 20
120.6712633790881
 10
-195.3624383241342
 20
113.5898352143913
 10
-196.3276147706352
 20
106.3165014753355
 10
-197.4212371025344
 20
98.9034390501631
 10
-197.9997757191248
 20
95.22509348393224
 10
-198.4615326145825
 20
92.37278137918078
 10
-198.7955122400208
 20
90.34650273590886
 10
-198.9966242048127
 20
89.1389485702729
 10
-199.308101865031
 20
87.28529333937997
 10
-199.7479569145802
 20
84.69897287713576
 10
-200.3207449546079
 20
81.37998718354042
 10
-201.3003790739534
 20
75.81497145442226
 10
-202.5391611011118
 20
68.94743975845755
 10
-204.0504287341999
 20
60.77739209564612
 10
-205.8456245079961
 20
51.30482846598802
 10
-207.932118105769
 20
40.52974886948327
 10
-210.313156938438
 20
28.45215330613202
  0
LWPOLYLINE
  5
65
330
A
100
AcDbEntity
  8
0
  6
Continuous
 62
     7
100
AcDbPolyline
 90
        9
 70
   128
 43
0.0
 10
-187.4793171218758
 20
241.6492527150882
 10
-187.2946658994625
 20
243.0010954307032
 10
-186.8584163720925
 20
244.2920755014726
 10
-186.1867020653783
 20
245.4744494715744
 10
-185.3043645419854
 20
246.504490392247
 10
-184.2440347026704
 20
247.3441049464018
 10
-183.04492601942
 20
247.9622422283885
 10
-181.7513843297421
 20
248.3360420789507
 10
-180.4232975242764
 20
248.4518102187722
  0
LWPOLYLINE
  5
70
330
A
100
AcDbEntity
  8
0
  6
Continuous
 62
     7
100
AcDbPolyline
 90
       26
 70
   128
 43
0.0
 10
269.7591495872298
 20
28.45215330613202
 10
269.4386191343538
 20
46.78859712512814
 10
269.1374910470006
 20
64.09508712812781
 10
268.8591986954996
 20
80.37162331513094
 10
268.6070963464652
 20
95.61820568613741
 10
268.3835441342929
 20
109.8348342411473
 10
268.1926633983633
 20
122.7950644471744
 10
268.0296100760059
 20
134.7617964729113
 10
267.8924630790219
 20
145.7350303183583
 10
267.7779210261176
 20
155.7231716592261
 10
267.667629709232
 20
165.9853344538165
 10
267.5756290819506
 20
175.1180045089319
 10
267.5002938390055
 20
183.1211818245722
 10
267.4400346012255
 20
189.9948664007375
 10
267.4226455573016
 20
192.0815108313009
 10
267.4059323057687
 20
194.1380437138121
 10
267.3898690409402
 20
196.1644738018054
 10
267.3744294286652
 20
198.1608010952807
 10
267.3589300783369
 20
200.2145353220285
 10
267.3373896580117
 20
203.151073213684
 10
267.3090892240085
 20
207.1741731263083
 10
267.2751963906575
 20
212.2838350599014
 10
267.2372293012807
 20
218.4800590144633
 10
267.1970931402931
 20
225.7628449899939
 10
267.1571258634387
 20
234.1321929864935
 10
267.1287052207049
 20
241.4010867530854
  0
LWPOLYLINE
  5
8C
330
A
100
AcDbEntity
  8
0
  6
Continuous
 62
     7
100
AcDbPolyline
 90
        9
 70
   128
 43
0.0
 10
260.1514489806181
 20
248.4521473031802
 10
261.5345965283183
 20
248.3160961680482
 10
262.8650375025084
 20
247.912943019615
 10
264.0913584947306
 20
247.2581579306592
 10
265.1665022041163
 20
246.3768668014392
 10
266.0492124168918
 20
245.3028871903953
 10
266.705617120488
 20
244.0774306416537
 10
267.1105282655889
 20
242.7475212850154
 10
267.2484083006883
 20
241.3641913910856
  0
LINE
  5
97
330
A
100
AcDbEntity
  8
0
  6
Continuous
 62
     7
100
AcDbLine
 10
-18.7958206525738
 20
251.4650632301585
 30
0.0
 11
-18.7958206525738
 21
261.4650632301585
 31
0.0
  0
LINE
  5
98
330
A
100
AcDbEntity
  8
0
  6
Continuous
 62
     7
100
AcDbLine
 10
-78.79582065257382
 20
261.4650632301585
 30
0.0
 11
-78.79582065257382
 21
251.4650632301585
 31
0.0
  0
LINE
  5
99
330
A
100
AcDbEntity
  8
0
  6
Continuous
 62
     7
100
AcDbLine
 10
182.1220730254159
 20
251.4650632301585
 30
0.0
 11
182.1220730254159
 21
261.4650632301585
 31
0.0
  0
LINE
  5
9A
330
A
100
AcDbEntity
  8
0
  6
Continuous
 62
     7
100
AcDbLine
 10
122.122073025416
 20
261.4650632301585
 30
0.0
 11
122.122073025416
 21
251.4650632301585
 31
0.0
  0
LINE
  5
9B
330
A
100
AcDbEntity
  8
0
  6
Continuous
 62
     7
100
AcDbLine
 10
131.1220730254159
 20
251.4650632301585
 30
0.0
 11
131.1220730254159
 21
248.4521473061319
 31
0.0
  0
LINE
  5
9C
330
A
100
AcDbEntity
  8
0
  6
Continuous
 62
     7
100
AcDbLine
 10
173.1220730254159
 20
248.452147306132
 30
0.0
 11
173.1220730254159
 21
251.4650632301585
 31
0.0
  0
LINE
  5
9D
330
A
100
AcDbEntity
  8
0
  6
Continuous
 62
     7
100
AcDbLine
 10
-69.79582065257381
 20
251.4650632301585
 30
0.0
 11
-69.79582065257381
 21
248.4521473061322
 31
0.0
  0
LINE
  5
9E
330
A
100
AcDbEntity
  8
0
  6
Continuous
 62
     7
100
AcDbLine
 10
-27.79582065257383
 20
248.4521473061324
 30
0.0
 11
-27.79582065257383
 21
251.4650632301585
 31
0.0
  0
LINE
  5
9F
330
A
100
AcDbEntity
  8
0
  6
Continuous
 62
     7
100
AcDbLine
 10
121.663126186421
 20
270.9124592140427
 30
0.0
 11
120.6268847846877
 21
271.4650632301585
 31
0.0
  0
LINE
  5
A0
330
A
100
AcDbEntity
  8
0
  6
Continuous
 62
     7
100
AcDbLine
 10
-17.30063241184552
 20
271.4650632301585
 30
0.0
 11
-18.33687381357893
 21
270.9124592140427
 31
0.0
  0
LINE
  5
A1
330
A
100
AcDbEntity
  8
0
  6
Continuous
 62
     7
100
AcDbLine
 10
116.663126186421
 20
271.4650632301585
 30
0.0
 11
116.663126186421
 21
296.4650632301585
 31
0.0
  0
LINE
  5
A2
330
A
100
AcDbEntity
  8
0
  6
Continuous
 62
     7
100
AcDbLine
 10
-13.33687381357892
 20
296.4650632301585
 30
0.0
 11
-13.33687381357892
 21
271.4650632301585
 31
0.0
  0
LINE
  5
A3
330
A
100
AcDbEntity
  8
0
  6
Continuous
 62
     7
100
AcDbLine
 10
121.663126186421
 20
268.1774579890484
 30
0.0
 11
121.663126186421
 21
270.9124592140427
 31
0.0
  0
LINE
  5
A4
330
A
100
AcDbEntity
  8
0
  6
Continuous
 62
     7
100
AcDbLine
 10
-18.33687381357893
 20
270.9124592140427
 30
0.0
 11
-18.33687381357893
 21
268.1774579890484
 31
0.0
  0
LINE
  5
A5
330
A
100
AcDbEntity
  8
0
  6
Continuous
 62
     7
100
AcDbLine
 10
30.66312618642107
 20
251.4650632301585
 30
0.0
 11
30.66312618642107
 21
248.4521473061326
 31
0.0
  0
LINE
  5
A6
330
A
100
AcDbEntity
  8
0
  6
Continuous
 62
     7
100
AcDbLine
 10
72.66312618642107
 20
248.4521473061323
 30
0.0
 11
72.66312618642107
 21
251.4650632301585
 31
0.0
  0
LINE
  5
A7
330
A
100
AcDbEntity
  8
0
  6
Continuous
 62
     7
100
AcDbLine
 10
-70.13767631877252
 20
28.45215330613213
 30
0.0
 11
-68.80858486327688
 21
240.7925593197643
 31
0.0
  0
LINE
  5
A8
330
A
100
AcDbEntity
  8
0
  6
Continuous
 62
     7
100
AcDbLine
 10
-68.80861117627549
 20
240.7936073349161
 30
0.0
 11
-68.80858486327693
 21
240.7925593197643
 31
0.0
  0
LINE
  5
A9
330
A
100
AcDbEntity
  8
0
  6
Continuous
 62
     7
100
AcDbLine
 10
42.23014687478681
 20
241.1791814430237
 30
0.0
 11
42.21427516514068
 21
241.1956614995299
 31
0.0
  0
LINE
  5
AA
330
A
100
AcDbEntity
  8
0
  6
Continuous
 62
     7
100
AcDbLine
 10
-70.13767631877168
 20
28.4521533061323
 30
0.0
 11
37.66514509843343
 21
28.4521533061328
 31
0.0
  0
LWPOLYLINE
  5
AB
330
A
100
AcDbEntity
  8
0
  6
Continuous
 62
     7
100
AcDbPolyline
 90
        7
 70
   128
 43
0.0
 10
-68.80861117627549
 20
240.7936073349161
 10
-68.65718603203754
 20
243.1669747599716
 10
-67.95541067097879
 20
245.3360978623559
 10
-66.78240486712187
 20
247.0564248137131
 10
-65.27041570874279
 20
248.134002035025
 10
-64.02288718852926
 20
248.4436363678174
 10
-63.77569927353333
 20
248.4521473061322
  0
LINE
  5
B4
330
A
100
AcDbEntity
  8
0
  6
Continuous
 62
     7
100
AcDbLine
 10
-63.7756992735333
 20
248.4521473061322
 30
0.0
 11
35.08039757348913
 21
248.4521473061326
 31
0.0
  0
LWPOLYLINE
  5
B5
330
A
100
AcDbEntity
  8
0
  6
Continuous
 62
     7
100
AcDbPolyline
 90
        3
 70
   128
 43
0.0
 10
-187.4003950114529
 20
241.6328939553445
 10
-187.5814200126787
 20
241.6304151386754
 10
-187.535479763383
 20
241.6226027401525
  0
LINE
  5
BA
330
A
100
AcDbEntity
  8
0
  6
Continuous
 62
     7
100
AcDbLine
 10
-70.13767631877168
 20
28.4521533061323
 30
0.0
 11
-210.2452149973235
 21
28.45215330613174
 31
0.0
  0
LINE
  5
BB
330
A
100
AcDbEntity
  8
0
  6
Continuous
 62
     7
100
AcDbLine
 10
-180.4706273040289
 20
248.4521473061318
 30
0.0
 11
-63.77569927353324
 21
248.4521473061322
 31
0.0
  0
LINE
  5
BC
330
A
100
AcDbEntity
  8
0
  6
Continuous
 62
     7
100
AcDbLine
 10
91.74176077032306
 20
240.7616219945809
 30
0.0
 11
113.6973102865111
 21
28.45215330613224
 31
0.0
  0
LINE
  5
BD
330
A
100
AcDbEntity
  8
0
  6
Continuous
 62
     7
100
AcDbLine
 10
208.6139829924313
 20
242.3049860077519
 30
0.0
 11
208.6139566851429
 21
242.3051884054563
 31
0.0
  0
LINE
  5
BE
330
A
100
AcDbEntity
  8
0
  6
Continuous
 62
     7
100
AcDbLine
 10
208.6139829924314
 20
242.3049860077518
 30
0.0
 11
236.4101882392035
 21
28.45215330613196
 31
0.0
  0
LINE
  5
BF
330
A
100
AcDbEntity
  8
0
  6
Continuous
 62
     7
100
AcDbLine
 10
236.4101882392037
 20
28.45215330613174
 30
0.0
 11
113.6973102865148
 21
28.45215330613218
 31
0.0
  0
LWPOLYLINE
  5
C0
330
A
100
AcDbEntity
  8
0
  6
Continuous
 62
     7
100
AcDbPolyline
 90
        7
 70
   128
 43
0.0
 10
92.95300505857744
 20
248.4521473061322
 10
92.89585644014991
 20
248.4442997969679
 10
92.588073025822
 20
248.124777720609
 10
92.22484893213991
 20
247.0379450355011
 10
91.94371894350997
 20
245.3104461796335
 10
91.77637821941475
 20
243.1370432647646
 10
91.7416419924578
 20
240.7627705727768
  0
LWPOLYLINE
  5
C9
330
A
100
AcDbEntity
  8
0
  6
Continuous
 62
     7
100
AcDbPolyline
 90
        5
 70
   128
 43
0.0
 10
211.3098169491141
 20
248.4521473061319
 10
210.3823134740378
 20
248.0269123806055
 10
209.5296572436383
 20
246.7216430884405
 10
208.918383772994
 20
244.7380002551667
 10
208.6139566851429
 20
242.3051884054562
  0
LINE
  5
D0
330
A
100
AcDbEntity
  8
0
  6
Continuous
 62
     7
100
AcDbLine
 10
91.74176077032296
 20
240.7616219945809
 30
0.0
 11
91.74164199245772
 21
240.7627705727768
 31
0.0
  0
LINE
  5
D1
330
A
100
AcDbEntity
  8
0
  6
Continuous
 62
     7
100
AcDbLine
 10
92.95300505857744
 20
248.4521473061322
 30
0.0
 11
211.3098169491159
 21
248.452147306132
 31
0.0
  0
LWPOLYLINE
  5
D2
330
A
100
AcDbEntity
  8
0
  6
Continuous
 62
     7
100
AcDbPolyline
 90
        3
 70
   128
 43
0.0
 10
267.1895176480205
 20
241.3566013982429
 10
267.1892343406925
 20
241.3887857458107
 10
267.0956242071703
 20
241.4008166344473
  0
LINE
  5
D7
330
A
100
AcDbEntity
  8
0
  6
Continuous
 62
     7
100
AcDbLine
 10
236.4101882392038
 20
28.45215330613168
 30
0.0
 11
269.6719941001961
 21
28.45215330613213
 31
0.0
  0
LINE
  5
D8
330
A
100
AcDbEntity
  8
0
  6
Continuous
 62
     7
100
AcDbLine
 10
252.4852569438109
 20
240.7936073349161
 30
0.0
 11
252.4851642553935
 21
240.7925593197643
 31
0.0
  0
LWPOLYLINE
  5
D9
330
A
100
AcDbEntity
  8
0
  6
Continuous
 62
     7
100
AcDbPolyline
 90
        7
 70
   128
 43
0.0
 10
252.4852569438109
 20
240.7936073349161
 10
252.2799995838735
 20
243.1669747599716
 10
251.3287404088888
 20
245.3360978623559
 10
249.7387265762927
 20
247.0564248137131
 10
247.6892195209283
 20
248.134002035025
 10
245.998189870527
 20
248.4436363678174
 10
245.6631257127601
 20
248.4521473061322
  0
LINE
  5
E2
330
A
100
AcDbEntity
  8
0
  6
Continuous
 62
     7
100
AcDbLine
 10
211.3098169491159
 20
248.452147306132
 30
0.0
 11
260.1004672941209
 21
248.452147306132
 31
0.0
  0
LINE
  5
E3
330
A
100
AcDbEntity
  8
0
  6
Continuous
 62
     7
100
AcDbLine
 10
113.6973102865148
 20
28.45215330613218
 30
0.0
 11
37.92897043753488
 21
28.45215330613302
 31
0.0
  0
LINE
  5
E4
330
A
100
AcDbEntity
  8
0
  6
Continuous
 62
     7
100
AcDbLine
 10
35.43040757348911
 20
248.4521473061325
 30
0.0
 11
92.95300505857735
 21
248.4521473061322
 31
0.0
  0
LINE
  5
E5
330
A
100
AcDbEntity
  8
0
  6
Continuous
 62
     7
100
AcDbLine
 10
-18.7958206525738
 20
261.4650632301585
 30
0.0
 11
-78.79582065257382
 21
261.4650632301585
 31
0.0
  0
LINE
  5
E6
330
A
100
AcDbEntity
  8
0
  6
Continuous
 62
     7
100
AcDbLine
 10
-78.79582065257382
 20
251.4650632301585
 30
0.0
 11
-18.7958206525738
 21
251.4650632301585
 31
0.0
  0
LINE
  5
E7
330
A
100
AcDbEntity
  8
0
  6
Continuous
 62
     7
100
AcDbLine
 10
182.1220730254159
 20
261.4650632301585
 30
0.0
 11
122.122073025416
 21
261.4650632301585
 31
0.0
  0
LINE
  5
E8
330
A
100
AcDbEntity
  8
0
  6
Continuous
 62
     7
100
AcDbLine
 10
122.122073025416
 20
251.4650632301585
 30
0.0
 11
182.1220730254159
 21
251.4650632301585
 31
0.0
  0
LINE
  5
E9
330
A
100
AcDbEntity
  8
0
  6
Continuous
 62
     7
100
AcDbLine
 10
121.663126186421
 20
270.9124592140427
 30
0.0
 11
117.3874930729775
 21
270.9124592140427
 31
0.0
  0
LINE
  5
EA
330
A
100
AcDbEntity
  8
0
  6
Continuous
 62
     7
100
AcDbLine
 10
117.3874930729775
 20
270.9124592140427
 30
0.0
 11
132.1566268983537
 21
261.4650632301585
 31
0.0
  0
LINE
  5
EB
330
A
100
AcDbEntity
  8
0
  6
Continuous
 62
     7
100
AcDbLine
 10
122.0948738141315
 20
261.4650632301585
 30
0.0
 11
105.3874930729775
 21
270.9124592140427
 31
0.0
  0
LINE
  5
EC
330
A
100
AcDbEntity
  8
0
  6
Continuous
 62
     7
100
AcDbLine
 10
105.3874930729775
 20
270.9124592140427
 30
0.0
 11
-2.061240700135385
 21
270.9124592140427
 31
0.0
  0
LINE
  5
ED
330
A
100
AcDbEntity
  8
0
  6
Continuous
 62
     7
100
AcDbLine
 10
-2.061240700135385
 20
270.9124592140427
 30
0.0
 11
-18.76862144128942
 21
261.4650632301585
 31
0.0
  0
LINE
  5
EE
330
A
100
AcDbEntity
  8
0
  6
Continuous
 62
     7
100
AcDbLine
 10
-28.83037452551159
 20
261.4650632301585
 30
0.0
 11
-14.06124070013538
 21
270.9124592140427
 31
0.0
  0
LINE
  5
EF
330
A
100
AcDbEntity
  8
0
  6
Continuous
 62
     7
100
AcDbLine
 10
-14.06124070013538
 20
270.9124592140427
 30
0.0
 11
-18.33687381357893
 21
270.9124592140427
 31
0.0
  0
LINE
  5
F0
330
A
100
AcDbEntity
  8
0
  6
Continuous
 62
     7
100
AcDbLine
 10
120.6268847846877
 20
271.4650632301585
 30
0.0
 11
-17.30063241184552
 21
271.4650632301585
 31
0.0
  0
LINE
  5
F1
330
A
100
AcDbEntity
  8
0
  6
Continuous
 62
     7
100
AcDbLine
 10
-2.061240700135385
 20
270.9124592140427
 30
0.0
 11
-2.061240700135385
 21
251.4650632301585
 31
0.0
  0
LINE
  5
F2
330
A
100
AcDbEntity
  8
0
  6
Continuous
 62
     7
100
AcDbLine
 10
105.3874930729775
 20
270.9124592140427
 30
0.0
 11
105.3874930729775
 21
251.4650632301585
 31
0.0
  0
LINE
  5
F3
330
A
100
AcDbEntity
  8
0
  6
Continuous
 62
     7
100
AcDbLine
 10
-2.061240700135385
 20
251.4650632301585
 30
0.0
 11
105.3874930729775
 21
251.4650632301585
 31
0.0
  0
LINE
  5
F4
330
A
100
AcDbEntity
  8
0
  6
Continuous
 62
     7
100
AcDbLine
 10
51.66312618642107
 20
296.4650632301585
 30
0.0
 11
116.663126186421
 21
296.4650632301585
 31
0.0
  0
LINE
  5
F5
330
A
100
AcDbEntity
  8
0
  6
Continuous
 62
     7
100
AcDbLine
 10
-13.33687381357892
 20
296.4650632301585
 30
0.0
 11
51.66312618642107
 21
296.4650632301585
 31
0.0
  0
LINE
  5
F6
330
A
100
AcDbEntity
  8
0
  6
Continuous
 62
     7
100
AcDbLine
 10
122.122073025416
 20
261.4650632301585
 30
0.0
 11
122.0948738141315
 21
261.4650632301585
 31
0.0
  0
LINE
  5
F7
330
A
100
AcDbEntity
  8
0
  6
Continuous
 62
     7
100
AcDbLine
 10
105.3874930729775
 20
251.4650632301585
 30
0.0
 11
122.122073025416
 21
251.4650632301585
 31
0.0
  0
LINE
  5
F8
330
A
100
AcDbEntity
  8
0
  6
Continuous
 62
     7
100
AcDbLine
 10
-18.76862144128942
 20
261.4650632301585
 30
0.0
 11
-18.7958206525738
 21
261.4650632301585
 31
0.0
  0
LINE
  5
F9
330
A
100
AcDbEntity
  8
0
  6
Continuous
 62
     7
100
AcDbLine
 10
-18.7958206525738
 20
251.4650632301585
 30
0.0
 11
-2.061240700135385
 21
251.4650632301585
 31
0.0
  0
LINE
  5
FA
330
A
100
AcDbEntity
  8
0
  6
PHANTOM
 62
     7
100
AcDbLine
 10
-68.80857830164808
 20
240.7936076290418
 30
0.0
 11
-68.80860818360449
 21
240.7936073616911
 31
0.0
  0
LWPOLYLINE
  5
FB
330
A
100
AcDbEntity
  8
0
  6
PHANTOM
 62
     7
100
AcDbPolyline
 90
       44
 70
   128
 43
0.0
 10
42.21427516514068
 20
241.1956614995299
 10
42.17502338440018
 20
241.236417762024
 10
41.69545771128411
 20
241.3074683215354
 10
40.23021103301963
 20
241.408000372218
 10
38.99904942552393
 20
241.4824502338311
 10
37.47636092883413
 20
241.5652611528272
 10
34.0684617816007
 20
241.6992263358128
 10
30.37415919883907
 20
241.7952103294846
 10
25.9270095629347
 20
241.868083802717
 10
21.72475084126141
 20
241.9039677365328
 10
17.98623354720518
 20
241.9077427846278
 10
15.68008141924538
 20
241.8843504532233
 10
13.82977264099633
 20
241.8202084374076
 10
12.54373278923662
 20
241.7239937351249
 10
11.77068439113954
 20
241.6270118029526
 10
11.36455613678344
 20
241.545584239666
 10
11.0350449940958
 20
241.4372833733247
 10
10.67669909892883
 20
241.4010083477488
 10
10.07823627927806
 20
241.4236494178163
 10
8.913836760374799
 20
241.512110484432
 10
7.817079407344149
 20
241.6074053722369
 10
6.399430337512098
 20
241.7079984201722
 10
4.523045228086497
 20
241.7874729267807
 10
2.426324716177902
 20
241.8381788198782
 10
-0.8210191014116629
 20
241.8856567829729
 10
-4.241035839990872
 20
241.9183040630889
 10
-8.978452590626003
 20
241.9612779940411
 10
-13.75580282811788
 20
241.995956476833
 10
-18.54751308622167
 20
241.9969284360174
 10
-23.32800989869249
 20
241.938782796147
 10
-31.06663994106339
 20
241.6750464092182
 10
-38.70639897397788
 20
241.3191811992103
 10
-42.75326205572027
 20
241.1503774659262
 10
-46.82146262811968
 20
241.0152953972404
 10
-49.99997830838882
 20
240.9381010454037
 10
-51.88063440483944
 20
240.9136573233181
 10
-53.70691921064911
 20
240.9162669013893
 10
-55.34699652015179
 20
240.9342372497336
 10
-56.85946416007639
 20
240.9475537105192
 10
-59.74322809333296
 20
240.9436940539649
 10
-62.44588706991719
 20
240.8914289106146
 10
-68.80854839345826
 20
240.7936074663281
 10
-68.80857830164821
 20
240.7936076290418
 10
-68.80857830164821
 20
240.7936076290418
  0
LWPOLYLINE
  5
129
330
A
100
AcDbEntity
  8
0
  6
PHANTOM
 62
     7
100
AcDbPolyline
 90
       32
 70
   128
 43
0.0
 10
-68.80858486327688
 20
240.7925593197643
 10
-68.80861482663123
 20
240.7925595697742
 10
-72.66778472811965
 20
240.8896417700622
 10
-75.84986921860179
 20
241.050380650127
 10
-78.69479274630947
 20
241.1869278038903
 10
-80.82788340580696
 20
241.241425688323
 10
-83.27267630500136
 20
241.277189649973
 10
-86.11948767949535
 20
241.3080658732039
 10
-89.68639505809189
 20
241.3463620849602
 10
-93.71149689447408
 20
241.3833830539402
 10
-96.83834481101822
 20
241.4022681011017
 10
-100.1350074836936
 20
241.4059455407052
 10
-103.5142370499529
 20
241.394738836069
 10
-106.868474225073
 20
241.3767306682493
 10
-112.208546876113
 20
241.3363916231892
 10
-117.3398190994886
 20
241.2867270846308
 10
-122.3424157046491
 20
241.2323933555195
 10
-126.9448160785279
 20
241.1884040559717
 10
-129.9278099521749
 20
241.172949778362
 10
-133.0346014140768
 20
241.1808050478456
 10
-135.4182038288275
 20
241.2125046762394
 10
-137.767888140813
 20
241.2569835678935
 10
-141.8643620191122
 20
241.329854124271
 10
-146.5517787171324
 20
241.3887857458107
 10
-156.2672977960127
 20
241.4644900233007
 10
-165.6103301396972
 20
241.5194813845196
 10
-174.3162157706376
 20
241.5652428187
 10
-179.6347387506305
 20
241.593954844357
 10
-184.4037845582604
 20
241.6226046139984
 10
-185.8213278324314
 20
241.63281975241
 10
-186.9388120912378
 20
241.6392145156485
 10
-187.4003950114529
 20
241.6328939553445
  0
LWPOLYLINE
  5
14B
330
A
100
AcDbEntity
  8
0
  6
PHANTOM
 62
     7
100
AcDbPolyline
 90
       48
 70
   128
 43
0.0
 10
208.6139566851429
 20
242.3051884054562
 10
208.6139174256852
 20
242.3051895009681
 10
203.0532828490362
 20
242.4639056791952
 10
197.2845820410987
 20
242.6227770957494
 10
193.4469961245239
 20
242.7116455523776
 10
189.6250326325871
 20
242.7709162750502
 10
185.7909498477518
 20
242.7950632844381
 10
182.2084538851174
 20
242.7775614631492
 10
178.9346319225625
 20
242.7100866238561
 10
176.0834316751932
 20
242.6112155295515
 10
172.4818185122906
 20
242.4414992634576
 10
169.6006525914993
 20
242.2664452212726
 10
166.857493518596
 20
242.0566508391343
 10
164.4443101414647
 20
241.8589317481198
 10
161.8910334851809
 20
241.7024572581812
 10
160.1273025138213
 20
241.6422152121462
 10
158.0533227749499
 20
241.5922725705397
 10
155.5500597609138
 20
241.5244567206606
 10
152.7479099846481
 20
241.4230048150524
 10
149.4466760482747
 20
241.3053961984024
 10
146.1953656262122
 20
241.2150652680785
 10
142.7740896708353
 20
241.1360642356173
 10
137.5702073481062
 20
241.0214790284291
 10
132.3081259372887
 20
240.8968736393052
 10
125.4500606050361
 20
240.6871481005854
 10
121.2429517830608
 20
240.5173889572714
 10
117.2038857817406
 20
240.3198872954411
 10
115.0110104184962
 20
240.2006514866722
 10
113.0435055706062
 20
240.1031945008131
 10
111.4108794124086
 20
240.0512994741529
 10
110.0938203854172
 20
240.0367391859801
 10
108.7687068427427
 20
240.0457375145876
 10
107.8189578177442
 20
240.0676462449596
 10
107.0523245568648
 20
240.0954467950199
 10
106.545625395194
 20
240.1222331345877
 10
105.9257861558483
 20
240.172553694294
 10
105.7322661442875
 20
240.2173107955311
 10
105.5586361074367
 20
240.2604490659327
 10
105.0223804649655
 20
240.2987111824694
 10
103.7409836365438
 20
240.3288398221124
 10
102.7367578314287
 20
240.3426132054971
 10
101.2514631624573
 20
240.3733784469539
 10
100.1063280992378
 20
240.4087985114042
 10
98.71886171460083
 20
240.4685895661612
 10
97.10715922039547
 20
240.5507126623872
 10
95.33788470638272
 20
240.6350502794922
 10
91.74180271623981
 20
240.7616208398233
 10
91.74176077032306
 20
240.7616219945809
  0
LWPOLYLINE
  5
17D
330
A
100
AcDbEntity
  8
0
  6
PHANTOM
 62
     7
100
AcDbPolyline
 90
       20
 70
   128
 43
0.0
 10
267.0956242071703
 20
241.4008166344473
 10
266.6001932699868
 20
241.4644900233007
 10
265.3510686316375
 20
241.5194813845196
 10
263.1346183216134
 20
241.5652428187
 10
261.120370499751
 20
241.593954844357
 10
258.4253902341179
 20
241.6226046139984
 10
257.1973483487346
 20
241.63281975241
 10
255.6833289365918
 20
241.6392145156485
 10
253.6028954106838
 20
241.6304151386754
 10
251.3263614619735
 20
241.5964049584777
 10
250.3899744219491
 20
241.5846744097876
 10
247.4772281313364
 20
241.5659445590325
 10
244.5738149095967
 20
241.5691893538046
 10
241.0302036802662
 20
241.595164457393
 10
237.5879718608762
 20
241.6403165133087
 10
227.8658448698988
 20
241.8212917245987
 10
218.3340173867726
 20
242.044803576627
 10
208.6140222496905
 20
242.3049849155237
 10
208.6139829924314
 20
242.3049860077519
 10
208.6139829924312
 20
242.3049860077519
  0
LWPOLYLINE
  5
193
330
A
100
AcDbEntity
  8
0
  6
PHANTOM
 62
     7
100
AcDbPolyline
 90
       12
 70
   128
 43
0.0
 10
91.7416419924578
 20
240.7627705727768
 10
91.74160003442102
 20
240.7627717931354
 10
87.20276586994083
 20
240.8640009641484
 10
82.6319690587025
 20
240.9221002386696
 10
76.01319760892919
 20
240.9740288224118
 10
69.46431323772064
 20
241.0256852270427
 10
64.43966767513654
 20
241.0779029188055
 10
59.67117321398315
 20
241.1288575255926
 10
55.6841688441579
 20
241.1680844434721
 10
52.24280572016976
 20
241.2204587196662
 10
43.30323054797813
 20
241.4166843101935
 10
42.27848464345182
 20
241.3998008698014
  0
LWPOLYLINE
  5
1A1
330
A
100
AcDbEntity
  8
0
  6
Continuous
 62
     7
100
AcDbPolyline
 90
       12
 70
   128
 43
0.0
 10
-43.58485977259639
 20
-210.7623059800945
 10
-51.87552188688689
 20
-213.1291135270224
 10
-55.27053053832806
 20
-214.037518268276
 10
-57.56226675413267
 20
-214.7062477162675
 10
-59.34550819614345
 20
-215.3780862938375
 10
-60.85783749390563
 20
-216.1244745555888
 10
-62.29888135626096
 20
-217.1447873756441
 10
-63.48343646785978
 20
-218.3079592531943
 10
-64.47435713712859
 20
-219.6128712043546
 10
-65.29311754959969
 20
-221.0438276211113
 10
-65.96658519515239
 20
-222.5928262046973
 10
-66.03525974513679
 20
-222.7908532695163
  0
LWPOLYLINE
  5
1AF
330
A
100
AcDbEntity
  8
0
  6
Continuous
 62
     7
100
AcDbPolyline
 90
        7
 70
   128
 43
0.0
 10
135.8893885193201
 20
-316.2239466575851
 10
135.4997913711491
 20
-315.1437514572615
 10
133.9909306863429
 20
-311.6655197931406
 10
132.0945680117302
 20
-307.8170218833637
 10
129.7436775056509
 20
-303.2991692553502
 10
127.8854437417264
 20
-299.2301202459685
 10
127.3008997910161
 20
-297.7600288900053
  0
LWPOLYLINE
  5
1B8
330
A
100
AcDbEntity
  8
0
  6
Continuous
 62
     7
100
AcDbPolyline
 90
        5
 70
   128
 43
0.0
 10
6.585188832741062
 20
-338.3910864696486
 10
9.241199113161165
 20
-339.1446446710456
 10
12.74686384953438
 20
-340.363841039258
 10
15.84614443395478
 20
-341.712246390248
 10
16.83004668201873
 20
-342.2445954407534
  0
LWPOLYLINE
  5
1BF
330
A
100
AcDbEntity
  8
0
  6
Continuous
 62
     7
100
AcDbPolyline
 90
        5
 70
   128
 43
0.0
 10
-31.73056702486614
 20
-209.5266393223892
 10
-34.8517228524417
 20
-209.5057838477803
 10
-38.02017272367562
 20
-209.7107039068132
 10
-41.45684881277908
 20
-210.2501689061207
 10
-43.59146820612024
 20
-210.7066803056826
  0
LWPOLYLINE
  5
1C6
330
A
100
AcDbEntity
  8
0
  6
Continuous
 62
     7
100
AcDbPolyline
 90
       34
 70
   128
 43
0.0
 10
127.2166169459842
 20
-297.7976957400179
 10
126.7343452583246
 20
-296.3527261964089
 10
126.249723207713
 20
-294.276933392096
 10
126.0749480361575
 20
-292.2442788327235
 10
126.2260396123087
 20
-290.3268372262684
 10
126.6769509606178
 20
-288.529527145481
 10
127.4552599717859
 20
-286.7767190126843
 10
128.5611965306108
 20
-285.0004452345546
 10
130.0826922240834
 20
-283.0995709418001
 10
132.0410345591392
 20
-281.0992362402345
 10
134.4757906488372
 20
-278.9463343791834
 10
137.6767630051753
 20
-276.4601924272508
 10
141.4054583969264
 20
-273.8899684759954
 10
145.9285753859283
 20
-271.0453167670584
 10
151.887289112988
 20
-267.467690999099
 10
157.7211184895272
 20
-263.8602730836339
 10
161.9628253817053
 20
-260.9982462372993
 10
165.7934716655889
 20
-258.1124732721187
 10
168.5125272787551
 20
-255.8466122848106
 10
170.5830553556459
 20
-253.8915016469962
 10
172.1336909966235
 20
-252.1211985735156
 10
173.3985098912682
 20
-250.3071549707202
 10
174.3821046743093
 20
-248.4414902444048
 10
175.0912765118703
 20
-246.5165269223623
 10
175.557541889389
 20
-244.3118776778277
 10
175.6987612724421
 20
-242.2940727376526
 10
175.57990330452
 20
-240.1808427748023
 10
175.2044736310307
 20
-238.0636704678246
 10
174.5803743291512
 20
-235.9121682758383
 10
173.7067515164631
 20
-233.6810515995524
 10
172.5776141423954
 20
-231.2919699502493
 10
170.9983092485181
 20
-228.2665476890385
 10
168.8057800236751
 20
-224.5475888921745
 10
167.387840378332
 20
-222.4654917602172
  0
LWPOLYLINE
  5
1EA
330
A
100
AcDbEntity
  8
0
  6
Continuous
 62
     7
100
AcDbPolyline
 90
        3
 70
   128
 43
0.0
 10
-60.52344962765229
 20
-323.1042242272412
 10
-57.01486873831976
 20
-327.5605407419431
 10
-53.57230644147133
 20
-331.9328363374028
  0
LWPOLYLINE
  5
1EF
330
A
100
AcDbEntity
  8
0
  6
Continuous
 62
     7
100
AcDbPolyline
 90
        3
 70
   128
 43
0.0
 10
156.8875259853228
 20
-212.330359507939
 10
149.9212905477242
 20
-208.8155014615391
 10
141.8274030679521
 20
-204.7281232985755
  0
LWPOLYLINE
  5
1F4
330
A
100
AcDbEntity
  8
0
  6
Continuous
 62
     7
100
AcDbPolyline
 90
        3
 70
   128
 43
0.0
 10
25.55602591449523
 20
-152.6042768564536
 10
21.31104021516213
 20
-155.9586660878428
 10
16.57296158008689
 20
-159.0087819111726
  0
LWPOLYLINE
  5
1F9
330
A
100
AcDbEntity
  8
0
  6
Continuous
 62
     7
100
AcDbPolyline
 90
        6
 70
   128
 43
0.0
 10
5.492941265153941
 20
-191.7869296862221
 10
5.436943447597986
 20
-192.0146764154872
 10
5.358745086354726
 20
-192.2752191654278
 10
5.272604817095752
 20
-192.5332409507758
 10
5.181533769516133
 20
-192.7927611536578
 10
5.126460725778186
 20
-192.9473276309326
  0
LWPOLYLINE
  5
201
330
A
100
AcDbEntity
  8
0
  6
Continuous
 62
     7
100
AcDbPolyline
 90
        4
 70
   128
 43
0.0
 10
-3.660720757225926
 20
-205.4728271341728
 10
-3.762485904304835
 20
-205.5448763772098
 10
-5.290012967478274
 20
-206.4453975445024
 10
-6.606747112400307
 20
-207.0911366897404
  0
LWPOLYLINE
  5
207
330
A
100
AcDbEntity
  8
0
  6
Continuous
 62
     7
100
AcDbPolyline
 90
        7
 70
   128
 43
0.0
 10
127.0569817282078
 20
-361.7738048379882
 10
128.1834392745512
 20
-359.576298926053
 10
129.5439192143473
 20
-357.4642066730059
 10
131.0272962029187
 20
-355.5195496978215
 10
132.5829313690975
 20
-353.7141086827249
 10
134.1660959725226
 20
-352.0249826504133
 10
135.7398206927088
 20
-350.4358280047199
  0
LWPOLYLINE
  5
210
330
A
100
AcDbEntity
  8
0
  6
Continuous
 62
     7
100
AcDbPolyline
 90
        7
 70
   128
 43
0.0
 10
-67.23148218873109
 20
-360.3374840697695
 10
-67.97216009917187
 20
-361.2149826974893
 10
-70.22996673814488
 20
-364.2608102133635
 10
-72.61468235711658
 20
-367.8273574192551
 10
-75.35181225049098
 20
-372.1222146330423
 10
-77.9465951798971
 20
-375.7660167834617
 10
-78.92745966469
 20
-377.0072923723869
  0
LWPOLYLINE
  5
219
330
A
100
AcDbEntity
  8
0
  6
Continuous
 62
     7
100
AcDbPolyline
 90
       12
 70
   128
 43
0.0
 10
-68.82681799426501
 20
-568.4975627544302
 10
-62.63177147561152
 20
-574.4940829861351
 10
-60.14756556704706
 20
-576.9800443537243
 10
-58.42256076892541
 20
-578.6303814113881
 10
-56.94911077250194
 20
-579.8387945124657
 10
-55.5465549278577
 20
-580.7753159723395
 10
-53.94241617470519
 20
-581.5131401550792
 10
-52.34280222397969
 20
-581.9574090351314
 10
-50.71725498993853
 20
-582.163115532273
 10
-49.0686301750833
 20
-582.1567046407076
 10
-47.39042422849543
 20
-581.9654454385903
 10
-47.18459048473302
 20
-581.9259058110607
  0
LWPOLYLINE
  5
227
330
A
100
AcDbEntity
  8
0
  6
Continuous
 62
     7
100
AcDbPolyline
 90
        5
 70
   128
 43
0.0
 10
-75.8240830843124
 20
-558.8492774198508
 10
-74.2815665413439
 20
-561.5627053930056
 10
-72.51987562885942
 20
-564.2042034425953
 10
-70.33434719045486
 20
-566.9107197406836
 10
-68.87168702464649
 20
-568.531098662947
  0
LWPOLYLINE
  5
22E
330
A
100
AcDbEntity
  8
0
  6
Continuous
 62
     7
100
AcDbPolyline
 90
       34
 70
   128
 43
0.0
 10
-78.85269779318257
 20
-377.0614500322815
 10
-79.86294228181309
 20
-378.2015943371252
 10
-81.41832055803504
 20
-379.6591857463454
 10
-83.09126345779214
 20
-380.8268727645496
 10
-84.82736238733115
 20
-381.6547444245323
 10
-86.60933424992546
 20
-382.1628987824357
 10
-88.51646512647148
 20
-382.365267473168
 10
-90.60773162182034
 20
-382.2956352073166
 10
-93.01468489548282
 20
-381.928418431398
 10
-95.72619673063815
 20
-381.2326115707159
 10
-98.80804247901217
 20
-380.2005018755442
 10
-102.561590744969
 20
-378.67144947411
 10
-106.6518176760469
 20
-376.7274165175074
 10
-111.3769168154062
 20
-374.2326081552111
 10
-117.4545884792227
 20
-370.8610235776781
 10
-123.4956187243522
 20
-367.6124880939838
 10
-128.0950601256801
 20
-365.3700755931174
 10
-132.5095359650226
 20
-363.4955250809521
 10
-135.8313569480586
 20
-362.2736843393014
 10
-138.5597964660604
 20
-361.4581097443724
 10
-140.8682417205812
 20
-361.0003714240126
 10
-143.071659011497
 20
-360.8120279314614
 10
-145.1791694509513
 20
-360.8930422254756
 10
-147.2008225079738
 20
-361.2413630595205
 10
-149.3432374489343
 20
-361.9398900199516
 10
-151.1613174785343
 20
-362.8264929168084
 10
-152.93199932644
 20
-363.9860419178962
 10
-154.5778094917269
 20
-365.3697597059613
 10
-156.1290153953452
 20
-366.9859966518663
 10
-157.6244077094718
 20
-368.8581345391227
 10
-159.1288444224497
 20
-371.0305370140793
 10
-160.9592845108946
 20
-373.9109663031036
 10
-163.0837326921849
 20
-377.6692317087895
 10
-164.177911878935
 20
-379.9382520286684
  0
LWPOLYLINE
  5
252
330
A
100
AcDbEntity
  8
0
  6
Continuous
 62
     7
100
AcDbPolyline
 90
        3
 70
   128
 43
0.0
 10
36.93343204516697
 20
-526.995852749619
 10
39.03842490953627
 20
-521.7291743108741
 10
41.10366281963464
 20
-516.5616801099636
  0
LWPOLYLINE
  5
257
330
A
100
AcDbEntity
  8
0
  6
Continuous
 62
     7
100
AcDbPolyline
 90
        3
 70
   128
 43
0.0
 10
-167.7050366836183
 20
-394.0993571668768
 10
-167.2658753236971
 20
-401.8897230477799
 10
-166.7587049078109
 20
-410.9429243021166
  0
LWPOLYLINE
  5
25C
330
A
100
AcDbEntity
  8
0
  6
Continuous
 62
     7
100
AcDbPolyline
 90
        3
 70
   128
 43
0.0
 10
-153.7635914929185
 20
-537.6988138710727
 10
-148.7361123546883
 20
-539.6978847097028
 10
-143.7255952496625
 20
-542.2761232611419
  0
LWPOLYLINE
  5
261
330
A
100
AcDbEntity
  8
0
  6
Continuous
 62
     7
100
AcDbPolyline
 90
        7
 70
   128
 43
0.0
 10
-23.36794447016752
 20
-345.2116436372291
 10
-25.83426918804152
 20
-345.3348557417785
 10
-28.34363470421456
 20
-345.2126916790993
 10
-30.76944554065641
 20
-344.9003780111993
 10
-33.11082090785367
 20
-344.4558789458161
 10
-35.36522926374167
 20
-343.9293811970332
 10
-37.52833991754723
 20
-343.3610729336351
  0
LWPOLYLINE
  5
26A
330
A
100
AcDbEntity
  8
0
  6
Continuous
 62
     7
100
AcDbPolyline
 90
       12
 70
   128
 43
0.0
 10
252.5120373981841
 20
-410.4320329944057
 10
254.6076529938209
 20
-402.068705215773
 10
255.5184557366978
 20
-398.6743391069302
 10
256.0851871543806
 20
-396.3552726012748
 10
256.394978599968
 20
-394.4750209226273
 10
256.5047520530859
 20
-392.7921112010021
 10
256.3416571622887
 20
-391.0339741982071
 10
255.926598323162
 20
-389.4265334406047
 10
255.2919717583896
 20
-387.9159149923027
 10
254.4621073560055
 20
-386.4913694671114
 10
253.4573690549703
 20
-385.1336300856429
 10
253.3202098611923
 20
-384.9751426483534
  0
LWPOLYLINE
  5
278
330
A
100
AcDbEntity
  8
0
  6
Continuous
 62
     7
100
AcDbPolyline
 90
        7
 70
   128
 43
0.0
 10
71.44245330073362
 20
-513.1304710015776
 10
72.57272835934542
 20
-513.3331675741815
 10
76.3393956831246
 20
-513.7655717224281
 10
80.62047397670902
 20
-514.0475224263131
 10
85.7084943761628
 20
-514.2705178405398
 10
90.16151106949342
 20
-514.6957646995019
 10
91.72691950499654
 20
-514.9245804665398
  0
LWPOLYLINE
  5
281
330
A
100
AcDbEntity
  8
0
  6
Continuous
 62
     7
100
AcDbPolyline
 90
        5
 70
   128
 43
0.0
 10
247.6550097405012
 20
-421.3159849866904
 10
249.2336490251083
 20
-418.6234124881446
 10
250.6404079838577
 20
-415.776994379522
 10
251.8915556345566
 20
-412.5310130821261
 10
252.5635148620894
 20
-410.4541227603007
  0
LWPOLYLINE
  5
288
330
A
100
AcDbEntity
  8
0
  6
Continuous
 62
     7
100
AcDbPolyline
 90
       34
 70
   128
 43
0.0
 10
91.73644047852105
 20
-514.8327559566326
 10
93.22895665481114
 20
-515.1375811953981
 10
95.26895698164478
 20
-515.7557825904906
 10
97.11667505295743
 20
-516.620750131659
 10
98.70168240634518
 20
-517.7103200781314
 10
100.0327429206304
 20
-518.9994758010154
 10
101.1615647860083
 20
-520.5499152430796
 10
102.1468947225323
 20
-522.3958212870607
 10
103.0323523027222
 20
-524.6639123557339
 10
103.7855218028217
 20
-527.3600539179816
 10
104.4326114614978
 20
-530.5450654742045
 10
104.9851873711166
 20
-534.5602598275712
 10
105.3467189104435
 20
-539.0745167354293
 10
105.5487010608008
 20
-544.4139768066626
 10
105.6676589975577
 20
-551.363187152155
 10
105.8748598661481
 20
-558.2191405513143
 10
106.2325943752979
 20
-563.3235798985153
 10
106.8164239307569
 20
-568.0839033758615
 10
107.4191893006267
 20
-571.57160510482
 10
108.0771007417377
 20
-574.3422903375637
 10
108.8349103552809
 20
-576.5703317314041
 10
109.7735087515521
 20
-578.5727188267506
 10
110.8974244079652
 20
-580.3573692590517
 10
112.2099056274268
 20
-581.9340117470493
 10
113.8860551908686
 20
-583.4401340311528
 10
115.5629158374155
 20
-584.5713360744713
 10
117.4524556532433
 20
-585.5250170362336
 10
119.4736954920195
 20
-586.2584715551463
 10
121.6490006975174
 20
-586.7937368012277
 10
124.018015824332
 20
-587.152715590257
 10
126.6515899113776
 20
-587.3693947646034
 10
130.0613348936998
 20
-587.5143877367901
 10
134.3783122998331
 20
-587.4750811279682
 10
136.8904311319265
 20
-587.2881579400464
  0
LWPOLYLINE
  5
2AC
330
A
100
AcDbEntity
  8
0
  6
Continuous
 62
     7
100
AcDbPolyline
 90
        3
 70
   128
 43
0.0
 10
163.6903772138071
 20
-339.5918247520683
 10
158.0768034601052
 20
-340.4021866761126
 10
152.5690032531584
 20
-341.1973852815645
  0
LWPOLYLINE
  5
2B1
330
A
100
AcDbEntity
  8
0
  6
Continuous
 62
     7
100
AcDbPolyline
 90
        3
 70
   128
 43
0.0
 10
150.917870329619
 20
-583.2621850541162
 10
157.4449444072963
 20
-578.9866772196118
 10
165.0316614711822
 20
-574.0208541282375
  0
LWPOLYLINE
  5
2B6
330
A
100
AcDbEntity
  8
0
  6
Continuous
 62
     7
100
AcDbPolyline
 90
        3
 70
   128
 43
0.0
 10
268.3079252097467
 20
-499.3888110014021
 10
267.5254317708495
 20
-494.0353509313839
 10
267.2529933008989
 20
-488.4069965566162
  0
LWPOLYLINE
  5
2BB
330
A
100
AcDbEntity
  8
0
  6
Continuous
 62
     7
100
AcDbPolyline
 90
        7
 70
   128
 43
0.0
 10
36.41132237328199
 20
-482.706453253715
 10
37.75118954481258
 20
-484.7807470611005
 10
38.90007512118954
 20
-487.0150033768265
 10
39.84250896906006
 20
-489.2719740199105
 10
40.62824917007854
 20
-491.5219141003898
 10
41.29949292254139
 20
-493.737537881484
 10
41.88887885616082
 20
-495.8950007905753
  0
LINE
  5
2C4
330
A
100
AcDbEntity
  8
0
  6
Continuous
 62
     7
100
AcDbLine
 10
6.593378360965254
 20
-338.3463679150772
 30
0.0
 11
6.593378769816138
 21
-338.3463671126622
 31
0.0
  0
LWPOLYLINE
  5
2C5
330
A
100
AcDbEntity
  8
0
  6
Continuous
 62
     7
100
AcDbPolyline
 90
       19
 70
   128
 43
0.0
 10
6.593378769816152
 20
-338.3463671126622
 10
6.593337544276906
 20
-338.346356483627
 10
-0.155199252841659
 20
-337.0868338277676
 10
-7.041187227494624
 20
-336.6135381684168
 10
-13.97242139508041
 20
-336.7414629108473
 10
-20.85669677099743
 20
-337.2856014603316
 10
-26.38435510885893
 20
-337.9738749844119
 10
-31.94174908057533
 20
-338.6506617106434
 10
-37.47589687893359
 20
-338.9007223722219
 10
-42.93381669672065
 20
-338.308817702343
 10
-45.46591178564075
 20
-337.5944479533822
 10
-47.87800651654559
 20
-336.5470031043504
 10
-50.20370681575663
 20
-335.1147988590342
 10
-52.29152796350726
 20
-333.3556400164251
 10
-54.71427766281607
 20
-330.2649436970995
 10
-55.60990592886919
 20
-328.3262295055929
 10
-56.14580929527644
 20
-326.2585763258264
 10
-56.33678532817674
 20
-322.2132132817701
 10
-56.3185788416273
 20
-322.0029693738476
  0
LWPOLYLINE
  5
2DA
330
A
100
AcDbEntity
  8
0
  6
Continuous
 62
     7
100
AcDbPolyline
 90
        9
 70
   128
 43
0.0
 10
-62.47852301171016
 20
-293.6400899118954
 10
-64.64864872544798
 20
-291.6671011544618
 10
-67.5715158155948
 20
-289.510626539204
 10
-73.98303496272816
 20
-285.4284475398288
 10
-78.59985121750973
 20
-282.3491452342562
 10
-81.45347994712446
 20
-280.0105565789952
 10
-83.88725768398954
 20
-277.2608815961023
 10
-85.01266306062204
 20
-275.3447021929401
 10
-85.72277831661464
 20
-273.4268363531974
  0
LWPOLYLINE
  5
2E5
330
A
100
AcDbEntity
  8
0
  6
Continuous
 62
     7
100
AcDbPolyline
 90
        6
 70
   128
 43
0.0
 10
-71.58544052217455
 20
-239.1615095681784
 10
-71.19048004779599
 20
-238.4258916103896
 10
-68.50105273639332
 20
-231.1569993241997
 10
-67.37663650142303
 20
-227.1332663609059
 10
-66.15783813494449
 20
-223.1393865346958
 10
-66.01281583798912
 20
-222.8099326001271
  0
LINE
  5
2ED
330
A
100
AcDbEntity
  8
0
  6
Continuous
 62
     7
100
AcDbLine
 10
-43.56370102970601
 20
-210.8364226898773
 30
0.0
 11
-41.78706680790408
 21
-217.6327917384532
 31
0.0
  0
LWPOLYLINE
  5
2EE
330
A
100
AcDbEntity
  8
0
  6
Continuous
 62
     7
100
AcDbPolyline
 90
        7
 70
   128
 43
0.0
 10
6.593378455734294
 20
-338.3463679394071
 10
6.679419862335306
 20
-338.0125400541934
 10
6.955400408307776
 20
-336.9417764568775
 10
7.390205368523666
 20
-335.2547975502597
 10
7.934813806799515
 20
-333.1417971897882
 10
8.245407718208239
 20
-331.9367385606631
 10
8.364137750783761
 20
-331.4760835054328
  0
LWPOLYLINE
  5
2F7
330
A
100
AcDbEntity
  8
0
  6
Continuous
 62
     7
100
AcDbPolyline
 90
        7
 70
   128
 43
0.0
 10
135.8374612376009
 20
-316.2474859500278
 10
136.577957008928
 20
-318.110560850505
 10
137.8940499808803
 20
-323.1526751551505
 10
138.4784501776521
 20
-328.3214546657821
 10
138.1611650764012
 20
-333.1084353967568
 10
136.9852282988258
 20
-337.7611066638675
 10
133.9035725017424
 20
-345.816207997086
  0
LWPOLYLINE
  5
300
330
A
100
AcDbEntity
  8
0
  6
Continuous
 62
     7
100
AcDbPolyline
 90
        5
 70
   128
 43
0.0
 10
130.5598991009675
 20
-353.9881254981939
 10
126.0383949404159
 20
-363.9135591611058
 10
122.1666036261924
 20
-370.5237657418642
 10
117.429009368682
 20
-376.5443332452042
 10
116.6793660549144
 20
-377.2934652585766
  0
LWPOLYLINE
  5
307
330
A
100
AcDbEntity
  8
0
  6
Continuous
 62
     7
100
AcDbPolyline
 90
        7
 70
   128
 43
0.0
 10
120.5585673916053
 20
-300.2369546669521
 10
120.8718211800038
 20
-300.1220870483614
 10
122.5589016804939
 20
-299.5034483414875
 10
124.5498740662508
 20
-298.7733749551487
 10
126.0908567476359
 20
-298.2083091384601
 10
127.0081162578321
 20
-297.871957537537
 10
127.1518936669924
 20
-297.819277336072
  0
LWPOLYLINE
  5
310
330
A
100
AcDbEntity
  8
0
  6
Continuous
 62
     7
100
AcDbPolyline
 90
       37
 70
   128
 43
0.0
 10
-31.44045624706546
 20
-209.6998272896035
 10
-31.3809738723768
 20
-209.698701759939
 10
-25.2195374117472
 20
-209.9709740299865
 10
-20.79280759967899
 20
-210.0636667456804
 10
-16.36978525682926
 20
-209.7942962090309
 10
-12.02986240102803
 20
-209.0127372112977
 10
-7.511440810365643
 20
-207.5027392625644
 10
-3.303400426901609
 20
-205.2844652532164
 10
-0.611944294210784
 20
-203.2278052032739
 10
1.686156852765047
 20
-200.7479563561123
 10
3.456089168376058
 20
-197.8678290555111
 10
4.720322387572001
 20
-194.7245949729694
 10
5.965170039987588
 20
-189.2771233350514
 10
6.534401764294539
 20
-183.680686625409
 10
6.802548391239588
 20
-178.059000159385
 10
7.144378857966648
 20
-172.9419618818123
 10
7.652142856297519
 20
-169.7906549310513
 10
8.618633610084282
 20
-166.7612448542291
 10
9.780687950931003
 20
-164.6798102491352
 10
11.3119418374785
 20
-162.8506983526601
 10
14.77496855570596
 20
-160.1198771679112
 10
19.46290400776314
 20
-157.4138953782882
 10
29.76746415734917
 20
-152.1447208435154
 10
40.35962113938323
 20
-147.4717010510442
 10
51.2819570803476
 20
-143.7250238216245
 10
58.61472788220312
 20
-141.8172996696013
 10
66.07875395546606
 20
-140.6198373706127
 10
68.72433911502035
 20
-140.5104286927844
 10
71.35584278596957
 20
-140.7393683703064
 10
74.07888423331852
 20
-141.5694973700931
 10
76.15542375620764
 20
-142.9993216937846
 10
76.81519437275813
 20
-143.6996495699633
 10
78.39952128308258
 20
-146.1482877117358
 10
79.48631959079095
 20
-148.8733972265058
 10
80.3914076376933
 20
-152.442654193301
 10
80.9674443965229
 20
-156.0848261506035
 10
81.04074384844919
 20
-157.0279899931116
  0
LINE
  5
337
330
A
100
AcDbEntity
  8
0
  6
Continuous
 62
     7
100
AcDbLine
 10
83.01611207999611
 20
-188.3583078574578
 30
0.0
 11
83.01609015123558
 21
-188.3583508950736
 31
0.0
  0
LWPOLYLINE
  5
338
330
A
100
AcDbEntity
  8
0
  6
Continuous
 62
     7
100
AcDbPolyline
 90
        5
 70
   128
 43
0.0
 10
76.0427006902166
 20
-189.2715278793541
 10
78.44187969124901
 20
-188.957349999293
 10
80.64745226937347
 20
-188.6685246858903
 10
82.22863899599408
 20
-188.4614639092867
 10
83.01609015123558
 20
-188.3583508950736
  0
LWPOLYLINE
  5
33F
330
A
100
AcDbEntity
  8
0
  6
Continuous
 62
     7
100
AcDbPolyline
 90
       11
 70
   128
 43
0.0
 10
137.6557162928172
 20
-210.712572611832
 10
137.7803064598765
 20
-210.6912004409696
 10
142.1432821313811
 20
-210.2088163647438
 10
146.533108016964
 20
-210.0691747290695
 10
150.886186130751
 20
-210.4464430582835
 10
154.7694942744898
 20
-211.4400579114229
 10
158.3775758056962
 20
-213.1688676717692
 10
161.2244905014856
 20
-215.2794906005888
 10
163.7556286102087
 20
-217.7686865197792
 10
167.01365660571
 20
-221.8965888992666
 10
167.3760821981487
 20
-222.4631900750957
  0
LWPOLYLINE
  5
34C
330
A
100
AcDbEntity
  8
0
  6
Continuous
 62
     7
100
AcDbPolyline
 90
       30
 70
   128
 43
0.0
 10
-60.51363053688604
 20
-323.0979982033955
 10
-62.35263288641321
 20
-320.199501129155
 10
-63.9547112821652
 20
-316.7483315137018
 10
-66.81312492744566
 20
-309.8497442033143
 10
-69.7709694949298
 20
-303.5126807760777
 10
-73.32792346164088
 20
-297.593497920234
 10
-77.72653819299823
 20
-292.064407790265
 10
-82.90257229496054
 20
-287.0574504970326
 10
-88.64596796498798
 20
-282.5711278592127
 10
-92.09992796628403
 20
-279.9298797286234
 10
-95.36311173378733
 20
-277.1675589945278
 10
-98.27456802665516
 20
-274.1540897266304
 10
-100.6733456040446
 20
-270.7593959946362
 10
-102.4059293410966
 20
-266.8785859711487
 10
-103.38851191179
 20
-262.6428491893443
 10
-103.5754072346127
 20
-258.3124814720887
 10
-102.9236100885868
 20
-254.1458172662487
 10
-101.4869433455721
 20
-250.2628640585122
 10
-99.44965448817949
 20
-246.5973069635278
 10
-96.8201164451797
 20
-242.8208949276547
 10
-93.96108946750311
 20
-239.1051021687336
 10
-91.11050497106701
 20
-235.3521997623628
 10
-88.47526283620515
 20
-231.4857566022267
 10
-85.9132833996975
 20
-227.6688560853887
 10
-83.06280099898097
 20
-224.2153583062973
 10
-79.59315645979123
 20
-221.4192883732129
 10
-74.79258183908807
 20
-219.0777579749778
 10
-69.49706576416136
 20
-217.6482029974613
 10
-64.04104766427778
 20
-217.0453085888167
 10
-62.21696553134881
 20
-217.0867879153177
  0
LWPOLYLINE
  5
36C
330
A
100
AcDbEntity
  8
0
  6
Continuous
 62
     7
100
AcDbPolyline
 90
       21
 70
   128
 43
0.0
 10
106.185977440246
 20
-142.8848866912814
 10
106.7997902025339
 20
-144.9573245163845
 10
107.9448836121306
 20
-150.4297926251972
 10
108.5009395155688
 20
-155.7830322799625
 10
108.6611357287228
 20
-161.056032596336
 10
108.6189403591087
 20
-166.2885393219554
 10
108.5678215142427
 20
-171.5202982044585
 10
108.7012473016408
 20
-176.7910549914827
 10
109.2256164396855
 20
-182.1100309294476
 10
110.4157151774524
 20
-187.3250090090324
 10
111.725783370042
 20
-190.6424597458243
 10
113.5505552242924
 20
-193.7610740911678
 10
115.9027503921329
 20
-196.5951140972811
 10
118.6861823347837
 20
-199.022905605387
 10
121.7959365490048
 20
-200.9198944553936
 10
125.1270985315562
 20
-202.1615264872093
 10
129.0156602865666
 20
-202.6759361500454
 10
132.9881151737085
 20
-202.7143788998418
 10
137.0161712433072
 20
-203.0709923874614
 10
141.0025449541556
 20
-204.33553682209
 10
141.7917328740029
 20
-204.8011409701211
  0
LINE
  5
383
330
A
100
AcDbEntity
  8
0
  6
Continuous
 62
     7
100
AcDbLine
 10
83.01611207999606
 20
-188.3583078574577
 30
0.0
 11
106.1859774402461
 21
-142.8848866912816
 31
0.0
  0
LWPOLYLINE
  5
384
330
A
100
AcDbEntity
  8
0
  6
Continuous
 62
     7
100
AcDbPolyline
 90
       18
 70
   128
 43
0.0
 10
25.60463662534079
 20
-152.6743816606833
 10
28.97130808057899
 20
-149.8014736600205
 10
34.74314592764634
 20
-145.7416375012268
 10
42.41818782613218
 20
-141.2938120554629
 10
50.27482582726674
 20
-137.5596533861503
 10
58.39739451125882
 20
-134.3418889226819
 10
66.92069139451013
 20
-131.4258776176345
 10
72.16162726555258
 20
-129.7694587203404
 10
77.59600173833049
 20
-128.1341567321081
 10
83.07762551059939
 20
-126.8070000247543
 10
87.27106683313587
 20
-126.265432302768
 10
91.2450662643676
 20
-126.3971270955978
 10
94.89006475655713
 20
-127.4149417768521
 10
97.92240654895742
 20
-129.3010659853704
 10
100.5692045920104
 20
-131.9709210489746
 10
102.8294230072322
 20
-135.2447084997625
 10
104.7020259161387
 20
-138.9426298698321
 10
106.1859774402461
 20
-142.8848866912814
  0
LWPOLYLINE
  5
398
330
A
100
AcDbEntity
  8
0
  6
Continuous
 62
     7
100
AcDbPolyline
 90
        8
 70
   128
 43
0.0
 10
138.4220926352989
 20
-329.171738742237
 10
139.1271418700505
 20
-332.704282101586
 10
139.4920141977688
 20
-336.5149721737063
 10
139.5015621191598
 20
-340.3626410254471
 10
139.0207217388451
 20
-344.0489909455112
 10
137.9111701766959
 20
-347.3715106788815
 10
136.0372542019468
 20
-350.1305855482302
 10
135.7016315792993
 20
-350.4071826652202
  0
LWPOLYLINE
  5
3A2
330
A
100
AcDbEntity
  8
0
  6
Continuous
 62
     7
100
AcDbPolyline
 90
        7
 70
   128
 43
0.0
 10
-67.18513292262901
 20
-360.3706847686664
 10
-65.94191061532619
 20
-358.7978591690636
 10
-62.23335802469438
 20
-355.137032069288
 10
-58.04926376031288
 20
-352.0465368975911
 10
-53.74497428923677
 20
-349.9278234900293
 10
-49.12767438767324
 20
-348.6198789790986
 10
-40.61092410450642
 20
-347.2611205184831
  0
LWPOLYLINE
  5
3AB
330
A
100
AcDbEntity
  8
0
  6
Continuous
 62
     7
100
AcDbPolyline
 90
        7
 70
   128
 43
0.0
 10
-31.86199925052892
 20
-346.0708678749585
 10
-21.0055694745942
 20
-345.0238885098572
 10
-13.3450669942826
 20
-345.0718548557475
 10
-5.762305462435849
 20
-346.1644480839048
 10
-1.387228191844919
 20
-347.3383463487514
 10
2.847934610571936
 20
-348.9732872653933
 10
5.57718282684659
 20
-350.4356310508062
  0
LWPOLYLINE
  5
3B4
330
A
100
AcDbEntity
  8
0
  6
Continuous
 62
     7
100
AcDbPolyline
 90
        7
 70
   128
 43
0.0
 10
-73.41121281886012
 20
-381.6078606225622
 10
-73.66731798883124
 20
-381.3940086932727
 10
-75.04661507499341
 20
-380.2422734750559
 10
-76.67436336706818
 20
-378.8830775039266
 10
-77.93421605982326
 20
-377.8310802633994
 10
-78.68413484592429
 20
-377.2048860261681
 10
-78.80164594324963
 20
-377.1067112380776
  0
LWPOLYLINE
  5
3BD
330
A
100
AcDbEntity
  8
0
  6
Continuous
 62
     7
100
AcDbPolyline
 90
       18
 70
   128
 43
0.0
 10
17.49414630884484
 20
-463.8555956116646
 10
18.85860198301672
 20
-467.7241095427516
 10
21.89170990584455
 20
-473.9241978886306
 10
25.46811306635487
 20
-479.8628603861233
 10
29.38148856134527
 20
-485.552748473573
 10
32.74138008688177
 20
-489.9957042555617
 10
36.10619157060059
 20
-494.4701552507908
 10
39.08982435519387
 20
-499.1378375016775
 10
41.3061797833537
 20
-504.160487050639
 10
41.95356497751862
 20
-506.7105305969222
 10
42.2524984946463
 20
-509.3231883347362
 10
42.17502338440001
 20
-512.0534059981001
 10
41.69545771128391
 20
-514.7410915719151
 10
40.23021103301934
 20
-518.3846025181905
 10
38.99904942552368
 20
-520.1295964446932
 10
37.47636092883392
 20
-521.6275289638588
 10
34.0684617816005
 20
-523.8156005818925
 10
33.87728197307409
 20
-523.9049552559883
  0
LWPOLYLINE
  5
3D1
330
A
100
AcDbEntity
  8
0
  6
Continuous
 62
     7
100
AcDbPolyline
 90
        9
 70
   128
 43
0.0
 10
12.39427991958899
 20
-543.4210631241501
 10
11.77068439113934
 20
-546.2869415003697
 10
11.36455613678327
 20
-549.8964559599512
 10
11.03504499409566
 20
-557.4900839179067
 10
10.67669909892869
 20
-563.0280152319387
 10
10.07823627927789
 20
-566.6686245323849
 10
8.913836760374632
 20
-570.1511753711214
 10
7.817079407343996
 20
-572.0838947184218
 10
6.511216497072758
 20
-573.6578054895978
  0
LWPOLYLINE
  5
3DC
330
A
100
AcDbEntity
  8
0
  6
Continuous
 62
     7
100
AcDbPolyline
 90
        6
 70
   128
 43
0.0
 10
-30.23209586494911
 20
-578.5471752102404
 10
-31.06663994106348
 20
-578.5729383848321
 10
-38.706398973978
 20
-579.8782721546207
 10
-42.75326205572041
 20
-580.9163656123557
 10
-46.82146262811982
 20
-581.8577951779994
 10
-47.17928925331075
 20
-581.8969291520053
  0
LINE
  5
3E4
330
A
100
AcDbEntity
  8
0
  6
Continuous
 62
     7
100
AcDbLine
 10
-68.77321041219336
 20
-568.4421803906835
 30
0.0
 11
-63.77569927353346
 21
-563.5053854970825
 31
0.0
  0
LWPOLYLINE
  5
3E5
330
A
100
AcDbEntity
  8
0
  6
Continuous
 62
     7
100
AcDbPolyline
 90
        5
 70
   128
 43
0.0
 10
14.2129130792628
 20
-461.9070847483057
 10
13.49930971535754
 20
-462.1056155975708
 10
11.39709350584564
 20
-462.6904710351442
 10
10.1981851642693
 20
-463.024018132166
 10
9.739881167770302
 20
-463.1515224353787
  0
LWPOLYLINE
  5
3EC
330
A
100
AcDbEntity
  8
0
  6
Continuous
 62
     7
100
AcDbPolyline
 90
       37
 70
   128
 43
0.0
 10
-75.81915329397543
 20
-558.5114401327567
 10
-75.84986921860187
 20
-558.4604896500311
 10
-78.69479274630956
 20
-552.9883930162985
 10
-80.82788340580702
 20
-549.1083861855106
 10
-83.27267630500136
 20
-545.4126217434214
 10
-86.11948767949529
 20
-542.0449177986994
 10
-89.68639505809186
 20
-538.8868488905442
 10
-93.71149689447408
 20
-536.3517160229877
 10
-96.83834481101818
 20
-535.0491766638772
 10
-100.1350074836936
 20
-534.2988871137108
 10
-103.5142370499529
 20
-534.2061444157133
 10
-106.868474225073
 20
-534.6829033728522
 10
-112.208546876113
 20
-536.3285695009781
 10
-117.3398190994886
 20
-538.6338187219093
 10
-122.3424157046491
 20
-541.2124401640478
 10
-126.9448160785279
 20
-543.4749254348612
 10
-129.9278099521749
 20
-544.6108423885601
 10
-133.0346014140768
 20
-545.2885418816689
 10
-135.4182038288275
 20
-545.3228906044647
 10
-137.767888140813
 20
-544.9113417873085
 10
-141.8643620191121
 20
-543.2776832677137
 10
-146.5517787171323
 20
-540.570802969742
 10
-156.2672977960126
 20
-534.2813793727621
 10
-165.6103301396972
 20
-527.4448122416837
 10
-174.3162157706376
 20
-519.8591304628505
 10
-179.6347387506305
 20
-514.4626267443264
 10
-184.4037845582603
 20
-508.5973216998658
 10
-185.8213278324313
 20
-506.3608820827307
 10
-186.9388120912377
 20
-503.9674632147757
 10
-187.5814200126786
 20
-501.1941756459203
 10
-187.3814255868575
 20
-498.6809275052901
 10
-187.1048091633835
 20
-497.7593854525975
 10
-185.7763897830953
 20
-495.162999029471
 10
-183.9597748690639
 20
-492.8592493288205
 10
-181.3212516866359
 20
-490.2907916041439
 10
-178.4550566260755
 20
-487.9708431588325
 10
-177.6749025044956
 20
-487.4357820501268
  0
LINE
  5
413
330
A
100
AcDbEntity
  8
0
  6
Continuous
 62
     7
100
AcDbLine
 10
-151.529735441104
 20
-470.0599040476052
 30
0.0
 11
-151.5296872050551
 21
-470.059901519661
 31
0.0
  0
LWPOLYLINE
  5
414
330
A
100
AcDbEntity
  8
0
  6
Continuous
 62
     7
100
AcDbPolyline
 90
        5
 70
   128
 43
0.0
 10
-147.2521580080074
 20
-475.6424454512459
 10
-148.7238335339637
 20
-473.7217844281562
 10
-150.0767498816887
 20
-471.9561152023115
 10
-151.046663137665
 20
-470.690297717233
 10
-151.5296872050551
 20
-470.059901519661
  0
LWPOLYLINE
  5
41B
330
A
100
AcDbEntity
  8
0
  6
Continuous
 62
     7
100
AcDbPolyline
 90
       11
 70
   128
 43
0.0
 10
-159.4901763873037
 20
-411.5634863693879
 10
-159.5709803137341
 20
-411.466274205084
 10
-162.1702250138792
 20
-407.9290184755803
 10
-164.4860711605905
 20
-404.1971385583122
 10
-166.3358862603413
 20
-400.2386281625077
 10
-167.4170446278145
 20
-396.3787772327372
 10
-167.7238922226474
 20
-392.3896820876139
 10
-167.3194964963745
 20
-388.8688701742432
 10
-166.4293586497206
 20
-385.4322423120069
 10
-164.4835043224929
 20
-380.5467561119182
 10
-164.1740261066302
 20
-379.9495857539701
  0
LWPOLYLINE
  5
428
330
A
100
AcDbEntity
  8
0
  6
Continuous
 62
     7
100
AcDbPolyline
 90
       30
 70
   128
 43
0.0
 10
36.92313060496896
 20
-526.9904621794962
 10
35.33245968064533
 20
-530.0323334689263
 10
33.14469831876996
 20
-533.1453588662284
 10
28.59955328038964
 20
-539.0701113527592
 10
24.59041765075153
 20
-544.8002116022645
 10
21.24273191130111
 20
-550.84021552545
 10
18.6537067646129
 20
-557.4140726892505
 10
16.90557160399102
 20
-564.4001283590206
 10
15.89200006507958
 20
-571.6172162321599
 10
15.33159208693913
 20
-575.9290574022322
 10
14.57094404156352
 20
-580.1362178091549
 10
13.41693124847469
 20
-584.1643475547352
 10
11.67642902719452
 20
-587.93909674078
 10
9.181840828119236
 20
-591.3799632829947
 10
6.004876456679034
 20
-594.3487731414331
 10
2.348115667219152
 20
-596.6758130974739
 10
-1.586219957090587
 20
-598.1946723138213
 10
-5.667289448204063
 20
-598.8919590214666
 10
-9.860399440179135
 20
-598.9603936636099
 10
-14.44563721990245
 20
-598.571352936091
 10
-19.09312163316467
 20
-597.9532593227786
 10
-23.76852270322359
 20
-597.3610319364163
 10
-28.43458176962096
 20
-597.0120668825709
 10
-33.02110429917446
 20
-596.7017778650008
 10
-37.43716230813904
 20
-595.9599365824857
 10
-41.59345217054286
 20
-594.3531712359876
 10
-46.02156428949949
 20
-591.3665168608134
 10
-49.90735325359868
 20
-587.4952429025363
 10
-53.15748417722627
 20
-583.0716398288516
 10
-54.03360309320803
 20
-581.4711986998973
  0
LWPOLYLINE
  5
448
330
A
100
AcDbEntity
  8
0
  6
Continuous
 62
     7
100
AcDbPolyline
 90
       21
 70
   128
 43
0.0
 10
-202.495806048126
 20
-472.730922626451
 10
-201.0079286249669
 20
-471.1631262685911
 10
-196.8411789261332
 20
-467.4352122317678
 10
-192.4831653442795
 20
-464.2770338660834
 10
-187.9967112227136
 20
-461.5017997177151
 10
-183.4441297880472
 20
-458.9220886169132
 10
-178.8877342668917
 20
-456.3504793939278
 10
-174.3898378858585
 20
-453.599550879009
 10
-170.0456541704851
 20
-450.4859459155192
 10
-166.1244000422692
 20
-446.8478011358089
 10
-163.9064375246988
 20
-444.0545234319404
 10
-162.11802420415
 20
-440.9149174773769
 10
-160.8397711474347
 20
-437.4608367043115
 10
-160.1289579976483
 20
-433.8364181782178
 10
-160.0409945699573
 20
-430.1947976041733
 10
-160.6312906795281
 20
-426.6891106872551
 10
-162.1300797210651
 20
-423.0643125918134
 10
-164.0830147667212
 20
-419.6048443692626
 10
-165.7882064619097
 20
-415.9381387413122
 10
-166.6862657127313
 20
-411.8535656214249
 10
-166.6776346523526
 20
-410.9373067604616
  0
LINE
  5
45F
330
A
100
AcDbEntity
  8
0
  6
Continuous
 62
     7
100
AcDbLine
 10
-151.529735441104
 20
-470.0599040476054
 30
0.0
 11
-202.4958060481259
 21
-472.7309226264508
 31
0.0
  0
LWPOLYLINE
  5
460
330
A
100
AcDbEntity
  8
0
  6
Continuous
 62
     7
100
AcDbPolyline
 90
       18
 70
   128
 43
0.0
 10
-153.7271843069511
 20
-537.6216633584696
 10
-157.8985313458797
 20
-536.1424943523688
 10
-164.3003715181314
 20
-533.1738542296808
 10
-171.9898222950047
 20
-528.7509856933642
 10
-179.1520175649586
 20
-523.8140169306998
 10
-185.9999676757131
 20
-518.3885483381129
 10
-192.7869559852325
 20
-512.4651623657443
 10
-196.841924765119
 20
-508.7545882104635
 10
-200.9753250661763
 20
-504.8659328574763
 10
-204.8654883756822
 20
-500.7822857703797
 10
-207.4312204420602
 20
-497.4214429167769
 10
-209.3041691215394
 20
-493.9140110582904
 10
-210.2452149973232
 20
-490.2484424266711
 10
-210.1279544142536
 20
-486.6792952972361
 10
-209.1391911262764
 20
-483.0521734214632
 10
-207.4341172349143
 20
-479.4578731303857
 10
-205.1679248416899
 20
-475.9871907550373
 10
-202.495806048126
 20
-472.7309226264509
  0
LWPOLYLINE
  5
474
330
A
100
AcDbEntity
  8
0
  6
Continuous
 62
     7
100
AcDbPolyline
 90
        8
 70
   128
 43
0.0
 10
-57.28471737849431
 20
-351.6702019227371
 10
-54.57796970670186
 20
-349.2933396948471
 10
-51.46025146215566
 20
-347.0720059538448
 10
-48.13284645189354
 20
-345.1399027854965
 10
-44.699953583722
 20
-343.7131478099824
 10
-41.26779130897364
 20
-343.0127877829272
 10
-37.94140439379979
 20
-343.2561091869429
 10
-37.5340529525492
 20
-343.4084683457454
  0
LWPOLYLINE
  5
47E
330
A
100
AcDbEntity
  8
0
  6
Continuous
 62
     7
100
AcDbPolyline
 90
       18
 70
   128
 43
0.0
 10
119.6741732600994
 20
-386.892964409796
 10
121.3969569011469
 20
-384.8809583584121
 10
125.249836952972
 20
-379.1541656718838
 10
128.6046679600474
 20
-373.0875784319606
 10
131.575567840974
 20
-366.8535517950266
 10
133.7433346532989
 20
-361.7223224889575
 10
135.9359171412965
 20
-356.5710847674968
 10
138.4864321550614
 20
-351.6533418550316
 10
141.7279965446886
 20
-347.2225969759489
 10
143.6127064394439
 20
-345.3869231786266
 10
145.725867653221
 20
-343.8217102898443
 10
148.1290430626783
 20
-342.5236968717966
 10
150.6964298835451
 20
-341.5951701405906
 10
154.5844262611185
 20
-341.0423555136409
 10
156.7112161346672
 20
-341.2360757786448
 10
158.7698079977643
 20
-341.8057964392457
 10
162.368683177898
 20
-343.6630878652683
 10
162.541656499875
 20
-343.7839770990949
  0
LWPOLYLINE
  5
492
330
A
100
AcDbEntity
  8
0
  6
Continuous
 62
     7
100
AcDbPolyline
 90
        9
 70
   128
 43
0.0
 10
190.1846027234431
 20
-352.6307486928852
 10
192.9783239656306
 20
-351.7378590740992
 10
196.3073193101335
 20
-350.2848192297754
 10
203.0483495999545
 20
-346.7733702711951
 10
208.0235117499031
 20
-344.3147412627356
 10
211.4756032991686
 20
-343.0127206175506
 10
215.0737805549369
 20
-342.2798447617068
 10
217.2959432846001
 20
-342.2633048175685
 10
219.311921450864
 20
-342.6072598861354
  0
LWPOLYLINE
  5
49D
330
A
100
AcDbEntity
  8
0
  6
Continuous
 62
     7
100
AcDbPolyline
 90
        6
 70
   128
 43
0.0
 10
241.917896018446
 20
-371.9832169505117
 10
242.3574796201818
 20
-372.6930717337087
 10
247.3078113416937
 20
-378.65663025011
 10
250.2302581884659
 20
-381.6422697556687
 10
253.0796603943868
 20
-384.6947200162352
 10
253.2924647226224
 20
-384.9850399767981
  0
LINE
  5
4A5
330
A
100
AcDbEntity
  8
0
  6
Continuous
 62
     7
100
AcDbLine
 10
252.437271073222
 20
-410.4132986483695
 30
0.0
 11
245.6631257127601
 21
-408.5537244933949
 31
0.0
  0
LINE
  5
4A6
330
A
100
AcDbEntity
  8
0
  6
Continuous
 62
     7
100
AcDbLine
 10
121.1167227679805
 20
-394.2013162489271
 30
0.0
 11
121.9963407127679
 21
-395.06429578812
 31
0.0
  0
LWPOLYLINE
  5
4A7
330
A
100
AcDbEntity
  8
0
  6
Continuous
 62
     7
100
AcDbPolyline
 90
        7
 70
   128
 43
0.0
 10
71.44803131635073
 20
-513.073731010238
 10
69.46431323772076
 20
-512.7834817093637
 10
64.43966767513666
 20
-511.4021945044938
 10
59.67117321398328
 20
-509.3239101655591
 10
55.68416884415804
 20
-506.6556428421463
 10
52.24280572016986
 20
-503.3109160859661
 10
46.80771123408638
 20
-496.6145732133631
  0
LWPOLYLINE
  5
4B0
330
A
100
AcDbEntity
  8
0
  6
Continuous
 62
     7
100
AcDbPolyline
 90
        4
 70
   128
 43
0.0
 10
41.40245978088369
 20
-489.6329083557799
 10
35.06753416550048
 20
-480.7544540579693
 10
31.27882299941231
 20
-474.0962811313206
 10
29.24886220843434
 20
-469.0212061031813
  0
LWPOLYLINE
  5
4B6
330
A
100
AcDbEntity
  8
0
  6
Continuous
 62
     7
100
AcDbPolyline
 90
        7
 70
   128
 43
0.0
 10
92.95300505857744
 20
-507.8470864394177
 10
92.89585644015003
 20
-508.1758059872981
 10
92.58807302582216
 20
-509.9461799123887
 10
92.22484893214007
 20
-512.0354492698569
 10
91.94371894351002
 20
-513.6525123270724
 10
91.77637821941486
 20
-514.6150581652269
 10
91.75011190757992
 20
-514.7659131547825
  0
LWPOLYLINE
  5
4BF
330
A
100
AcDbEntity
  8
0
  6
Continuous
 62
     7
100
AcDbPolyline
 90
       37
 70
   128
 43
0.0
 10
247.3599691723636
 20
-421.4806343065704
 10
247.3312027223014
 20
-421.5327103189604
 10
244.0146897893794
 20
-426.7325346826456
 10
241.7210506368087
 20
-430.5198487977397
 10
239.7428211931534
 20
-434.4849837764784
 10
238.2497097118461
 20
-438.6342467189336
 10
237.2981954997803
 20
-443.302313575822
 10
237.1152569526985
 20
-448.0557204527267
 10
237.5506487365519
 20
-451.4149198617795
 10
238.5492102622515
 20
-454.6450582591076
 10
240.1585075128998
 20
-457.6179282577064
 10
242.2485114688239
 20
-460.284403383109
 10
246.3437364674484
 20
-464.0862088929012
 10
250.9057769665172
 20
-467.3773963816123
 10
255.6402269447326
 20
-470.4204614054979
 10
259.9007968518844
 20
-473.2750144122572
 10
262.3760267272005
 20
-475.2904044093194
 10
264.5163274353157
 20
-477.6421149930326
 10
265.7378755092197
 20
-479.6892008753308
 10
266.5563059346578
 20
-481.929861588962
 10
267.1897530947294
 20
-486.2943412933057
 10
267.1892343406924
 20
-491.7072033809005
 10
266.6001932699868
 20
-503.2658015126531
 10
265.3510686316374
 20
-514.7753884362031
 10
263.1346183216134
 20
-526.1077474444558
 10
261.120370499751
 20
-533.411975315003
 10
258.4253902341179
 20
-540.4747426584527
 10
257.1973483487345
 20
-542.8205909534158
 10
255.6833289365917
 20
-544.9850701438489
 10
253.6028954106837
 20
-546.9282287129176
 10
251.3263614619734
 20
-548.0116525298564
 10
250.389974421949
 20
-548.2328667063702
 10
247.4772281313363
 20
-548.3806149877243
 10
244.5738149095966
 20
-547.9592551736048
 10
241.0302036802661
 20
-546.9584559314861
 10
237.5879718608762
 20
-545.6362324194952
 10
236.7345182873699
 20
-545.2281296856926
  0
LINE
  5
4E6
330
A
100
AcDbEntity
  8
0
  6
Continuous
 62
     7
100
AcDbLine
 10
208.6139829924312
 20
-531.2736898238683
 30
0.0
 11
208.6139566851429
 21
-531.2736493141966
 31
0.0
  0
LWPOLYLINE
  5
4E7
330
A
100
AcDbEntity
  8
0
  6
Continuous
 62
     7
100
AcDbPolyline
 90
        5
 70
   128
 43
0.0
 10
211.3098169491141
 20
-524.7779283983313
 10
210.382313474038
 20
-527.0127673014822
 10
209.5296572436386
 20
-529.0672618407296
 10
208.9183837729943
 20
-530.5401401024115
 10
208.6139566851429
 20
-531.2736493141966
  0
LWPOLYLINE
  5
4EE
330
A
100
AcDbEntity
  8
0
  6
Continuous
 62
     7
100
AcDbPolyline
 90
       11
 70
   128
 43
0.0
 10
161.9348197258098
 20
-567.4158427477119
 10
161.891033485181
 20
-567.5344270828782
 10
160.1273025138214
 20
-571.5540668886076
 10
158.0533227749499
 20
-575.4255884415499
 10
155.5500597609138
 20
-579.0068305081406
 10
152.7479099846481
 20
-581.8730665847717
 10
149.4466760482747
 20
-584.1333519695488
 10
146.1953656262123
 20
-585.5435409541001
 10
142.7740896708353
 20
-586.490972897146
 10
137.5702073481063
 20
-587.2485567177472
 10
136.8983035398048
 20
-587.2791258998664
  0
LWPOLYLINE
  5
4FB
330
A
100
AcDbEntity
  8
0
  6
Continuous
 62
     7
100
AcDbPolyline
 90
       30
 70
   128
 43
0.0
 10
163.6908595632388
 20
-339.6034413460368
 10
167.1205328370897
 20
-339.4600671308473
 10
170.910372594717
 20
-339.7982113489983
 10
178.3139312783778
 20
-340.7720461728552
 10
185.2809114755001
 20
-341.3790093505863
 10
192.1855511816616
 20
-341.2581882832445
 10
199.1731910597072
 20
-340.2134212494129
 10
206.0973603222914
 20
-338.2343228728751
 10
212.8543275312303
 20
-335.5035576375557
 10
216.8686955106668
 20
-333.8329645980726
 10
220.8925273235458
 20
-332.3881249252455
 10
224.9579964095024
 20
-331.3734644475625
 10
229.097276208172
 20
-330.9934089935119
 10
233.3244481442994
 20
-331.4333524747847
 10
237.483995086433
 20
-332.7002793981507
 10
241.3276511987157
 20
-334.7036071593654
 10
244.6101896769995
 20
-337.351412148858
 10
247.2545924250983
 20
-340.5370786489492
 10
249.4104135596808
 20
-344.1342011017904
 10
251.3661132964043
 20
-348.2996538651824
 10
253.15457073199
 20
-352.6335402374158
 10
254.9793873056129
 20
-356.9786700301489
 10
257.0102042371485
 20
-361.1940782441305
 10
259.0347473301942
 20
-365.3212677785385
 10
260.6003229384424
 20
-369.5166068401451
 10
261.2869682616565
 20
-373.9194421197276
 10
260.9145057599101
 20
-379.2476268931369
 10
259.5047786490825
 20
-384.5484558289306
 10
257.2988914728266
 20
-389.5749533112597
 10
256.3509282558809
 20
-391.1339151137143
  0
LWPOLYLINE
  5
51B
330
A
100
AcDbEntity
  8
0
  6
Continuous
 62
     7
100
AcDbPolyline
 90
       21
 70
   128
 43
0.0
 10
236.4101882392037
 20
-574.0760924111966
 10
234.3084980537568
 20
-573.5714509439534
 10
228.9966549453263
 20
-571.826896871964
 10
224.0825854600343
 20
-569.6318355828833
 10
219.4359351253144
 20
-567.134069414878
 10
214.925549060262
 20
-564.4812737900604
 10
210.4202723839725
 20
-561.8211241305429
 10
205.7889502155413
 20
-559.3012958584374
 10
200.9203973621231
 20
-557.0959248839622
 10
195.8090444961402
 20
-555.519091584088
 10
192.2810137859802
 20
-554.9949185511645
 10
188.6678286111809
 20
-555.0159101603846
 10
185.0373803866252
 20
-555.6359509273367
 10
181.543135294188
 20
-556.8325779453244
 10
178.3454176522758
 20
-558.5772096693624
 10
175.6045517792954
 20
-560.8412645544651
 10
173.2147790658219
 20
-563.9516529870706
 10
171.195259224336
 20
-567.3726784598251
 10
168.8723948499259
 20
-570.6827706001558
 10
165.7840803898992
 20
-573.5027992854146
 10
164.9862614096731
 20
-573.9534539983467
  0
LINE
  5
532
330
A
100
AcDbEntity
  8
0
  6
Continuous
 62
     7
100
AcDbLine
 10
208.6139829924313
 20
-531.2736898238682
 30
0.0
 11
236.4101882392035
 21
-574.0760924111965
 31
0.0
  0
LWPOLYLINE
  5
533
330
A
100
AcDbEntity
  8
0
  6
Continuous
 62
     7
100
AcDbPolyline
 90
       18
 70
   128
 43
0.0
 10
268.2229073129336
 20
-499.3958567097756
 10
269.0275828966241
 20
-503.7479337165391
 10
269.6575852218085
 20
-510.7764099980208
 10
269.6719941001961
 20
-519.6471039801013
 10
268.9775513690155
 20
-528.3182314120785
 10
267.7029327957779
 20
-536.9614644681337
 10
265.9666242220461
 20
-545.8008617455499
 10
264.7806571308902
 20
-551.1678547981248
 10
263.4796829591696
 20
-556.6918121393443
 10
261.8882224964065
 20
-562.1026159337946
 10
260.2605132402481
 20
-566.005026509384
 10
258.1594624884955
 20
-569.3807635750406
 10
255.4555098720898
 20
-572.0285175254056
 10
252.30590749662
 20
-573.7115404463224
 10
248.6703461655898
 20
-574.6688072584911
 10
244.7050538590059
 20
-574.9893200987807
 10
240.566258556875
 20
-574.7620811040596
 10
236.4101882392036
 20
-574.0760924111966
  0
LWPOLYLINE
  5
547
330
A
100
AcDbEntity
  8
0
  6
Continuous
 62
     7
100
AcDbPolyline
 90
        8
 70
   128
 43
0.0
 10
58.96298437451378
 20
-508.8499610639571
 10
55.55118746797386
 20
-507.694279932497
 10
52.06859689570928
 20
-506.104923601379
 10
48.73164396405622
 20
-504.1893579179864
 10
45.77959147619932
 20
-501.9297629734365
 10
43.45698076360013
 20
-499.3076032671216
 10
42.00450982317533
 20
-496.3052069937569
 10
41.93278100457226
 20
-495.8762507179645
  0
CIRCLE
  5
551
330
A
100
AcDbEntity
  8
0
  6
Continuous
 62
     7
100
AcDbCircle
 10
51.66312618642107
 20
-402.8915358819483
 30
0.0
 40
64.99999999999994
  0
LINE
  5
552
330
A
100
AcDbEntity
  8
0
  6
Continuous
 62
     7
100
AcDbLine
 10
39.66312618642111
 20
-333.9277772836816
 30
0.0
 11
41.60137310219893
 21
-315.7548031255442
 31
0.0
  0
ARC
  5
553
330
A
100
AcDbEntity
  8
0
  6
Continuous
 62
     7
100
AcDbCircle
 10
51.66312618642107
 20
-402.8915358819482
 30
0.0
 40
87.715728752538
100
AcDbArc
 50
83.41317911410843
 51
96.58682088589156
  0
LINE
  5
554
330
A
100
AcDbEntity
  8
0
  6
Continuous
 62
     7
100
AcDbLine
 10
61.72487927064324
 20
-315.7548031255442
 30
0.0
 11
63.66312618642108
 21
-333.9277772836816
 31
0.0
  0
ARC
  5
555
330
A
100
AcDbEntity
  8
0
  6
Continuous
 62
     7
100
AcDbCircle
 10
51.66312618642107
 20
-402.8915358819482
 30
0.0
 40
70.00000000000001
100
AcDbArc
 50
339.8708896061403
 51
80.12911039386045
  0
LINE
  5
556
330
A
100
AcDbEntity
  8
0
  6
Continuous
 62
     7
100
AcDbLine
 10
117.3874930729775
 20
-426.9811103356683
 30
0.0
 11
132.1566268983537
 21
-437.7461684826074
 31
0.0
  0
ARC
  5
557
330
A
100
AcDbEntity
  8
0
  6
Continuous
 62
     7
100
AcDbCircle
 10
51.66312618642107
 20
-402.8915358819482
 30
0.0
 40
87.71572875253815
100
AcDbArc
 50
323.4131791141092
 51
336.5868208858923
  0
LINE
  5
558
330
A
100
AcDbEntity
  8
0
  6
Continuous
 62
     7
100
AcDbLine
 10
122.0948738141315
 20
-455.173636037693
 30
0.0
 11
105.3874930729775
 21
-447.7657200264948
 31
0.0
  0
ARC
  5
559
330
A
100
AcDbEntity
  8
0
  6
Continuous
 62
     7
100
AcDbCircle
 10
51.66312618642107
 20
-402.8915358819482
 30
0.0
 40
70.0
100
AcDbArc
 50
219.8708896061404
 51
320.1291103938613
  0
LINE
  5
55A
330
A
100
AcDbEntity
  8
0
  6
Continuous
 62
     7
100
AcDbLine
 10
-2.061240700135385
 20
-447.7657200264948
 30
0.0
 11
-18.76862144128942
 21
-455.173636037693
 31
0.0
  0
ARC
  5
55B
330
A
100
AcDbEntity
  8
0
  6
Continuous
 62
     7
100
AcDbCircle
 10
51.66312618642107
 20
-402.8915358819482
 30
0.0
 40
87.71572875253813
100
AcDbArc
 50
203.4131791141092
 51
216.5868208858924
  0
LINE
  5
55C
330
A
100
AcDbEntity
  8
0
  6
Continuous
 62
     7
100
AcDbLine
 10
-28.83037452551159
 20
-437.7461684826074
 30
0.0
 11
-14.06124070013538
 21
-426.9811103356683
 31
0.0
  0
ARC
  5
55D
330
A
100
AcDbEntity
  8
0
  6
Continuous
 62
     7
100
AcDbCircle
 10
51.66312618642107
 20
-402.8915358819482
 30
0.0
 40
70.00000000000001
100
AcDbArc
 50
99.87088960613952
 51
200.1291103938613
  0
CIRCLE
  5
55E
330
A
100
AcDbEntity
  8
0
  6
Continuous
 62
     7
100
AcDbCircle
 10
51.66312618642107
 20
-402.8915358819482
 30
0.0
 40
68.96375859826662
  0
ARC
  5
55F
330
A
100
AcDbEntity
  8
0
  6
Continuous
 62
     7
100
AcDbCircle
 10
51.66312618642106
 20
-286.8915358819482
 30
0.0
 40
30.00000000000007
100
AcDbArc
 50
289.4712206344915
 51
250.5287793655102
  0
LINE
  5
560
330
A
100
AcDbEntity
  8
0
  6
Continuous
 62
     7
100
AcDbLine
 10
41.60137310219893
 20
-315.7548031255442
 30
0.0
 11
41.66312618642108
 21
-315.1758071294101
 31
0.0
  0
LINE
  5
561
330
A
100
AcDbEntity
  8
0
  6
Continuous
 62
     7
100
AcDbLine
 10
61.66312618642109
 20
-315.1758071294101
 30
0.0
 11
61.72487927064324
 21
-315.7548031255442
 31
0.0
  0
ARC
  5
562
330
A
100
AcDbEntity
  8
0
  6
Continuous
 62
     7
100
AcDbCircle
 10
152.122073025416
 20
-460.8915358819482
 30
0.0
 40
30.00000000000001
100
AcDbArc
 50
169.4712206344906
 51
130.5287793655093
  0
LINE
  5
563
330
A
100
AcDbEntity
  8
0
  6
Continuous
 62
     7
100
AcDbLine
 10
122.6271755975842
 20
-455.4096542960616
 30
0.0
 11
122.0948738141315
 21
-455.173636037693
 31
0.0
  0
LINE
  5
564
330
A
100
AcDbEntity
  8
0
  6
Continuous
 62
     7
100
AcDbLine
 10
132.1566268983537
 20
-437.7461684826074
 30
0.0
 11
132.6271755975842
 21
-438.0891462203728
 31
0.0
  0
ARC
  5
565
330
A
100
AcDbEntity
  8
0
  6
Continuous
 62
     7
100
AcDbCircle
 10
-48.79582065257381
 20
-460.8915358819482
 30
0.0
 40
30.00000000000001
100
AcDbArc
 50
49.47122063449072
 51
10.52877936550935
  0
LINE
  5
566
330
A
100
AcDbEntity
  8
0
  6
Continuous
 62
     7
100
AcDbLine
 10
-18.76862144128942
 20
-455.173636037693
 30
0.0
 11
-19.30092322474203
 21
-455.4096542960616
 31
0.0
  0
LINE
  5
567
330
A
100
AcDbEntity
  8
0
  6
Continuous
 62
     7
100
AcDbLine
 10
-29.30092322474204
 20
-438.0891462203728
 30
0.0
 11
-28.83037452551159
 21
-437.7461684826074
 31
0.0
  0
LWPOLYLINE
  5
568
330
A
100
AcDbEntity
  8
0
  6
PHANTOM
 62
     7
100
AcDbPolyline
 90
        9
 70
   128
 43
0.0
 10
-56.3185788416273
 20
-322.0029693738476
 10
-55.98496851864568
 20
-318.1505216302075
 10
-55.65981671627559
 20
-313.2031220320015
 10
-55.84844408976616
 20
-308.2418675588151
 10
-56.75812904119173
 20
-303.399792775045
 10
-57.96793344251803
 20
-300.0383967745327
 10
-59.68358992497266
 20
-296.9113095001386
 10
-61.95842384387281
 20
-294.1129426154958
 10
-62.47852301171016
 20
-293.6400899118954
  0
LWPOLYLINE
  5
573
330
A
100
AcDbEntity
  8
0
  6
PHANTOM
 62
     7
100
AcDbPolyline
 90
       11
 70
   128
 43
0.0
 10
-85.72277831661464
 20
-273.4268363531974
 10
-85.78356651780223
 20
-273.26266073025
 10
-86.20408741570019
 20
-270.8532099805882
 10
-86.2543123620134
 20
-268.4031282903825
 10
-85.79245428899776
 20
-264.9200725186923
 10
-84.794648470286
 20
-261.5470608074211
 10
-82.78152058588084
 20
-257.2390430609102
 10
-80.27739892257601
 20
-253.1683894860448
 10
-77.5464655497992
 20
-249.2121041891666
 10
-74.8529025369782
 20
-245.2471912766177
 10
-71.58544052217455
 20
-239.1615095681784
  0
LWPOLYLINE
  5
580
330
A
100
AcDbEntity
  8
0
  6
PHANTOM
 62
     7
100
AcDbPolyline
 90
       46
 70
   128
 43
0.0
 10
-41.78706680788365
 20
-217.6327917384651
 10
-50.25329053421316
 20
-220.0628102219353
 10
-53.48923147118012
 20
-220.8920991661022
 10
-56.64772494258049
 20
-221.9453715328537
 10
-57.95750171431119
 20
-222.6801906525478
 10
-58.66939909627081
 20
-223.6403252866018
 10
-59.47724837826044
 20
-225.509675277834
 10
-60.6378425290471
 20
-229.3492923538522
 10
-61.71021637866473
 20
-233.2179294300072
 10
-63.6265619711116
 20
-238.7204453624368
 10
-66.01917389106427
 20
-244.0434792261591
 10
-68.91578658043321
 20
-249.0909509845825
 10
-71.41571987237103
 20
-252.7288975444947
 10
-73.96563931870312
 20
-256.3488497085263
 10
-76.3044626946493
 20
-260.0751698962763
 10
-78.17110777542938
 20
-264.0322205273441
 10
-78.85980007968609
 20
-266.33918842124
 10
-79.18113615791688
 20
-268.721371010293
 10
-78.93806609624182
 20
-271.4244603291945
 10
-78.09910882771262
 20
-273.1575941967607
 10
-76.39442394746449
 20
-275.0349125333585
 10
-74.40086536183056
 20
-276.6280757159005
 10
-70.208425551923
 20
-279.4193031960947
 10
-63.56914697029134
 20
-283.6532325253114
 10
-59.93744850692559
 20
-286.3682195637189
 10
-56.61244003346869
 20
-289.461941474446
 10
-53.79318327695635
 20
-292.9805030906577
 10
-51.54111179508332
 20
-297.076299619313
 10
-49.94932986529262
 20
-301.4764251688451
 10
-48.85239454886236
 20
-307.189493055924
 10
-48.58419411639502
 20
-313.0419479681155
 10
-48.93953161786204
 20
-318.8802910986298
 10
-49.25216439325565
 20
-321.9918929832512
 10
-49.14896119656879
 20
-325.0905587820807
 10
-48.57599919806904
 20
-326.7036280570285
 10
-47.30663168280808
 20
-328.3046286929178
 10
-44.59292571854347
 20
-330.2595008245438
 10
-41.44726094480295
 20
-331.3788330536809
 10
-36.53373187758004
 20
-331.8806847551824
 10
-31.55406412162182
 20
-331.5775030270704
 10
-26.55313361815788
 20
-330.8872885218841
 10
-21.57581630841779
 20
-330.2280418921626
 10
-14.06548721495691
 20
-329.6446987585829
 10
-6.506175456237079
 20
-329.5358657892827
 10
1.003304391197848
 20
-330.0851312747544
 10
8.364137750803996
 20
-331.4760835054908
  0
LWPOLYLINE
  5
5B0
330
A
100
AcDbEntity
  8
0
  6
PHANTOM
 62
     7
100
AcDbPolyline
 90
        3
 70
   128
 43
0.0
 10
133.9035725017424
 20
-345.816207997086
 10
131.9165595344859
 20
-351.0100362036035
 10
130.5598991009675
 20
-353.9881254981939
  0
LWPOLYLINE
  5
5B5
330
A
100
AcDbEntity
  8
0
  6
PHANTOM
 62
     7
100
AcDbPolyline
 90
        5
 70
   128
 43
0.0
 10
8.364137750803989
 20
-331.4760835054908
 10
14.18211136982361
 20
-333.2960978622196
 10
19.76646250589053
 20
-335.7353377077175
 10
24.35849919888267
 20
-338.4038040449333
 10
24.50282569496673
 20
-338.5116453350622
  0
LWPOLYLINE
  5
5BC
330
A
100
AcDbEntity
  8
0
  6
PHANTOM
 62
     7
100
AcDbPolyline
 90
       13
 70
   128
 43
0.0
 10
113.3867375384821
 20
-370.2419104215541
 10
116.310978955591
 20
-366.5224228566029
 10
119.6854568150323
 20
-360.7514639261008
 10
125.3794711925628
 20
-348.2445984146372
 10
130.2915827793026
 20
-335.4071506489
 10
131.1531838710811
 20
-332.0113043149574
 10
131.3879975690544
 20
-328.5173465070412
 10
130.9065175270718
 20
-324.3593622696831
 10
129.8364043719824
 20
-320.3030423261107
 10
127.6108157285755
 20
-314.7303714665152
 10
124.9040171015068
 20
-309.362099509839
 10
122.5739583653446
 20
-304.8699086106704
 10
120.5585673916053
 20
-300.2369546669522
  0
LWPOLYLINE
  5
5CB
330
A
100
AcDbEntity
  8
0
  6
PHANTOM
 62
     7
100
AcDbPolyline
 90
        6
 70
   128
 43
0.0
 10
81.04074384844919
 20
-157.0279899931116
 10
81.8024360142494
 20
-166.828888786011
 10
82.18301138717277
 20
-177.6155698185108
 10
83.01610670231108
 20
-188.3582656318874
 10
83.01611207999608
 20
-188.3583078574577
 10
83.01611207999609
 20
-188.3583078574578
  0
LWPOLYLINE
  5
5D3
330
A
100
AcDbEntity
  8
0
  6
PHANTOM
 62
     7
100
AcDbPolyline
 90
       39
 70
   128
 43
0.0
 10
76.04270069021635
 20
-189.2715278793522
 10
75.17870533356607
 20
-178.5258294031021
 10
74.7791268087899
 20
-167.7346211423765
 10
73.93395164216832
 20
-156.9864847612766
 10
73.46808710007751
 20
-153.9832422329049
 10
72.73179870238081
 20
-151.0401762814313
 10
72.19935554893033
 20
-149.5917406967451
 10
71.4061663207392
 20
-148.2881174780356
 10
71.26028943319484
 20
-148.1319394381043
 10
71.03769779165631
 20
-147.9757238900091
 10
70.15442288030931
 20
-147.7279465937462
 10
68.42996998109367
 20
-147.5954053656128
 10
66.6963017471847
 20
-147.68463909183
 10
59.90457375212347
 20
-148.7917084375194
 10
53.23240567085337
 20
-150.5452808762057
 10
42.79104322590881
 20
-154.1369110265273
 10
32.66819941022303
 20
-158.6206544295707
 10
22.81736273645083
 20
-163.6677495062225
 10
18.65643370206617
 20
-166.0610705073021
 10
16.31208806827538
 20
-167.8858804086669
 10
15.12566476629301
 20
-169.5883056357483
 10
14.50817883969738
 20
-171.6124228457349
 10
14.19663686850203
 20
-173.717835215171
 10
13.89165191702975
 20
-178.36508566942
 10
13.56879899649119
 20
-184.6147324917077
 10
12.88884917731926
 20
-190.8334724378974
 10
11.47889812284174
 20
-196.8891732461632
 10
9.750767909911619
 20
-201.1433674671765
 10
7.337081374704249
 20
-205.0408220311029
 10
4.219397519463763
 20
-208.4248352948591
 10
0.566537166560785
 20
-211.2331625630323
 10
-4.663241063934759
 20
-214.0021737164467
 10
-10.27916444089419
 20
-215.8900200952751
 10
-15.31467477554878
 20
-216.811452105961
 10
-20.44572902137233
 20
-217.1507345494066
 10
-25.58218960305918
 20
-217.0564740623051
 10
-31.02073665845094
 20
-216.778352583326
 10
-36.46171753189244
 20
-216.8124888847402
 10
-41.7870668078837
 20
-217.6327917384651
  0
LWPOLYLINE
  5
5FC
330
A
100
AcDbEntity
  8
0
  6
PHANTOM
 62
     7
100
AcDbPolyline
 90
       43
 70
   128
 43
0.0
 10
120.5585673916053
 20
-300.2369546669521
 10
119.2409240770619
 20
-295.3943238811556
 10
118.9595092358519
 20
-292.2991671442519
 10
119.1888065657523
 20
-289.2036144134017
 10
119.9738208955677
 20
-286.1927577741852
 10
121.2419781283768
 20
-283.3475709087777
 10
123.7274848164373
 20
-279.6316366262153
 10
126.7586780153059
 20
-276.3304377082516
 10
132.6581063264862
 20
-271.3626892614072
 10
139.0485310122529
 20
-266.9930180322406
 10
145.6769736716483
 20
-262.9255943651056
 10
152.2904559037145
 20
-258.8645886043558
 10
159.2173327079878
 20
-254.1976836999986
 10
164.329808694298
 20
-249.9830753974951
 10
165.9808576614422
 20
-248.2418332112507
 10
167.4001525532969
 20
-246.3143314914288
 10
168.4224914899988
 20
-243.9516088355489
 10
168.4993569413754
 20
-241.3587457356744
 10
167.7921094325956
 20
-238.2738530077773
 10
166.6189211887963
 20
-235.3187920177908
 10
163.7711086024323
 20
-229.963912156839
 10
161.3153009740792
 20
-226.1132808250598
 10
158.4978841152239
 20
-222.5302227807061
 10
156.6792889690312
 20
-220.7275115892918
 10
154.6333181358147
 20
-219.1973200434242
 10
152.2839907057893
 20
-218.0854580396721
 10
149.7562612457393
 20
-217.4506476355526
 10
146.0975312994737
 20
-217.148370366537
 10
142.4082487140189
 20
-217.2946012435452
 10
138.7408523990675
 20
-217.7140976661901
 10
131.370244968151
 20
-218.9640463634185
 10
124.0207790354787
 20
-220.3537676492283
 10
116.6247976752363
 20
-221.3809757795422
 10
109.4472860024553
 20
-221.6309097007077
 10
102.3175497946329
 20
-220.8896328734184
 10
97.30295072992197
 20
-219.5595139764894
 10
92.5699118909897
 20
-217.4527417047639
 10
88.27721751966274
 20
-214.489586882394
 10
84.57705264072295
 20
-210.8065956714249
 10
81.7346575984965
 20
-206.8687842024648
 10
79.49113941258639
 20
-202.5590706844792
 10
77.30634478727292
 20
-196.0427619392802
 10
76.04270069021636
 20
-189.2715278793522
  0
LWPOLYLINE
  5
629
330
A
100
AcDbEntity
  8
0
  6
PHANTOM
 62
     7
100
AcDbPolyline
 90
       15
 70
   128
 43
0.0
 10
83.01609015123558
 20
-188.3583508950735
 10
83.01609553475248
 20
-188.3583931198157
 10
84.06215061384797
 20
-194.1753206776995
 10
85.89596600227222
 20
-199.7776887982229
 10
87.65253099700569
 20
-203.19479804961
 10
89.88807305949855
 20
-206.3173305398503
 10
92.69325409687494
 20
-209.1249759686353
 10
95.9540237078456
 20
-211.3790797727716
 10
99.67595207012371
 20
-213.0105074136257
 10
103.6178163333004
 20
-214.0269534808361
 10
109.7830631144498
 20
-214.6262312503565
 10
115.9857376279761
 20
-214.3719992901742
 10
123.2736150183696
 20
-213.3318685753509
 10
130.515166530383
 20
-211.9374610053209
 10
137.6557162928172
 20
-210.712572611832
  0
LWPOLYLINE
  5
63A
330
A
100
AcDbEntity
  8
0
  6
PHANTOM
 62
     7
100
AcDbPolyline
 90
        3
 70
   128
 43
0.0
 10
-40.61092410450642
 20
-347.2611205184831
 10
-35.11943045114183
 20
-346.3850101225176
 10
-31.86199925052892
 20
-346.0708678749585
  0
LINE
  5
63F
330
A
100
AcDbEntity
  8
0
  6
PHANTOM
 62
     7
100
AcDbLine
 10
9.739881167810466
 20
-463.1515224353321
 30
0.0
 11
8.578056884795334
 21
-457.9661285876611
 31
0.0
  0
LWPOLYLINE
  5
640
330
A
100
AcDbEntity
  8
0
  6
PHANTOM
 62
     7
100
AcDbPolyline
 90
       15
 70
   128
 43
0.0
 10
0.1595033090991821
 20
-355.6899361511126
 10
-1.924269708015832
 20
-354.6633479550668
 10
-7.267065394866836
 20
-353.0939118323222
 10
-13.88251924687031
 20
-352.1436460181459
 10
-20.56755521460249
 20
-352.1067419326127
 10
-34.24582565801057
 20
-353.4290135878892
 10
-47.81943733626461
 20
-355.5937240504174
 10
-51.19112707469649
 20
-356.5454787839801
 10
-54.33439014508945
 20
-358.0891030603368
 10
-57.69457010218556
 20
-360.585069126788
 10
-60.67238964165203
 20
-363.5399742758055
 10
-64.38566985128755
 20
-368.2537260091678
 10
-67.68133042665839
 20
-373.2820183614763
 10
-70.40665249590658
 20
-377.5460038688871
 10
-73.41121281886009
 20
-381.6078606225622
  0
LWPOLYLINE
  5
651
330
A
100
AcDbEntity
  8
0
  6
PHANTOM
 62
     7
100
AcDbPolyline
 90
        9
 70
   128
 43
0.0
 10
33.87728197307409
 20
-523.9049552559883
 10
30.37415919883886
 20
-525.5422641131415
 10
25.9270095629345
 20
-527.7343741913058
 10
21.72475084126122
 20
-530.3783575251911
 10
17.98623354720498
 20
-533.5872051944511
 10
15.68008141924515
 20
-536.315624539866
 10
13.82977264099608
 20
-539.3649702750362
 10
12.54373278923641
 20
-542.7342176805157
 10
12.39427991958899
 20
-543.4210631241501
  0
LWPOLYLINE
  5
65C
330
A
100
AcDbEntity
  8
0
  6
PHANTOM
 62
     7
100
AcDbPolyline
 90
       11
 70
   128
 43
0.0
 10
6.511216497072758
 20
-573.6578054895978
 10
6.399430337511946
 20
-573.7925374275501
 10
4.523045228086345
 20
-575.361444582783
 10
2.426324716177749
 20
-576.6299815072967
 10
-0.8210191014117739
 20
-577.9715285689674
 10
-4.241035839990983
 20
-578.7939092375546
 10
-8.978452590626087
 20
-579.2044982218485
 10
-13.75580282811797
 20
-579.0711920346922
 10
-18.54751308622176
 20
-578.684277006264
 10
-23.32800989869257
 20
-578.3340394667414
 10
-30.23209586494911
 20
-578.5471752102404
  0
LWPOLYLINE
  5
669
330
A
100
AcDbEntity
  8
0
  6
PHANTOM
 62
     7
100
AcDbPolyline
 90
       46
 70
   128
 43
0.0
 10
-63.77569927353341
 20
-563.5053854970589
 10
-57.43812967201764
 20
-569.6223410764475
 10
-55.10197391080798
 20
-572.0101036609235
 10
-52.61056654839685
 20
-574.2188030614677
 10
-51.31930613768989
 20
-574.9856934592263
 10
-50.13185646256604
 20
-575.122147359864
 10
-48.10902724059992
 20
-574.8870903648797
 10
-44.20352423657036
 20
-573.9723858449357
 10
-40.31699932578894
 20
-572.9667703029811
 10
-34.59350794735288
 20
-571.8751163022556
 10
-28.78731943618815
 20
-571.2856620744708
 10
-22.9677743238245
 20
-571.270466369177
 10
-18.5672535393615
 20
-571.6164988278055
 10
-14.15732328165964
 20
-572.0148177639172
 10
-9.760823648460162
 20
-572.1771381285765
 10
-5.400594737504246
 20
-571.8151748728474
 10
-3.058355783546906
 20
-571.2581159567767
 10
-0.8346571058585745
 20
-570.3453098691504
 10
1.384751882170964
 20
-568.7832603613895
 10
2.46621120537778
 20
-567.1901351203707
 10
3.239674135737738
 20
-564.7751755403296
 10
3.622614631376197
 20
-562.252121569967
 10
3.943668632011801
 20
-557.2257484506527
 10
4.290719698125611
 20
-549.3589998715495
 10
4.826118212649125
 20
-544.8563632241861
 10
5.842855742854813
 20
-540.4299604630103
 10
7.48039110901881
 20
-536.2291316839739
 10
9.901419210629841
 20
-532.2308823052058
 10
12.91614875147023
 20
-528.6522959419559
 10
17.31534301701055
 20
-524.8457881480795
 10
22.24961742923771
 20
-521.6872923041611
 10
27.48343964700695
 20
-519.0758520420915
 10
30.33448231324937
 20
-517.7907990253275
 10
32.96640401453038
 20
-516.1520895358299
 10
34.07688198544936
 20
-514.8493552522523
 10
34.8287054499741
 20
-512.9495504193528
 10
35.16482139498013
 20
-509.6219760500853
 10
34.56135915381718
 20
-506.3380843296677
 10
32.53921094263851
 20
-501.8319174844686
 10
29.78681398615114
 20
-497.6709895694585
 10
26.68860543886728
 20
-493.6851639634915
 10
23.62902245529911
 20
-489.7043040454213
 10
19.36866793576546
 20
-483.4918398264926
 10
15.49475994022213
 20
-476.9997002929651
 10
12.21569788034514
 20
-470.2216672331433
 10
9.739881167810493
 20
-463.1515224353321
  0
LWPOLYLINE
  5
699
330
A
100
AcDbEntity
  8
0
  6
PHANTOM
 62
     7
100
AcDbPolyline
 90
        6
 70
   128
 43
0.0
 10
-177.6749025044956
 20
-487.4357820501268
 10
-169.5679212528246
 20
-481.8756878882305
 10
-160.4166691426218
 20
-476.1527594309742
 10
-151.5297693206781
 20
-470.0599298176022
 10
-151.529735441104
 20
-470.0599040476054
 10
-151.5297354411039
 20
-470.0599040476053
  0
LWPOLYLINE
  5
6A1
330
A
100
AcDbEntity
  8
0
  6
PHANTOM
 62
     7
100
AcDbPolyline
 90
       39
 70
   128
 43
0.0
 10
-147.252158008009
 20
-475.6424454512471
 10
-156.1262081915241
 20
-481.7635366169831
 10
-165.2718794204528
 20
-487.5051859006088
 10
-174.1574509865143
 20
-493.6111972561008
 10
-176.5254030387646
 20
-495.5162690484598
 10
-178.7060287189053
 20
-497.6254464811136
 10
-179.6941891542637
 20
-498.810773570416
 10
-180.4265653645338
 20
-500.1495072013923
 10
-180.4888810708555
 20
-500.3539293117964
 10
-180.5128718832027
 20
-500.6248071020865
 10
-180.2858158605739
 20
-501.5136342619698
 10
-179.5383734815784
 20
-503.0733248943871
 10
-178.5942606908454
 20
-504.5301087635777
 10
-174.2396465161967
 20
-509.85838307005
 10
-169.3849241962832
 20
-514.7598639074065
 10
-161.0538000226342
 20
-522.0065339596884
 10
-152.1093424237048
 20
-528.5313021610927
 10
-142.8130115351229
 20
-534.5388294307849
 10
-138.6598702315848
 20
-536.9456391773665
 10
-135.9073656830301
 20
-538.063497100798
 10
-133.8398105373429
 20
-538.2397572064157
 10
-131.7781306499595
 20
-537.7624571003337
 10
-129.7990190669881
 20
-536.9795541770158
 10
-125.6218896401236
 20
-534.9200536656383
 10
-120.0481102670725
 20
-532.0748290853669
 10
-114.3225485845571
 20
-529.5543129289734
 10
-108.3731823196423
 20
-527.7475159561107
 10
-103.8248769451468
 20
-527.117023511049
 10
-99.24273901508719
 20
-527.2586100853478
 10
-94.75325563431066
 20
-528.2665968730766
 10
-90.49474270148062
 20
-530.0259031010808
 10
-85.48181958401347
 20
-533.1705183281416
 10
-81.03893497302586
 20
-537.0901274488812
 10
-77.72319627658442
 20
-540.9902913143681
 10
-74.8638419385907
 20
-545.2642734177245
 10
-72.37724362415026
 20
-549.7597090105535
 10
-69.89883036258828
 20
-554.6086896596894
 10
-67.14877702165154
 20
-559.3036491668877
 10
-63.77569927353338
 20
-563.505385497059
  0
LWPOLYLINE
  5
6CA
330
A
100
AcDbEntity
  8
0
  6
PHANTOM
 62
     7
100
AcDbPolyline
 90
       43
 70
   128
 43
0.0
 10
-73.41121281886012
 20
-381.6078606225622
 10
-76.94623244323678
 20
-385.1702885989817
 10
-79.48600938548492
 20
-386.9615793689234
 10
-82.28148535410573
 20
-388.3107784216349
 10
-85.28147085572795
 20
-389.1363643892883
 10
-88.37955357608917
 20
-389.4607014423863
 10
-92.84040040761205
 20
-389.166156650531
 10
-97.21491913294858
 20
-388.191665795514
 10
-104.4668296431167
 20
-385.566485233649
 10
-111.4462882766443
 20
-382.2170507293872
 10
-118.2830018300349
 20
-378.5103628323899
 10
-125.1066770997923
 20
-374.8134220923184
 10
-132.6117737061485
 20
-371.1480232631112
 10
-138.8179695562724
 20
-368.8277933339805
 10
-141.1514540072734
 20
-368.2685640786637
 10
-143.5303669084047
 20
-368.0031695067671
 10
-146.0877142188447
 20
-368.2991593442452
 10
-148.3716322575596
 20
-369.529023460617
 10
-150.6896039734784
 20
-371.6839641339321
 10
-152.6621677386394
 20
-374.1775054514767
 10
-155.8757234392554
 20
-379.3212234269609
 10
-157.9825641790079
 20
-383.373330885812
 10
-159.6768750392247
 20
-387.6048144808081
 10
-160.3287711535797
 20
-390.0811196723172
 10
-160.630970488349
 20
-392.6180781622185
 10
-160.4192075140882
 20
-395.2085864003042
 10
-159.7051047206173
 20
-397.7150695286616
 10
-158.1375195414386
 20
-401.0347612422221
 10
-156.1662385944044
 20
-404.1566582444614
 10
-153.9692458781215
 20
-407.1229684076324
 10
-149.2014548374361
 20
-412.8811273355141
 10
-144.3231879334087
 20
-418.5510908945517
 10
-139.7356089174618
 20
-424.4425945732809
 10
-135.9304039560744
 20
-430.5335350572859
 10
-133.0075004158324
 20
-437.0787061491864
 10
-131.6521176382712
 20
-442.0865357774842
 10
-131.110116526108
 20
-447.2388537849607
 10
-131.5299366919632
 20
-452.4380135723973
 10
-132.8694182031073
 20
-457.4839459612347
 10
-134.8584654494273
 20
-461.9144380098738
 10
-137.4690277460809
 20
-466.0122385117171
 10
-142.0199193456692
 20
-471.1624805318898
 10
-147.252158008009
 20
-475.6424454512471
  0
LWPOLYLINE
  5
6F7
330
A
100
AcDbEntity
  8
0
  6
PHANTOM
 62
     7
100
AcDbPolyline
 90
       15
 70
   128
 43
0.0
 10
-151.5296872050551
 20
-470.059901519661
 10
-151.5296533291142
 20
-470.0598757450276
 10
-147.0150738315608
 20
-466.2455016938312
 10
-143.0801884120476
 20
-461.8561869213433
 10
-140.9991674902063
 20
-458.626402386812
 10
-139.4127460607624
 20
-455.1290999243445
 10
-138.3838443133035
 20
-451.2959191693695
 10
-138.0621179616398
 20
-447.3449579483126
 10
-138.510224361363
 20
-443.3059596150869
 10
-139.6008883771705
 20
-439.3839819913006
 10
-142.1645219954172
 20
-433.7450827734648
 10
-145.4860305881522
 20
-428.5005250534359
 10
-150.0307489056424
 20
-422.7091034511006
 10
-154.8591170405244
 20
-417.1349396638984
 10
-159.4901763873037
 20
-411.5634863693879
  0
LWPOLYLINE
  5
708
330
A
100
AcDbEntity
  8
0
  6
PHANTOM
 62
     7
100
AcDbPolyline
 90
        9
 70
   128
 43
0.0
 10
162.541656499875
 20
-343.7839770990949
 10
165.7111689511286
 20
-345.9991159855817
 10
169.8331667846629
 20
-348.7544055056235
 10
174.2240528798268
 20
-351.0716766449247
 10
178.8722551253087
 20
-352.7049037594348
 10
182.3882116545948
 20
-353.3378804145322
 10
185.9541769152985
 20
-353.415621953756
 10
189.5150506859583
 20
-352.8447414329193
 10
190.1846027234431
 20
-352.6307486928852
  0
LWPOLYLINE
  5
713
330
A
100
AcDbEntity
  8
0
  6
PHANTOM
 62
     7
100
AcDbPolyline
 90
       11
 70
   128
 43
0.0
 10
219.311921450864
 20
-342.6072598861354
 10
219.4844958116123
 20
-342.6367035711303
 10
221.7814018189359
 20
-343.4772471655593
 10
223.9283472771577
 20
-344.6587919312512
 10
226.7138330217316
 20
-346.8003006412707
 10
229.1360439415991
 20
-349.3509316839546
 10
231.8603328078291
 20
-353.2483604461717
 10
234.1335613820162
 20
-357.4523202081933
 10
236.1943382673432
 20
-361.7955205334999
 10
238.281272066993
 20
-366.1106709855715
 10
241.917896018446
 20
-371.9832169505117
  0
LWPOLYLINE
  5
720
330
A
100
AcDbEntity
  8
0
  6
PHANTOM
 62
     7
100
AcDbPolyline
 90
       46
 70
   128
 43
0.0
 10
245.6631257127396
 20
-408.5537244934068
 10
247.7917798375533
 20
-400.0067504305476
 10
248.6915650133107
 20
-396.7896989019048
 10
249.3586511222999
 20
-393.5277271346091
 10
249.3771674833236
 20
-392.0260176171565
 10
248.9016151901593
 20
-390.9294290824647
 10
247.6866352501828
 20
-389.2951360862167
 10
244.9417263969399
 20
-386.3702235301427
 10
242.1275753357761
 20
-383.5072019959422
 10
238.3204295497868
 20
-379.0963400642382
 10
234.9068529585747
 20
-374.3627604283006
 10
231.9839205355799
 20
-369.330484375171
 10
230.0833330430547
 20
-365.3465053566304
 10
228.2233222316849
 20
-361.3282342564871
 10
226.1656459744316
 20
-357.4395937040778
 10
223.6720621442557
 20
-353.8445063287391
 10
222.0185154945551
 20
-352.094597350914
 10
220.1161528950975
 20
-350.6252208494871
 10
217.6536738453929
 20
-349.4841810383464
 10
215.7332572536569
 20
-349.3441724117993
 10
213.2551094430488
 20
-349.8818136552426
 10
210.8786103617764
 20
-350.8117044430631
 10
206.3651165512332
 20
-353.0468500821833
 10
199.3787869034877
 20
-356.6796693320699
 10
195.2116899255985
 20
-358.4673189410258
 10
190.8699439219359
 20
-359.7999997914745
 10
186.4131517992595
 20
-360.4822669542993
 10
181.7400522157754
 20
-360.3847198044122
 10
177.1335407451443
 20
-359.56318061813
 10
171.6374111631737
 20
-357.6566205249275
 10
166.4349363184792
 20
-354.9626614566545
 10
161.5564516021769
 20
-351.7357585882097
 10
159.0180417113281
 20
-349.9092097203525
 10
156.2829168133602
 20
-348.4492534110203
 10
154.5994768439414
 20
-348.1389184196503
 10
152.5782858641558
 20
-348.4377226166604
 10
149.5284639548851
 20
-349.8104248543019
 10
146.9862614223075
 20
-351.9749843455825
 10
144.0948805662633
 20
-355.9792994892801
 10
141.8676097667925
 20
-360.4434091324022
 10
139.9648878106124
 20
-365.1194492435557
 10
138.0471534844405
 20
-369.7595557913473
 10
134.7971789105133
 20
-376.5553631438557
 10
131.1117751473369
 20
-383.1563356466837
 10
126.881357359779
 20
-389.3851032210339
 10
121.9963407127075
 20
-395.0642957881084
  0
LWPOLYLINE
  5
750
330
A
100
AcDbEntity
  8
0
  6
PHANTOM
 62
     7
100
AcDbPolyline
 90
        3
 70
   128
 43
0.0
 10
46.80771123408638
 20
-496.6145732133631
 10
43.30323054797822
 20
-492.2968554028113
 10
41.40245978088369
 20
-489.6329083557799
  0
LINE
  5
755
330
A
100
AcDbEntity
  8
0
  6
PHANTOM
 62
     7
100
AcDbLine
 10
121.9963407127075
 20
-395.0642957881085
 30
0.0
 11
121.2039651305218
 21
-395.793661779777
 31
0.0
  0
LWPOLYLINE
  5
756
330
A
100
AcDbEntity
  8
0
  6
PHANTOM
 62
     7
100
AcDbPolyline
 90
       12
 70
   128
 43
0.0
 10
37.85286977445319
 20
-471.3433165156106
 10
40.98245803089234
 20
-476.8336958702189
 10
48.96671409677006
 20
-488.0182897264059
 10
57.62821418828445
 20
-498.6910270296148
 10
60.13830283493783
 20
-501.1351186299948
 10
63.04675220735757
 20
-503.0854521615543
 10
66.8884122064363
 20
-504.7474703324613
 10
70.93634490099212
 20
-505.8488851270161
 10
76.87521375403457
 20
-506.7078042532492
 10
82.87767295647421
 20
-507.0477838576169
 10
87.93305376188461
 20
-507.2759892493748
 10
92.95300505857744
 20
-507.8470864394177
  0
LWPOLYLINE
  5
764
330
A
100
AcDbEntity
  8
0
  6
PHANTOM
 62
     7
100
AcDbPolyline
 90
        6
 70
   128
 43
0.0
 10
236.7345182873699
 20
-545.2281296856926
 10
227.8658448698987
 20
-540.9873250546897
 10
218.3340173867725
 20
-535.9235724794461
 10
208.6140222496903
 20
-531.2737062794416
 10
208.6139829924313
 20
-531.2736898238682
 10
208.6139829924312
 20
-531.2736898238682
  0
LWPOLYLINE
  5
76C
330
A
100
AcDbEntity
  8
0
  6
PHANTOM
 62
     7
100
AcDbPolyline
 90
       39
 70
   128
 43
0.0
 10
211.3098169491159
 20
-524.777928398332
 10
221.0478624892814
 20
-529.4025357088461
 10
230.5931122429864
 20
-534.4520946859459
 10
240.3238589756695
 20
-539.0942197115538
 10
243.1576755700106
 20
-540.1923904475665
 10
246.074589647848
 20
-541.0262789663862
 10
247.5951932366569
 20
-541.2893874617701
 10
249.1207586751182
 20
-541.2542770495031
 10
249.3289512689842
 20
-541.2060329790303
 10
249.57553372287
 20
-541.0913707368355
 10
250.2317526115882
 20
-540.4503208732149
 10
251.2087631318083
 20
-539.0231714689313
 10
251.9983185749843
 20
-537.4771538735233
 10
254.4354323953968
 20
-531.0418102213616
 10
256.2528781567533
 20
-524.3867569453189
 10
258.3631164280488
 20
-513.5484567427153
 10
259.5415026448051
 20
-502.5399451382675
 10
260.0960084299952
 20
-491.4853227919234
 10
260.1037961608418
 20
-486.6851920442623
 10
259.6956372460779
 20
-483.7425242194659
 10
258.8145054023731
 20
-481.8638388867667
 10
257.3703114415853
 20
-480.3170217828623
 10
255.7027418298092
 20
-478.9945123367439
 10
251.8305973544169
 20
-476.4067623938725
 10
246.5796709019044
 20
-473.0023401518563
 10
241.5340590385609
 20
-469.3041163620599
 10
236.9946438281235
 20
-465.0552125266569
 10
234.1744686665581
 20
-461.4315107507054
 10
232.0060172717059
 20
-457.3924696124803
 10
230.6342177461698
 20
-453.0004695609953
 10
230.0285651662426
 20
-448.4328360648177
 10
230.245420279271
 20
-442.5192096843425
 10
231.4184590452428
 20
-436.7117541847745
 10
233.1382306834559
 20
-431.8901583086016
 10
235.4099305912857
 20
-427.2768937617996
 10
238.0597928585321
 20
-422.8757186560722
 10
241.0199266523619
 20
-418.3048594859153
 10
243.7108541848666
 20
-413.5757636773026
 10
245.6631257127397
 20
-408.5537244934067
  0
LWPOLYLINE
  5
795
330
A
100
AcDbEntity
  8
0
  6
PHANTOM
 62
     7
100
AcDbPolyline
 90
       43
 70
   128
 43
0.0
 10
92.95300505857744
 20
-507.8470864394177
 10
97.80566799749756
 20
-509.1272892487946
 10
100.6268597809557
 20
-510.4311552157567
 10
103.1930384196761
 20
-512.1775088938956
 10
105.408009591483
 20
-514.3627795654587
 10
107.2379350790351
 20
-516.8836293777681
 10
109.2132752224975
 20
-520.8941084521858
 10
110.5566007489655
 20
-525.1697982251665
 10
111.9090829479534
 20
-532.7627272338759
 10
112.4981168957143
 20
-540.4818329673044
 10
112.7063877897096
 20
-548.2559445314367
 10
112.9165808274009
 20
-556.0138910322579
 10
113.4948006294838
 20
-564.3461947658225
 10
114.5885204932976
 20
-570.8810329974566
 10
115.2709559771544
 20
-573.1815044390178
 10
116.2305739864311
 20
-575.3744007307363
 10
117.7655823601691
 20
-577.4411335491381
 10
119.9726349475074
 20
-578.804132532641
 10
122.9978541722061
 20
-579.7340845872228
 10
126.1436061811664
 20
-580.1956042596645
 10
132.2049744681464
 20
-580.4067661451322
 10
136.767622836252
 20
-580.2052900180602
 10
141.2793505553242
 20
-579.556864467418
 10
143.7498418158719
 20
-578.8832704673231
 10
146.0980119838576
 20
-577.8765035232894
 10
148.2355764396222
 20
-576.3978572889558
 10
150.0492031062013
 20
-574.5261845647179
 10
152.1403478732882
 20
-571.5087701201729
 10
153.8583495117088
 20
-568.2406422409253
 10
155.3287531103774
 20
-564.8548356551095
 10
157.9315695006084
 20
-557.8467280299991
 10
160.4027685292533
 20
-550.7870431851517
 10
163.2111708735487
 20
-543.8683313761087
 10
166.5834775849423
 20
-537.5274569709381
 10
170.7903102525228
 20
-531.7235627063268
 10
174.4495265396724
 20
-528.045851974958
 10
178.6405642664415
 20
-525.000306239207
 10
183.3530788036236
 20
-522.7643012741403
 10
188.3927251937075
 20
-521.4013600962719
 10
193.224167482254
 20
-520.9086795165928
 10
198.0782479648177
 20
-521.1205925327351
 10
204.8139341897195
 20
-522.4866592577614
 10
211.3098169491159
 20
-524.777928398332
  0
LWPOLYLINE
  5
7C2
330
A
100
AcDbEntity
  8
0
  6
PHANTOM
 62
     7
100
AcDbPolyline
 90
       15
 70
   128
 43
0.0
 10
208.6139566851429
 20
-531.2736493141967
 10
208.613917425685
 20
-531.2736328640879
 10
203.0532828490362
 20
-529.2710793574006
 10
197.2845820410987
 20
-528.0580260093652
 10
193.4469961245239
 20
-527.8707012925093
 10
189.6250326325871
 20
-528.2454712647367
 10
185.7909498477518
 20
-529.2710065909266
 10
182.2084538851174
 20
-530.9678640078472
 10
178.9346319225625
 20
-533.375434700219
 10
176.0834316751933
 20
-536.2809662567948
 10
172.4818185122906
 20
-541.3205877051104
 10
169.6006525914993
 20
-546.8193773853215
 10
166.857493518596
 20
-553.6509297024803
 10
164.4443101414647
 20
-560.6195010597124
 10
161.9348197258098
 20
-567.4158427477119
  0
LWPOLYLINE
  5
7D3
330
A
100
AcDbEntity
  8
0
  6
Continuous
 62
     7
100
AcDbPolyline
 90
       21
 70
   128
 43
0.0
 10
787.5872466061982
 20
28.45215330613268
 10
787.5845520102672
 20
42.78658247027708
 10
787.5823067173524
 20
55.80976327843561
 10
787.5800287625784
 20
67.52169572985455
 10
787.577139412241
 20
77.92237982453379
 10
787.5729984476499
 20
87.01181556247339
 10
787.5668963742827
 20
94.79000294367349
 10
787.5580027195141
 20
101.2569419681339
 10
787.5452684319228
 20
106.4126326358547
 10
787.5348059130204
 20
110.3047730420056
 10
787.5375620772204
 20
112.9943227081754
 10
787.5434184143821
 20
113.8882095502778
 10
787.5511046053333
 20
114.4815043983919
 10
787.5594320799238
 20
114.7985129779024
 10
787.5680053987788
 20
115.3221094103278
 10
787.5623958796047
 20
116.6342012894702
 10
787.5074253733673
 20
118.6479655144129
 10
787.3825592182277
 20
121.363402085156
 10
787.2051110370575
 20
124.7805110016994
 10
787.0496239132481
 20
128.8992922640431
 10
787.0353035610676
 20
133.7197458721872
  0
LWPOLYLINE
  5
7EA
330
A
100
AcDbEntity
  8
0
  6
Continuous
 62
     7
100
AcDbPolyline
 90
        9
 70
   128
 43
0.0
 10
782.7930580612973
 20
248.4521102641625
 10
784.2276711340879
 20
248.3008581091718
 10
785.6020598582779
 20
247.8626247265584
 10
786.8594357195324
 20
247.1555175282157
 10
787.947845070485
 20
246.2087535519165
 10
788.8223158090363
 20
245.0614522394122
 10
789.4467155854386
 20
243.761019056045
 10
789.7952447587109
 20
242.3611867392678
 10
789.8535024147565
 20
240.9197951099319
  0
LINE
  5
7F5
330
A
100
AcDbEntity
  8
0
  6
Continuous
 62
     7
100
AcDbLine
 10
621.9759653388877
 20
248.452147306132
 30
0.0
 11
598.5820974517602
 21
248.4521301657101
 31
0.0
  0
LWPOLYLINE
  5
7F6
330
A
100
AcDbEntity
  8
0
  6
Continuous
 62
     7
100
AcDbPolyline
 90
        9
 70
   128
 43
0.0
 10
591.5064824865212
 20
241.6344878628913
 10
591.6886787820872
 20
242.9767139868517
 10
592.1225704322677
 20
244.2598746932943
 10
592.7923507705306
 20
245.4372244562667
 10
593.673619708853
 20
246.4658724409547
 10
594.7342726325748
 20
247.3083450161734
 10
595.9356699710456
 20
247.9339509182085
 10
597.2340448366237
 20
248.3198993331092
 10
598.5820974517602
 20
248.4521301657101
  0
LWPOLYLINE
  5
801
330
A
100
AcDbEntity
  8
0
  6
Continuous
 62
     7
100
AcDbPolyline
 90
       41
 70
   128
 43
0.0
 10
591.6393117893115
 20
241.6220788077351
 10
591.1764605656588
 20
231.9951793081603
 10
590.7138903558137
 20
221.3492379767628
 10
590.3195233335618
 20
211.6502790097691
 10
589.9720973561519
 20
202.898302407179
 10
589.6580010365643
 20
195.0933081689927
 10
589.3766476188138
 20
188.3494565789825
 10
589.1227233083061
 20
182.480408882811
 10
588.8765250268573
 20
176.8090975317866
 10
588.6279837309327
 20
171.0882247266451
 10
588.4262616373446
 20
166.4758422355678
 10
588.221223977257
 20
161.8317404138557
 10
588.0123512101942
 20
157.1559192615086
 10
587.80256133168
 20
152.5211544882712
 10
587.6171866760468
 20
148.4800812234508
 10
587.4649256818148
 20
145.2005884054925
 10
587.3431477269595
 20
142.6043030350147
 10
587.2241955123825
 20
140.0917039872772
 10
587.0529791038243
 20
136.516516384041
 10
586.8693690670051
 20
132.7386792085752
 10
586.6455164693749
 20
128.2159219634956
 10
586.3787249016167
 20
122.952637804005
 10
586.1024757502254
 20
117.6557829785474
 10
585.8435136030277
 20
112.8380798505491
 10
585.6031079412225
 20
108.4995284200101
 10
585.382514690739
 20
104.6401286869304
 10
585.1141029510213
 20
100.1158189349533
 10
584.8807102639479
 20
96.34894062935684
 10
584.6374183386854
 20
92.60539979462853
 10
584.3742489148336
 20
88.78115695956001
 10
584.1003516887643
 20
85.04888540765703
 10
583.7782350008666
 20
80.96814188266616
 10
583.4362738670257
 20
76.96739262025639
 10
583.115121895767
 20
73.48029157188382
 10
582.8005345419374
 20
70.27896691887237
 10
582.4065146747828
 20
66.51059725005862
 10
581.8400621048973
 20
61.461121207921
 10
581.0707427720512
 20
55.13053879245951
 10
580.0650148838354
 20
47.51885000367423
 10
578.7916913374882
 20
38.62605484156492
 10
577.2311677009038
 20
28.45215330613191
  0
LWPOLYLINE
  5
82C
330
A
100
AcDbEntity
  8
0
  6
Continuous
 62
     7
100
AcDbPolyline
 90
        3
 70
   128
 43
0.0
 10
991.9037013759918
 20
28.45215330613202
 10
993.6828042534356
 20
124.7775016901917
 10
996.3649322533919
 20
241.2005019509261
  0
LWPOLYLINE
  5
831
330
A
100
AcDbEntity
  8
0
  6
Continuous
 62
     7
100
AcDbPolyline
 90
       34
 70
   128
 43
0.0
 10
812.0186770096225
 20
240.0338994452922
 10
813.8251589395812
 20
230.4572721573015
 10
816.1632684270466
 20
217.9510199950937
 10
818.2707376579141
 20
206.5732512710028
 10
820.1513494333338
 20
196.323965985029
 10
821.8092551027403
 20
187.2031641371722
 10
823.2488016319242
 20
179.2108457274325
 10
824.4743697717426
 20
172.3470107558098
 10
825.4913223895862
 20
166.6054413819416
 10
826.2872043267183
 20
162.0803362390395
 10
827.0088093969064
 20
157.9517237164532
 10
827.6571482561273
 20
154.219603814183
 10
828.2332535788317
 20
150.8839765322287
 10
828.7781258717211
 20
147.7116620900076
 10
829.4452321619834
 20
143.8030383470386
 10
830.2465020270371
 20
139.0688204444143
 10
831.3017107228878
 20
132.7611362607186
 10
832.3563868371111
 20
126.3641950540015
 10
833.3659302342095
 20
120.1440950546079
 10
834.330763812699
 20
114.1008362625375
 10
835.2312266956555
 20
108.3647437950455
 10
835.9907661548746
 20
103.4477003652983
 10
836.6069470950151
 20
99.40177073099597
 10
836.9030839805397
 20
97.43815317343448
 10
837.2500979030727
 20
95.12100845910939
 10
837.7113920944244
 20
92.01300178096674
 10
838.2833001067334
 20
88.11413313900665
 10
838.9612438668137
 20
83.42440253322905
 10
839.7397815498774
 20
77.94380996363395
 10
840.7980318626798
 20
70.32316108788075
 10
841.980394472546
 20
61.56367098423018
 10
843.2746360039947
 20
51.66533965268246
 10
844.6692268694823
 20
40.62816709323755
 10
846.1550426852056
 20
28.45215330613213
  0
LWPOLYLINE
  5
855
330
A
100
AcDbEntity
  8
0
  6
Continuous
 62
     7
100
AcDbPolyline
 90
        9
 70
   128
 43
0.0
 10
989.2219958778024
 20
248.4520610479096
 10
990.5744175470221
 20
248.3280295883283
 10
991.9370862581832
 20
247.9233114665336
 10
993.1916324051472
 20
247.2536350712353
 10
994.2874461354747
 20
246.3460159280323
 10
995.1803210472508
 20
245.2370684500493
 10
995.8342375268163
 20
243.971528869875
 10
996.2228158219241
 20
242.6004505278462
 10
996.3303802316655
 20
241.1791443208485
  0
LINE
  5
860
330
A
100
AcDbEntity
  8
0
  6
Continuous
 62
     7
100
AcDbLine
 10
989.1586382027689
 20
244.4505792357787
 30
0.0
 11
989.221999461241
 21
244.451949666534
 31
0.0
  0
LWPOLYLINE
  5
861
330
A
100
AcDbEntity
  8
0
  6
Continuous
 62
     7
100
AcDbPolyline
 90
        9
 70
   128
 43
0.0
 10
812.0300030694076
 20
240.034723173817
 10
811.9094633153761
 20
241.573864857161
 10
812.1244552383519
 20
243.1026663605095
 10
812.6648042793162
 20
244.5487766815125
 10
813.5049382533601
 20
245.8437582035111
 10
814.6050975612174
 20
246.9263255268402
 10
815.9132168245548
 20
247.7452458192564
 10
817.3673888960491
 20
248.2617634255154
 10
818.8987946342148
 20
248.4514339907005
  0
LINE
  5
86C
330
A
100
AcDbEntity
  8
0
  6
Continuous
 62
     7
100
AcDbLine
 10
840.4651665686031
 20
248.4521472771436
 30
0.0
 11
840.4645229680854
 21
248.4521473061318
 31
0.0
  0
LWPOLYLINE
  5
86D
330
A
100
AcDbEntity
  8
0
  6
Continuous
 62
     7
100
AcDbPolyline
 90
       23
 70
   128
 43
0.0
 10
796.1090704583273
 20
241.294033764868
 10
796.3197679467953
 20
226.8516003220759
 10
796.3753404913963
 20
211.7000353220875
 10
796.326413250214
 20
197.6746300772022
 10
796.2383395322176
 20
184.7753845874203
 10
796.1498754401604
 20
173.0022988527416
 10
796.0706885214559
 20
162.5356211070917
 10
795.9903247632155
 20
153.1552422323562
 10
795.8974487725444
 20
144.861162228535
 10
795.7844692854147
 20
137.6533810956281
 10
795.7020273401198
 20
133.6322049107832
 10
795.6141092943266
 20
129.940477616921
 10
795.5221417417499
 20
125.7163130467142
 10
795.4254666180093
 20
120.7768170605627
 10
795.3233575758745
 20
115.1219896584664
 10
795.2150511218708
 20
108.7518308404256
 10
795.099739042337
 20
101.6663406064399
 10
794.9765736187726
 20
93.86551895650965
 10
794.8092568844379
 20
83.04387704483248
 10
794.6264651807715
 20
71.09171952395612
 10
794.4266808707227
 20
58.00904639388063
 10
794.2087533824667
 20
43.79585765460606
 10
793.9721388386967
 20
28.45215330613252
  0
LWPOLYLINE
  5
886
330
A
100
AcDbEntity
  8
0
  6
Continuous
 62
     7
100
AcDbPolyline
 90
        9
 70
   128
 43
0.0
 10
795.920640627293
 20
241.1759520049643
 10
796.0254655780345
 20
242.5836268667791
 10
796.406812487485
 20
243.9427088571898
 10
797.0495942906239
 20
245.199429195463
 10
797.9283808853116
 20
246.3040687912211
 10
799.0084052125665
 20
247.2129252595947
 10
800.2469387308813
 20
247.8900419000237
 10
801.5949818672742
 20
248.3086302358544
 10
802.9992025664821
 20
248.452129835409
  0
LINE
  5
891
330
A
100
AcDbEntity
  8
0
  6
Continuous
 62
     7
100
AcDbLine
 10
803.3539899576847
 20
248.4521473061324
 30
0.0
 11
802.9992025664821
 21
248.452129835409
 31
0.0
  0
LWPOLYLINE
  5
892
330
A
100
AcDbEntity
  8
0
  6
Continuous
 62
     7
100
AcDbPolyline
 90
        9
 70
   128
 43
0.0
 10
1026.097984516991
 20
248.4521333552391
 10
1027.521396406289
 20
248.3105484286198
 10
1028.900844410252
 20
247.8801891897445
 10
1030.164485660892
 20
247.1788827269988
 10
1031.259846633293
 20
246.2357512474386
 10
1032.141441750559
 20
245.0899588992468
 10
1032.772662201981
 20
243.7890854550042
 10
1033.127296147713
 20
242.3871505306832
 10
1033.190617182474
 20
240.9423703859559
  0
LWPOLYLINE
  5
89D
330
A
100
AcDbEntity
  8
0
  6
Continuous
 62
     7
100
AcDbPolyline
 90
       26
 70
   128
 43
0.0
 10
1049.984184664447
 20
28.4521533061328
 10
1047.756721205619
 20
49.51511576556536
 10
1045.702476033859
 20
69.58834366101837
 10
1043.816497480339
 20
88.67183699173834
 10
1042.086021345814
 20
106.765595757725
 10
1040.496713671675
 20
123.8696199589784
 10
1039.034724285475
 20
139.9839095954988
 10
1037.687959351129
 20
155.1084646672859
 10
1036.952388624057
 20
163.4637113598617
 10
1036.286276830587
 20
171.0725856520764
 10
1035.705930436722
 20
177.7303036191207
 10
1035.210248027635
 20
183.4368652609945
 10
1034.798358862078
 20
188.1922705776977
 10
1034.469589819346
 20
191.9965195692305
 10
1034.277251718112
 20
194.225509974487
 10
1034.131224063442
 20
195.919474946835
 10
1034.075538648952
 20
196.5658228956684
 10
1034.004266561211
 20
197.3934013868371
 10
1033.874511389259
 20
198.9009472573614
 10
1033.685864432007
 20
201.0947119044021
 10
1033.343039573593
 20
205.0871828639261
 10
1032.896355811646
 20
210.2995983150348
 10
1032.346371109426
 20
216.731958257728
 10
1031.693588296104
 20
224.3842626920057
 10
1030.938330724811
 20
233.2565116178681
 10
1030.248585085624
 20
241.3720479838225
  0
LWPOLYLINE
  5
8B9
330
A
100
AcDbEntity
  8
0
  6
Continuous
 62
     7
100
AcDbPolyline
 90
        7
 70
   128
 43
0.0
 10
1032.493112332038
 20
238.3218697046601
 10
1032.510485420455
 20
238.3120671041444
 10
1032.866462248142
 20
238.6268569748426
 10
1032.983141524933
 20
239.0203443132153
 10
1033.072173805826
 20
239.5712265869371
 10
1033.144247263798
 20
240.2795037960079
 10
1033.19404702516
 20
240.9432124230693
  0
LWPOLYLINE
  5
8C2
330
A
100
AcDbEntity
  8
0
  6
Continuous
 62
     7
100
AcDbPolyline
 90
        9
 70
   128
 43
0.0
 10
1031.429731232155
 20
248.4521151680787
 10
1032.870352049711
 20
248.2999193597557
 10
1034.250052990004
 20
247.8583478658149
 10
1035.511342619836
 20
247.1458007447801
 10
1036.601663644807
 20
246.1919694710965
 10
1037.475582944927
 20
245.0365997065617
 10
1038.096684749504
 20
243.7278351189076
 10
1038.439088063703
 20
242.3202112597659
 10
1038.488525116379
 20
240.8723830960969
  0
LWPOLYLINE
  5
8CD
330
A
100
AcDbEntity
  8
0
  6
Continuous
 62
     7
100
AcDbPolyline
 90
        8
 70
   128
 43
0.0
 10
1035.197263612291
 20
183.5867749039872
 10
1035.395046149172
 20
187.4220399956687
 10
1035.757373485784
 20
194.3439626982939
 10
1036.179846886196
 20
202.2751141706661
 10
1036.667967871863
 20
211.2154944127855
 10
1037.234821962385
 20
221.165103424652
 10
1037.906168324546
 20
232.1239412062656
 10
1038.496483442963
 20
240.8453380142824
  0
LINE
  5
8D7
330
A
100
AcDbEntity
  8
0
  6
Continuous
 62
     7
100
AcDbLine
 10
941.8867661476721
 20
251.4650632301585
 30
0.0
 11
941.8867661476721
 21
261.4650632301585
 31
0.0
  0
LINE
  5
8D8
330
A
100
AcDbEntity
  8
0
  6
Continuous
 62
     7
100
AcDbLine
 10
881.8867661476721
 20
261.4650632301585
 30
0.0
 11
881.8867661476721
 21
251.4650632301585
 31
0.0
  0
LINE
  5
8D9
330
A
100
AcDbEntity
  8
0
  6
Continuous
 62
     7
100
AcDbLine
 10
890.8867661476721
 20
251.4650632301585
 30
0.0
 11
890.8867661476721
 21
248.4521473061326
 31
0.0
  0
LINE
  5
8DA
330
A
100
AcDbEntity
  8
0
  6
Continuous
 62
     7
100
AcDbLine
 10
932.8867661476721
 20
248.4521473061324
 30
0.0
 11
932.8867661476721
 21
251.4650632301585
 31
0.0
  0
LINE
  5
8DB
330
A
100
AcDbEntity
  8
0
  6
Continuous
 62
     7
100
AcDbLine
 10
923.8867661476717
 20
270.9124592140427
 30
0.0
 11
922.8505247459384
 21
271.4650632301585
 31
0.0
  0
LINE
  5
8DC
330
A
100
AcDbEntity
  8
0
  6
Continuous
 62
     7
100
AcDbLine
 10
784.9230075494051
 20
271.4650632301585
 30
0.0
 11
766.1710373951336
 21
261.4650632301585
 31
0.0
  0
LINE
  5
8DD
330
A
100
AcDbEntity
  8
0
  6
Continuous
 62
     7
100
AcDbLine
 10
918.8867661476718
 20
271.4650632301585
 30
0.0
 11
918.8867661476718
 21
296.4650632301585
 31
0.0
  0
LINE
  5
8DE
330
A
100
AcDbEntity
  8
0
  6
Continuous
 62
     7
100
AcDbLine
 10
788.8867661476719
 20
296.4650632301585
 30
0.0
 11
788.8867661476719
 21
271.4650632301585
 31
0.0
  0
LINE
  5
8DF
330
A
100
AcDbEntity
  8
0
  6
Continuous
 62
     7
100
AcDbLine
 10
923.8867661476717
 20
261.4650632301585
 30
0.0
 11
923.8867661476717
 21
270.9124592140427
 31
0.0
  0
LINE
  5
8E0
330
A
100
AcDbEntity
  8
0
  6
Continuous
 62
     7
100
AcDbLine
 10
707.8867661476717
 20
261.4650632301585
 30
0.0
 11
707.8867661476717
 21
251.4650632301585
 31
0.0
  0
LINE
  5
8E1
330
A
100
AcDbEntity
  8
0
  6
Continuous
 62
     7
100
AcDbLine
 10
716.8867661476717
 20
251.4650632301585
 30
0.0
 11
716.8867661476717
 21
248.4521473061324
 31
0.0
  0
LINE
  5
8E2
330
A
100
AcDbEntity
  8
0
  6
Continuous
 62
     7
100
AcDbLine
 10
758.8867661476718
 20
248.4521473061325
 30
0.0
 11
758.8867661476718
 21
251.4650632301585
 31
0.0
  0
LINE
  5
8E3
330
A
100
AcDbEntity
  8
0
  6
Continuous
 62
     7
100
AcDbLine
 10
673.31283929696
 20
28.45215330613213
 30
0.0
 11
661.7835783651267
 21
240.7925593197643
 31
0.0
  0
LINE
  5
8E4
330
A
100
AcDbEntity
  8
0
  6
Continuous
 62
     7
100
AcDbLine
 10
661.7835096596272
 20
240.7936073349161
 30
0.0
 11
661.7835783651267
 21
240.7925593197643
 31
0.0
  0
LWPOLYLINE
  5
8E5
330
A
100
AcDbEntity
  8
0
  6
Continuous
 62
     7
100
AcDbPolyline
 90
        6
 70
   128
 43
0.0
 10
787.6366997406579
 20
241.325804694912
 10
787.7366931765712
 20
241.2975426480011
 10
788.2808317260555
 20
241.1606395398708
 10
788.9691052501358
 20
241.0197248320188
 10
789.6458919763674
 20
240.9274448956064
 10
789.8791332353026
 20
240.9115677454332
  0
LINE
  5
8ED
330
A
100
AcDbEntity
  8
0
  6
Continuous
 62
     7
100
AcDbLine
 10
789.3368980635464
 20
240.9695762458853
 30
0.0
 11
787.0353035610677
 21
133.7197458721873
 31
0.0
  0
LINE
  5
8EE
330
A
100
AcDbEntity
  8
0
  6
Continuous
 62
     7
100
AcDbLine
 10
668.0405388545416
 20
28.45215330613241
 30
0.0
 11
787.5563850286763
 21
28.45215330613274
 31
0.0
  0
LWPOLYLINE
  5
8EF
330
A
100
AcDbEntity
  8
0
  6
Continuous
 62
     7
100
AcDbPolyline
 90
        7
 70
   128
 43
0.0
 10
661.7835096596272
 20
240.7936073349161
 10
661.9894403994281
 20
243.1669747599717
 10
662.9438203337924
 20
245.3360978623559
 10
664.5390504646749
 20
247.0564248137131
 10
666.5952812623975
 20
248.134002035025
 10
668.2918586132314
 20
248.4436363678174
 10
668.6280220041772
 20
248.4521473061322
  0
LINE
  5
8F8
330
A
100
AcDbEntity
  8
0
  6
Continuous
 62
     7
100
AcDbLine
 10
668.6280220041888
 20
248.4521473061322
 30
0.0
 11
782.8154624875946
 21
248.4521473061326
 31
0.0
  0
LWPOLYLINE
  5
8F9
330
A
100
AcDbEntity
  8
0
  6
Continuous
 62
     7
100
AcDbPolyline
 90
        5
 70
   128
 43
0.0
 10
789.3415982051309
 20
241.1885925728185
 10
789.0077703199172
 20
243.5464170721338
 10
787.9370067226012
 20
245.6572180064581
 10
786.2500278159836
 20
247.2830187335688
 10
784.4038936431197
 20
248.1195924635415
  0
LWPOLYLINE
  5
900
330
A
100
AcDbEntity
  8
0
  6
Continuous
 62
     7
100
AcDbPolyline
 90
        3
 70
   128
 43
0.0
 10
591.6519114789196
 20
241.6217231101685
 10
591.6150676363363
 20
241.6226046139984
 10
591.5218571408877
 20
241.6313073799153
  0
LINE
  5
905
330
A
100
AcDbEntity
  8
0
  6
Continuous
 62
     7
100
AcDbLine
 10
673.31283929696
 20
28.45215330613224
 30
0.0
 11
577.2606625684922
 21
28.45215330613174
 31
0.0
  0
LINE
  5
906
330
A
100
AcDbEntity
  8
0
  6
Continuous
 62
     7
100
AcDbLine
 10
782.4713137712145
 20
248.4521473061325
 30
0.0
 11
802.5773083677645
 21
248.4521473061326
 31
0.0
  0
LINE
  5
907
330
A
100
AcDbEntity
  8
0
  6
Continuous
 62
     7
100
AcDbLine
 10
793.6580080486518
 20
28.4521533061328
 30
0.0
 11
787.5872466061982
 21
28.45215330613274
 31
0.0
  0
LINE
  5
908
330
A
100
AcDbEntity
  8
0
  6
Continuous
 62
     7
100
AcDbLine
 10
921.0551343133298
 20
242.3049860077518
 30
0.0
 11
923.7261528921761
 21
28.45215330613185
 31
0.0
  0
LINE
  5
909
330
A
100
AcDbEntity
  8
0
  6
Continuous
 62
     7
100
AcDbLine
 10
994.1117136982997
 20
28.45215330613213
 30
0.0
 11
1019.47228949079
 21
240.7925593197643
 31
0.0
  0
LINE
  5
90A
330
A
100
AcDbEntity
  8
0
  6
Continuous
 62
     7
100
AcDbLine
 10
994.111713698301
 20
28.45215330613224
 30
0.0
 11
991.9037013759918
 21
28.45215330613224
 31
0.0
  0
LINE
  5
90B
330
A
100
AcDbEntity
  8
0
  6
Continuous
 62
     7
100
AcDbLine
 10
923.7261528921763
 20
28.45215330613168
 30
0.0
 11
991.8538654779558
 21
28.45215330613185
 31
0.0
  0
LWPOLYLINE
  5
90C
330
A
100
AcDbEntity
  8
0
  6
Continuous
 62
     7
100
AcDbPolyline
 90
        3
 70
   128
 43
0.0
 10
812.0504852149688
 20
240.0398858454817
 10
812.0280933222076
 20
240.0367391859801
 10
812.034479913947
 20
240.0369067528461
  0
LINE
  5
911
330
A
100
AcDbEntity
  8
0
  6
Continuous
 62
     7
100
AcDbLine
 10
921.0551343133294
 20
242.3049860077519
 30
0.0
 11
921.0551317853854
 21
242.3051884054562
 31
0.0
  0
LINE
  5
912
330
A
100
AcDbEntity
  8
0
  6
Continuous
 62
     7
100
AcDbLine
 10
923.7261528921763
 20
28.45215330613168
 30
0.0
 11
846.2011659588368
 21
28.45215330613218
 31
0.0
  0
LINE
  5
913
330
A
100
AcDbEntity
  8
0
  6
Continuous
 62
     7
100
AcDbLine
 10
1019.472381326338
 20
240.7936073349161
 30
0.0
 11
1019.47228949079
 21
240.7925593197643
 31
0.0
  0
LWPOLYLINE
  5
914
330
A
100
AcDbEntity
  8
0
  6
Continuous
 62
     7
100
AcDbPolyline
 90
        5
 70
   128
 43
0.0
 10
926.6376757169702
 20
248.4521473061319
 10
924.7170146938804
 20
248.0269123806055
 10
922.9513454680356
 20
246.7216430884405
 10
921.6855279829571
 20
244.7380002551668
 10
921.0551317853854
 20
242.3051884054562
  0
LINE
  5
91B
330
A
100
AcDbEntity
  8
0
  6
Continuous
 62
     7
100
AcDbLine
 10
926.6376757169714
 20
248.452147306132
 30
0.0
 11
989.2349874721402
 21
248.452147306132
 31
0.0
  0
LINE
  5
91C
330
A
100
AcDbEntity
  8
0
  6
Continuous
 62
     7
100
AcDbLine
 10
989.58499747214
 20
248.4521473061322
 30
0.0
 11
1014.500615762783
 21
248.4521473061322
 31
0.0
  0
LWPOLYLINE
  5
91D
330
A
100
AcDbEntity
  8
0
  6
Continuous
 62
     7
100
AcDbPolyline
 90
        7
 70
   128
 43
0.0
 10
1019.472381326338
 20
240.7936073349161
 10
1019.322795890101
 20
243.1669747599717
 10
1018.629546602225
 20
245.3360978623559
 10
1017.470791990314
 20
247.0564248137131
 10
1015.977172437675
 20
248.134002035025
 10
1014.744800516908
 20
248.4436363678174
 10
1014.500615762806
 20
248.4521473061322
  0
LINE
  5
926
330
A
100
AcDbEntity
  8
0
  6
Continuous
 62
     7
100
AcDbLine
 10
989.189314764055
 20
244.452147306132
 30
0.0
 11
989.2349874721402
 21
244.452147306132
 31
0.0
  0
LINE
  5
927
330
A
100
AcDbEntity
  8
0
  6
Continuous
 62
     7
100
AcDbLine
 10
818.9983997724914
 20
248.452147306132
 30
0.0
 11
926.6376757169714
 21
248.452147306132
 31
0.0
  0
LWPOLYLINE
  5
928
330
A
100
AcDbEntity
  8
0
  6
Continuous
 62
     7
100
AcDbPolyline
 90
        3
 70
   128
 43
0.0
 10
796.1490427595836
 20
241.2939471910452
 10
796.019118775581
 20
241.2809951716996
 10
796.0427183377007
 20
241.1930188424423
  0
LINE
  5
92D
330
A
100
AcDbEntity
  8
0
  6
Continuous
 62
     7
100
AcDbLine
 10
846.1550426852056
 20
28.4521533061323
 30
0.0
 11
794.0080180486518
 21
28.45215330613262
 31
0.0
  0
LINE
  5
92E
330
A
100
AcDbEntity
  8
0
  6
Continuous
 62
     7
100
AcDbLine
 10
803.3539899576847
 20
248.4521473061324
 30
0.0
 11
818.1168144380789
 21
248.4521473061323
 31
0.0
  0
LINE
  5
92F
330
A
100
AcDbEntity
  8
0
  6
Continuous
 62
     7
100
AcDbLine
 10
1014.500615762783
 20
248.4521473061322
 30
0.0
 11
1026.117377625588
 21
248.4521473061323
 31
0.0
  0
LINE
  5
930
330
A
100
AcDbEntity
  8
0
  6
Continuous
 62
     7
100
AcDbLine
 10
994.111713698301
 20
28.45215330613224
 30
0.0
 11
1049.955623929335
 21
28.45215330613257
 31
0.0
  0
LWPOLYLINE
  5
931
330
A
100
AcDbEntity
  8
0
  6
Continuous
 62
     7
100
AcDbPolyline
 90
        3
 70
   128
 43
0.0
 10
992.2769088133286
 20
241.5192869712313
 10
992.4306898304301
 20
241.5176622704496
 10
996.3692758392925
 20
241.4764612496524
  0
LINE
  5
936
330
A
100
AcDbEntity
  8
0
  6
Continuous
 62
     7
100
AcDbLine
 10
1038.458555031651
 20
240.8770941605333
 30
0.0
 11
1038.4257523628
 21
240.8507595610069
 31
0.0
  0
LINE
  5
937
330
A
100
AcDbEntity
  8
0
  6
Continuous
 62
     7
100
AcDbLine
 10
1026.058352422645
 20
248.452147306132
 30
0.0
 11
1031.381444360732
 21
248.4521473061319
 31
0.0
  0
LINE
  5
938
330
A
100
AcDbEntity
  8
0
  6
Continuous
 62
     7
100
AcDbLine
 10
941.8867661476721
 20
261.4650632301585
 30
0.0
 11
881.8867661476721
 21
261.4650632301585
 31
0.0
  0
LINE
  5
939
330
A
100
AcDbEntity
  8
0
  6
Continuous
 62
     7
100
AcDbLine
 10
881.8867661476721
 20
251.4650632301585
 30
0.0
 11
941.8867661476721
 21
251.4650632301585
 31
0.0
  0
LINE
  5
93A
330
A
100
AcDbEntity
  8
0
  6
Continuous
 62
     7
100
AcDbLine
 10
877.976340601392
 20
270.9124592140427
 30
0.0
 11
877.976340601392
 21
251.4650632301585
 31
0.0
  0
LINE
  5
93B
330
A
100
AcDbEntity
  8
0
  6
Continuous
 62
     7
100
AcDbLine
 10
888.7413987483311
 20
261.4650632301585
 30
0.0
 11
877.976340601392
 21
270.9124592140427
 31
0.0
  0
LINE
  5
93C
330
A
100
AcDbEntity
  8
0
  6
Continuous
 62
     7
100
AcDbLine
 10
877.976340601392
 20
251.4650632301585
 30
0.0
 11
881.8867661476721
 21
251.4650632301585
 31
0.0
  0
LINE
  5
93D
330
A
100
AcDbEntity
  8
0
  6
Continuous
 62
     7
100
AcDbLine
 10
784.9230075494051
 20
270.9124592140427
 30
0.0
 11
766.7500333912678
 21
261.4650632301585
 31
0.0
  0
LINE
  5
93E
330
A
100
AcDbEntity
  8
0
  6
Continuous
 62
     7
100
AcDbLine
 10
923.8867661476717
 20
270.9124592140427
 30
0.0
 11
898.7609502922184
 21
270.9124592140427
 31
0.0
  0
LINE
  5
93F
330
A
100
AcDbEntity
  8
0
  6
Continuous
 62
     7
100
AcDbLine
 10
898.7609502922184
 20
270.9124592140427
 30
0.0
 11
906.1688663034168
 21
261.4650632301585
 31
0.0
  0
LINE
  5
940
330
A
100
AcDbEntity
  8
0
  6
Continuous
 62
     7
100
AcDbLine
 10
877.976340601392
 20
270.9124592140427
 30
0.0
 11
784.9230075494051
 21
270.9124592140427
 31
0.0
  0
LINE
  5
941
330
A
100
AcDbEntity
  8
0
  6
Continuous
 62
     7
100
AcDbLine
 10
922.8505247459384
 20
271.4650632301585
 30
0.0
 11
784.9230075494051
 21
271.4650632301585
 31
0.0
  0
LINE
  5
942
330
A
100
AcDbEntity
  8
0
  6
Continuous
 62
     7
100
AcDbLine
 10
784.9230075494051
 20
270.9124592140427
 30
0.0
 11
784.9230075494051
 21
251.4650632301585
 31
0.0
  0
LINE
  5
943
330
A
100
AcDbEntity
  8
0
  6
Continuous
 62
     7
100
AcDbLine
 10
784.9230075494051
 20
251.4650632301585
 30
0.0
 11
877.976340601392
 21
251.4650632301585
 31
0.0
  0
LINE
  5
944
330
A
100
AcDbEntity
  8
0
  6
Continuous
 62
     7
100
AcDbLine
 10
788.8867661476719
 20
296.4650632301585
 30
0.0
 11
918.8867661476718
 21
296.4650632301585
 31
0.0
  0
LINE
  5
945
330
A
100
AcDbEntity
  8
0
  6
Continuous
 62
     7
100
AcDbLine
 10
766.1710373951336
 20
261.4650632301585
 30
0.0
 11
766.1710373951336
 21
251.4650632301585
 31
0.0
  0
LINE
  5
946
330
A
100
AcDbEntity
  8
0
  6
Continuous
 62
     7
100
AcDbLine
 10
766.1710373951336
 20
261.4650632301585
 30
0.0
 11
707.8867661476717
 21
261.4650632301585
 31
0.0
  0
LINE
  5
947
330
A
100
AcDbEntity
  8
0
  6
Continuous
 62
     7
100
AcDbLine
 10
707.8867661476717
 20
251.4650632301585
 30
0.0
 11
766.1710373951336
 21
251.4650632301585
 31
0.0
  0
LINE
  5
948
330
A
100
AcDbEntity
  8
0
  6
Continuous
 62
     7
100
AcDbLine
 10
766.7500333912678
 20
261.4650632301585
 30
0.0
 11
766.1710373951336
 21
261.4650632301585
 31
0.0
  0
LINE
  5
949
330
A
100
AcDbEntity
  8
0
  6
Continuous
 62
     7
100
AcDbLine
 10
766.1710373951336
 20
251.4650632301585
 30
0.0
 11
784.9230075494051
 21
251.4650632301585
 31
0.0
  0
LINE
  5
94A
330
A
100
AcDbEntity
  8
0
  6
PHANTOM
 62
     7
100
AcDbLine
 10
661.7835214459967
 20
240.7936076290418
 30
0.0
 11
661.783510732574
 21
240.7936073616911
 31
0.0
  0
LWPOLYLINE
  5
94B
330
A
100
AcDbEntity
  8
0
  6
PHANTOM
 62
     7
100
AcDbPolyline
 90
       48
 70
   128
 43
0.0
 10
789.8791332353026
 20
240.9115677454332
 10
789.8959526379459
 20
240.9104228185758
 10
789.304047968067
 20
240.9952816888694
 10
788.5896782191062
 20
241.0723966035322
 10
787.5422333700744
 20
241.1559731077843
 10
786.1100291247582
 20
241.236417762024
 10
784.3508702821492
 20
241.3074683215354
 10
781.2601739628235
 20
241.408000372218
 10
779.321459771317
 20
241.4824502338312
 10
777.2538065915505
 20
241.5652611528272
 10
773.208443547494
 20
241.6992263358128
 10
769.1457518959315
 20
241.7952103294846
 10
764.1983522977255
 20
241.868083802717
 10
759.2370978245392
 20
241.9039677365328
 10
754.395023040769
 20
241.9077427846278
 10
751.0336270402567
 20
241.8843504532233
 10
747.9065397658626
 20
241.8202084374076
 10
745.1081728812198
 20
241.7239937351249
 10
742.6623314201858
 20
241.6270118029526
 10
740.505856804928
 20
241.545584239666
 10
736.4236778055528
 20
241.4372833733247
 10
733.3443754999803
 20
241.4010083477488
 10
731.0057868447192
 20
241.4236494178163
 10
728.2561118618263
 20
241.512110484432
 10
726.3399324586643
 20
241.6074053722369
 10
724.2578909959742
 20
241.7079984201722
 10
721.8484402463123
 20
241.7874729267807
 10
719.3983585561067
 20
241.8381788198782
 10
715.9153027844165
 20
241.885656782973
 10
712.5422910731451
 20
241.9183040630889
 10
708.2342733266344
 20
241.9612779940411
 10
704.1636197517689
 20
241.995956476833
 10
700.2073344548906
 20
241.9969284360174
 10
696.2424215423417
 20
241.938782796147
 10
689.4211218761137
 20
241.6750464092182
 10
682.1522295899239
 20
241.3191811992103
 10
678.1284966266299
 20
241.1503774659262
 10
674.1346168004199
 20
241.0152953972405
 10
671.2081311136874
 20
240.9381010454038
 10
669.6342923840468
 20
240.9136573233181
 10
668.2733699242946
 20
240.9162669013893
 10
667.2350992353061
 20
240.9342372497336
 10
666.4261313622823
 20
240.9475537105192
 10
665.1914424151401
 20
240.9436940539649
 10
664.2176317724907
 20
240.8914289106146
 10
661.7835321931656
 20
240.7936074663281
 10
661.7835214459965
 20
240.7936076290418
 10
661.7835214459965
 20
240.7936076290418
  0
LWPOLYLINE
  5
97D
330
A
100
AcDbEntity
  8
0
  6
PHANTOM
 62
     7
100
AcDbPolyline
 90
       29
 70
   128
 43
0.0
 10
661.7835783651267
 20
240.7925593197643
 10
661.7835675426183
 20
240.7925595697742
 10
660.8105337732041
 20
240.8896417700622
 10
660.6939320256629
 20
241.050380650127
 10
660.9662042957104
 20
241.1869278038903
 10
661.0588970114041
 20
241.241425688323
 10
660.7895264747547
 20
241.277189649973
 10
660.0079674770214
 20
241.3080658732039
 10
658.4979695282882
 20
241.3463620849602
 10
656.27969551894
 20
241.3833830539402
 10
654.2230354689977
 20
241.4022681011017
 10
651.743186621836
 20
241.4059455407053
 10
648.8630593212349
 20
241.394738836069
 10
645.7198252386931
 20
241.3767306682493
 10
640.2723536007753
 20
241.3363916231892
 10
634.6759168911328
 20
241.2867270846308
 10
629.0542304251088
 20
241.2323933555195
 10
623.937192147536
 20
241.1884040559717
 10
620.7858851967751
 20
241.172949778362
 10
617.7564751199529
 20
241.1808050478455
 10
615.6750405148589
 20
241.2125046762394
 10
613.8459286183838
 20
241.2569835678935
 10
611.1151074336349
 20
241.329854124271
 10
608.4091256440118
 20
241.3887857458107
 10
603.1399511092391
 20
241.4644900233007
 10
598.4669313167678
 20
241.5194813845196
 10
594.7202540873481
 20
241.5652428187
 10
592.8125299353249
 20
241.593954844357
 10
591.6519114789196
 20
241.6217231101685
  0
LWPOLYLINE
  5
99C
330
A
100
AcDbEntity
  8
0
  6
PHANTOM
 62
     7
100
AcDbPolyline
 90
        4
 70
   128
 43
0.0
 10
796.0275749402521
 20
240.859435549595
 10
793.0494648509936
 20
240.9724077562878
 10
790.9257538838952
 20
241.082628435044
 10
789.8544954615435
 20
241.1542848192997
  0
LWPOLYLINE
  5
9A2
330
A
100
AcDbEntity
  8
0
  6
PHANTOM
 62
     7
100
AcDbPolyline
 90
        9
 70
   128
 43
0.0
 10
1019.47228949079
 20
240.7925593197643
 10
1019.472259237755
 20
240.7925595697742
 10
1014.734048432164
 20
240.8896417700622
 10
1009.455719915755
 20
241.050380650127
 10
1003.983623282022
 20
241.1869278038903
 10
1000.103616451234
 20
241.241425688323
 10
996.4078520091455
 20
241.277189649973
 10
993.0401480644235
 20
241.3080658732039
 10
992.2539729085498
 20
241.3175993986344
  0
LWPOLYLINE
  5
9AD
330
A
100
AcDbEntity
  8
0
  6
PHANTOM
 62
     7
100
AcDbPolyline
 90
       24
 70
   128
 43
0.0
 10
996.30654551461
 20
241.2018220528253
 10
996.318120870189
 20
241.2125046762394
 10
995.9065720530329
 20
241.2569835678935
 10
994.2729135334381
 20
241.329854124271
 10
991.5660332354663
 20
241.3887857458107
 10
985.2766096384867
 20
241.4644900233007
 10
978.440042507408
 20
241.5194813845195
 10
970.8543607285749
 20
241.5652428187
 10
965.4578570100509
 20
241.593954844357
 10
959.5925519655903
 20
241.6226046139984
 10
957.3561123484553
 20
241.63281975241
 10
954.9626934805003
 20
241.6392145156485
 10
952.1894059116446
 20
241.6304151386754
 10
949.6761577710147
 20
241.5964049584777
 10
948.7546157183219
 20
241.5846744097876
 10
946.1582292951955
 20
241.5659445590326
 10
943.854479594545
 20
241.5691893538046
 10
941.2860218698684
 20
241.595164457393
 10
938.966073424557
 20
241.6403165133087
 10
932.8709181539549
 20
241.8212917245987
 10
927.1479896966987
 20
242.044803576627
 10
921.0551600833266
 20
242.3049849155237
 10
921.0551343133298
 20
242.3049860077519
 10
921.0551343133296
 20
242.3049860077519
  0
LWPOLYLINE
  5
9C7
330
A
100
AcDbEntity
  8
0
  6
PHANTOM
 62
     7
100
AcDbPolyline
 90
       31
 70
   128
 43
0.0
 10
921.0551317853854
 20
242.3051884054562
 10
921.0551060107519
 20
242.3051895009681
 10
917.2407319595555
 20
242.4639056791951
 10
912.8514171870676
 20
242.6227770957493
 10
909.6216326525363
 20
242.7116455523776
 10
906.1243301900688
 20
242.7709162750501
 10
902.2911494350939
 20
242.7950632844381
 10
898.340188214037
 20
242.7775614631492
 10
894.301189880811
 20
242.710086623856
 10
890.3792122570248
 20
242.6112155295515
 10
884.740313039189
 20
242.4414992634576
 10
879.4957553191602
 20
242.2664452212726
 10
873.7043337168248
 20
242.0566508391343
 10
868.1301699296225
 20
241.8589317481198
 10
862.4615044708082
 20
241.7024572581812
 10
858.9242487413049
 20
241.6422152121462
 10
855.1923688240366
 20
241.5922725705397
 10
851.2338584282321
 20
241.5244567206606
 10
847.3740074984615
 20
241.4230048150524
 10
843.3849123533383
 20
241.3053961984024
 10
839.8641004399676
 20
241.2150652680785
 10
836.4274725777313
 20
241.1360642356173
 10
831.5419863776424
 20
241.0214790284291
 10
826.8651874060848
 20
240.8968736393052
 10
821.0565468345111
 20
240.6871481005854
 10
817.7471683799229
 20
240.5173889572714
 10
814.9005359660064
 20
240.3198872954411
 10
813.5819023243929
 20
240.2006514866721
 10
812.6311290792569
 20
240.103194500813
 10
812.1317055532641
 20
240.0512994741529
 10
812.0504852149688
 20
240.0398858454817
  0
LWPOLYLINE
  5
9E8
330
A
100
AcDbEntity
  8
0
  6
PHANTOM
 62
     7
100
AcDbPolyline
 90
        8
 70
   128
 43
0.0
 10
812.0191008680821
 20
241.0035398221259
 10
809.7930894347875
 20
241.0256852270427
 10
806.1322623350118
 20
241.0779029188055
 10
803.041767163315
 20
241.1288575255926
 10
800.9230537557533
 20
241.1680844434721
 10
799.6151092448226
 20
241.2204587196662
 10
797.3802403882415
 20
241.4166843101935
 10
796.1490427595836
 20
241.2939471910452
  0
LWPOLYLINE
  5
9F2
330
A
100
AcDbEntity
  8
0
  6
PHANTOM
 62
     7
100
AcDbPolyline
 90
       11
 70
   128
 43
0.0
 10
1033.163593600888
 20
240.9463291186618
 10
1033.200646166308
 20
240.9381010454037
 10
1033.090931714973
 20
240.9136573233181
 10
1032.649558561723
 20
240.9162669013893
 10
1031.8854027113
 20
240.9342372497336
 10
1030.883667660195
 20
240.9475537105192
 10
1028.358219905044
 20
240.9436940539649
 10
1025.624698527367
 20
240.8914289106146
 10
1019.472445002291
 20
240.7936074663281
 10
1019.472414694124
 20
240.7936076290418
 10
1019.472414694124
 20
240.7936076290418
  0
LINE
  5
9FF
330
A
100
AcDbEntity
  8
0
  6
PHANTOM
 62
     7
100
AcDbLine
 10
1019.472414694124
 20
240.7936076290418
 30
0.0
 11
1019.472384363903
 21
240.7936073616911
 31
0.0
  0
LWPOLYLINE
  5
A00
330
A
100
AcDbEntity
  8
0
  6
PHANTOM
 62
     7
100
AcDbPolyline
 90
        7
 70
   128
 43
0.0
 10
1038.4257523628
 20
240.8507595610069
 10
1038.221956115545
 20
240.6871481005854
 10
1037.553786792089
 20
240.5173889572714
 10
1036.251184090511
 20
240.3198872954411
 10
1035.090279829933
 20
240.2006514866721
 10
1033.584007959522
 20
240.103194500813
 10
1033.124980871291
 20
240.0901699261282
  0
ENDSEC
  0
SECTION
  2
OBJECTS
  0
DICTIONARY
  5
19
330
0
100
AcDbDictionary
281
     1
  3
ACAD_COLOR
350
A0D
  3
ACAD_GROUP
350
1A
  3
ACAD_LAYOUT
350
A0E
  3
ACAD_MATERIAL
350
A0C
  3
ACAD_MLINESTYLE
350
1B
  3
ACAD_PLOTSETTINGS
350
A0F
  3
ACAD_PLOTSTYLENAME
350
A0A
  3
ACDBHEADERROUNDTRIPXREC
350
A27
  3
AcDbVariableDictionary
350
A20
  3
ASE_INDEX_DICTIONARY
350
A15
  0
DICTIONARY
  5
A0D
102
{ACAD_REACTORS
330
19
102
}
330
19
100
AcDbDictionary
281
     1
  0
DICTIONARY
  5
1A
102
{ACAD_REACTORS
330
19
102
}
330
19
100
AcDbDictionary
281
     1
  0
DICTIONARY
  5
A0E
102
{ACAD_REACTORS
330
19
102
}
330
19
100
AcDbDictionary
281
     1
  3
Layout1
350
A11
  3
Model
350
A10
  0
DICTIONARY
  5
A0C
102
{ACAD_REACTORS
330
19
102
}
330
19
100
AcDbDictionary
281
     1
  0
DICTIONARY
  5
1B
102
{ACAD_REACTORS
330
19
102
}
330
19
100
AcDbDictionary
281
     1
  3
STANDARD
350
1C
  0
DICTIONARY
  5
A0F
102
{ACAD_REACTORS
330
19
102
}
330
19
100
AcDbDictionary
281
     1
  0
ACDBDICTIONARYWDFLT
  5
A0A
102
{ACAD_REACTORS
330
19
102
}
330
19
100
AcDbDictionary
281
     1
  3
Normal
350
A0B
100
AcDbDictionaryWithDefault
340
A0B
  0
DICTIONARY
  5
A27
102
{ACAD_REACTORS
330
19
102
}
330
19
100
AcDbDictionary
281
     1
  3
COLORDICT
350
A29
  3
MATERIALDICT
350
A28
  0
DICTIONARY
  5
A20
102
{ACAD_REACTORS
330
19
102
}
330
19
100
AcDbDictionary
281
     1
  3
DIMASSOC
350
A21
  3
PROJECTNAME
350
A22
  0
DICTIONARY
  5
A15
102
{ACAD_REACTORS
330
19
102
}
330
19
100
AcDbDictionary
281
     1
  3
ASEBlockHierarchyIndexRecord
350
A17
1001
DCO15
1040
1521898502.984
  0
LAYOUT
  5
A11
102
{ACAD_XDICTIONARY
360
A2C
102
}
102
{ACAD_REACTORS
330
A0E
102
}
330
A0E
100
AcDbPlotSettings
  1

  2
ProgeSOFT PDF Wizard
  4

  6

 40
0.0
 41
0.0
 42
0.0
 43
0.0
 44
0.0
 45
0.0
 46
0.0
 47
0.0
 48
0.0
 49
0.0
140
0.0
141
0.0
142
1.0
143
1.0
 70
   688
 72
     0
 73
     0
 74
     5
  7

 75
    16
147
1.0
148
0.0
149
0.0
100
AcDbLayout
  1
Layout1
 70
     1
 71
     1
 10
0.0
 20
0.0
 11
12.0
 21
9.0
 12
0.0
 22
0.0
 32
0.0
 14
1.000000000000000E+20
 24
1.000000000000000E+20
 34
1.000000000000000E+20
 15
-1.000000000000000E+20
 25
-1.000000000000000E+20
 35
-1.000000000000000E+20
146
0.0
 13
0.0
 23
0.0
 33
0.0
 16
1.0
 26
0.0
 36
0.0
 17
0.0
 27
1.0
 37
0.0
 76
     0
330
B
  0
LAYOUT
  5
A10
102
{ACAD_XDICTIONARY
360
A2A
102
}
102
{ACAD_REACTORS
330
A0E
102
}
330
A0E
100
AcDbPlotSettings
  1

  2
ProgeSOFT PDF Wizard
  4

  6

 40
0.0
 41
0.0
 42
0.0
 43
0.0
 44
0.0
 45
0.0
 46
0.0
 47
0.0
 48
0.0
 49
0.0
140
0.0
141
0.0
142
1.0
143
1.0
 70
  1712
 72
     0
 73
     0
 74
     0
  7

 75
     0
147
1.0
148
0.0
149
0.0
100
AcDbLayout
  1
Model
 70
     1
 71
     0
 10
0.0
 20
0.0
 11
12.0
 21
9.0
 12
0.0
 22
0.0
 32
0.0
 14
0.0
 24
0.0
 34
0.0
 15
0.0
 25
0.0
 35
0.0
146
0.0
 13
0.0
 23
0.0
 33
0.0
 16
1.0
 26
0.0
 36
0.0
 17
0.0
 27
1.0
 37
0.0
 76
     0
330
A
  0
MLINESTYLE
  5
1C
102
{ACAD_REACTORS
330
1B
102
}
330
1B
100
AcDbMlineStyle
  2
STANDARD
 70
     0
  3

 62
     0
 51
90.0
 52
90.0
 71
     2
 49
0.5
 62
   256
  6
BYLAYER
 49
-0.5
 62
   256
  6
BYLAYER
  0
ACDBPLACEHOLDER
  5
A0B
102
{ACAD_REACTORS
330
A0A
102
}
330
A0A
  0
XRECORD
  5
A29
102
{ACAD_REACTORS
330
A27
102
}
330
A27
100
AcDbXrecord
280
     1
340
A0D
  0
XRECORD
  5
A28
102
{ACAD_REACTORS
330
A27
102
}
330
A27
100
AcDbXrecord
280
     1
340
A0C
  0
DICTIONARYVAR
  5
A21
102
{ACAD_REACTORS
330
A20
102
}
330
A20
100
DictionaryVariables
280
     0
  1
1
  0
DICTIONARYVAR
  5
A22
102
{ACAD_REACTORS
330
A20
102
}
330
A20
100
DictionaryVariables
280
     0
  1

  0
XRECORD
  5
A17
102
{ACAD_REACTORS
330
A15
102
}
330
A15
100
AcDbXrecord
280
     1
  0
DICTIONARY
  5
A2C
330
A11
100
AcDbDictionary
280
     1
281
     1
  3
ACAD_XREC_ROUNDTRIP
360
A2D
  0
DICTIONARY
  5
A2A
330
A10
100
AcDbDictionary
280
     1
281
     1
  3
ACAD_XREC_ROUNDTRIP
360
A2B
  0
XRECORD
  5
A2D
102
{ACAD_REACTORS
330
A2C
102
}
330
A2C
100
AcDbXrecord
280
     1
102
SHADEPLOT
 70
     0
102
SHADEPLOTRESLEVEL
 70
     2
102
SHADEPLOTCUSTOMDPI
 70
   300
  0
XRECORD
  5
A2B
102
{ACAD_REACTORS
330
A2A
102
}
330
A2A
100
AcDbXrecord
280
     1
102
SHADEPLOT
 70
     0
102
SHADEPLOTRESLEVEL
 70
     2
102
SHADEPLOTCUSTOMDPI
 70
   300
  0
ENDSEC
  0
EOF
