  0
SECTION
  2
HEADER
  9
$ACADVER
  1
AC1018
  9
$ACADMAINTVER
 70
     0
  9
$DWGCODEPAGE
  3
ANSI_1252
  9
$INSBASE
 10
0.0
 20
0.0
 30
0.0
  9
$EXTMIN
 10
1885.891681961318
 20
195.5555555555637
 30
0.0
  9
$EXTMAX
 10
2095.731554274509
 20
1759.885138293339
 30
0.0
  9
$LIMMIN
 10
0.0
 20
0.0
  9
$LIMMAX
 10
12.0
 20
9.0
  9
$ORTHOMODE
 70
     0
  9
$REGENMODE
 70
     1
  9
$FILLMODE
 70
     1
  9
$QTEXTMODE
 70
     0
  9
$MIRRTEXT
 70
     1
  9
$LTSCALE
 40
1.0
  9
$ATTMODE
 70
     1
  9
$TEXTSIZE
 40
0.2
  9
$TRACEWID
 40
0.05
  9
$TEXTSTYLE
  7
Standard
  9
$CLAYER
  8
Predefinito
  9
$CELTYPE
  6
ByLayer
  9
$CECOLOR
 62
   256
  9
$CELTSCALE
 40
1.0
  9
$DISPSILH
 70
     0
  9
$DIMSCALE
 40
1.0
  9
$DIMASZ
 40
0.18
  9
$DIMEXO
 40
0.0625
  9
$DIMDLI
 40
0.38
  9
$DIMRND
 40
0.0
  9
$DIMDLE
 40
0.0
  9
$DIMEXE
 40
0.18
  9
$DIMTP
 40
0.0
  9
$DIMTM
 40
0.0
  9
$DIMTXT
 40
0.18
  9
$DIMCEN
 40
0.09
  9
$DIMTSZ
 40
0.0
  9
$DIMTOL
 70
     0
  9
$DIMLIM
 70
     0
  9
$DIMTIH
 70
     1
  9
$DIMTOH
 70
     1
  9
$DIMSE1
 70
     0
  9
$DIMSE2
 70
     0
  9
$DIMTAD
 70
     0
  9
$DIMZIN
 70
     0
  9
$DIMBLK
  1

  9
$DIMASO
 70
     1
  9
$DIMSHO
 70
     1
  9
$DIMPOST
  1

  9
$DIMAPOST
  1

  9
$DIMALT
 70
     0
  9
$DIMALTD
 70
     2
  9
$DIMALTF
 40
25.4
  9
$DIMLFAC
 40
1.0
  9
$DIMTOFL
 70
     0
  9
$DIMTVP
 40
0.0
  9
$DIMTIX
 70
     0
  9
$DIMSOXD
 70
     0
  9
$DIMSAH
 70
     0
  9
$DIMBLK1
  1

  9
$DIMBLK2
  1

  9
$DIMSTYLE
  2
Standard
  9
$DIMCLRD
 70
     0
  9
$DIMCLRE
 70
     0
  9
$DIMCLRT
 70
     0
  9
$DIMTFAC
 40
1.0
  9
$DIMGAP
 40
0.09
  9
$DIMJUST
 70
     0
  9
$DIMSD1
 70
     0
  9
$DIMSD2
 70
     0
  9
$DIMTOLJ
 70
     1
  9
$DIMTZIN
 70
     0
  9
$DIMALTZ
 70
     0
  9
$DIMALTTZ
 70
     0
  9
$DIMUPT
 70
     0
  9
$DIMDEC
 70
     4
  9
$DIMTDEC
 70
     4
  9
$DIMALTU
 70
     2
  9
$DIMALTTD
 70
     2
  9
$DIMTXSTY
  7
Standard
  9
$DIMAUNIT
 70
     0
  9
$DIMADEC
 70
     0
  9
$DIMALTRND
 40
0.0
  9
$DIMAZIN
 70
     0
  9
$DIMDSEP
 70
    46
  9
$DIMATFIT
 70
     3
  9
$DIMFRAC
 70
     0
  9
$DIMLDRBLK
  1

  9
$DIMLUNIT
 70
     2
  9
$DIMLWD
 70
    -2
  9
$DIMLWE
 70
    -2
  9
$DIMTMOVE
 70
     2
  9
$LUNITS
 70
     2
  9
$LUPREC
 70
     3
  9
$SKETCHINC
 40
0.1
  9
$FILLETRAD
 40
0.5
  9
$AUNITS
 70
     0
  9
$AUPREC
 70
     0
  9
$MENU
  1
.
  9
$ELEVATION
 40
0.0
  9
$PELEVATION
 40
0.0
  9
$THICKNESS
 40
0.0
  9
$LIMCHECK
 70
     0
  9
$CHAMFERA
 40
0.0
  9
$CHAMFERB
 40
0.0
  9
$CHAMFERC
 40
0.0
  9
$CHAMFERD
 40
0.0
  9
$SKPOLY
 70
     0
  9
$TDCREATE
 40
2458653.613695428
  9
$TDUCREATE
 40
2458653.530362095
  9
$TDUPDATE
 40
2458653.613737836
  9
$TDUUPDATE
 40
2458653.530404503
  9
$TDINDWG
 40
0.0000000116
  9
$TDUSRTIMER
 40
0.0000000116
  9
$USRTIMER
 70
     1
  9
$ANGBASE
 50
0.0
  9
$ANGDIR
 70
     0
  9
$PDMODE
 70
     0
  9
$PDSIZE
 40
0.0
  9
$PLINEWID
 40
0.0
  9
$SPLFRAME
 70
     0
  9
$SPLINETYPE
 70
     6
  9
$SPLINESEGS
 70
     8
  9
$HANDSEED
  5
25F
  9
$SURFTAB1
 70
     6
  9
$SURFTAB2
 70
     6
  9
$SURFTYPE
 70
     6
  9
$SURFU
 70
     6
  9
$SURFV
 70
     6
  9
$UCSBASE
  2

  9
$UCSNAME
  2

  9
$UCSORG
 10
0.0
 20
0.0
 30
0.0
  9
$UCSXDIR
 10
1.0
 20
0.0
 30
0.0
  9
$UCSYDIR
 10
0.0
 20
1.0
 30
0.0
  9
$UCSORTHOREF
  2

  9
$UCSORTHOVIEW
 70
     0
  9
$UCSORGTOP
 10
0.0
 20
0.0
 30
0.0
  9
$UCSORGBOTTOM
 10
0.0
 20
0.0
 30
0.0
  9
$UCSORGLEFT
 10
0.0
 20
0.0
 30
0.0
  9
$UCSORGRIGHT
 10
0.0
 20
0.0
 30
0.0
  9
$UCSORGFRONT
 10
0.0
 20
0.0
 30
0.0
  9
$UCSORGBACK
 10
0.0
 20
0.0
 30
0.0
  9
$PUCSBASE
  2

  9
$PUCSNAME
  2

  9
$PUCSORG
 10
0.0
 20
0.0
 30
0.0
  9
$PUCSXDIR
 10
1.0
 20
0.0
 30
0.0
  9
$PUCSYDIR
 10
0.0
 20
1.0
 30
0.0
  9
$PUCSORTHOREF
  2

  9
$PUCSORTHOVIEW
 70
     0
  9
$PUCSORGTOP
 10
0.0
 20
0.0
 30
0.0
  9
$PUCSORGBOTTOM
 10
0.0
 20
0.0
 30
0.0
  9
$PUCSORGLEFT
 10
0.0
 20
0.0
 30
0.0
  9
$PUCSORGRIGHT
 10
0.0
 20
0.0
 30
0.0
  9
$PUCSORGFRONT
 10
0.0
 20
0.0
 30
0.0
  9
$PUCSORGBACK
 10
0.0
 20
0.0
 30
0.0
  9
$USERI1
 70
     0
  9
$USERI2
 70
     0
  9
$USERI3
 70
     0
  9
$USERI4
 70
     0
  9
$USERI5
 70
     0
  9
$USERR1
 40
0.0
  9
$USERR2
 40
0.0
  9
$USERR3
 40
0.0
  9
$USERR4
 40
0.0
  9
$USERR5
 40
0.0
  9
$WORLDVIEW
 70
     1
  9
$SHADEDGE
 70
     3
  9
$SHADEDIF
 70
    70
  9
$TILEMODE
 70
     1
  9
$MAXACTVP
 70
    64
  9
$PINSBASE
 10
0.0
 20
0.0
 30
0.0
  9
$PLIMCHECK
 70
     0
  9
$PEXTMIN
 10
1.000000000000000E+20
 20
1.000000000000000E+20
 30
1.000000000000000E+20
  9
$PEXTMAX
 10
-1.000000000000000E+20
 20
-1.000000000000000E+20
 30
-1.000000000000000E+20
  9
$PLIMMIN
 10
0.0
 20
0.0
  9
$PLIMMAX
 10
12.0
 20
9.0
  9
$UNITMODE
 70
     0
  9
$VISRETAIN
 70
     1
  9
$PLINEGEN
 70
     0
  9
$PSLTSCALE
 70
     1
  9
$TREEDEPTH
 70
  3020
  9
$CMLSTYLE
  2
Standard
  9
$CMLJUST
 70
     0
  9
$CMLSCALE
 40
1.0
  9
$PROXYGRAPHICS
 70
     1
  9
$MEASUREMENT
 70
     0
  9
$CELWEIGHT
370
    -1
  9
$ENDCAPS
280
     0
  9
$JOINSTYLE
280
     0
  9
$LWDISPLAY
290
     0
  9
$INSUNITS
 70
     4
  9
$HYPERLINKBASE
  1

  9
$STYLESHEET
  1

  9
$XEDIT
290
     1
  9
$CEPSNTYPE
380
     0
  9
$PSTYLEMODE
290
     1
  9
$FINGERPRINTGUID
  2
{E2D9ABBC-4394-4E45-A0E4-FF69BC004C98}
  9
$VERSIONGUID
  2
{FAEB1C32-E019-11D5-929B-00C0DF256EC4}
  9
$EXTNAMES
290
     1
  9
$PSVPSCALE
 40
0.0
  9
$OLESTARTUP
290
     0
  9
$SORTENTS
280
   127
  9
$INDEXCTL
280
     0
  9
$HIDETEXT
280
     1
  9
$XCLIPFRAME
290
     0
  9
$HALOGAP
280
     0
  9
$OBSCOLOR
 70
   257
  9
$OBSLTYPE
280
     0
  9
$INTERSECTIONDISPLAY
280
     0
  9
$INTERSECTIONCOLOR
 70
   257
  9
$DIMASSOC
280
     2
  9
$PROJECTNAME
  1

  0
ENDSEC
  0
SECTION
  2
CLASSES
  0
CLASS
  1
ACDBDICTIONARYWDFLT
  2
AcDbDictionaryWithDefault
  3
ObjectDBX Classes
 90
        0
 91
        4
280
     0
281
     0
  0
CLASS
  1
VISUALSTYLE
  2
AcDbVisualStyle
  3
ObjectDBX Classes
 90
     4095
 91
        4
280
     0
281
     0
  0
CLASS
  1
MATERIAL
  2
AcDbMaterial
  3
ObjectDBX Classes
 90
     1153
 91
        4
280
     0
281
     0
  0
CLASS
  1
SCALE
  2
AcDbScale
  3
ObjectDBX Classes
 90
     1153
 91
        4
280
     0
281
     0
  0
CLASS
  1
TABLESTYLE
  2
AcDbTableStyle
  3
ObjectDBX Classes
 90
     4095
 91
        4
280
     0
281
     0
  0
CLASS
  1
MLEADERSTYLE
  2
AcDbMLeaderStyle
  3
ACDB_MLEADERSTYLE_CLASS
 90
     4095
 91
        4
280
     0
281
     0
  0
CLASS
  1
SUN
  2
AcDbSun
  3
SCENEOE
 90
     1153
 91
        4
280
     0
281
     0
  0
CLASS
  1
DICTIONARYVAR
  2
AcDbDictionaryVar
  3
ObjectDBX Classes
 90
        0
 91
        4
280
     0
281
     0
  0
CLASS
  1
CELLSTYLEMAP
  2
AcDbCellStyleMap
  3
ObjectDBX Classes
 90
     1152
 91
        4
280
     0
281
     0
  0
ENDSEC
  0
SECTION
  2
TABLES
  0
TABLE
  2
VPORT
  5
8
102
{ACAD_XDICTIONARY
360
218
102
}
330
0
100
AcDbSymbolTable
 70
     1
  0
VPORT
  5
29
330
8
100
AcDbSymbolTableRecord
100
AcDbViewportTableRecord
  2
*Active
 70
     0
 10
0.0
 20
0.0
 11
1.0
 21
1.0
 12
1990.811618117913
 22
977.7203469244512
 13
0.0
 23
0.0
 14
0.5
 24
0.5
 15
0.5
 25
0.5
 16
0.0
 26
0.0
 36
1.0
 17
0.0
 27
0.0
 37
0.0
 40
1595.616174392531
 41
0.1341404488087121
 42
50.0
 43
0.0
 44
0.0
 50
0.0
 51
0.0
 71
     0
 72
   100
 73
     1
 74
     3
 75
     0
 76
     0
 77
     0
 78
     0
281
     0
 65
     1
110
0.0
120
0.0
130
0.0
111
1.0
121
0.0
131
0.0
112
0.0
122
1.0
132
0.0
 79
     0
146
0.0
  0
ENDTAB
  0
TABLE
  2
LTYPE
  5
5
330
0
100
AcDbSymbolTable
 70
     1
  0
LTYPE
  5
14
330
5
100
AcDbSymbolTableRecord
100
AcDbLinetypeTableRecord
  2
ByBlock
 70
     0
  3

 72
    65
 73
     0
 40
0.0
  0
LTYPE
  5
15
330
5
100
AcDbSymbolTableRecord
100
AcDbLinetypeTableRecord
  2
ByLayer
 70
     0
  3

 72
    65
 73
     0
 40
0.0
  0
LTYPE
  5
16
330
5
100
AcDbSymbolTableRecord
100
AcDbLinetypeTableRecord
  2
Continuous
 70
     0
  3
Solid line
 72
    65
 73
     0
 40
0.0
  0
ENDTAB
  0
TABLE
  2
LAYER
  5
2
330
0
100
AcDbSymbolTable
 70
     3
  0
LAYER
  5
10
330
2
100
AcDbSymbolTableRecord
100
AcDbLayerTableRecord
  2
0
 70
     0
 62
     7
  6
Continuous
370
    -3
390
F
  0
LAYER
  5
6E
330
2
100
AcDbSymbolTableRecord
100
AcDbLayerTableRecord
  2
Crea2D$visibili$linee
 70
     0
 62
    18
420
        0
  6
Continuous
370
    -3
390
F
  0
LAYER
  5
1B9
330
2
100
AcDbSymbolTableRecord
100
AcDbLayerTableRecord
  2
Predefinito
 70
     0
 62
    18
420
        0
  6
Continuous
370
    -3
390
F
  0
ENDTAB
  0
TABLE
  2
STYLE
  5
3
330
0
100
AcDbSymbolTable
 70
     1
  0
STYLE
  5
11
330
3
100
AcDbSymbolTableRecord
100
AcDbTextStyleTableRecord
  2
Standard
 70
     0
 40
0.0
 41
1.0
 50
0.0
 71
     0
 42
0.2
  3
txt
  4

  0
ENDTAB
  0
TABLE
  2
VIEW
  5
6
330
0
100
AcDbSymbolTable
 70
     0
  0
ENDTAB
  0
TABLE
  2
UCS
  5
7
330
0
100
AcDbSymbolTable
 70
     0
  0
ENDTAB
  0
TABLE
  2
APPID
  5
9
330
0
100
AcDbSymbolTable
 70
     2
  0
APPID
  5
12
330
9
100
AcDbSymbolTableRecord
100
AcDbRegAppTableRecord
  2
ACAD
 70
     0
  0
APPID
  5
257
330
9
100
AcDbSymbolTableRecord
100
AcDbRegAppTableRecord
  2
ACAD_MLEADERVER
 70
     0
  0
ENDTAB
  0
TABLE
  2
DIMSTYLE
  5
A
330
0
100
AcDbSymbolTable
 70
     1
100
AcDbDimStyleTable
  0
DIMSTYLE
105
27
330
A
100
AcDbSymbolTableRecord
100
AcDbDimStyleTableRecord
  2
Standard
 70
     0
178
     0
340
11
  0
ENDTAB
  0
TABLE
  2
BLOCK_RECORD
  5
1
330
0
100
AcDbSymbolTable
 70
     1
  0
BLOCK_RECORD
  5
1F
330
1
100
AcDbSymbolTableRecord
100
AcDbBlockTableRecord
  2
*Model_Space
340
22
  0
BLOCK_RECORD
  5
1B
330
1
100
AcDbSymbolTableRecord
100
AcDbBlockTableRecord
  2
*Paper_Space
340
1E
  0
BLOCK_RECORD
  5
23
330
1
100
AcDbSymbolTableRecord
100
AcDbBlockTableRecord
  2
*Paper_Space0
340
26
  0
ENDTAB
  0
ENDSEC
  0
SECTION
  2
BLOCKS
  0
BLOCK
  5
20
330
1F
100
AcDbEntity
  8
0
100
AcDbBlockBegin
  2
*Model_Space
 70
     0
 10
0.0
 20
0.0
 30
0.0
  3
*Model_Space
  1

  0
ENDBLK
  5
21
330
1F
100
AcDbEntity
  8
0
100
AcDbBlockEnd
  0
BLOCK
  5
1C
330
1B
100
AcDbEntity
 67
     1
  8
0
100
AcDbBlockBegin
  2
*Paper_Space
 70
     0
 10
0.0
 20
0.0
 30
0.0
  3
*Paper_Space
  1

  0
ENDBLK
  5
1D
330
1B
100
AcDbEntity
 67
     1
  8
0
100
AcDbBlockEnd
  0
BLOCK
  5
24
330
23
100
AcDbEntity
  8
0
100
AcDbBlockBegin
  2
*Paper_Space0
 70
     0
 10
0.0
 20
0.0
 30
0.0
  3
*Paper_Space0
  1

  0
ENDBLK
  5
25
330
23
100
AcDbEntity
  8
0
100
AcDbBlockEnd
  0
ENDSEC
  0
SECTION
  2
ENTITIES
  0
SPLINE
  5
6F
330
1F
100
AcDbEntity
  8
Crea2D$visibili$linee
100
AcDbSpline
210
0.0
220
0.0
230
1.0
 70
    15
 71
     2
 72
    20
 73
    17
 74
     0
 42
0.000000001
 43
0.0000000001
 40
0.0
 40
0.0
 40
0.0
 40
82.40392516116722
 40
82.40392516116722
 40
164.8078503223345
 40
164.8078503223345
 40
247.2117754835016
 40
247.2117754835016
 40
329.6157006446689
 40
329.6157006446689
 40
412.0196258058361
 40
412.0196258058361
 40
494.4235509670033
 40
494.4235509670033
 40
576.8274761281707
 40
576.8274761281707
 40
659.231401289338
 40
659.231401289338
 40
659.231401289338
 10
2095.731554274508
 20
300.4754917121587
 30
0.0
 41
1.0
 10
2095.731554274509
 20
343.9347522315396
 30
0.0
 41
0.9238795325112851
 10
2065.001216455901
 20
374.6650900501465
 30
0.0
 41
1.0
 10
2034.270878637294
 20
405.3954278687537
 30
0.0
 41
0.923879532511286
 10
1990.811618117913
 20
405.3954278687536
 30
0.0
 41
1.0
 10
1947.352357598533
 20
405.3954278687537
 30
0.0
 41
0.9238795325112861
 10
1916.622019779926
 20
374.6650900501467
 30
0.0
 41
1.0
 10
1885.891681961319
 20
343.9347522315396
 30
0.0
 41
0.9238795325112891
 10
1885.891681961318
 20
300.4754917121587
 30
0.0
 41
1.0
 10
1885.891681961318
 20
257.0162311927779
 30
0.0
 41
0.9238795325112888
 10
1916.622019779925
 20
226.2858933741708
 30
0.0
 41
1.0
 10
1947.352357598532
 20
195.5555555555638
 30
0.0
 41
0.9238795325112874
 10
1990.811618117913
 20
195.5555555555637
 30
0.0
 41
1.0
 10
2034.270878637294
 20
195.5555555555636
 30
0.0
 41
0.9238795325112872
 10
2065.001216455901
 20
226.2858933741707
 30
0.0
 41
1.0
 10
2095.731554274509
 20
257.0162311927777
 30
0.0
 41
0.923879532511286
 10
2095.731554274508
 20
300.4754917121587
 30
0.0
 41
1.0
  0
SPLINE
  5
70
330
1F
100
AcDbEntity
  8
Crea2D$visibili$linee
100
AcDbSpline
210
0.0
220
0.0
230
1.0
 70
    12
 71
     2
 72
     6
 73
     3
 74
     0
 42
0.000000001
 43
0.0000000001
 40
11.46524395882927
 40
11.46524395882927
 40
11.46524395882927
 40
11.4674666375726
 40
11.4674666375726
 40
11.4674666375726
 10
1985.680968062504
 20
299.7393514699076
 30
0.0
 41
0.9465484177092154
 10
1985.680190190674
 20
299.7445773425378
 30
0.0
 41
0.9468786779841036
 10
1985.679423364822
 20
299.7498048474343
 30
0.0
 41
0.9472101111372904
  0
SPLINE
  5
71
330
1F
100
AcDbEntity
  8
Crea2D$visibili$linee
100
AcDbSpline
210
0.0
220
0.0
230
1.0
 70
    12
 71
     2
 72
     6
 73
     3
 74
     0
 42
0.000000001
 43
0.0000000001
 40
11.22526825067646
 40
11.22526825067646
 40
11.22526825067646
 40
11.23207887907065
 40
11.23207887907065
 40
11.23207887907065
 10
1985.990336500471
 20
298.6030161292193
 30
0.0
 41
0.8889061343761293
 10
1985.983882814443
 20
298.6189950935474
 30
0.0
 41
0.8895300825626027
 10
1985.977539426829
 20
298.6350181643493
 30
0.0
 41
0.8901650429449552
  0
SPLINE
  5
72
330
1F
100
AcDbEntity
  8
Crea2D$visibili$linee
100
AcDbSpline
210
0.0
220
0.0
230
1.0
 70
    12
 71
     2
 72
     6
 73
     3
 74
     0
 42
0.000000001
 43
0.0000000001
 40
11.08481672343363
 40
11.08481672343363
 40
11.08481672343363
 40
11.09057351269285
 40
11.09057351269285
 40
11.09057351269285
 10
1986.307263363404
 20
297.9566904905628
 30
0.0
 41
0.8678548172931493
 10
1986.299744980468
 20
297.969582945665
 30
0.0
 41
0.8681902611113976
 10
1986.292303696333
 20
297.9825200539557
 30
0.0
 41
0.8685335728548231
  0
SPLINE
  5
73
330
1F
100
AcDbEntity
  8
Crea2D$visibili$linee
100
AcDbSpline
210
0.0
220
0.0
230
1.0
 70
    12
 71
     2
 72
     6
 73
     3
 74
     0
 42
0.000000001
 43
0.0000000001
 40
0.0
 40
0.0
 40
0.0
 40
0.3914409997689995
 40
0.3914409997689995
 40
0.3914409997689995
 10
2009.537417938024
 20
230.0071243742326
 30
0.0
 41
1.0
 10
2009.348400805407
 20
229.9563383404665
 30
0.0
 41
0.999996405846207
 10
2009.159114066368
 20
229.9065665806768
 30
0.0
 41
1.0
  0
SPLINE
  5
74
330
1F
100
AcDbEntity
  8
Crea2D$visibili$linee
100
AcDbSpline
210
0.0
220
0.0
230
1.0
 70
    12
 71
     2
 72
     6
 73
     3
 74
     0
 42
0.000000001
 43
0.0000000001
 40
0.0
 40
0.0
 40
0.0
 40
0.392561460397811
 40
0.392561460397811
 40
0.392561460397811
 10
2010.294001367799
 20
230.2147723843206
 30
0.0
 41
1.0
 10
2010.105001510546
 20
230.1618066908011
 30
0.0
 41
0.9999963852409611
 10
2009.915719561525
 20
230.1098581152006
 30
0.0
 41
1.0
  0
SPLINE
  5
75
330
1F
100
AcDbEntity
  8
Crea2D$visibili$linee
100
AcDbSpline
210
0.0
220
0.0
230
1.0
 70
    12
 71
     2
 72
     6
 73
     3
 74
     0
 42
0.000000001
 43
0.0000000001
 40
0.0
 40
0.0
 40
0.0
 40
0.3963391158753557
 40
0.3963391158753557
 40
0.3963391158753557
 10
2012.939923185126
 20
231.0105742756915
 30
0.0
 41
1.0
 10
2012.751264885847
 20
230.9499161126626
 30
0.0
 41
0.9999963153359375
 10
2012.562280037206
 20
230.890283121682
 30
0.0
 41
1.0
  0
SPLINE
  5
76
330
1F
100
AcDbEntity
  8
Crea2D$visibili$linee
100
AcDbSpline
210
0.0
220
0.0
230
1.0
 70
    12
 71
     2
 72
     6
 73
     3
 74
     0
 42
0.000000001
 43
0.0000000001
 40
0.0
 40
0.0
 40
0.0
 40
0.3973758557475147
 40
0.3973758557475147
 40
0.3973758557475147
 10
2013.694699895433
 20
231.2577914818398
 30
0.0
 41
1.0
 10
2013.506220968933
 20
231.1949203285925
 30
0.0
 41
0.9999962960341225
 10
2013.317402597168
 20
231.1330760877221
 30
0.0
 41
1.0
  0
SPLINE
  5
77
330
1F
100
AcDbEntity
  8
Crea2D$visibili$linee
100
AcDbSpline
210
0.0
220
0.0
230
1.0
 70
    12
 71
     2
 72
     6
 73
     3
 74
     0
 42
0.000000001
 43
0.0000000001
 40
0.0
 40
0.0
 40
0.0
 40
0.3998813466435095
 40
0.3998813466435095
 40
0.3998813466435095
 10
2015.577806085027
 20
231.9146609207046
 30
0.0
 41
1.0
 10
2015.3899378888
 20
231.8462356795969
 30
0.0
 41
0.9999962491792225
 10
2015.201697691471
 20
231.7788405693588
 30
0.0
 41
1.0
  0
SPLINE
  5
78
330
1F
100
AcDbEntity
  8
Crea2D$visibili$linee
100
AcDbSpline
210
0.0
220
0.0
230
1.0
 70
    12
 71
     2
 72
     6
 73
     3
 74
     0
 42
0.000000001
 43
0.0000000001
 40
0.0
 40
0.0
 40
0.0
 40
0.4008481081020611
 40
0.4008481081020611
 40
0.4008481081020611
 10
2016.32912215331
 20
232.1929842077321
 30
0.0
 41
1.0
 10
2016.141563908987
 20
232.1223307697735
 30
0.0
 41
0.9999962310211852
 10
2015.953620531249
 20
232.0527082872463
 30
0.0
 41
1.0
  0
SPLINE
  5
79
330
1F
100
AcDbEntity
  8
Crea2D$visibili$linee
100
AcDbSpline
210
0.0
220
0.0
230
1.0
 70
    12
 71
     2
 72
     6
 73
     3
 74
     0
 42
0.000000001
 43
0.0000000001
 40
0.0
 40
0.0
 40
0.0
 40
0.4022592433916953
 40
0.4022592433916953
 40
0.4022592433916953
 10
2017.453560404766
 20
232.6271956107163
 30
0.0
 41
1.0
 10
2017.26653822434
 20
232.5531953845257
 30
0.0
 41
0.9999962044380627
 10
2017.079111114499
 20
232.4802268437415
 30
0.0
 41
1.0
  0
SPLINE
  5
7A
330
1F
100
AcDbEntity
  8
Crea2D$visibili$linee
100
AcDbSpline
210
0.0
220
0.0
230
1.0
 70
    12
 71
     2
 72
     6
 73
     3
 74
     0
 42
0.000000001
 43
0.0000000001
 40
0.0
 40
0.0
 40
0.0
 40
0.4031735201385778
 40
0.4031735201385778
 40
0.4031735201385778
 10
2018.201273079791
 20
232.9278316114238
 30
0.0
 41
1.0
 10
2018.014656020137
 20
232.8515984068926
 30
0.0
 41
0.9999961871649445
 10
2017.827620778512
 20
232.77639703179
 30
0.0
 41
1.0
  0
SPLINE
  5
7B
330
1F
100
AcDbEntity
  8
Crea2D$visibili$linee
100
AcDbSpline
210
0.0
220
0.0
230
1.0
 70
    12
 71
     2
 72
     6
 73
     3
 74
     0
 42
0.000000001
 43
0.0000000001
 40
0.0
 40
0.0
 40
0.0
 40
0.404504415811907
 40
0.404504415811907
 40
0.404504415811907
 10
2019.319589291089
 20
233.3955361763855
 30
0.0
 41
1.0
 10
2019.133652011553
 20
233.315952930568
 30
0.0
 41
0.9999961619507003
 10
2018.947276605604
 20
233.2374012087964
 30
0.0
 41
1.0
  0
SPLINE
  5
7C
330
1F
100
AcDbEntity
  8
Crea2D$visibili$linee
100
AcDbSpline
210
0.0
220
0.0
230
1.0
 70
    12
 71
     2
 72
     6
 73
     3
 74
     0
 42
0.000000001
 43
0.0000000001
 40
0.0
 40
0.0
 40
0.0
 40
0.4057857513923206
 40
0.4057857513923206
 40
0.4057857513923206
 10
2020.433538980301
 20
233.8833369516975
 30
0.0
 41
1.0
 10
2020.248368484971
 20
233.8004055422942
 30
0.0
 41
0.999996137596875
 10
2020.062739861257
 20
233.7185047177304
 30
0.0
 41
1.0
  0
SPLINE
  5
7D
330
1F
100
AcDbEntity
  8
Crea2D$visibili$linee
100
AcDbSpline
210
0.0
220
0.0
230
1.0
 70
    12
 71
     2
 72
     6
 73
     3
 74
     0
 42
0.000000001
 43
0.0000000001
 40
0.0
 40
0.0
 40
0.0
 40
0.4066119333135691
 40
0.4066119333135691
 40
0.4066119333135691
 10
2021.173487739079
 20
234.2196923665057
 30
0.0
 41
1.0
 10
2020.988876990406
 20
234.1345313350255
 30
0.0
 41
0.9999961218531286
 10
2020.80379475877
 20
234.0503999060527
 30
0.0
 41
1.0
  0
SPLINE
  5
7E
330
1F
100
AcDbEntity
  8
Crea2D$visibili$linee
100
AcDbSpline
210
0.0
220
0.0
230
1.0
 70
    12
 71
     2
 72
     6
 73
     3
 74
     0
 42
0.000000001
 43
0.0000000001
 40
0.0
 40
0.0
 40
0.0
 40
0.4078084018352561
 40
0.4078084018352561
 40
0.4078084018352561
 10
2022.278994964729
 20
234.7409313444687
 30
0.0
 41
1.0
 10
2022.095296923037
 20
234.6524318027348
 30
0.0
 41
0.9999960989964233
 10
2021.911107355041
 20
234.5649598503731
 30
0.0
 41
1.0
  0
SPLINE
  5
7F
330
1F
100
AcDbEntity
  8
Crea2D$visibili$linee
100
AcDbSpline
210
0.0
220
0.0
230
1.0
 70
    12
 71
     2
 72
     6
 73
     3
 74
     0
 42
0.000000001
 43
0.0000000001
 40
0.0
 40
0.0
 40
0.0
 40
0.4089526417455018
 40
0.4089526417455018
 40
0.4089526417455018
 10
2023.378734519782
 20
235.2821709992743
 30
0.0
 41
1.0
 10
2023.196037091294
 20
235.1903427132426
 30
0.0
 41
0.9999960770746423
 10
2023.012828101911
 20
235.0995393504134
 30
0.0
 41
1.0
  0
SPLINE
  5
80
330
1F
100
AcDbEntity
  8
Crea2D$visibili$linee
100
AcDbSpline
210
0.0
220
0.0
230
1.0
 70
    12
 71
     2
 72
     6
 73
     3
 74
     0
 42
0.000000001
 43
0.0000000001
 40
0.0
 40
0.0
 40
0.0
 40
0.4100437133033115
 40
0.4100437133033115
 40
0.4100437133033115
 10
2024.472178382471
 20
235.8433426486498
 30
0.0
 41
1.0
 10
2024.290569586128
 20
235.7481984011447
 30
0.0
 41
0.9999960561142733
 10
2024.108429228794
 20
235.6540757525837
 30
0.0
 41
1.0
  0
SPLINE
  5
81
330
1F
100
AcDbEntity
  8
Crea2D$visibili$linee
100
AcDbSpline
210
0.0
220
0.0
230
1.0
 70
    12
 71
     2
 72
     6
 73
     3
 74
     0
 42
0.000000001
 43
0.0000000001
 40
0.0
 40
0.0
 40
0.0
 40
0.4110807129243628
 40
0.4110807129243628
 40
0.4110807129243628
 10
2025.558798283376
 20
236.4243594283413
 30
0.0
 41
1.0
 10
2025.378366123931
 20
236.3259150417336
 30
0.0
 41
0.9999960361409067
 10
2025.197382464014
 20
236.2284882679019
 30
0.0
 41
1.0
  0
SPLINE
  5
82
330
1F
100
AcDbEntity
  8
Crea2D$visibili$linee
100
AcDbSpline
210
0.0
220
0.0
230
1.0
 70
    12
 71
     2
 72
     6
 73
     3
 74
     0
 42
0.000000001
 43
0.0000000001
 40
0.0
 40
0.0
 40
0.0
 40
0.412062774984521
 40
0.412062774984521
 40
0.412062774984521
 10
2026.638066474039
 20
237.0251161774204
 30
0.0
 41
1.0
 10
2026.45889881314
 20
236.9233905300004
 30
0.0
 41
0.9999960171791652
 10
2026.279159799346
 20
236.8226778447242
 30
0.0
 41
1.0
  0
SPLINE
  5
83
330
1F
100
AcDbEntity
  8
Crea2D$visibili$linee
100
AcDbSpline
210
0.0
220
0.0
230
1.0
 70
    12
 71
     2
 72
     6
 73
     3
 74
     0
 42
0.000000001
 43
0.0000000001
 40
0.0
 40
0.0
 40
0.0
 40
0.4129890735710011
 40
0.4129890735710011
 40
0.4129890735710011
 10
2027.709456506383
 20
237.6454893620002
 30
0.0
 41
1.0
 10
2027.531640932015
 20
237.5405043978796
 30
0.0
 41
0.999995999252647
 10
2027.353234266074
 20
237.4365270795493
 30
0.0
 41
1.0
  0
SPLINE
  5
84
330
1F
100
AcDbEntity
  8
Crea2D$visibili$linee
100
AcDbSpline
210
0.0
220
0.0
230
1.0
 70
    12
 71
     2
 72
     6
 73
     3
 74
     0
 42
0.000000001
 43
0.0000000001
 40
0.0
 40
0.0
 40
0.0
 40
0.3914632629265083
 40
0.3914632629265083
 40
0.3914632629265083
 10
2028.064745109858
 20
237.8566156284012
 30
0.0
 41
1.0
 10
2027.896763766742
 20
237.7561500943335
 30
0.0
 41
0.9999964054373616
 10
2027.728246094005
 20
237.6565868021726
 30
0.0
 41
1.0
  0
SPLINE
  5
85
330
1F
100
AcDbEntity
  8
Crea2D$visibili$linee
100
AcDbSpline
210
0.0
220
0.0
230
1.0
 70
    12
 71
     2
 72
     6
 73
     3
 74
     0
 42
0.000000001
 43
0.0000000001
 40
0.0
 40
0.0
 40
0.0
 40
0.4138588241687768
 40
0.4138588241687768
 40
0.4138588241687768
 10
2028.772444020716
 20
238.2853370382732
 30
0.0
 41
1.0
 10
2028.596067715376
 20
238.1771177706752
 30
0.0
 41
0.999995982383851
 10
2028.419080720385
 20
238.0699001668559
 30
0.0
 41
1.0
  0
SPLINE
  5
86
330
1F
100
AcDbEntity
  8
Crea2D$visibili$linee
100
AcDbSpline
210
0.0
220
0.0
230
1.0
 70
    12
 71
     2
 72
     6
 73
     3
 74
     0
 42
0.000000001
 43
0.0000000001
 40
0.0
 40
0.0
 40
0.0
 40
0.407676231065343
 40
0.407676231065343
 40
0.407676231065343
 10
2029.124815735751
 20
238.502920076547
 30
0.0
 41
1.0
 10
2028.951681870479
 20
238.3953335624456
 30
0.0
 41
0.9999961015246432
 10
2028.777949879876
 20
238.2887156054151
 30
0.0
 41
1.0
  0
SPLINE
  5
87
330
1F
100
AcDbEntity
  8
Crea2D$visibili$linee
100
AcDbSpline
210
0.0
220
0.0
230
1.0
 70
    12
 71
     2
 72
     6
 73
     3
 74
     0
 42
0.000000001
 43
0.0000000001
 40
0.0
 40
0.0
 40
0.0
 40
0.4076241928836176
 40
0.4076241928836176
 40
0.4076241928836176
 10
2029.820564415944
 20
238.9407119324592
 30
0.0
 41
1.0
 10
2029.648674945235
 20
238.8311966532437
 30
0.0
 41
0.9999961025198276
 10
2029.476176635835
 20
238.722642888793
 30
0.0
 41
1.0
  0
SPLINE
  5
88
330
1F
100
AcDbEntity
  8
Crea2D$visibili$linee
100
AcDbSpline
210
0.0
220
0.0
230
1.0
 70
    12
 71
     2
 72
     6
 73
     3
 74
     0
 42
0.000000001
 43
0.0000000001
 40
0.0
 40
0.0
 40
0.0
 40
0.4149292528866645
 40
0.4149292528866645
 40
0.4149292528866645
 10
2030.175789319474
 20
239.1684811315852
 30
0.0
 41
1.0
 10
2030.001466707322
 20
239.0559936661543
 30
0.0
 41
0.999995961574193
 10
2029.826507540042
 20
238.944498855641
 30
0.0
 41
1.0
  0
SPLINE
  5
89
330
1F
100
AcDbEntity
  8
Crea2D$visibili$linee
100
AcDbSpline
210
0.0
220
0.0
230
1.0
 70
    12
 71
     2
 72
     6
 73
     3
 74
     0
 42
0.000000001
 43
0.0000000001
 40
0.0
 40
0.0
 40
0.0
 40
0.3967481859597036
 40
0.3967481859597036
 40
0.3967481859597036
 10
2030.855550359231
 20
239.6124932193484
 30
0.0
 41
1.0
 10
2030.690072711528
 20
239.5030874488879
 30
0.0
 41
0.9999963077259766
 10
2030.524002900554
 20
239.3945826453902
 30
0.0
 41
1.0
  0
SPLINE
  5
8A
330
1F
100
AcDbEntity
  8
Crea2D$visibili$linee
100
AcDbSpline
210
0.0
220
0.0
230
1.0
 70
    12
 71
     2
 72
     6
 73
     3
 74
     0
 42
0.000000001
 43
0.0000000001
 40
0.0
 40
0.0
 40
0.0
 40
0.4156642518215828
 40
0.4156642518215828
 40
0.4156642518215828
 10
2031.217149469685
 20
239.853113975831
 30
0.0
 41
1.0
 10
2031.044467229157
 20
239.7374624744368
 30
0.0
 41
0.9999959472543256
 10
2030.871129268314
 20
239.6227961005546
 30
0.0
 41
1.0
  0
SPLINE
  5
8B
330
1F
100
AcDbEntity
  8
Crea2D$visibili$linee
100
AcDbSpline
210
0.0
220
0.0
230
1.0
 70
    12
 71
     2
 72
     6
 73
     3
 74
     0
 42
0.000000001
 43
0.0000000001
 40
0.0
 40
0.0
 40
0.0
 40
0.3877096254937174
 40
0.3877096254937174
 40
0.3877096254937174
 10
2031.882367793248
 20
240.3039580635913
 30
0.0
 41
1.0
 10
2031.722496230474
 20
240.1943179773322
 30
0.0
 41
0.9999964740414394
 10
2031.562044616788
 20
240.0855285258039
 30
0.0
 41
1.0
  0
SPLINE
  5
8C
330
1F
100
AcDbEntity
  8
Crea2D$visibili$linee
100
AcDbSpline
210
0.0
220
0.0
230
1.0
 70
    12
 71
     2
 72
     6
 73
     3
 74
     0
 42
0.000000001
 43
0.0000000001
 40
0.0
 40
0.0
 40
0.0
 40
0.4163404069474477
 40
0.4163404069474477
 40
0.4163404069474477
 10
2032.248384542274
 20
240.5566155512011
 30
0.0
 41
1.0
 10
2032.07742754381
 20
240.4378351941522
 30
0.0
 41
0.9999959340585227
 10
2031.905795890208
 20
240.3200317815243
 30
0.0
 41
1.0
  0
SPLINE
  5
8D
330
1F
100
AcDbEntity
  8
Crea2D$visibili$linee
100
AcDbSpline
210
0.0
220
0.0
230
1.0
 70
    12
 71
     2
 72
     6
 73
     3
 74
     0
 42
0.000000001
 43
0.0000000001
 40
0.0
 40
0.0
 40
0.0
 40
0.3805260780810218
 40
0.3805260780810218
 40
0.3805260780810218
 10
2032.900477024753
 20
241.0149860578834
 30
0.0
 41
1.0
 10
2032.745420789041
 20
240.9047238625003
 30
0.0
 41
0.9999966034900056
 10
2032.589791900326
 20
240.79527142095
 30
0.0
 41
1.0
  0
SPLINE
  5
8E
330
1F
100
AcDbEntity
  8
Crea2D$visibili$linee
100
AcDbSpline
210
0.0
220
0.0
230
1.0
 70
    12
 71
     2
 72
     6
 73
     3
 74
     0
 42
0.000000001
 43
0.0000000001
 40
0.0
 40
0.0
 40
0.0
 40
0.4169571308761609
 40
0.4169571308761609
 40
0.4169571308761609
 10
2033.268988438347
 20
241.2787646995538
 30
0.0
 41
1.0
 10
2033.099840570606
 20
241.1568936717767
 30
0.0
 41
0.9999959220038754
 10
2032.929999369973
 20
241.0359907555996
 30
0.0
 41
1.0
  0
SPLINE
  5
8F
330
1F
100
AcDbEntity
  8
Crea2D$visibili$linee
100
AcDbSpline
210
0.0
220
0.0
230
1.0
 70
    12
 71
     2
 72
     6
 73
     3
 74
     0
 42
0.000000001
 43
0.0000000001
 40
0.0
 40
0.0
 40
0.0
 40
0.3752136264249179
 40
0.3752136264249179
 40
0.3752136264249179
 10
2033.909339398063
 20
241.7454376647838
 30
0.0
 41
1.0
 10
2033.758325115218
 20
241.6341220876406
 30
0.0
 41
0.9999966976640063
 10
2033.606740677341
 20
241.5235841777124
 30
0.0
 41
1.0
  0
SPLINE
  5
90
330
1F
100
AcDbEntity
  8
Crea2D$visibili$linee
100
AcDbSpline
210
0.0
220
0.0
230
1.0
 70
    12
 71
     2
 72
     6
 73
     3
 74
     0
 42
0.000000001
 43
0.0000000001
 40
0.0
 40
0.0
 40
0.0
 40
0.4175138853339385
 40
0.4175138853339385
 40
0.4175138853339385
 10
2034.278461397936
 20
242.0193223446326
 30
0.0
 41
1.0
 10
2034.111205435954
 20
241.8944018023528
 30
0.0
 41
0.9999959111060804
 10
2033.943237746841
 20
241.7704398964465
 30
0.0
 41
1.0
  0
SPLINE
  5
91
330
1F
100
AcDbEntity
  8
Crea2D$visibili$linee
100
AcDbSpline
210
0.0
220
0.0
230
1.0
 70
    12
 71
     2
 72
     6
 73
     3
 74
     0
 42
0.000000001
 43
0.0000000001
 40
0.0
 40
0.0
 40
0.0
 40
0.3780953987214154
 40
0.3780953987214154
 40
0.3780953987214154
 10
2034.612393476126
 20
242.2702217947418
 30
0.0
 41
1.0
 10
2034.461578379058
 20
242.1562305717453
 30
0.0
 41
0.9999966467430423
 10
2034.310174902625
 20
242.0430220042795
 30
0.0
 41
1.0
  0
SPLINE
  5
92
330
1F
100
AcDbEntity
  8
Crea2D$visibili$linee
100
AcDbSpline
210
0.0
220
0.0
230
1.0
 70
    12
 71
     2
 72
     6
 73
     3
 74
     0
 42
0.000000001
 43
0.0000000001
 40
0.0
 40
0.0
 40
0.0
 40
0.4180101823230356
 40
0.4180101823230356
 40
0.4180101823230356
 10
2035.276310786938
 20
242.7780317155174
 30
0.0
 41
1.0
 10
2035.111028261588
 20
242.6501057460383
 30
0.0
 41
0.9999959013794067
 10
2034.945015924507
 20
242.5231283039855
 30
0.0
 41
1.0
  0
SPLINE
  5
93
330
1F
100
AcDbEntity
  8
Crea2D$visibili$linee
100
AcDbSpline
210
0.0
220
0.0
230
1.0
 70
    12
 71
     2
 72
     6
 73
     3
 74
     0
 42
0.000000001
 43
0.0000000001
 40
0.0
 40
0.0
 40
0.0
 40
0.3816356723797511
 40
0.3816356723797511
 40
0.3816356723797511
 10
2035.606260211203
 20
243.0349216596913
 30
0.0
 41
1.0
 10
2035.456031845971
 20
242.917265164981
 30
0.0
 41
0.9999965836530422
 10
2035.305190441734
 20
242.8003956512679
 30
0.0
 41
1.0
  0
SPLINE
  5
94
330
1F
100
AcDbEntity
  8
Crea2D$visibili$linee
100
AcDbSpline
210
0.0
220
0.0
230
1.0
 70
    12
 71
     2
 72
     6
 73
     3
 74
     0
 42
0.000000001
 43
0.0000000001
 40
0.0
 40
0.0
 40
0.0
 40
0.4184455851829971
 40
0.4184455851829971
 40
0.4184455851829971
 10
2036.262051874743
 20
243.5546186113121
 30
0.0
 41
1.0
 10
2036.098822943928
 20
243.4237341859476
 30
0.0
 41
0.9999958928366508
 10
2035.934846452136
 20
243.2937875553737
 30
0.0
 41
1.0
  0
SPLINE
  5
95
330
1F
100
AcDbEntity
  8
Crea2D$visibili$linee
100
AcDbSpline
210
0.0
220
0.0
230
1.0
 70
    12
 71
     2
 72
     6
 73
     3
 74
     0
 42
0.000000001
 43
0.0000000001
 40
0.0
 40
0.0
 40
0.0
 40
0.3831627917019444
 40
0.3831627917019444
 40
0.3831627917019444
 10
2036.587858957295
 20
243.8174038275584
 30
0.0
 41
1.0
 10
2036.439083001875
 20
243.6967004106415
 30
0.0
 41
0.9999965562572557
 10
2036.289675550002
 20
243.5767795488553
 30
0.0
 41
1.0
  0
SPLINE
  5
96
330
1F
100
AcDbEntity
  8
Crea2D$visibili$linee
100
AcDbSpline
210
0.0
220
0.0
230
1.0
 70
    12
 71
     2
 72
     6
 73
     3
 74
     0
 42
0.000000001
 43
0.0000000001
 40
0.0
 40
0.0
 40
0.0
 40
0.4188197095435802
 40
0.4188197095435802
 40
0.4188197095435802
 10
2037.235208600046
 20
244.348791706621
 30
0.0
 41
1.0
 10
2037.074111922045
 20
244.2149986268698
 30
0.0
 41
0.9999958854890978
 10
2036.912250294397
 20
244.0821319969458
 30
0.0
 41
1.0
  0
SPLINE
  5
97
330
1F
100
AcDbEntity
  8
Crea2D$visibili$linee
100
AcDbSpline
210
0.0
220
0.0
230
1.0
 70
    12
 71
     2
 72
     6
 73
     3
 74
     0
 42
0.000000001
 43
0.0000000001
 40
0.0
 40
0.0
 40
0.0
 40
0.3826653362725826
 40
0.3826653362725826
 40
0.3826653362725826
 10
2037.556716710647
 20
244.6173713396288
 30
0.0
 41
1.0
 10
2037.410230626076
 20
244.4942852535749
 30
0.0
 41
0.9999965651933806
 10
2037.263101340918
 20
244.3719687338326
 30
0.0
 41
1.0
  0
SPLINE
  5
98
330
1F
100
AcDbEntity
  8
Crea2D$visibili$linee
100
AcDbSpline
210
0.0
220
0.0
230
1.0
 70
    12
 71
     2
 72
     6
 73
     3
 74
     0
 42
0.000000001
 43
0.0000000001
 40
0.0
 40
0.0
 40
0.0
 40
0.4191322241693703
 40
0.4191322241693703
 40
0.4191322241693703
 10
2038.195314322369
 20
245.1602428971967
 30
0.0
 41
1.0
 10
2038.036426931735
 20
245.0235937342732
 30
0.0
 41
0.9999958793464856
 10
2037.876757588019
 20
244.8878590765509
 30
0.0
 41
1.0
  0
SPLINE
  5
99
330
1F
100
AcDbEntity
  8
Crea2D$visibili$linee
100
AcDbSpline
210
0.0
220
0.0
230
1.0
 70
    12
 71
     2
 72
     6
 73
     3
 74
     0
 42
0.000000001
 43
0.0000000001
 40
0.0
 40
0.0
 40
0.0
 40
0.7573055187274862
 40
0.7573055187274862
 40
0.7573055187274862
 10
2038.796273025323
 20
245.6828198062288
 30
0.0
 41
1.0
 10
2038.511897542993
 20
245.4327976691992
 30
0.0
 41
0.9999865474206499
 10
2038.224943667716
 20
245.1857390578952
 30
0.0
 41
1.0
  0
SPLINE
  5
9A
330
1F
100
AcDbEntity
  8
Crea2D$visibili$linee
100
AcDbSpline
210
0.0
220
0.0
230
1.0
 70
    12
 71
     2
 72
     6
 73
     3
 74
     0
 42
0.000000001
 43
0.0000000001
 40
0.0
 40
0.0
 40
0.0
 40
0.4193828516896205
 40
0.4193828516896205
 40
0.4193828516896205
 10
2039.141912556821
 20
245.9886476849644
 30
0.0
 41
1.0
 10
2038.985309743251
 20
245.8491977128314
 30
0.0
 41
0.9999958744169791
 10
2038.827908382408
 20
245.7106497155497
 30
0.0
 41
1.0
  0
SPLINE
  5
9B
330
1F
100
AcDbEntity
  8
Crea2D$visibili$linee
100
AcDbSpline
210
0.0
220
0.0
230
1.0
 70
    12
 71
     2
 72
     6
 73
     3
 74
     0
 42
0.000000001
 43
0.0000000001
 40
0.0
 40
0.0
 40
0.0
 40
0.7588955914036375
 40
0.7588955914036375
 40
0.7588955914036375
 10
2039.738505868644
 20
246.5258061580373
 30
0.0
 41
1.0
 10
2039.45791509891
 20
246.2703613635071
 30
0.0
 41
0.9999864908701939
 10
2039.174683978391
 20
246.0178472936371
 30
0.0
 41
1.0
  0
SPLINE
  5
9C
330
1F
100
AcDbEntity
  8
Crea2D$visibili$linee
100
AcDbSpline
210
0.0
220
0.0
230
1.0
 70
    12
 71
     2
 72
     6
 73
     3
 74
     0
 42
0.000000001
 43
0.0000000001
 40
0.0
 40
0.0
 40
0.0
 40
0.4195713692120182
 40
0.4195713692120182
 40
0.4195713692120182
 10
2040.074557689729
 20
246.8336656014621
 30
0.0
 41
1.0
 10
2039.920312880282
 20
246.6914727235367
 30
0.0
 41
0.9999958707071525
 10
2039.765253361916
 20
246.5501687195672
 30
0.0
 41
1.0
  0
SPLINE
  5
9D
330
1F
100
AcDbEntity
  8
Crea2D$visibili$linee
100
AcDbSpline
210
0.0
220
0.0
230
1.0
 70
    12
 71
     2
 72
     6
 73
     3
 74
     0
 42
0.000000001
 43
0.0000000001
 40
0.0
 40
0.0
 40
0.0
 40
0.3914388605333396
 40
0.3914388605333396
 40
0.3914388605333396
 10
2040.667820781224
 20
247.3867019672961
 30
0.0
 41
1.0
 10
2040.525400971665
 20
247.2524526589226
 30
0.0
 41
0.9999964058854901
 10
2040.382263344603
 20
247.1189689570247
 30
0.0
 41
1.0
  0
SPLINE
  5
9E
330
1F
100
AcDbEntity
  8
Crea2D$visibili$linee
100
AcDbSpline
210
0.0
220
0.0
230
1.0
 70
    12
 71
     2
 72
     6
 73
     3
 74
     0
 42
0.000000001
 43
0.0000000001
 40
0.0
 40
0.0
 40
0.0
 40
0.4196976088174217
 40
0.4196976088174217
 40
0.4196976088174217
 10
2040.992815672776
 20
247.694940668567
 30
0.0
 41
1.0
 10
2040.841000317848
 20
247.5500653383
 30
0.0
 41
0.9999958682219565
 10
2040.688354547398
 20
247.4060652269253
 30
0.0
 41
1.0
  0
SPLINE
  5
9F
330
1F
100
AcDbEntity
  8
Crea2D$visibili$linee
100
AcDbSpline
210
0.0
220
0.0
230
1.0
 70
    12
 71
     2
 72
     6
 73
     3
 74
     0
 42
0.000000001
 43
0.0000000001
 40
0.0
 40
0.0
 40
0.0
 40
0.4014836697318602
 40
0.4014836697318602
 40
0.4014836697318602
 10
2041.583717572807
 20
248.2652150515895
 30
0.0
 41
1.0
 10
2041.440058893985
 20
248.1250021013527
 30
0.0
 41
0.9999962190599649
 10
2041.295631251844
 20
247.985581358273
 30
0.0
 41
1.0
  0
SPLINE
  5
A0
330
1F
100
AcDbEntity
  8
Crea2D$visibili$linee
100
AcDbSpline
210
0.0
220
0.0
230
1.0
 70
    12
 71
     2
 72
     6
 73
     3
 74
     0
 42
0.000000001
 43
0.0000000001
 40
0.0
 40
0.0
 40
0.0
 40
0.4197614579332495
 40
0.4197614579332495
 40
0.4197614579332495
 10
2041.89626469341
 20
248.5721018952179
 30
0.0
 41
1.0
 10
2041.746948156811
 20
248.4246070307734
 30
0.0
 41
0.9999958669647171
 10
2041.596785974782
 20
248.2779731935201
 30
0.0
 41
1.0
  0
SPLINE
  5
A1
330
1F
100
AcDbEntity
  8
Crea2D$visibili$linee
100
AcDbSpline
210
0.0
220
0.0
230
1.0
 70
    12
 71
     2
 72
     6
 73
     3
 74
     0
 42
0.000000001
 43
0.0000000001
 40
0.0
 40
0.0
 40
0.0
 40
0.4134723314737832
 40
0.4134723314737832
 40
0.4134723314737832
 10
2042.48570544752
 20
249.1610356358657
 30
0.0
 41
1.0
 10
2042.340293942067
 20
249.0140813408317
 30
0.0
 41
0.9999959898842488
 10
2042.194052423733
 20
248.8679530100314
 30
0.0
 41
1.0
  0
SPLINE
  5
A2
330
1F
100
AcDbEntity
  8
Crea2D$visibili$linee
100
AcDbSpline
210
0.0
220
0.0
230
1.0
 70
    12
 71
     2
 72
     6
 73
     3
 74
     0
 42
0.000000001
 43
0.0000000001
 40
0.0
 40
0.0
 40
0.0
 40
0.4197628595838148
 40
0.4197628595838148
 40
0.4197628595838148
 10
2042.784495819362
 20
249.4647638086899
 30
0.0
 41
1.0
 10
2042.637745272866
 20
249.3147147019754
 30
0.0
 41
0.9999958669371167
 10
2042.490134348441
 20
249.1655119127486
 30
0.0
 41
1.0
  0
SPLINE
  5
A3
330
1F
100
AcDbEntity
  8
Crea2D$visibili$linee
100
AcDbSpline
210
0.0
220
0.0
230
1.0
 70
    12
 71
     2
 72
     6
 73
     3
 74
     0
 42
0.000000001
 43
0.0000000001
 40
0.0
 40
0.0
 40
0.0
 40
0.4197290980694517
 40
0.4197290980694517
 40
0.4197290980694517
 10
2043.367999667297
 20
250.0682865689416
 30
0.0
 41
1.0
 10
2043.222995970322
 20
249.9165720360911
 30
0.0
 41
0.9999958676019317
 10
2043.077122359876
 20
249.7656937361602
 30
0.0
 41
1.0
  0
SPLINE
  5
A4
330
1F
100
AcDbEntity
  8
Crea2D$visibili$linee
100
AcDbSpline
210
0.0
220
0.0
230
1.0
 70
    12
 71
     2
 72
     6
 73
     3
 74
     0
 42
0.000000001
 43
0.0000000001
 40
0.0
 40
0.0
 40
0.0
 40
0.4120272907024784
 40
0.4120272907024784
 40
0.4120272907024784
 10
2043.657113615192
 20
250.3725270188274
 30
0.0
 41
1.0
 10
2043.515629274458
 20
250.222780470475
 30
0.0
 41
0.9999960178650862
 10
2043.373301990961
 20
250.0738348703764
 30
0.0
 41
1.0
  0
SPLINE
  5
A5
330
1F
100
AcDbEntity
  8
Crea2D$visibili$linee
100
AcDbSpline
210
0.0
220
0.0
230
1.0
 70
    12
 71
     2
 72
     6
 73
     3
 74
     0
 42
0.000000001
 43
0.0000000001
 40
0.0
 40
0.0
 40
0.0
 40
0.4196264453546044
 40
0.4196264453546044
 40
0.4196264453546044
 10
2044.229995821628
 20
250.9858888226141
 30
0.0
 41
1.0
 10
2044.087664925461
 20
250.8317338783467
 30
0.0
 41
0.9999958696229952
 10
2043.944450255672
 20
250.6783996381943
 30
0.0
 41
1.0
  0
SPLINE
  5
A6
330
1F
100
AcDbEntity
  8
Crea2D$visibili$linee
100
AcDbSpline
210
0.0
220
0.0
230
1.0
 70
    12
 71
     2
 72
     6
 73
     3
 74
     0
 42
0.000000001
 43
0.0000000001
 40
0.0
 40
0.0
 40
0.0
 40
0.3959297269235745
 40
0.3959297269235745
 40
0.3959297269235745
 10
2044.513736728929
 20
251.2949788135023
 30
0.0
 41
1.0
 10
2044.380281646115
 20
251.1487597306976
 30
0.0
 41
0.9999963229439727
 10
2044.24603548238
 20
251.0032666146139
 30
0.0
 41
1.0
  0
SPLINE
  5
A7
330
1F
100
AcDbEntity
  8
Crea2D$visibili$linee
100
AcDbSpline
210
0.0
220
0.0
230
1.0
 70
    12
 71
     2
 72
     6
 73
     3
 74
     0
 42
0.000000001
 43
0.0000000001
 40
0.0
 40
0.0
 40
0.0
 40
0.4194614656217909
 40
0.4194614656217909
 40
0.4194614656217909
 10
2045.075751158747
 20
251.917897425714
 30
0.0
 41
1.0
 10
2044.936153911707
 20
251.7613732072726
 30
0.0
 41
0.9999958728701422
 10
2044.795659578564
 20
251.6056537008037
 30
0.0
 41
1.0
  0
SPLINE
  5
A8
330
1F
100
AcDbEntity
  8
Crea2D$visibili$linee
100
AcDbSpline
210
0.0
220
0.0
230
1.0
 70
    12
 71
     2
 72
     6
 73
     3
 74
     0
 42
0.000000001
 43
0.0000000001
 40
0.0
 40
0.0
 40
0.0
 40
0.7665935552012004
 40
0.7665935552012004
 40
0.7665935552012004
 10
2045.610349680768
 20
252.5240408676457
 30
0.0
 41
1.0
 10
2045.358407512443
 20
252.2351736596952
 30
0.0
 41
0.9999862154173209
 10
2045.103445815556
 20
251.9489680463151
 30
0.0
 41
1.0
  0
SPLINE
  5
A9
330
1F
100
AcDbEntity
  8
Crea2D$visibili$linee
100
AcDbSpline
210
0.0
220
0.0
230
1.0
 70
    12
 71
     2
 72
     6
 73
     3
 74
     0
 42
0.000000001
 43
0.0000000001
 40
0.0
 40
0.0
 40
0.0
 40
0.4192343058944851
 40
0.4192343058944851
 40
0.4192343058944851
 10
2045.904909015789
 20
252.8638788649224
 30
0.0
 41
1.0
 10
2045.76810373093
 20
252.7050585061041
 30
0.0
 41
0.9999958773390284
 10
2045.63038861198
 20
252.5470264259658
 30
0.0
 41
1.0
  0
SPLINE
  5
AA
330
1F
100
AcDbEntity
  8
Crea2D$visibili$linee
100
AcDbSpline
210
0.0
220
0.0
230
1.0
 70
    12
 71
     2
 72
     6
 73
     3
 74
     0
 42
0.000000001
 43
0.0000000001
 40
0.0
 40
0.0
 40
0.0
 40
0.4097679005246805
 40
0.4097679005246805
 40
0.4097679005246805
 10
2046.442314794172
 20
253.4949762540017
 30
0.0
 41
1.0
 10
2046.310369881144
 20
253.3382338109801
 30
0.0
 41
0.9999960614181346
 10
2046.177547215521
 20
253.1822344743948
 30
0.0
 41
1.0
  0
SPLINE
  5
AB
330
1F
100
AcDbEntity
  8
Crea2D$visibili$linee
100
AcDbSpline
210
0.0
220
0.0
230
1.0
 70
    12
 71
     2
 72
     6
 73
     3
 74
     0
 42
0.000000001
 43
0.0000000001
 40
0.0
 40
0.0
 40
0.0
 40
0.4189451683248867
 40
0.4189451683248867
 40
0.4189451683248867
 10
2046.717128218015
 20
253.8233880309472
 30
0.0
 41
1.0
 10
2046.583170592633
 20
253.662346548768
 30
0.0
 41
0.9999958830236989
 10
2046.448290965294
 20
253.5020764938301
 30
0.0
 41
1.0
  0
SPLINE
  5
AC
330
1F
100
AcDbEntity
  8
Crea2D$visibili$linee
100
AcDbSpline
210
0.0
220
0.0
230
1.0
 70
    12
 71
     2
 72
     6
 73
     3
 74
     0
 42
0.000000001
 43
0.0000000001
 40
0.0
 40
0.0
 40
0.0
 40
0.4187181024071628
 40
0.4187181024071628
 40
0.4187181024071628
 10
2047.249036048334
 20
254.4703514481473
 30
0.0
 41
1.0
 10
2047.117006479935
 20
254.3078717702409
 30
0.0
 41
0.9999958874852439
 10
2046.984047127133
 20
254.14615206468
 30
0.0
 41
1.0
  0
SPLINE
  5
AD
330
1F
100
AcDbEntity
  8
Crea2D$visibili$linee
100
AcDbSpline
210
0.0
220
0.0
230
1.0
 70
    12
 71
     2
 72
     6
 73
     3
 74
     0
 42
0.000000001
 43
0.0000000001
 40
0.0
 40
0.0
 40
0.0
 40
0.4046691043112936
 40
0.4046691043112936
 40
0.4046691043112936
 10
2047.512083541188
 20
254.7959689116504
 30
0.0
 41
1.0
 10
2047.385386423278
 20
254.6382117533868
 30
0.0
 41
0.9999961588248449
 10
2047.25781674352
 20
254.481159349786
 30
0.0
 41
1.0
  0
SPLINE
  5
AE
330
1F
100
AcDbEntity
  8
Crea2D$visibili$linee
100
AcDbSpline
210
0.0
220
0.0
230
1.0
 70
    12
 71
     2
 72
     6
 73
     3
 74
     0
 42
0.000000001
 43
0.0000000001
 40
0.0
 40
0.0
 40
0.0
 40
0.4183262659195057
 40
0.4183262659195057
 40
0.4183262659195057
 10
2048.032309509061
 20
255.4513884040375
 30
0.0
 41
1.0
 10
2047.903214416893
 20
255.2868164963111
 30
0.0
 41
0.9999958951786219
 10
2047.773178370743
 20
255.122987065695
 30
0.0
 41
1.0
  0
SPLINE
  5
AF
330
1F
100
AcDbEntity
  8
Crea2D$visibili$linee
100
AcDbSpline
210
0.0
220
0.0
230
1.0
 70
    12
 71
     2
 72
     6
 73
     3
 74
     0
 42
0.000000001
 43
0.0000000001
 40
0.0
 40
0.0
 40
0.0
 40
0.3896078320960619
 40
0.3896078320960619
 40
0.3896078320960619
 10
2048.527347874078
 20
256.0897102962444
 30
0.0
 41
1.0
 10
2048.408818703083
 20
255.9351154014722
 30
0.0
 41
0.9999964394311114
 10
2048.289466136705
 20
255.781155306755
 30
0.0
 41
1.0
  0
SPLINE
  5
B0
330
1F
100
AcDbEntity
  8
Crea2D$visibili$linee
100
AcDbSpline
210
0.0
220
0.0
230
1.0
 70
    12
 71
     2
 72
     6
 73
     3
 74
     0
 42
0.000000001
 43
0.0000000001
 40
0.0
 40
0.0
 40
0.0
 40
0.4178732563862312
 40
0.4178732563862312
 40
0.4178732563862312
 10
2048.797813633248
 20
256.4447147757958
 30
0.0
 41
1.0
 10
2048.67170139262
 20
256.2781300953063
 30
0.0
 41
0.999995904064102
 10
2048.544637644167
 20
256.1122700433365
 30
0.0
 41
1.0
  0
SPLINE
  5
B1
330
1F
100
AcDbEntity
  8
Crea2D$visibili$linee
100
AcDbSpline
210
0.0
220
0.0
230
1.0
 70
    12
 71
     2
 72
     6
 73
     3
 74
     0
 42
0.000000001
 43
0.0000000001
 40
0.0
 40
0.0
 40
0.0
 40
0.8348969335125362
 40
0.8348969335125362
 40
0.8348969335125362
 10
2049.545267705121
 20
257.4498490223586
 30
0.0
 41
1.0
 10
2049.299045459325
 20
257.1127412841078
 30
0.0
 41
0.999983649582706
 10
2049.048983918372
 20
256.778471561804
 30
0.0
 41
1.0
  0
SPLINE
  5
B2
330
1F
100
AcDbEntity
  8
Crea2D$visibili$linee
100
AcDbSpline
210
0.0
220
0.0
230
1.0
 70
    12
 71
     2
 72
     6
 73
     3
 74
     0
 42
0.000000001
 43
0.0000000001
 40
0.0
 40
0.0
 40
0.0
 40
0.4169834091599382
 40
0.4169834091599382
 40
0.4169834091599382
 10
2050.033411819029
 20
258.1262569196736
 30
0.0
 41
1.0
 10
2049.912370714447
 20
257.9564980369442
 30
0.0
 41
0.9999959214898343
 10
2049.790361909837
 20
257.7874333189772
 30
0.0
 41
1.0
  0
SPLINE
  5
B3
330
1F
100
AcDbEntity
  8
Crea2D$visibili$linee
100
AcDbSpline
210
0.0
220
0.0
230
1.0
 70
    12
 71
     2
 72
     6
 73
     3
 74
     0
 42
0.000000001
 43
0.0000000001
 40
0.0
 40
0.0
 40
0.0
 40
0.7692323275711384
 40
0.7692323275711384
 40
0.7692323275711384
 10
2050.494064728485
 20
258.779861372892
 30
0.0
 41
1.0
 10
2050.274215745126
 20
258.464268667615
 30
0.0
 41
0.9999861203554856
 10
2050.051053493157
 20
258.1510100836872
 30
0.0
 41
1.0
  0
SPLINE
  5
B4
330
1F
100
AcDbEntity
  8
Crea2D$visibili$linee
100
AcDbSpline
210
0.0
220
0.0
230
1.0
 70
    12
 71
     2
 72
     6
 73
     3
 74
     0
 42
0.000000001
 43
0.0000000001
 40
0.0
 40
0.0
 40
0.0
 40
0.4163693656996414
 40
0.4163693656996414
 40
0.4163693656996414
 10
2050.750205825434
 20
259.1499789590195
 30
0.0
 41
1.0
 10
2050.632262469584
 20
258.9784258710853
 30
0.0
 41
0.9999959334928881
 10
2050.513342551882
 20
258.8075482823177
 30
0.0
 41
1.0
  0
SPLINE
  5
B5
330
1F
100
AcDbEntity
  8
Crea2D$visibili$linee
100
AcDbSpline
210
0.0
220
0.0
230
1.0
 70
    12
 71
     2
 72
     6
 73
     3
 74
     0
 42
0.000000001
 43
0.0000000001
 40
0.0
 40
0.0
 40
0.0
 40
0.8316228027442684
 40
0.8316228027442684
 40
0.8316228027442684
 10
2051.448286618191
 20
260.1841868063435
 30
0.0
 41
1.0
 10
2051.218605062039
 20
259.8375612963972
 30
0.0
 41
0.999983777570459
 10
2050.984989705039
 20
259.4935747757958
 30
0.0
 41
1.0
  0
SPLINE
  5
B6
330
1F
100
AcDbEntity
  8
Crea2D$visibili$linee
100
AcDbSpline
210
0.0
220
0.0
230
1.0
 70
    12
 71
     2
 72
     6
 73
     3
 74
     0
 42
0.000000001
 43
0.0000000001
 40
0.0
 40
0.0
 40
0.0
 40
0.415214121564538
 40
0.415214121564538
 40
0.415214121564538
 10
2051.903170194483
 20
260.8792336253259
 30
0.0
 41
1.0
 10
2051.790471978509
 20
260.7048775637692
 30
0.0
 41
0.9999959560271487
 10
2051.676783877188
 20
260.5311653313174
 30
0.0
 41
1.0
  0
SPLINE
  5
B7
330
1F
100
AcDbEntity
  8
Crea2D$visibili$linee
100
AcDbSpline
210
0.0
220
0.0
230
1.0
 70
    12
 71
     2
 72
     6
 73
     3
 74
     0
 42
0.000000001
 43
0.0000000001
 40
0.0
 40
0.0
 40
0.0
 40
0.3894396426148271
 40
0.3894396426148271
 40
0.3894396426148271
 10
2052.336103410152
 20
261.557191360576
 30
0.0
 41
1.0
 10
2052.232209372375
 20
261.3925037242085
 30
0.0
 41
0.9999964425045665
 10
2052.127438243279
 20
261.2283726815447
 30
0.0
 41
1.0
  0
SPLINE
  5
B8
330
1F
100
AcDbEntity
  8
Crea2D$visibili$linee
100
AcDbSpline
210
0.0
220
0.0
230
1.0
 70
    12
 71
     2
 72
     6
 73
     3
 74
     0
 42
0.000000001
 43
0.0000000001
 40
0.0
 40
0.0
 40
0.0
 40
0.4144428518371325
 40
0.4144428518371325
 40
0.4144428518371325
 10
2052.569591354665
 20
261.9297867613371
 30
0.0
 41
1.0
 10
2052.460084639653
 20
261.7538628306064
 30
0.0
 41
0.999995971036731
 10
2052.349580921982
 20
261.5785634340954
 30
0.0
 41
1.0
  0
SPLINE
  5
B9
330
1F
100
AcDbEntity
  8
Crea2D$visibili$linee
100
AcDbSpline
210
0.0
220
0.0
230
1.0
 70
    12
 71
     2
 72
     6
 73
     3
 74
     0
 42
0.000000001
 43
0.0000000001
 40
0.0
 40
0.0
 40
0.0
 40
0.4138965235365488
 40
0.4138965235365488
 40
0.4138965235365488
 10
2053.003189109052
 20
262.6352543942742
 30
0.0
 41
1.0
 10
2052.895826690116
 20
262.4583331589404
 30
0.0
 41
0.9999959816518711
 10
2052.787462891488
 20
262.2820234891591
 30
0.0
 41
1.0
  0
SPLINE
  5
BA
330
1F
100
AcDbEntity
  8
Crea2D$visibili$linee
100
AcDbSpline
210
0.0
220
0.0
230
1.0
 70
    12
 71
     2
 72
     6
 73
     3
 74
     0
 42
0.000000001
 43
0.0000000001
 40
0.0
 40
0.0
 40
0.0
 40
0.400150373895291
 40
0.400150373895291
 40
0.400150373895291
 10
2053.216763810699
 20
262.9894602075109
 30
0.0
 41
1.0
 10
2053.113937877587
 20
262.8178294749006
 30
0.0
 41
0.9999962441306646
 10
2053.010172698071
 20
262.6467649595365
 30
0.0
 41
1.0
  0
SPLINE
  5
BB
330
1F
100
AcDbEntity
  8
Crea2D$visibili$linee
100
AcDbSpline
210
0.0
220
0.0
230
1.0
 70
    12
 71
     2
 72
     6
 73
     3
 74
     0
 42
0.000000001
 43
0.0000000001
 40
0.0
 40
0.0
 40
0.0
 40
0.4130293287202791
 40
0.4130293287202791
 40
0.4130293287202791
 10
2053.637435014738
 20
263.7007192719822
 30
0.0
 41
1.0
 10
2053.53331171653
 20
263.522374457335
 30
0.0
 41
0.9999959984726804
 10
2053.428181026761
 20
263.3446216171042
 30
0.0
 41
1.0
  0
SPLINE
  5
BC
330
1F
100
AcDbEntity
  8
Crea2D$visibili$linee
100
AcDbSpline
210
0.0
220
0.0
230
1.0
 70
    12
 71
     2
 72
     6
 73
     3
 74
     0
 42
0.000000001
 43
0.0000000001
 40
0.0
 40
0.0
 40
0.0
 40
0.4092783807431585
 40
0.4092783807431585
 40
0.4092783807431585
 10
2054.047878342819
 20
264.4129152092381
 30
0.0
 41
1.0
 10
2053.946697138319
 20
264.2350394619213
 30
0.0
 41
0.9999960708227816
 10
2053.844520259442
 20
264.0577337850502
 30
0.0
 41
1.0
  0
SPLINE
  5
BD
330
1F
100
AcDbEntity
  8
Crea2D$visibili$linee
100
AcDbSpline
210
0.0
220
0.0
230
1.0
 70
    12
 71
     2
 72
     6
 73
     3
 74
     0
 42
0.000000001
 43
0.0000000001
 40
0.0
 40
0.0
 40
0.0
 40
0.412105551700625
 40
0.412105551700625
 40
0.412105551700625
 10
2054.252163595187
 20
264.7744356769202
 30
0.0
 41
1.0
 10
2054.151303903025
 20
264.5947545859579
 30
0.0
 41
0.9999960163522016
 10
2054.049431473062
 20
264.4156457364676
 30
0.0
 41
1.0
  0
SPLINE
  5
BE
330
1F
100
AcDbEntity
  8
Crea2D$visibili$linee
100
AcDbSpline
210
0.0
220
0.0
230
1.0
 70
    12
 71
     2
 72
     6
 73
     3
 74
     0
 42
0.000000001
 43
0.0000000001
 40
0.0
 40
0.0
 40
0.0
 40
0.4114586505499456
 40
0.4114586505499456
 40
0.4114586505499456
 10
2054.651071460054
 20
265.4945715998799
 30
0.0
 41
1.0
 10
2054.552399592442
 20
265.3140483550494
 30
0.0
 41
0.9999960288490086
 10
2054.452711792774
 20
265.1340841308839
 30
0.0
 41
1.0
  0
SPLINE
  5
BF
330
1F
100
AcDbEntity
  8
Crea2D$visibili$linee
100
AcDbSpline
210
0.0
220
0.0
230
1.0
 70
    12
 71
     2
 72
     6
 73
     3
 74
     0
 42
0.000000001
 43
0.0000000001
 40
0.0
 40
0.0
 40
0.0
 40
0.3963730447726075
 40
0.3963730447726075
 40
0.3963730447726075
 10
2055.034436208526
 20
266.2052610454036
 30
0.0
 41
1.0
 10
2054.941311481051
 20
266.0303156945363
 30
0.0
 41
0.999996314705055
 10
2054.847238218388
 20
265.8558785657212
 30
0.0
 41
1.0
  0
SPLINE
  5
C0
330
1F
100
AcDbEntity
  8
Crea2D$visibili$linee
100
AcDbSpline
210
0.0
220
0.0
230
1.0
 70
    12
 71
     2
 72
     6
 73
     3
 74
     0
 42
0.000000001
 43
0.0000000001
 40
0.0
 40
0.0
 40
0.0
 40
0.4104423295583002
 40
0.4104423295583002
 40
0.4104423295583002
 10
2055.232976628048
 20
266.5808728360504
 30
0.0
 41
1.0
 10
2055.137602356709
 20
266.3991596094053
 30
0.0
 41
0.9999960484426039
 10
2055.041207916064
 20
266.217985493748
 30
0.0
 41
1.0
  0
SPLINE
  5
C1
330
1F
100
AcDbEntity
  8
Crea2D$visibili$linee
100
AcDbSpline
210
0.0
220
0.0
230
1.0
 70
    12
 71
     2
 72
     6
 73
     3
 74
     0
 42
0.000000001
 43
0.0000000001
 40
0.0
 40
0.0
 40
0.0
 40
0.4097345037193201
 40
0.4097345037193201
 40
0.4097345037193201
 10
2055.609896526286
 20
267.3089105248495
 30
0.0
 41
1.0
 10
2055.516729903785
 20
267.1264528812507
 30
0.0
 41
0.9999960620601104
 10
2055.422540655675
 20
266.9445210346807
 30
0.0
 41
1.0
  0
SPLINE
  5
C2
330
1F
100
AcDbEntity
  8
Crea2D$visibili$linee
100
AcDbSpline
210
0.0
220
0.0
230
1.0
 70
    12
 71
     2
 72
     6
 73
     3
 74
     0
 42
0.000000001
 43
0.0000000001
 40
0.0
 40
0.0
 40
0.0
 40
0.40862800139769
 40
0.40862800139769
 40
0.40862800139769
 10
2056.158683850511
 20
268.406331060797
 30
0.0
 41
1.0
 10
2056.06884032172
 20
268.2228301909997
 30
0.0
 41
0.9999960833004666
 10
2055.977971033334
 20
268.0398351055184
 30
0.0
 41
1.0
  0
SPLINE
  5
C3
330
1F
100
AcDbEntity
  8
Crea2D$visibili$linee
100
AcDbSpline
210
0.0
220
0.0
230
1.0
 70
    12
 71
     2
 72
     6
 73
     3
 74
     0
 42
0.000000001
 43
0.0000000001
 40
0.0
 40
0.0
 40
0.0
 40
0.4078608858682161
 40
0.4078608858682161
 40
0.4078608858682161
 10
2056.51344774514
 20
269.1412925019023
 30
0.0
 41
1.0
 10
2056.425826049976
 20
268.9571450597264
 30
0.0
 41
0.9999960979922607
 10
2056.337176871066
 20
268.7734900434536
 30
0.0
 41
1.0
  0
SPLINE
  5
C4
330
1F
100
AcDbEntity
  8
Crea2D$visibili$linee
100
AcDbSpline
210
0.0
220
0.0
230
1.0
 70
    12
 71
     2
 72
     6
 73
     3
 74
     0
 42
0.000000001
 43
0.0000000001
 40
0.0
 40
0.0
 40
0.0
 40
0.406666740916345
 40
0.406666740916345
 40
0.406666740916345
 10
2057.028907326773
 20
270.2483654145498
 30
0.0
 41
1.0
 10
2056.944625810138
 20
270.0633213675209
 30
0.0
 41
0.999996120807581
 10
2056.859314767437
 20
269.8787497029011
 30
0.0
 41
1.0
  0
SPLINE
  5
C5
330
1F
100
AcDbEntity
  8
Crea2D$visibili$linee
100
AcDbSpline
210
0.0
220
0.0
230
1.0
 70
    12
 71
     2
 72
     6
 73
     3
 74
     0
 42
0.000000001
 43
0.0000000001
 40
0.0
 40
0.0
 40
0.0
 40
0.4058420834486446
 40
0.4058420834486446
 40
0.4058420834486446
 10
2057.361403224109
 20
270.9892736369966
 30
0.0
 41
1.0
 10
2057.279352156028
 20
270.8036805780824
 30
0.0
 41
0.9999961365244254
 10
2057.196270560259
 20
270.6185465462707
 30
0.0
 41
1.0
  0
SPLINE
  5
C6
330
1F
100
AcDbEntity
  8
Crea2D$visibili$linee
100
AcDbSpline
210
0.0
220
0.0
230
1.0
 70
    12
 71
     2
 72
     6
 73
     3
 74
     0
 42
0.000000001
 43
0.0000000001
 40
0.0
 40
0.0
 40
0.0
 40
0.4045629966017443
 40
0.4045629966017443
 40
0.4045629966017443
 10
2057.84340863416
 20
272.1045364774694
 30
0.0
 41
1.0
 10
2057.764706544913
 20
271.9181927221209
 30
0.0
 41
0.999996160838958
 10
2057.684972960124
 20
271.7322879898899
 30
0.0
 41
1.0
  0
SPLINE
  5
C7
330
1F
100
AcDbEntity
  8
Crea2D$visibili$linee
100
AcDbSpline
210
0.0
220
0.0
230
1.0
 70
    12
 71
     2
 72
     6
 73
     3
 74
     0
 42
0.000000001
 43
0.0000000001
 40
0.0
 40
0.0
 40
0.0
 40
0.4036826481519405
 40
0.4036826481519405
 40
0.4036826481519405
 10
2058.153579717887
 20
272.8504194036356
 30
0.0
 41
1.0
 10
2058.077111223015
 20
272.6636235336759
 30
0.0
 41
0.9999961775291627
 10
2057.999610940251
 20
272.4772533807184
 30
0.0
 41
1.0
  0
SPLINE
  5
C8
330
1F
100
AcDbEntity
  8
Crea2D$visibili$linee
100
AcDbSpline
210
0.0
220
0.0
230
1.0
 70
    12
 71
     2
 72
     6
 73
     3
 74
     0
 42
0.000000001
 43
0.0000000001
 40
0.0
 40
0.0
 40
0.0
 40
0.4023214675860297
 40
0.4023214675860297
 40
0.4023214675860297
 10
2058.60208646908
 20
273.9724198724647
 30
0.0
 41
1.0
 10
2058.52896764225
 20
273.7850179438889
 30
0.0
 41
0.9999962032637246
 10
2058.45481711166
 20
273.5980218356829
 30
0.0
 41
1.0
  0
SPLINE
  5
C9
330
1F
100
AcDbEntity
  8
Crea2D$visibili$linee
100
AcDbSpline
210
0.0
220
0.0
230
1.0
 70
    12
 71
     2
 72
     6
 73
     3
 74
     0
 42
0.000000001
 43
0.0000000001
 40
0.0
 40
0.0
 40
0.0
 40
0.4013873724271017
 40
0.4013873724271017
 40
0.4013873724271017
 10
2058.8899299331
 20
274.7223140279439
 30
0.0
 41
1.0
 10
2058.81904250736
 20
274.5345558549844
 30
0.0
 41
0.9999962208734938
 10
2058.747123778122
 20
274.3471902897765
 30
0.0
 41
1.0
  0
SPLINE
  5
CA
330
1F
100
AcDbEntity
  8
Crea2D$visibili$linee
100
AcDbSpline
210
0.0
220
0.0
230
1.0
 70
    12
 71
     2
 72
     6
 73
     3
 74
     0
 42
0.000000001
 43
0.0000000001
 40
0.0
 40
0.0
 40
0.0
 40
0.3989612643245058
 40
0.3989612643245058
 40
0.3989612643245058
 10
2059.570539114899
 20
276.6025694762239
 30
0.0
 41
1.0
 10
2059.505218176852
 20
276.414086331744
 30
0.0
 41
0.999996266419791
 10
2059.438868117078
 20
276.2259629938295
 30
0.0
 41
1.0
  0
SPLINE
  5
CB
330
1F
100
AcDbEntity
  8
Crea2D$visibili$linee
100
AcDbSpline
210
0.0
220
0.0
230
1.0
 70
    12
 71
     2
 72
     6
 73
     3
 74
     0
 42
0.000000001
 43
0.0000000001
 40
0.0
 40
0.0
 40
0.0
 40
0.3979553465863932
 40
0.3979553465863932
 40
0.3979553465863932
 10
2059.827218955744
 20
277.356484486159
 30
0.0
 41
1.0
 10
2059.76411768241
 20
277.167776934972
 30
0.0
 41
0.9999962852233076
 10
2059.69998862332
 20
276.9794161791032
 30
0.0
 41
1.0
  0
SPLINE
  5
CC
330
1F
100
AcDbEntity
  8
Crea2D$visibili$linee
100
AcDbSpline
210
0.0
220
0.0
230
1.0
 70
    12
 71
     2
 72
     6
 73
     3
 74
     0
 42
0.000000001
 43
0.0000000001
 40
0.0
 40
0.0
 40
0.0
 40
0.3953548435260377
 40
0.3953548435260377
 40
0.3953548435260377
 10
2060.43017761447
 20
279.2445037917763
 30
0.0
 41
1.0
 10
2060.372601287195
 20
279.0553966247026
 30
0.0
 41
0.999996333614262
 10
2060.314001638978
 20
278.8666040524706
 30
0.0
 41
1.0
  0
SPLINE
  5
CD
330
1F
100
AcDbEntity
  8
Crea2D$visibili$linee
100
AcDbSpline
210
0.0
220
0.0
230
1.0
 70
    12
 71
     2
 72
     6
 73
     3
 74
     0
 42
0.000000001
 43
0.0000000001
 40
0.0
 40
0.0
 40
0.0
 40
0.3915169922517592
 40
0.3915169922517592
 40
0.3915169922517592
 10
2061.181992530992
 20
281.8919203686635
 30
0.0
 41
1.0
 10
2061.132074511291
 20
281.7026328523535
 30
0.0
 41
0.9999964044505668
 10
2061.081142018784
 20
281.5136157797685
 30
0.0
 41
1.0
  0
SPLINE
  5
CE
330
1F
100
AcDbEntity
  8
Crea2D$visibili$linee
100
AcDbSpline
210
0.0
220
0.0
230
1.0
 70
    12
 71
     2
 72
     6
 73
     3
 74
     0
 42
0.000000001
 43
0.0000000001
 40
0.0031298982897974
 40
0.0031298982897974
 40
0.0031298982897974
 40
0.0085443767285405
 40
0.0085443767285405
 40
0.0085443767285405
 10
1953.91296240993
 20
234.1620323755793
 30
0.0
 41
0.9926622954464512
 10
1953.910598983101
 20
234.1633407285011
 30
0.0
 41
0.9962840020752917
 10
1953.908259500187
 20
234.1646914295918
 30
0.0
 41
1.0
  0
SPLINE
  5
CF
330
1F
100
AcDbEntity
  8
Crea2D$visibili$linee
100
AcDbSpline
210
0.0
220
0.0
230
1.0
 70
    12
 71
     3
 72
     8
 73
     4
 74
     0
 42
0.000000001
 43
0.0000000001
 40
0.0003516805163912
 40
0.0003516805163912
 40
0.0003516805163912
 40
0.0003516805163912
 40
0.7458516428311104
 40
0.7458516428311104
 40
0.7458516428311104
 40
0.7458516428311104
 10
1953.853428790371
 20
234.2053087670076
 30
0.0
 41
1.0
 10
1953.846900495425
 20
234.2114088673341
 30
0.0
 41
1.0
 10
1953.840372895157
 20
234.2175103009351
 30
0.0
 41
1.0
 10
1953.833845989781
 20
234.2236130681761
 30
0.0
 41
1.0
  0
SPLINE
  5
D0
330
1F
100
AcDbEntity
  8
Crea2D$visibili$linee
100
AcDbSpline
210
0.0
220
0.0
230
1.0
 70
    12
 71
     2
 72
    10
 73
     7
 74
     0
 42
0.000000001
 43
0.0000000001
 40
0.0
 40
0.0
 40
0.0
 40
58.96274684540992
 40
58.96274684540992
 40
117.6972068670251
 40
117.6972068670251
 40
156.0195929423999
 40
156.0195929423999
 40
156.0195929423999
 10
1953.912962409931
 20
234.1620323755794
 30
0.0
 41
1.0
 10
1981.090398747143
 20
219.1170655499942
 30
0.0
 41
0.9253078170035365
 10
2011.009635891831
 20
227.4719037486736
 30
0.0
 41
1.0
 10
2040.800549679293
 20
235.7909081163782
 30
0.0
 41
0.925877831070377
 10
2056.265868767189
 20
262.57762653188
 30
0.0
 41
1.0
 10
2066.05590422322
 20
279.5344653496267
 30
0.0
 41
0.9682171546608327
 10
2066.408499941758
 20
299.1113612522117
 30
0.0
 41
1.0
  0
SPLINE
  5
D1
330
1F
100
AcDbEntity
  8
Crea2D$visibili$linee
100
AcDbSpline
210
0.0
220
0.0
230
1.0
 70
    12
 71
     2
 72
     6
 73
     3
 74
     0
 42
0.000000001
 43
0.0000000001
 40
0.0
 40
0.0
 40
0.0
 40
0.121811567251224
 40
0.121811567251224
 40
0.121811567251224
 10
1953.852528358623
 20
234.2058275560165
 30
0.0
 41
1.0
 10
1953.800200454026
 20
234.2369957905545
 30
0.0
 41
0.9999688722375555
 10
1953.747387235596
 20
234.2673344194445
 30
0.0
 41
1.0
  0
SPLINE
  5
D2
330
1F
100
AcDbEntity
  8
Crea2D$visibili$linee
100
AcDbSpline
210
0.0
220
0.0
230
1.0
 70
    12
 71
     2
 72
     6
 73
     3
 74
     0
 42
0.000000001
 43
0.0000000001
 40
0.0
 40
0.0
 40
0.0
 40
0.0583839306635662
 40
0.0583839306635662
 40
0.0583839306635662
 10
2066.403882376443
 20
299.1694699140175
 30
0.0
 41
1.0
 10
2066.409027292863
 20
299.1406409545564
 30
0.0
 41
0.9952694519495294
 10
2066.408499941758
 20
299.1113612522117
 30
0.0
 41
1.0
  0
SPLINE
  5
D3
330
1F
100
AcDbEntity
  8
Crea2D$visibili$linee
100
AcDbSpline
210
0.0
220
0.0
230
1.0
 70
    12
 71
     3
 72
     8
 73
     4
 74
     0
 42
0.000000001
 43
0.0000000001
 40
0.0
 40
0.0
 40
0.0
 40
0.0
 40
1.444126555558855
 40
1.444126555558855
 40
1.444126555558855
 40
1.444126555558855
 10
1953.747387189308
 20
234.2673344461763
 30
0.0
 41
1.0
 10
1953.552076889632
 20
234.3801281189027
 30
0.0
 41
1.0
 10
1953.165987609243
 20
234.599506167402
 30
0.0
 41
1.0
 10
1952.763287509019
 20
234.8317612365589
 30
0.0
 41
1.0
  0
SPLINE
  5
D4
330
1F
100
AcDbEntity
  8
Crea2D$visibili$linee
100
AcDbSpline
210
0.0
220
0.0
230
1.0
 70
    12
 71
     3
 72
     8
 73
     4
 74
     0
 42
0.000000001
 43
0.0000000001
 40
0.0
 40
0.0
 40
0.0
 40
0.0
 40
0.7454679362251222
 40
0.7454679362251222
 40
0.7454679362251222
 40
0.7454679362251222
 10
2066.394727707646
 20
299.2106684282681
 30
0.0
 41
1.0
 10
2066.396749319591
 20
299.2019649526192
 30
0.0
 41
1.0
 10
2066.398769429235
 20
299.1932615420454
 30
0.0
 41
1.0
 10
2066.400788037005
 20
299.1845581965778
 30
0.0
 41
1.0
  0
SPLINE
  5
D5
330
1F
100
AcDbEntity
  8
Crea2D$visibili$linee
100
AcDbSpline
210
0.0
220
0.0
230
1.0
 70
    12
 71
     2
 72
     8
 73
     5
 74
     0
 42
0.000000001
 43
0.0000000001
 40
0.0
 40
0.0
 40
0.0
 40
0.0344384387584506
 40
0.0344384387584506
 40
0.0688768775056026
 40
0.0688768775056026
 40
0.0688768775056026
 10
1952.7036383863
 20
234.8661996732811
 30
0.0
 41
0.9998118374590093
 10
1952.71854675351
 20
234.8575832875449
 30
0.0
 41
0.9999058884898959
 10
1952.733459034926
 20
234.8489736778553
 30
0.0
 41
1.0
 10
1952.748371316337
 20
234.8403640681686
 30
0.0
 41
0.9999058884899268
 10
1952.763287508873
 20
234.8317612363065
 30
0.0
 41
0.999811837459071
  0
SPLINE
  5
D6
330
1F
100
AcDbEntity
  8
Crea2D$visibili$linee
100
AcDbSpline
210
0.0
220
0.0
230
1.0
 70
    12
 71
     2
 72
     6
 73
     3
 74
     0
 42
0.000000001
 43
0.0000000001
 40
0.0
 40
0.0
 40
0.0
 40
0.121810038957753
 40
0.121810038957753
 40
0.121810038957753
 10
2066.400093283868
 20
299.3074045813536
 30
0.0
 41
1.0
 10
2066.399960709394
 20
299.246498442336
 30
0.0
 41
0.9999688747801431
 10
2066.40078920009
 20
299.1855977941523
 30
0.0
 41
1.0
  0
SPLINE
  5
D7
330
1F
100
AcDbEntity
  8
Crea2D$visibili$linee
100
AcDbSpline
210
0.0
220
0.0
230
1.0
 70
    12
 71
     3
 72
     8
 73
     4
 74
     0
 42
0.000000001
 43
0.0000000001
 40
0.0
 40
0.0
 40
0.0
 40
0.0
 40
1.444126555542843
 40
1.444126555542843
 40
1.444126555542843
 40
1.444126555542843
 10
1952.703638386455
 20
234.8661996735278
 30
0.0
 41
1.0
 10
1952.301149546289
 20
235.098820655854
 30
0.0
 41
1.0
 10
1951.918117943086
 20
235.323494756535
 30
0.0
 41
1.0
 10
1951.722780607262
 20
235.4362416013236
 30
0.0
 41
1.0
  0
SPLINE
  5
D8
330
1F
100
AcDbEntity
  8
Crea2D$visibili$linee
100
AcDbSpline
210
0.0
220
0.0
230
1.0
 70
    12
 71
     3
 72
     8
 73
     4
 74
     0
 42
0.000000001
 43
0.0000000001
 40
0.0
 40
0.0
 40
0.0
 40
0.0
 40
1.444126555550632
 40
1.444126555550632
 40
1.444126555550632
 40
1.444126555550632
 10
2066.403335184958
 20
300.4418733529845
 30
0.0
 41
1.0
 10
2066.403123924893
 20
299.9769973014883
 30
0.0
 41
1.0
 10
2066.400066247733
 20
299.5329451523298
 30
0.0
 41
1.0
 10
2066.400093283862
 20
299.3074046348061
 30
0.0
 41
1.0
  0
SPLINE
  5
D9
330
1F
100
AcDbEntity
  8
Crea2D$visibili$linee
100
AcDbSpline
210
0.0
220
0.0
230
1.0
 70
    12
 71
     2
 72
     6
 73
     3
 74
     0
 42
0.000000001
 43
0.0000000001
 40
0.0
 40
0.0
 40
0.0
 40
0.122541526290207
 40
0.122541526290207
 40
0.122541526290207
 10
1951.722780560969
 20
235.4362416280439
 30
0.0
 41
1.0
 10
1951.669786587733
 20
235.4669972333459
 30
0.0
 41
0.999967628732168
 10
1951.616304560248
 20
235.4968960827022
 30
0.0
 41
1.0
  0
SPLINE
  5
DA
330
1F
100
AcDbEntity
  8
Crea2D$visibili$linee
100
AcDbSpline
210
0.0
220
0.0
230
1.0
 70
    12
 71
     2
 72
     6
 73
     3
 74
     0
 42
0.000000001
 43
0.0000000001
 40
0.0
 40
0.0
 40
0.0
 40
0.0688768810505968
 40
0.0688768810505968
 40
0.0688768810505968
 10
2066.403335185249
 20
300.4418733529843
 30
0.0
 41
0.868399502740028
 10
2066.403350835913
 20
300.4763117899533
 30
0.0
 41
0.86834745835521
 10
2066.40333518525
 20
300.5107502269224
 30
0.0
 41
0.8682955964166759
  0
SPLINE
  5
DB
330
1F
100
AcDbEntity
  8
Crea2D$visibili$linee
100
AcDbSpline
210
0.0
220
0.0
230
1.0
 70
    12
 71
     3
 72
     8
 73
     4
 74
     0
 42
0.000000001
 43
0.0000000001
 40
0.0
 40
0.0
 40
0.0
 40
0.0
 40
1.44412655556207
 40
1.44412655556207
 40
1.44412655556207
 40
1.44412655556207
 10
2066.400093283862
 20
301.6452189451007
 30
0.0
 41
1.0
 10
2066.400066247733
 20
301.4196784275871
 30
0.0
 41
1.0
 10
2066.403123924893
 20
300.9756262784167
 30
0.0
 41
1.0
 10
2066.403335184958
 20
300.5107502269222
 30
0.0
 41
1.0
  0
SPLINE
  5
DC
330
1F
100
AcDbEntity
  8
Crea2D$visibili$linee
100
AcDbSpline
210
0.0
220
0.0
230
1.0
 70
    12
 71
     2
 72
     6
 73
     3
 74
     0
 42
0.000000001
 43
0.0000000001
 40
0.0
 40
0.0
 40
0.0
 40
0.0054144784387731
 40
0.0054144784387731
 40
0.0054144784387731
 10
1951.55345299194
 20
235.5242396010173
 30
0.0
 41
1.0
 10
1951.551113509025
 20
235.525590302108
 30
0.0
 41
0.9962840020752659
 10
1951.548798728744
 20
235.5269829133211
 30
0.0
 41
0.9926622954464012
  0
SPLINE
  5
DD
330
1F
100
AcDbEntity
  8
Crea2D$visibili$linee
100
AcDbSpline
210
0.0
220
0.0
230
1.0
 70
    12
 71
     2
 72
     6
 73
     3
 74
     0
 42
0.000000001
 43
0.0000000001
 40
0.0
 40
0.0
 40
0.0
 40
0.1225415262902409
 40
0.1225415262902409
 40
0.1225415262902409
 10
2066.400802985642
 20
301.7677571473995
 30
0.0
 41
1.0
 10
2066.399955134985
 20
301.7064909282731
 30
0.0
 41
0.9999676287321675
 10
2066.400093283868
 20
301.6452189985526
 30
0.0
 41
1.0
  0
SPLINE
  5
DE
330
1F
100
AcDbEntity
  8
Crea2D$visibili$linee
100
AcDbSpline
210
0.0
220
0.0
230
1.0
 70
    12
 71
     2
 72
    10
 73
     7
 74
     0
 42
0.000000001
 43
0.0000000001
 40
0.0
 40
0.0
 40
0.0
 40
38.32238607537506
 40
38.32238607537506
 40
97.0568460969904
 40
97.0568460969904
 40
156.0195929424002
 40
156.0195929424002
 40
156.0195929424002
 10
1951.548798728744
 20
365.425640666586
 30
0.0
 41
1.0
 10
1934.77100740913
 20
355.3318358657739
 30
0.0
 41
0.9682171546608288
 10
1924.980971953099
 20
338.374997048027
 30
0.0
 41
1.0
 10
1909.515652865202
 20
311.5882786325254
 30
0.0
 41
0.9258778310703744
 10
1917.206640642307
 20
281.6290883067794
 30
0.0
 41
1.0
 10
1924.930757090087
 20
251.5408497782889
 30
0.0
 41
0.9253078170035393
 10
1951.548798728744
 20
235.5269829133209
 30
0.0
 41
1.0
  0
SPLINE
  5
DF
330
1F
100
AcDbEntity
  8
Crea2D$visibili$linee
100
AcDbSpline
210
0.0
220
0.0
230
1.0
 70
    12
 71
     3
 72
     8
 73
     4
 74
     0
 42
0.000000001
 43
0.0000000001
 40
0.0004775133148808
 40
0.0004775133148808
 40
0.0004775133148808
 40
0.0004775133148808
 40
0.7458516428315679
 40
0.7458516428315679
 40
0.7458516428315679
 40
0.7458516428315679
 10
2066.400787274997
 20
301.76806209784
 30
0.0
 41
1.0
 10
2066.398768920819
 20
301.7593598473473
 30
0.0
 41
1.0
 10
2066.396749065188
 20
301.7506575319917
 30
0.0
 41
1.0
 10
2066.39472770768
 20
301.7419551517407
 30
0.0
 41
1.0
  0
SPLINE
  5
E0
330
1F
100
AcDbEntity
  8
Crea2D$visibili$linee
100
AcDbSpline
210
0.0
220
0.0
230
1.0
 70
    12
 71
     2
 72
     6
 73
     3
 74
     0
 42
0.000000001
 43
0.0000000001
 40
0.0
 40
0.0
 40
0.0
 40
0.058383930173978
 40
0.058383930173978
 40
0.058383930173978
 10
1951.548798728744
 20
365.4256406665862
 30
0.0
 41
1.0
 10
1951.573892019025
 20
365.4407372170847
 30
0.0
 41
0.9952694520281001
 10
1951.601431088245
 20
365.450696068456
 30
0.0
 41
1.0
  0
SPLINE
  5
E1
330
1F
100
AcDbEntity
  8
Crea2D$visibili$linee
100
AcDbSpline
210
0.0
220
0.0
230
1.0
 70
    12
 71
     2
 72
    12
 73
     9
 74
     0
 42
0.000000001
 43
0.0000000001
 40
0.0
 40
0.0
 40
0.0
 40
40.43478174098955
 40
40.43478174098955
 40
78.00979647119999
 40
78.00979647119999
 40
115.5848112014104
 40
115.5848112014104
 40
156.0195929423996
 40
156.0195929423996
 40
156.0195929423996
 10
2066.408499941758
 20
301.841262327695
 30
0.0
 41
1.0
 10
2066.035540517713
 20
322.5487963008431
 30
0.0
 41
0.9646380991029092
 10
2055.184317703991
 20
340.189431930775
 30
0.0
 41
1.0
 10
2045.134164243889
 20
356.5277836776734
 30
0.0
 41
0.969438446001273
 10
2028.522105618218
 20
366.1187601969984
 30
0.0
 41
1.0
 10
2011.910046992547
 20
375.7097367163234
 30
0.0
 41
0.9694384460012754
 10
1992.735542593716
 20
376.2442490512551
 30
0.0
 41
1.0
 10
1972.032692592429
 20
376.8213658550978
 30
0.0
 41
0.9646380991029088
 10
1953.912962409931
 20
366.7905912043276
 30
0.0
 41
1.0
  0
SPLINE
  5
E2
330
1F
100
AcDbEntity
  8
Crea2D$visibili$linee
100
AcDbSpline
210
0.0
220
0.0
230
1.0
 70
    12
 71
     2
 72
     6
 73
     3
 74
     0
 42
0.000000001
 43
0.0000000001
 40
0.0
 40
0.0
 40
0.0
 40
0.1218115672530567
 40
0.1218115672530567
 40
0.1218115672530567
 10
1951.616943493218
 20
365.4560805000524
 30
0.0
 41
1.0
 10
1951.670099928418
 20
365.4858136774923
 30
0.0
 41
0.9999688722375727
 10
1951.722780560969
 20
365.5163819518631
 30
0.0
 41
1.0
  0
SPLINE
  5
E3
330
1F
100
AcDbEntity
  8
Crea2D$visibili$linee
100
AcDbSpline
210
0.0
220
0.0
230
1.0
 70
    12
 71
     3
 72
     8
 73
     4
 74
     0
 42
0.000000001
 43
0.0000000001
 40
0.0
 40
0.0
 40
0.0
 40
0.0
 40
1.444126555550159
 40
1.444126555550159
 40
1.444126555550159
 40
1.444126555550159
 10
1951.722780607263
 20
365.5163819785836
 30
0.0
 41
1.0
 10
1951.918117943084
 20
365.6291288233705
 30
0.0
 41
1.0
 10
1952.301149546284
 20
365.8538029240496
 30
0.0
 41
1.0
 10
1952.703638386456
 20
366.0864239063793
 30
0.0
 41
1.0
  0
SPLINE
  5
E4
330
1F
100
AcDbEntity
  8
Crea2D$visibili$linee
100
AcDbSpline
210
0.0
220
0.0
230
1.0
 70
    12
 71
     2
 72
     6
 73
     3
 74
     0
 42
0.000000001
 43
0.0000000001
 40
0.0
 40
0.0
 40
0.0
 40
0.0688768810572652
 40
0.0688768810572652
 40
0.0688768810572652
 10
1952.763287508879
 20
366.1208623436039
 30
0.0
 41
0.8682955964166655
 10
1952.733455122263
 20
366.1036566789898
 30
0.0
 41
0.8683474583552045
 10
1952.70363838631
 20
366.0864239066315
 30
0.0
 41
0.8683995027400275
  0
SPLINE
  5
E5
330
1F
100
AcDbEntity
  8
Crea2D$visibili$linee
100
AcDbSpline
210
0.0
220
0.0
230
1.0
 70
    12
 71
     2
 72
     6
 73
     3
 74
     0
 42
0.000000001
 43
0.0000000001
 40
0.0
 40
0.0
 40
0.0
 40
0.1218100389693699
 40
0.1218100389693699
 40
0.1218100389693699
 10
1953.747387235596
 20
366.6852891604626
 30
0.0
 41
1.0
 10
1953.800199786474
 20
366.715627417112
 30
0.0
 41
0.9999688747801577
 10
1953.852527049565
 20
366.7467952351966
 30
0.0
 41
1.0
  0
SPLINE
  5
E6
330
1F
100
AcDbEntity
  8
Crea2D$visibili$linee
100
AcDbSpline
210
0.0
220
0.0
230
1.0
 70
    12
 71
     3
 72
     8
 73
     4
 74
     0
 42
0.000000001
 43
0.0000000001
 40
0.0
 40
0.0
 40
0.0
 40
0.0
 40
1.444126555546127
 40
1.444126555546127
 40
1.444126555546127
 40
1.444126555546127
 10
1952.763287509019
 20
366.1208623433482
 30
0.0
 41
1.0
 10
1953.165987609255
 20
366.3531174125117
 30
0.0
 41
1.0
 10
1953.552076889612
 20
366.5724954609935
 30
0.0
 41
1.0
 10
1953.747387189309
 20
366.685289133731
 30
0.0
 41
1.0
  0
SPLINE
  5
E7
330
1F
100
AcDbEntity
  8
Crea2D$visibili$linee
100
AcDbSpline
210
0.0
220
0.0
230
1.0
 70
    12
 71
     2
 72
     8
 73
     5
 74
     0
 42
0.000000001
 43
0.0000000001
 40
0.0
 40
0.0
 40
0.0
 40
164.8023726964192
 40
164.8023726964192
 40
329.6047453928384
 40
329.6047453928384
 40
329.6047453928384
 10
2095.729561001195
 20
300.4754917121587
 30
0.0
 41
1.0
 10
2095.72956206453
 20
405.3919407037903
 30
0.0
 41
0.7071067811865476
 10
1990.813113072898
 20
405.3919417671257
 30
0.0
 41
1.0
 10
1885.896664081267
 20
405.3919407037904
 30
0.0
 41
0.7071067811865475
 10
1885.896665144602
 20
300.4754917121587
 30
0.0
 41
1.0
  0
SPLINE
  5
E8
330
1F
100
AcDbEntity
  8
Crea2D$visibili$linee
100
AcDbSpline
210
0.0
220
0.0
230
1.0
 70
    12
 71
     2
 72
     8
 73
     5
 74
     0
 42
0.000000001
 43
0.0000000001
 40
0.0
 40
0.0
 40
0.0
 40
164.8023726964192
 40
164.8023726964192
 40
329.6047453928384
 40
329.6047453928384
 40
329.6047453928384
 10
1885.896665144602
 20
300.4754917121587
 30
0.0
 41
1.0
 10
1885.896664081267
 20
195.5590427205269
 30
0.0
 41
0.7071067811865475
 10
1990.813113072898
 20
195.5590416571916
 30
0.0
 41
1.0
 10
2095.72956206453
 20
195.5590427205269
 30
0.0
 41
0.7071067811865471
 10
2095.729561001195
 20
300.4754917121587
 30
0.0
 41
1.0
  0
SPLINE
  5
E9
330
1F
100
AcDbEntity
  8
Crea2D$visibili$linee
100
AcDbSpline
210
0.0
220
0.0
230
1.0
 70
    24
 71
     2
 72
     6
 73
     3
 74
     0
 42
0.000000001
 43
0.0000000001
 40
0.0
 40
0.0
 40
0.0
 40
0.150670292648087
 40
0.150670292648087
 40
0.150670292648087
 10
1990.812432039482
 20
298.5846130376095
 30
0.0
 10
1990.812432039482
 20
298.5092778912855
 30
0.0
 10
1990.812432039482
 20
298.4339427449614
 30
0.0
  0
SPLINE
  5
EA
330
1F
100
AcDbEntity
  8
Crea2D$visibili$linee
100
AcDbSpline
210
0.0
220
0.0
230
1.0
 70
    24
 71
     2
 72
     6
 73
     3
 74
     0
 42
0.000000001
 43
0.0000000001
 40
0.0
 40
0.0
 40
0.0
 40
0.1506702926454153
 40
0.1506702926454153
 40
0.1506702926454153
 10
1990.812432039482
 20
302.5170406793533
 30
0.0
 10
1990.812432039482
 20
302.4417055330306
 30
0.0
 10
1990.812432039482
 20
302.3663703867079
 30
0.0
  0
SPLINE
  5
EB
330
1F
100
AcDbEntity
  8
Crea2D$visibili$linee
100
AcDbSpline
210
0.0
220
0.0
230
1.0
 70
    24
 71
     2
 72
     6
 73
     3
 74
     0
 42
0.000000001
 43
0.0000000001
 40
0.0
 40
0.0
 40
0.0
 40
0.1519360204346327
 40
0.1519360204346327
 40
0.1519360204346327
 10
1990.312432039482
 20
298.4496898258698
 30
0.0
 10
1990.312432039482
 20
298.5256578360871
 30
0.0
 10
1990.312432039482
 20
298.6016258463044
 30
0.0
  0
SPLINE
  5
EC
330
1F
100
AcDbEntity
  8
Crea2D$visibili$linee
100
AcDbSpline
210
0.0
220
0.0
230
1.0
 70
    24
 71
     2
 72
     6
 73
     3
 74
     0
 42
0.000000001
 43
0.0000000001
 40
0.0
 40
0.0
 40
0.0
 40
0.1519360204323448
 40
0.1519360204323448
 40
0.1519360204323448
 10
1990.312432039482
 20
302.349357578013
 30
0.0
 10
1990.312432039482
 20
302.4253255882292
 30
0.0
 10
1990.312432039482
 20
302.5012935984454
 30
0.0
  0
SPLINE
  5
ED
330
1F
100
AcDbEntity
  8
Crea2D$visibili$linee
100
AcDbSpline
210
0.0
220
0.0
230
1.0
 70
    12
 71
     2
 72
     8
 73
     5
 74
     0
 42
0.000000001
 43
0.0000000001
 40
0.0
 40
0.0
 40
0.0
 40
7.853981633974521
 40
7.853981633974521
 40
15.70796326794895
 40
15.70796326794895
 40
15.70796326794895
 10
1995.626480932141
 20
300.4754917121587
 30
0.0
 41
1.0
 10
1995.626480932141
 20
305.4754917121587
 30
0.0
 41
0.7071067811865385
 10
1990.626480932141
 20
305.4754917121587
 30
0.0
 41
1.0
 10
1985.62648093214
 20
305.4754917121587
 30
0.0
 41
0.7071067811865415
 10
1985.626480932141
 20
300.4754917121587
 30
0.0
 41
1.0
  0
SPLINE
  5
EE
330
1F
100
AcDbEntity
  8
Crea2D$visibili$linee
100
AcDbSpline
210
0.0
220
0.0
230
1.0
 70
    12
 71
     2
 72
     8
 73
     5
 74
     0
 42
0.000000001
 43
0.0000000001
 40
0.0
 40
0.0
 40
0.0
 40
7.853981633974526
 40
7.853981633974526
 40
15.70796326794906
 40
15.70796326794906
 40
15.70796326794906
 10
1985.626480932141
 20
300.4754917121587
 30
0.0
 41
1.0
 10
1985.62648093214
 20
295.4754917121586
 30
0.0
 41
0.7071067811865445
 10
1990.626480932141
 20
295.4754917121586
 30
0.0
 41
1.0
 10
1995.626480932141
 20
295.4754917121585
 30
0.0
 41
0.7071067811865315
 10
1995.626480932141
 20
300.4754917121587
 30
0.0
 41
1.0
  0
SPLINE
  5
EF
330
1F
100
AcDbEntity
  8
Crea2D$visibili$linee
100
AcDbSpline
210
0.0
220
0.0
230
1.0
 70
    24
 71
     2
 72
     6
 73
     3
 74
     0
 42
0.000000001
 43
0.0000000001
 40
0.0
 40
0.0
 40
0.0
 40
7.505553499465188
 40
7.505553499465188
 40
7.505553499465188
 10
1983.120927432675
 20
300.4754917121587
 30
0.0
 10
1984.997315807542
 20
303.7254917121587
 30
0.0
 10
1986.873704182408
 20
306.9754917121587
 30
0.0
  0
SPLINE
  5
F0
330
1F
100
AcDbEntity
  8
Crea2D$visibili$linee
100
AcDbSpline
210
0.0
220
0.0
230
1.0
 70
    24
 71
     2
 72
     6
 73
     3
 74
     0
 42
0.000000001
 43
0.0000000001
 40
0.0
 40
0.0
 40
0.0
 40
7.505553499465123
 40
7.505553499465123
 40
7.505553499465123
 10
1994.379257681873
 20
306.9754917121587
 30
0.0
 10
1990.626480932141
 20
306.9754917121587
 30
0.0
 10
1986.873704182408
 20
306.9754917121587
 30
0.0
  0
SPLINE
  5
F1
330
1F
100
AcDbEntity
  8
Crea2D$visibili$linee
100
AcDbSpline
210
0.0
220
0.0
230
1.0
 70
    24
 71
     2
 72
     6
 73
     3
 74
     0
 42
0.000000001
 43
0.0000000001
 40
0.0
 40
0.0
 40
0.0
 40
7.505553499465075
 40
7.505553499465075
 40
7.505553499465075
 10
1998.132034431606
 20
300.4754917121587
 30
0.0
 10
1996.255646056739
 20
303.7254917121587
 30
0.0
 10
1994.379257681873
 20
306.9754917121587
 30
0.0
  0
SPLINE
  5
F2
330
1F
100
AcDbEntity
  8
Crea2D$visibili$linee
100
AcDbSpline
210
0.0
220
0.0
230
1.0
 70
    24
 71
     2
 72
     6
 73
     3
 74
     0
 42
0.000000001
 43
0.0000000001
 40
0.0
 40
0.0
 40
0.0
 40
7.505553499465188
 40
7.505553499465188
 40
7.505553499465188
 10
1994.379257681873
 20
293.9754917121587
 30
0.0
 10
1996.255646056739
 20
297.2254917121587
 30
0.0
 10
1998.132034431606
 20
300.4754917121587
 30
0.0
  0
SPLINE
  5
F3
330
1F
100
AcDbEntity
  8
Crea2D$visibili$linee
100
AcDbSpline
210
0.0
220
0.0
230
1.0
 70
    24
 71
     2
 72
     6
 73
     3
 74
     0
 42
0.000000001
 43
0.0000000001
 40
0.0
 40
0.0
 40
0.0
 40
7.505553499465123
 40
7.505553499465123
 40
7.505553499465123
 10
1986.873704182408
 20
293.9754917121587
 30
0.0
 10
1990.626480932141
 20
293.9754917121587
 30
0.0
 10
1994.379257681873
 20
293.9754917121587
 30
0.0
  0
SPLINE
  5
F4
330
1F
100
AcDbEntity
  8
Crea2D$visibili$linee
100
AcDbSpline
210
0.0
220
0.0
230
1.0
 70
    24
 71
     2
 72
     6
 73
     3
 74
     0
 42
0.000000001
 43
0.0000000001
 40
0.0
 40
0.0
 40
0.0
 40
7.505553499465075
 40
7.505553499465075
 40
7.505553499465075
 10
1983.120927432675
 20
300.4754917121587
 30
0.0
 10
1984.997315807542
 20
297.2254917121587
 30
0.0
 10
1986.873704182408
 20
293.9754917121587
 30
0.0
  0
SPLINE
  5
F5
330
1F
100
AcDbEntity
  8
Crea2D$visibili$linee
100
AcDbSpline
210
0.0
220
0.0
230
1.0
 70
    12
 71
     2
 72
     8
 73
     5
 74
     0
 42
0.000000001
 43
0.0000000001
 40
0.0
 40
0.0
 40
0.0
 40
1.963495408493686
 40
1.963495408493686
 40
3.926990816987327
 40
3.926990816987327
 40
3.926990816987327
 10
1969.595244870591
 20
270.2567277737086
 30
0.0
 41
1.0
 10
1968.345244870591
 20
270.2567277737085
 30
0.0
 41
0.7071067811864913
 10
1968.345244870591
 20
271.5067277737086
 30
0.0
 41
1.0
 10
1968.345244870591
 20
272.7567277737087
 30
0.0
 41
0.7071067811864913
 10
1969.595244870591
 20
272.7567277737086
 30
0.0
 41
1.0
  0
SPLINE
  5
F6
330
1F
100
AcDbEntity
  8
Crea2D$visibili$linee
100
AcDbSpline
210
0.0
220
0.0
230
1.0
 70
    12
 71
     2
 72
     8
 73
     5
 74
     0
 42
0.000000001
 43
0.0000000001
 40
0.0
 40
0.0
 40
0.0
 40
1.96349540849367
 40
1.96349540849367
 40
3.926990816987343
 40
3.926990816987343
 40
3.926990816987343
 10
1969.595244870591
 20
272.7567277737086
 30
0.0
 41
1.0
 10
1970.845244870591
 20
272.7567277737087
 30
0.0
 41
0.7071067811864833
 10
1970.845244870591
 20
271.5067277737086
 30
0.0
 41
1.0
 10
1970.845244870591
 20
270.2567277737085
 30
0.0
 41
0.7071067811865074
 10
1969.595244870591
 20
270.2567277737086
 30
0.0
 41
1.0
  0
SPLINE
  5
F7
330
1F
100
AcDbEntity
  8
Crea2D$visibili$linee
100
AcDbSpline
210
0.0
220
0.0
230
1.0
 70
    12
 71
     2
 72
     8
 73
     5
 74
     0
 42
0.000000001
 43
0.0000000001
 40
0.0
 40
0.0
 40
0.0
 40
2.042035224833286
 40
2.042035224833286
 40
4.084070449666527
 40
4.084070449666527
 40
4.084070449666527
 10
2036.09524487059
 20
337.7067277737105
 30
0.0
 41
1.0
 10
2034.79524487059
 20
337.7067277737105
 30
0.0
 41
0.7071067811865862
 10
2034.79524487059
 20
339.0067277737105
 30
0.0
 41
1.0
 10
2034.79524487059
 20
340.3067277737103
 30
0.0
 41
0.7071067811865862
 10
2036.09524487059
 20
340.3067277737103
 30
0.0
 41
1.0
  0
SPLINE
  5
F8
330
1F
100
AcDbEntity
  8
Crea2D$visibili$linee
100
AcDbSpline
210
0.0
220
0.0
230
1.0
 70
    12
 71
     2
 72
     8
 73
     5
 74
     0
 42
0.000000001
 43
0.0000000001
 40
0.0
 40
0.0
 40
0.0
 40
2.042035224833302
 40
2.042035224833302
 40
4.084070449666621
 40
4.084070449666621
 40
4.084070449666621
 10
2036.09524487059
 20
340.3067277737104
 30
0.0
 41
1.0
 10
2037.39524487059
 20
340.3067277737105
 30
0.0
 41
0.7071067811865088
 10
2037.39524487059
 20
339.0067277737105
 30
0.0
 41
1.0
 10
2037.39524487059
 20
337.7067277737104
 30
0.0
 41
0.7071067811865166
 10
2036.09524487059
 20
337.7067277737105
 30
0.0
 41
1.0
  0
SPLINE
  5
F9
330
1F
100
AcDbEntity
  8
Crea2D$visibili$linee
100
AcDbSpline
210
0.0
220
0.0
230
1.0
 70
    12
 71
     2
 72
     8
 73
     5
 74
     0
 42
0.000000001
 43
0.0000000001
 40
0.0
 40
0.0
 40
0.0
 40
2.042035224833351
 40
2.042035224833351
 40
4.084070449666637
 40
4.084070449666637
 40
4.084070449666637
 10
2003.09524487059
 20
260.7067277737105
 30
0.0
 41
1.0
 10
2001.79524487059
 20
260.7067277737106
 30
0.0
 41
0.7071067811865746
 10
2001.79524487059
 20
262.0067277737106
 30
0.0
 41
1.0
 10
2001.79524487059
 20
263.3067277737106
 30
0.0
 41
0.7071067811865012
 10
2003.09524487059
 20
263.3067277737105
 30
0.0
 41
1.0
  0
SPLINE
  5
FA
330
1F
100
AcDbEntity
  8
Crea2D$visibili$linee
100
AcDbSpline
210
0.0
220
0.0
230
1.0
 70
    12
 71
     2
 72
     8
 73
     5
 74
     0
 42
0.000000001
 43
0.0000000001
 40
0.0
 40
0.0
 40
0.0
 40
2.042035224833294
 40
2.042035224833294
 40
4.084070449666731
 40
4.084070449666731
 40
4.084070449666731
 10
2003.09524487059
 20
263.3067277737105
 30
0.0
 41
1.0
 10
2004.39524487059
 20
263.3067277737106
 30
0.0
 41
0.7071067811865049
 10
2004.39524487059
 20
262.0067277737106
 30
0.0
 41
1.0
 10
2004.39524487059
 20
260.7067277737104
 30
0.0
 41
0.7071067811865088
 10
2003.09524487059
 20
260.7067277737104
 30
0.0
 41
1.0
  0
SPLINE
  5
FB
330
1F
100
AcDbEntity
  8
Crea2D$visibili$linee
100
AcDbSpline
210
0.0
220
0.0
230
1.0
 70
    12
 71
     2
 72
     8
 73
     5
 74
     0
 42
0.000000001
 43
0.0000000001
 40
0.0
 40
0.0
 40
0.0
 40
2.042035224833375
 40
2.042035224833375
 40
4.084070449666665
 40
4.084070449666665
 40
4.084070449666665
 10
2035.095244870591
 20
256.5017277737088
 30
0.0
 41
1.0
 10
2033.795244870591
 20
256.5017277737089
 30
0.0
 41
0.7071067811865862
 10
2033.795244870591
 20
257.8017277737088
 30
0.0
 41
1.0
 10
2033.795244870591
 20
259.1017277737088
 30
0.0
 41
0.7071067811865243
 10
2035.095244870591
 20
259.1017277737087
 30
0.0
 41
1.0
  0
SPLINE
  5
FC
330
1F
100
AcDbEntity
  8
Crea2D$visibili$linee
100
AcDbSpline
210
0.0
220
0.0
230
1.0
 70
    12
 71
     2
 72
     8
 73
     5
 74
     0
 42
0.000000001
 43
0.0000000001
 40
0.0
 40
0.0
 40
0.0
 40
2.042035224833237
 40
2.042035224833237
 40
4.084070449666592
 40
4.084070449666592
 40
4.084070449666592
 10
2035.095244870591
 20
259.1017277737088
 30
0.0
 41
1.0
 10
2036.395244870591
 20
259.1017277737087
 30
0.0
 41
0.707106781186563
 10
2036.395244870591
 20
257.8017277737088
 30
0.0
 41
1.0
 10
2036.395244870591
 20
256.5017277737089
 30
0.0
 41
0.7071067811865552
 10
2035.095244870591
 20
256.5017277737088
 30
0.0
 41
1.0
  0
SPLINE
  5
FD
330
1F
100
AcDbEntity
  8
Crea2D$visibili$linee
100
AcDbSpline
210
0.0
220
0.0
230
1.0
 70
    12
 71
     2
 72
     8
 73
     5
 74
     0
 42
0.000000001
 43
0.0000000001
 40
0.0
 40
0.0
 40
0.0
 40
2.042035224833367
 40
2.042035224833367
 40
4.084070449666605
 40
4.084070449666605
 40
4.084070449666605
 10
2004.705244870591
 20
341.9117277737087
 30
0.0
 41
1.0
 10
2003.405244870591
 20
341.9117277737089
 30
0.0
 41
0.7071067811866248
 10
2003.405244870591
 20
343.2117277737088
 30
0.0
 41
1.0
 10
2003.405244870591
 20
344.5117277737086
 30
0.0
 41
0.707106781186563
 10
2004.705244870591
 20
344.5117277737087
 30
0.0
 41
1.0
  0
SPLINE
  5
FE
330
1F
100
AcDbEntity
  8
Crea2D$visibili$linee
100
AcDbSpline
210
0.0
220
0.0
230
1.0
 70
    12
 71
     2
 72
     8
 73
     5
 74
     0
 42
0.000000001
 43
0.0000000001
 40
0.0
 40
0.0
 40
0.0
 40
2.042035224833351
 40
2.042035224833351
 40
4.084070449666791
 40
4.084070449666791
 40
4.084070449666791
 10
2004.705244870591
 20
344.5117277737087
 30
0.0
 41
1.0
 10
2006.005244870591
 20
344.5117277737089
 30
0.0
 41
0.7071067811864471
 10
2006.005244870591
 20
343.2117277737088
 30
0.0
 41
1.0
 10
2006.005244870591
 20
341.9117277737087
 30
0.0
 41
0.707106781186532
 10
2004.705244870591
 20
341.9117277737087
 30
0.0
 41
1.0
  0
SPLINE
  5
FF
330
1F
100
AcDbEntity
  8
Crea2D$visibili$linee
100
AcDbSpline
210
0.0
220
0.0
230
1.0
 70
    12
 71
     2
 72
     8
 73
     5
 74
     0
 42
0.000000001
 43
0.0000000001
 40
0.0
 40
0.0
 40
0.0
 40
1.963495408493605
 40
1.963495408493605
 40
3.926990816987303
 40
3.926990816987303
 40
3.926990816987303
 10
1969.595244870591
 20
332.2567277737086
 30
0.0
 41
1.0
 10
1968.345244870591
 20
332.2567277737086
 30
0.0
 41
0.7071067811865395
 10
1968.345244870591
 20
333.5067277737086
 30
0.0
 41
1.0
 10
1968.345244870591
 20
334.7567277737087
 30
0.0
 41
0.7071067811864752
 10
1969.595244870591
 20
334.7567277737087
 30
0.0
 41
1.0
  0
SPLINE
  5
100
330
1F
100
AcDbEntity
  8
Crea2D$visibili$linee
100
AcDbSpline
210
0.0
220
0.0
230
1.0
 70
    12
 71
     2
 72
     8
 73
     5
 74
     0
 42
0.000000001
 43
0.0000000001
 40
0.0
 40
0.0
 40
0.0
 40
1.963495408493735
 40
1.963495408493735
 40
3.92699081698738
 40
3.92699081698738
 40
3.92699081698738
 10
1969.595244870591
 20
334.7567277737086
 30
0.0
 41
1.0
 10
1970.845244870592
 20
334.7567277737089
 30
0.0
 41
0.707106781186427
 10
1970.845244870591
 20
333.5067277737086
 30
0.0
 41
1.0
 10
1970.845244870591
 20
332.2567277737086
 30
0.0
 41
0.7071067811865154
 10
1969.595244870591
 20
332.2567277737086
 30
0.0
 41
1.0
  0
SPLINE
  5
101
330
1F
100
AcDbEntity
  8
Crea2D$visibili$linee
100
AcDbSpline
210
0.0
220
0.0
230
1.0
 70
    12
 71
     2
 72
     8
 73
     5
 74
     0
 42
0.000000001
 43
0.0000000001
 40
0.0
 40
0.0
 40
0.0
 40
1.963495408493409
 40
1.963495408493409
 40
3.926990816986916
 40
3.926990816986916
 40
3.926990816986916
 10
2018.595244870591
 20
353.7567277737086
 30
0.0
 41
1.0
 10
2017.345244870592
 20
353.7567277737091
 30
0.0
 41
0.7071067811867967
 10
2017.345244870591
 20
355.0067277737086
 30
0.0
 41
1.0
 10
2017.345244870591
 20
356.2567277737085
 30
0.0
 41
0.7071067811865797
 10
2018.595244870591
 20
356.2567277737085
 30
0.0
 41
1.0
  0
SPLINE
  5
102
330
1F
100
AcDbEntity
  8
Crea2D$visibili$linee
100
AcDbSpline
210
0.0
220
0.0
230
1.0
 70
    12
 71
     2
 72
     8
 73
     5
 74
     0
 42
0.000000001
 43
0.0000000001
 40
0.0
 40
0.0
 40
0.0
 40
1.963495408493775
 40
1.963495408493775
 40
3.926990816987391
 40
3.926990816987391
 40
3.926990816987391
 10
2018.595244870591
 20
356.2567277737086
 30
0.0
 41
1.0
 10
2019.845244870592
 20
356.256727773709
 30
0.0
 41
0.7071067811864029
 10
2019.845244870591
 20
355.0067277737086
 30
0.0
 41
1.0
 10
2019.845244870591
 20
353.7567277737086
 30
0.0
 41
0.7071067811865235
 10
2018.595244870591
 20
353.7567277737087
 30
0.0
 41
1.0
  0
SPLINE
  5
103
330
1F
100
AcDbEntity
  8
Crea2D$visibili$linee
100
AcDbSpline
210
0.0
220
0.0
230
1.0
 70
    12
 71
     2
 72
     8
 73
     5
 74
     0
 42
0.000000001
 43
0.0000000001
 40
0.0
 40
0.0
 40
0.0
 40
1.963495408493527
 40
1.963495408493527
 40
3.926990816987064
 40
3.926990816987064
 40
3.926990816987064
 10
2018.595244870591
 20
244.7567277737086
 30
0.0
 41
1.0
 10
2017.345244870591
 20
244.7567277737089
 30
0.0
 41
0.7071067811867223
 10
2017.345244870591
 20
246.0067277737086
 30
0.0
 41
1.0
 10
2017.345244870591
 20
247.2567277737085
 30
0.0
 41
0.707106781186622
 10
2018.595244870591
 20
247.2567277737086
 30
0.0
 41
1.0
  0
SPLINE
  5
104
330
1F
100
AcDbEntity
  8
Crea2D$visibili$linee
100
AcDbSpline
210
0.0
220
0.0
230
1.0
 70
    12
 71
     2
 72
     8
 73
     5
 74
     0
 42
0.000000001
 43
0.0000000001
 40
0.0
 40
0.0
 40
0.0
 40
1.963495408493775
 40
1.963495408493775
 40
3.926990816987363
 40
3.926990816987363
 40
3.926990816987363
 10
2018.595244870591
 20
247.2567277737086
 30
0.0
 41
1.0
 10
2019.845244870592
 20
247.2567277737089
 30
0.0
 41
0.7071067811864029
 10
2019.845244870591
 20
246.0067277737086
 30
0.0
 41
1.0
 10
2019.845244870591
 20
244.7567277737086
 30
0.0
 41
0.7071067811865315
 10
2018.595244870591
 20
244.7567277737087
 30
0.0
 41
1.0
  0
SPLINE
  5
105
330
1F
100
AcDbEntity
  8
Crea2D$visibili$linee
100
AcDbSpline
210
0.0
220
0.0
230
1.0
 70
    12
 71
     2
 72
     8
 73
     5
 74
     0
 42
0.000000001
 43
0.0000000001
 40
0.0
 40
0.0
 40
0.0
 40
2.591813939211706
 40
2.591813939211706
 40
5.183627878423429
 40
5.183627878423429
 40
5.183627878423429
 10
1990.595244870591
 20
358.8567277737087
 30
0.0
 41
1.0
 10
1988.945244870591
 20
358.8567277737085
 30
0.0
 41
0.7071067811865415
 10
1988.945244870591
 20
360.5067277737086
 30
0.0
 41
1.0
 10
1988.945244870591
 20
362.1567277737087
 30
0.0
 41
0.7071067811865476
 10
1990.595244870591
 20
362.1567277737087
 30
0.0
 41
1.0
  0
SPLINE
  5
106
330
1F
100
AcDbEntity
  8
Crea2D$visibili$linee
100
AcDbSpline
210
0.0
220
0.0
230
1.0
 70
    12
 71
     2
 72
     8
 73
     5
 74
     0
 42
0.000000001
 43
0.0000000001
 40
0.0
 40
0.0
 40
0.0
 40
2.591813939211455
 40
2.591813939211455
 40
5.183627878423023
 40
5.183627878423023
 40
5.183627878423023
 10
1990.595244870591
 20
362.1567277737087
 30
0.0
 41
1.0
 10
1992.245244870591
 20
362.1567277737084
 30
0.0
 41
0.7071067811866145
 10
1992.245244870591
 20
360.5067277737086
 30
0.0
 41
1.0
 10
1992.245244870591
 20
358.8567277737085
 30
0.0
 41
0.7071067811865231
 10
1990.595244870591
 20
358.8567277737085
 30
0.0
 41
1.0
  0
SPLINE
  5
107
330
1F
100
AcDbEntity
  8
Crea2D$visibili$linee
100
AcDbSpline
210
0.0
220
0.0
230
1.0
 70
    12
 71
     2
 72
     8
 73
     5
 74
     0
 42
0.000000001
 43
0.0000000001
 40
0.0
 40
0.0
 40
0.0
 40
1.963495408493612
 40
1.963495408493612
 40
3.926990816987257
 40
3.926990816987257
 40
3.926990816987257
 10
2011.595244870591
 20
314.2567277737086
 30
0.0
 41
1.0
 10
2010.345244870591
 20
314.2567277737086
 30
0.0
 41
0.7071067811865436
 10
2010.345244870591
 20
315.5067277737086
 30
0.0
 41
1.0
 10
2010.345244870591
 20
316.7567277737087
 30
0.0
 41
0.7071067811865154
 10
2011.595244870591
 20
316.7567277737086
 30
0.0
 41
1.0
  0
SPLINE
  5
108
330
1F
100
AcDbEntity
  8
Crea2D$visibili$linee
100
AcDbSpline
210
0.0
220
0.0
230
1.0
 70
    12
 71
     2
 72
     8
 73
     5
 74
     0
 42
0.000000001
 43
0.0000000001
 40
0.0
 40
0.0
 40
0.0
 40
1.963495408493637
 40
1.963495408493637
 40
3.926990816987315
 40
3.926990816987315
 40
3.926990816987315
 10
2011.595244870591
 20
316.7567277737086
 30
0.0
 41
1.0
 10
2012.845244870591
 20
316.7567277737087
 30
0.0
 41
0.7071067811865114
 10
2012.845244870591
 20
315.5067277737086
 30
0.0
 41
1.0
 10
2012.845244870591
 20
314.2567277737086
 30
0.0
 41
0.7071067811865315
 10
2011.595244870591
 20
314.2567277737086
 30
0.0
 41
1.0
  0
SPLINE
  5
109
330
1F
100
AcDbEntity
  8
Crea2D$visibili$linee
100
AcDbSpline
210
0.0
220
0.0
230
1.0
 70
    12
 71
     2
 72
     8
 73
     5
 74
     0
 42
0.000000001
 43
0.0000000001
 40
0.0
 40
0.0
 40
0.0
 40
1.963495408493612
 40
1.963495408493612
 40
3.926990816987315
 40
3.926990816987315
 40
3.926990816987315
 10
2039.595244870591
 20
314.2567277737086
 30
0.0
 41
1.0
 10
2038.345244870591
 20
314.2567277737086
 30
0.0
 41
0.7071067811865436
 10
2038.345244870591
 20
315.5067277737086
 30
0.0
 41
1.0
 10
2038.345244870591
 20
316.7567277737087
 30
0.0
 41
0.7071067811864993
 10
2039.595244870591
 20
316.7567277737087
 30
0.0
 41
1.0
  0
SPLINE
  5
10A
330
1F
100
AcDbEntity
  8
Crea2D$visibili$linee
100
AcDbSpline
210
0.0
220
0.0
230
1.0
 70
    12
 71
     2
 72
     8
 73
     5
 74
     0
 42
0.000000001
 43
0.0000000001
 40
0.0
 40
0.0
 40
0.0
 40
1.963495408493596
 40
1.963495408493596
 40
3.926990816987249
 40
3.926990816987249
 40
3.926990816987249
 10
2039.595244870591
 20
316.7567277737086
 30
0.0
 41
1.0
 10
2040.845244870591
 20
316.7567277737086
 30
0.0
 41
0.7071067811865797
 10
2040.845244870591
 20
315.5067277737086
 30
0.0
 41
1.0
 10
2040.845244870591
 20
314.2567277737086
 30
0.0
 41
0.7071067811865637
 10
2039.595244870591
 20
314.2567277737086
 30
0.0
 41
1.0
  0
SPLINE
  5
10B
330
1F
100
AcDbEntity
  8
Crea2D$visibili$linee
100
AcDbSpline
210
0.0
220
0.0
230
1.0
 70
    12
 71
     2
 72
     8
 73
     5
 74
     0
 42
0.000000001
 43
0.0000000001
 40
0.0
 40
0.0
 40
0.0
 40
1.963495408493661
 40
1.963495408493661
 40
3.926990816987303
 40
3.926990816987303
 40
3.926990816987303
 10
1955.095244870591
 20
340.2567277737086
 30
0.0
 41
1.0
 10
1953.845244870591
 20
340.2567277737086
 30
0.0
 41
0.7071067811865235
 10
1953.845244870591
 20
341.5067277737086
 30
0.0
 41
1.0
 10
1953.845244870591
 20
342.7567277737087
 30
0.0
 41
0.7071067811864913
 10
1955.095244870591
 20
342.7567277737086
 30
0.0
 41
1.0
  0
SPLINE
  5
10C
330
1F
100
AcDbEntity
  8
Crea2D$visibili$linee
100
AcDbSpline
210
0.0
220
0.0
230
1.0
 70
    12
 71
     2
 72
     8
 73
     5
 74
     0
 42
0.000000001
 43
0.0000000001
 40
0.0
 40
0.0
 40
0.0
 40
1.96349540849358
 40
1.96349540849358
 40
3.926990816987209
 40
3.926990816987209
 40
3.926990816987209
 10
1955.095244870591
 20
342.7567277737086
 30
0.0
 41
1.0
 10
1956.345244870591
 20
342.7567277737086
 30
0.0
 41
0.7071067811865717
 10
1956.345244870591
 20
341.5067277737086
 30
0.0
 41
1.0
 10
1956.345244870591
 20
340.2567277737087
 30
0.0
 41
0.7071067811865958
 10
1955.095244870591
 20
340.2567277737086
 30
0.0
 41
1.0
  0
SPLINE
  5
10D
330
1F
100
AcDbEntity
  8
Crea2D$visibili$linee
100
AcDbSpline
210
0.0
220
0.0
230
1.0
 70
    12
 71
     2
 72
     8
 73
     5
 74
     0
 42
0.000000001
 43
0.0000000001
 40
0.0
 40
0.0
 40
0.0
 40
1.963495408493515
 40
1.963495408493515
 40
3.926990816987143
 40
3.926990816987143
 40
3.926990816987143
 10
1940.595244870591
 20
258.2567277737086
 30
0.0
 41
1.0
 10
1939.345244870591
 20
258.2567277737088
 30
0.0
 41
0.707106781186628
 10
1939.345244870591
 20
259.5067277737086
 30
0.0
 41
1.0
 10
1939.345244870591
 20
260.7567277737087
 30
0.0
 41
0.7071067811865455
 10
1940.595244870591
 20
260.7567277737086
 30
0.0
 41
1.0
  0
SPLINE
  5
10E
330
1F
100
AcDbEntity
  8
Crea2D$visibili$linee
100
AcDbSpline
210
0.0
220
0.0
230
1.0
 70
    12
 71
     2
 72
     8
 73
     5
 74
     0
 42
0.000000001
 43
0.0000000001
 40
0.0
 40
0.0
 40
0.0
 40
1.963495408493617
 40
1.963495408493617
 40
3.926990816987246
 40
3.926990816987246
 40
3.926990816987246
 10
1940.595244870591
 20
260.7567277737086
 30
0.0
 41
1.0
 10
1941.845244870591
 20
260.7567277737086
 30
0.0
 41
0.7071067811865455
 10
1941.845244870591
 20
259.5067277737086
 30
0.0
 41
1.0
 10
1941.845244870591
 20
258.2567277737087
 30
0.0
 41
0.7071067811865958
 10
1940.595244870591
 20
258.2567277737086
 30
0.0
 41
1.0
  0
SPLINE
  5
10F
330
1F
100
AcDbEntity
  8
Crea2D$visibili$linee
100
AcDbSpline
210
0.0
220
0.0
230
1.0
 70
    12
 71
     2
 72
     8
 73
     5
 74
     0
 42
0.000000001
 43
0.0000000001
 40
0.0
 40
0.0
 40
0.0
 40
3.534291735288517
 40
3.534291735288517
 40
7.06858347057705
 40
7.06858347057705
 40
7.06858347057705
 10
1988.345244870591
 20
259.7567277737087
 30
0.0
 41
1.0
 10
1988.345244870591
 20
262.0067277737087
 30
0.0
 41
0.7071067811865476
 10
1990.595244870591
 20
262.0067277737087
 30
0.0
 41
1.0
 10
1992.845244870591
 20
262.0067277737087
 30
0.0
 41
0.707106781186552
 10
1992.845244870591
 20
259.7567277737087
 30
0.0
 41
1.0
  0
SPLINE
  5
110
330
1F
100
AcDbEntity
  8
Crea2D$visibili$linee
100
AcDbSpline
210
0.0
220
0.0
230
1.0
 70
    12
 71
     2
 72
     8
 73
     5
 74
     0
 42
0.000000001
 43
0.0000000001
 40
0.0
 40
0.0
 40
0.0
 40
3.534291735288542
 40
3.534291735288542
 40
7.068583470577051
 40
7.068583470577051
 40
7.068583470577051
 10
1992.845244870591
 20
254.2567277737087
 30
0.0
 41
1.0
 10
1992.845244870591
 20
252.0067277737087
 30
0.0
 41
0.7071067811865297
 10
1990.595244870591
 20
252.0067277737087
 30
0.0
 41
1.0
 10
1988.345244870591
 20
252.0067277737087
 30
0.0
 41
0.7071067811865452
 10
1988.345244870591
 20
254.2567277737087
 30
0.0
 41
1.0
  0
SPLINE
  5
111
330
1F
100
AcDbEntity
  8
Crea2D$visibili$linee
100
AcDbSpline
210
0.0
220
0.0
230
1.0
 70
    12
 71
     2
 72
     8
 73
     5
 74
     0
 42
0.000000001
 43
0.0000000001
 40
0.0
 40
0.0
 40
0.0
 40
3.534291735288623
 40
3.534291735288623
 40
7.068583470577058
 40
7.068583470577058
 40
7.068583470577058
 10
1993.345244870591
 20
346.2567277737087
 30
0.0
 41
1.0
 10
1995.595244870591
 20
346.2567277737089
 30
0.0
 41
0.7071067811865028
 10
1995.595244870591
 20
344.0067277737087
 30
0.0
 41
1.0
 10
1995.595244870591
 20
341.7567277737089
 30
0.0
 41
0.7071067811865743
 10
1993.345244870591
 20
341.7567277737088
 30
0.0
 41
1.0
  0
SPLINE
  5
112
330
1F
100
AcDbEntity
  8
Crea2D$visibili$linee
100
AcDbSpline
210
0.0
220
0.0
230
1.0
 70
    12
 71
     2
 72
     8
 73
     5
 74
     0
 42
0.000000001
 43
0.0000000001
 40
0.0
 40
0.0
 40
0.0
 40
3.534291735288542
 40
3.534291735288542
 40
7.068583470577104
 40
7.068583470577104
 40
7.068583470577104
 10
1987.845244870591
 20
341.7567277737087
 30
0.0
 41
1.0
 10
1985.595244870591
 20
341.7567277737087
 30
0.0
 41
0.7071067811865297
 10
1985.595244870591
 20
344.0067277737087
 30
0.0
 41
1.0
 10
1985.595244870591
 20
346.2567277737089
 30
0.0
 41
0.7071067811864984
 10
1987.845244870591
 20
346.2567277737087
 30
0.0
 41
1.0
  0
SPLINE
  5
113
330
1F
100
AcDbEntity
  8
Crea2D$visibili$linee
100
AcDbSpline
210
0.0
220
0.0
230
1.0
 70
    12
 71
     2
 72
     8
 73
     5
 74
     0
 42
0.000000001
 43
0.0000000001
 40
0.0
 40
0.0
 40
0.0
 40
1.733484870163556
 40
1.733484870163556
 40
3.466969740326796
 40
3.466969740326796
 40
3.466969740326796
 10
2062.631307757721
 20
288.6827841117368
 30
0.0
 41
1.0
 10
2062.781198969584
 20
289.595979664142
 30
0.0
 41
0.9075552249335149
 10
2062.182165635649
 20
290.3013537189253
 30
0.0
 41
1.0
 10
2061.583132301714
 20
291.0067277737083
 30
0.0
 41
0.9075552249336727
 10
2060.65771699369
 20
291.0067277737086
 30
0.0
 41
1.0
  0
SPLINE
  5
114
330
1F
100
AcDbEntity
  8
Crea2D$visibili$linee
100
AcDbSpline
210
0.0
220
0.0
230
1.0
 70
    12
 71
     2
 72
     8
 73
     5
 74
     0
 42
0.000000001
 43
0.0000000001
 40
0.0
 40
0.0
 40
0.0
 40
1.733484870163315
 40
1.733484870163315
 40
3.466969740326886
 40
3.466969740326886
 40
3.466969740326886
 10
2060.65771699369
 20
310.0067277737086
 30
0.0
 41
1.0
 10
2061.583132301715
 20
310.0067277737085
 30
0.0
 41
0.9075552249334835
 10
2062.182165635649
 20
310.7121018284918
 30
0.0
 41
1.0
 10
2062.781198969584
 20
311.4174758832751
 30
0.0
 41
0.9075552249334949
 10
2062.631307757721
 20
312.3306714356804
 30
0.0
 41
1.0
  0
SPLINE
  5
115
330
1F
100
AcDbEntity
  8
Crea2D$visibili$linee
100
AcDbSpline
210
0.0
220
0.0
230
1.0
 70
    12
 71
     2
 72
     8
 73
     5
 74
     0
 42
0.000000001
 43
0.0000000001
 40
0.0
 40
0.0
 40
0.0
 40
1.733484870163533
 40
1.733484870163533
 40
3.466969740326951
 40
3.466969740326951
 40
3.466969740326951
 10
1964.81704901121
 20
368.8037600535623
 30
0.0
 41
1.0
 10
1963.951252858272
 20
368.4769718746372
 30
0.0
 41
0.9075552249335536
 10
1963.639897674627
 20
367.6055067623445
 30
0.0
 41
1.0
 10
1963.328542490982
 20
366.7340416500516
 30
0.0
 41
0.9075552249336136
 10
1963.791250144994
 20
365.9326084842513
 30
0.0
 41
1.0
  0
SPLINE
  5
116
330
1F
100
AcDbEntity
  8
Crea2D$visibili$linee
100
AcDbSpline
210
0.0
220
0.0
230
1.0
 70
    12
 71
     2
 72
     8
 73
     5
 74
     0
 42
0.000000001
 43
0.0000000001
 40
0.0
 40
0.0
 40
0.0
 40
1.733484870163392
 40
1.733484870163392
 40
3.466969740326974
 40
3.466969740326974
 40
3.466969740326974
 10
1947.336767473089
 20
356.4326084842511
 30
0.0
 41
1.0
 10
1946.874059819078
 20
357.2340416500516
 30
0.0
 41
0.9075552249334875
 10
1945.963671301497
 20
357.400132707561
 30
0.0
 41
1.0
 10
1945.053282783917
 20
357.5662237650704
 30
0.0
 41
0.9075552249335628
 10
1944.337377842842
 20
356.9798163915904
 30
0.0
 41
1.0
  0
SPLINE
  5
117
330
1F
100
AcDbEntity
  8
Crea2D$visibili$linee
100
AcDbSpline
210
0.0
220
0.0
230
1.0
 70
    12
 71
     2
 72
     8
 73
     5
 74
     0
 42
0.000000001
 43
0.0000000001
 40
0.0
 40
0.0
 40
0.0
 40
1.73348487016361
 40
1.73348487016361
 40
3.466969740327
 40
3.466969740327
 40
3.466969740327
 10
1963.791250144994
 20
235.0808470631661
 30
0.0
 41
1.0
 10
1963.328542490981
 20
234.2794138973657
 30
0.0
 41
0.907555224933482
 10
1963.639897674627
 20
233.4079487850728
 30
0.0
 41
1.0
 10
1963.951252858272
 20
232.53648367278
 30
0.0
 41
0.9075552249334946
 10
1964.81704901121
 20
232.209695493855
 30
0.0
 41
1.0
  0
SPLINE
  5
118
330
1F
100
AcDbEntity
  8
Crea2D$visibili$linee
100
AcDbSpline
210
0.0
220
0.0
230
1.0
 70
    12
 71
     2
 72
     8
 73
     5
 74
     0
 42
0.000000001
 43
0.0000000001
 40
0.0
 40
0.0
 40
0.0
 40
1.733484870163402
 40
1.733484870163402
 40
3.46696974032694
 40
3.46696974032694
 40
3.46696974032694
 10
1944.337377842843
 20
244.0336391558267
 30
0.0
 41
1.0
 10
1945.053282783917
 20
243.4472317823467
 30
0.0
 41
0.9075552249335279
 10
1945.963671301497
 20
243.6133228398562
 30
0.0
 41
1.0
 10
1946.874059819077
 20
243.7794138973657
 30
0.0
 41
0.9075552249335825
 10
1947.33676747309
 20
244.580847063166
 30
0.0
 41
1.0
  0
SPLINE
  5
119
330
1F
100
AcDbEntity
  8
Crea2D$visibili$linee
100
AcDbSpline
210
0.0
220
0.0
230
1.0
 70
    12
 71
     2
 72
     8
 73
     5
 74
     0
 42
0.000000001
 43
0.0000000001
 40
0.0
 40
0.0
 40
0.0
 40
1.178097245096099
 40
1.178097245096099
 40
2.356194490192198
 40
2.356194490192198
 40
2.356194490192198
 10
2052.845244870591
 20
308.5067277737086
 30
0.0
 41
1.0
 10
2052.095244870591
 20
308.5067277737087
 30
0.0
 41
0.7071067811867083
 10
2052.095244870591
 20
309.2567277737086
 30
0.0
 41
1.0
 10
2052.095244870591
 20
310.0067277737084
 30
0.0
 41
0.7071067811867083
 10
2052.845244870591
 20
310.0067277737086
 30
0.0
 41
1.0
  0
SPLINE
  5
11A
330
1F
100
AcDbEntity
  8
Crea2D$visibili$linee
100
AcDbSpline
210
0.0
220
0.0
230
1.0
 70
    12
 71
     2
 72
     8
 73
     5
 74
     0
 42
0.000000001
 43
0.0000000001
 40
0.0
 40
0.0
 40
0.0
 40
1.178097245095937
 40
1.178097245095937
 40
2.356194490192121
 40
2.356194490192121
 40
2.356194490192121
 10
2052.845244870591
 20
291.0067277737087
 30
0.0
 41
1.0
 10
2052.095244870591
 20
291.0067277737089
 30
0.0
 41
0.7071067811867217
 10
2052.095244870591
 20
291.7567277737086
 30
0.0
 41
1.0
 10
2052.095244870591
 20
292.5067277737086
 30
0.0
 41
0.7071067811866681
 10
2052.845244870591
 20
292.5067277737087
 30
0.0
 41
1.0
  0
SPLINE
  5
11B
330
1F
100
AcDbEntity
  8
Crea2D$visibili$linee
100
AcDbSpline
210
0.0
220
0.0
230
1.0
 70
    12
 71
     2
 72
     8
 73
     5
 74
     0
 42
0.000000001
 43
0.0000000001
 40
0.0
 40
0.0
 40
0.0
 40
1.178097245096164
 40
1.178097245096164
 40
2.356194490192344
 40
2.356194490192344
 40
2.356194490192344
 10
1951.243003534639
 20
251.3466463881273
 30
0.0
 41
1.0
 10
1951.618003534639
 20
251.9961654409657
 30
0.0
 41
0.7071067811864926
 10
1952.267522587477
 20
251.6211654409657
 30
0.0
 41
1.0
 10
1952.917041640316
 20
251.2461654409657
 30
0.0
 41
0.7071067811865476
 10
1952.542041640316
 20
250.5966463881273
 30
0.0
 41
1.0
  0
SPLINE
  5
11C
330
1F
100
AcDbEntity
  8
Crea2D$visibili$linee
100
AcDbSpline
210
0.0
220
0.0
230
1.0
 70
    12
 71
     2
 72
     8
 73
     5
 74
     0
 42
0.000000001
 43
0.0000000001
 40
0.0
 40
0.0
 40
0.0
 40
1.178097245096203
 40
1.178097245096203
 40
2.356194490192207
 40
2.356194490192207
 40
2.356194490192207
 10
1966.398448100867
 20
242.5966463881273
 30
0.0
 41
1.0
 10
1966.773448100867
 20
243.2461654409657
 30
0.0
 41
0.7071067811865945
 10
1967.422967153705
 20
242.8711654409657
 30
0.0
 41
1.0
 10
1968.072486206543
 20
242.4961654409657
 30
0.0
 41
0.7071067811865073
 10
1967.697486206543
 20
241.8466463881275
 30
0.0
 41
1.0
  0
SPLINE
  5
11D
330
1F
100
AcDbEntity
  8
Crea2D$visibili$linee
100
AcDbSpline
210
0.0
220
0.0
230
1.0
 70
    12
 71
     2
 72
     8
 73
     5
 74
     0
 42
0.000000001
 43
0.0000000001
 40
0.0
 40
0.0
 40
0.0
 40
1.178097245096214
 40
1.178097245096214
 40
2.356194490192328
 40
2.356194490192328
 40
2.356194490192328
 10
1952.542041640315
 20
350.4168091592898
 30
0.0
 41
1.0
 10
1952.917041640316
 20
349.7672901064515
 30
0.0
 41
0.7071067811863498
 10
1952.267522587477
 20
349.3922901064515
 30
0.0
 41
1.0
 10
1951.618003534639
 20
349.0172901064515
 30
0.0
 41
0.7071067811865841
 10
1951.243003534639
 20
349.6668091592898
 30
0.0
 41
1.0
  0
SPLINE
  5
11E
330
1F
100
AcDbEntity
  8
Crea2D$visibili$linee
100
AcDbSpline
210
0.0
220
0.0
230
1.0
 70
    12
 71
     2
 72
     8
 73
     5
 74
     0
 42
0.000000001
 43
0.0000000001
 40
0.0
 40
0.0
 40
0.0
 40
1.178097245096048
 40
1.178097245096048
 40
2.356194490192195
 40
2.356194490192195
 40
2.356194490192195
 10
1967.697486206543
 20
359.1668091592898
 30
0.0
 41
1.0
 10
1968.072486206543
 20
358.5172901064516
 30
0.0
 41
0.7071067811866671
 10
1967.422967153705
 20
358.1422901064515
 30
0.0
 41
1.0
 10
1966.773448100867
 20
357.7672901064516
 30
0.0
 41
0.7071067811866024
 10
1966.398448100867
 20
358.4168091592899
 30
0.0
 41
1.0
  0
SPLINE
  5
11F
330
1F
100
AcDbEntity
  8
Crea2D$visibili$linee
100
AcDbSpline
210
0.0
220
0.0
230
1.0
 70
    24
 71
     2
 72
     6
 73
     3
 74
     0
 42
0.000000001
 43
0.0000000001
 40
0.0
 40
0.0
 40
0.0
 40
2.0
 40
2.0
 40
2.0
 10
2056.595244870591
 20
308.5067277737086
 30
0.0
 10
2055.595244870591
 20
308.5067277737086
 30
0.0
 10
2054.595244870591
 20
308.5067277737086
 30
0.0
  0
SPLINE
  5
120
330
1F
100
AcDbEntity
  8
Crea2D$visibili$linee
100
AcDbSpline
210
0.0
220
0.0
230
1.0
 70
    24
 71
     2
 72
     6
 73
     3
 74
     0
 42
0.000000001
 43
0.0000000001
 40
0.0
 40
0.0
 40
0.0
 40
2.0
 40
2.0
 40
2.0
 10
2054.595244870591
 20
292.5067277737086
 30
0.0
 10
2055.595244870591
 20
292.5067277737086
 30
0.0
 10
2056.595244870591
 20
292.5067277737086
 30
0.0
  0
SPLINE
  5
121
330
1F
100
AcDbEntity
  8
Crea2D$visibili$linee
100
AcDbSpline
210
0.0
220
0.0
230
1.0
 70
    24
 71
     2
 72
     6
 73
     3
 74
     0
 42
0.000000001
 43
0.0000000001
 40
0.0
 40
0.0
 40
0.0
 40
2.000000000000066
 40
2.000000000000066
 40
2.000000000000066
 10
1950.667041640316
 20
353.6644044234814
 30
0.0
 10
1951.167041640316
 20
352.7983790196969
 30
0.0
 10
1951.667041640316
 20
351.9323536159124
 30
0.0
  0
SPLINE
  5
122
330
1F
100
AcDbEntity
  8
Crea2D$visibili$linee
100
AcDbSpline
210
0.0
220
0.0
230
1.0
 70
    24
 71
     2
 72
     6
 73
     3
 74
     0
 42
0.000000001
 43
0.0000000001
 40
0.0
 40
0.0
 40
0.0
 40
2.000000000000066
 40
2.000000000000066
 40
2.000000000000066
 10
1965.523448100867
 20
359.9323536159125
 30
0.0
 10
1965.023448100867
 20
360.798379019697
 30
0.0
 10
1964.523448100867
 20
361.6644044234815
 30
0.0
  0
SPLINE
  5
123
330
1F
100
AcDbEntity
  8
Crea2D$visibili$linee
100
AcDbSpline
210
0.0
220
0.0
230
1.0
 70
    24
 71
     2
 72
     6
 73
     3
 74
     0
 42
0.000000001
 43
0.0000000001
 40
0.0
 40
0.0
 40
0.0
 40
1.999999999999967
 40
1.999999999999967
 40
1.999999999999967
 10
1964.523448100867
 20
239.3490511239359
 30
0.0
 10
1965.023448100867
 20
240.2150765277203
 30
0.0
 10
1965.523448100867
 20
241.0811019315047
 30
0.0
  0
SPLINE
  5
124
330
1F
100
AcDbEntity
  8
Crea2D$visibili$linee
100
AcDbSpline
210
0.0
220
0.0
230
1.0
 70
    24
 71
     2
 72
     6
 73
     3
 74
     0
 42
0.000000001
 43
0.0000000001
 40
0.0
 40
0.0
 40
0.0
 40
1.999999999999869
 40
1.999999999999869
 40
1.999999999999869
 10
1951.667041640316
 20
249.0811019315047
 30
0.0
 10
1951.167041640316
 20
248.2150765277204
 30
0.0
 10
1950.667041640316
 20
247.349051123936
 30
0.0
  0
SPLINE
  5
125
330
1F
100
AcDbEntity
  8
Crea2D$visibili$linee
100
AcDbSpline
210
0.0
220
0.0
230
1.0
 70
    24
 71
     2
 72
     6
 73
     3
 74
     0
 42
0.000000001
 43
0.0000000001
 40
0.0
 40
0.0
 40
0.0
 40
7.812472123098828
 40
7.812472123098828
 40
7.812472123098828
 10
1967.697486206543
 20
241.8466463881275
 30
0.0
 10
1965.744368175769
 20
238.4637467256468
 30
0.0
 10
1963.791250144994
 20
235.0808470631661
 30
0.0
  0
SPLINE
  5
126
330
1F
100
AcDbEntity
  8
Crea2D$visibili$linee
100
AcDbSpline
210
0.0
220
0.0
230
1.0
 70
    24
 71
     2
 72
     6
 73
     3
 74
     0
 42
0.000000001
 43
0.0000000001
 40
0.0
 40
0.0
 40
0.0
 40
7.812472123098828
 40
7.812472123098828
 40
7.812472123098828
 10
1947.33676747309
 20
244.580847063166
 30
0.0
 10
1949.289885503864
 20
247.9637467256467
 30
0.0
 10
1951.243003534639
 20
251.3466463881273
 30
0.0
  0
SPLINE
  5
127
330
1F
100
AcDbEntity
  8
Crea2D$visibili$linee
100
AcDbSpline
210
0.0
220
0.0
230
1.0
 70
    24
 71
     2
 72
     6
 73
     3
 74
     0
 42
0.000000001
 43
0.0000000001
 40
0.0
 40
0.0
 40
0.0
 40
7.812472123098828
 40
7.812472123098828
 40
7.812472123098828
 10
1951.243003534639
 20
349.6668091592898
 30
0.0
 10
1949.289885503864
 20
353.0497088217705
 30
0.0
 10
1947.336767473089
 20
356.4326084842511
 30
0.0
  0
SPLINE
  5
128
330
1F
100
AcDbEntity
  8
Crea2D$visibili$linee
100
AcDbSpline
210
0.0
220
0.0
230
1.0
 70
    24
 71
     2
 72
     6
 73
     3
 74
     0
 42
0.000000001
 43
0.0000000001
 40
0.0
 40
0.0
 40
0.0
 40
7.812472123098924
 40
7.812472123098924
 40
7.812472123098924
 10
1963.791250144994
 20
365.9326084842513
 30
0.0
 10
1965.744368175768
 20
362.5497088217705
 30
0.0
 10
1967.697486206543
 20
359.1668091592898
 30
0.0
  0
SPLINE
  5
129
330
1F
100
AcDbEntity
  8
Crea2D$visibili$linee
100
AcDbSpline
210
0.0
220
0.0
230
1.0
 70
    24
 71
     2
 72
     6
 73
     3
 74
     0
 42
0.000000001
 43
0.0000000001
 40
0.0
 40
0.0
 40
0.0
 40
15.99999999999999
 40
15.99999999999999
 40
15.99999999999999
 10
1964.523448100867
 20
361.6644044234815
 30
0.0
 10
1957.595244870591
 20
357.6644044234814
 30
0.0
 10
1950.667041640316
 20
353.6644044234814
 30
0.0
  0
SPLINE
  5
12A
330
1F
100
AcDbEntity
  8
Crea2D$visibili$linee
100
AcDbSpline
210
0.0
220
0.0
230
1.0
 70
    24
 71
     2
 72
     6
 73
     3
 74
     0
 42
0.000000001
 43
0.0000000001
 40
0.0
 40
0.0
 40
0.0
 40
1.749999999999848
 40
1.749999999999848
 40
1.749999999999848
 10
1951.667041640316
 20
351.9323536159124
 30
0.0
 10
1952.104541640316
 20
351.1745813876011
 30
0.0
 10
1952.542041640316
 20
350.4168091592898
 30
0.0
  0
SPLINE
  5
12B
330
1F
100
AcDbEntity
  8
Crea2D$visibili$linee
100
AcDbSpline
210
0.0
220
0.0
230
1.0
 70
    24
 71
     2
 72
     6
 73
     3
 74
     0
 42
0.000000001
 43
0.0000000001
 40
0.0
 40
0.0
 40
0.0
 40
1.749999999999848
 40
1.749999999999848
 40
1.749999999999848
 10
1966.398448100867
 20
358.4168091592899
 30
0.0
 10
1965.960948100867
 20
359.1745813876012
 30
0.0
 10
1965.523448100867
 20
359.9323536159125
 30
0.0
  0
SPLINE
  5
12C
330
1F
100
AcDbEntity
  8
Crea2D$visibili$linee
100
AcDbSpline
210
0.0
220
0.0
230
1.0
 70
    24
 71
     2
 72
     6
 73
     3
 74
     0
 42
0.000000001
 43
0.0000000001
 40
0.0
 40
0.0
 40
0.0
 40
15.99999999999999
 40
15.99999999999999
 40
15.99999999999999
 10
1950.667041640316
 20
247.349051123936
 30
0.0
 10
1957.595244870591
 20
243.349051123936
 30
0.0
 10
1964.523448100867
 20
239.3490511239359
 30
0.0
  0
SPLINE
  5
12D
330
1F
100
AcDbEntity
  8
Crea2D$visibili$linee
100
AcDbSpline
210
0.0
220
0.0
230
1.0
 70
    24
 71
     2
 72
     6
 73
     3
 74
     0
 42
0.000000001
 43
0.0000000001
 40
0.0
 40
0.0
 40
0.0
 40
1.749999999999848
 40
1.749999999999848
 40
1.749999999999848
 10
1965.523448100867
 20
241.0811019315047
 30
0.0
 10
1965.960948100867
 20
241.838874159816
 30
0.0
 10
1966.398448100867
 20
242.5966463881273
 30
0.0
  0
SPLINE
  5
12E
330
1F
100
AcDbEntity
  8
Crea2D$visibili$linee
100
AcDbSpline
210
0.0
220
0.0
230
1.0
 70
    24
 71
     2
 72
     6
 73
     3
 74
     0
 42
0.000000001
 43
0.0000000001
 40
0.0
 40
0.0
 40
0.0
 40
1.749999999999848
 40
1.749999999999848
 40
1.749999999999848
 10
1952.542041640316
 20
250.5966463881273
 30
0.0
 10
1952.104541640316
 20
249.838874159816
 30
0.0
 10
1951.667041640316
 20
249.0811019315047
 30
0.0
  0
SPLINE
  5
12F
330
1F
100
AcDbEntity
  8
Crea2D$visibili$linee
100
AcDbSpline
210
0.0
220
0.0
230
1.0
 70
    12
 71
     2
 72
     8
 73
     5
 74
     0
 42
0.000000001
 43
0.0000000001
 40
0.0
 40
0.0
 40
0.0
 40
1.17809724509618
 40
1.17809724509618
 40
2.356194490192369
 40
2.356194490192369
 40
2.356194490192369
 10
1999.095244870591
 20
287.2567277737086
 30
0.0
 41
1.0
 10
1999.095244870591
 20
286.5067277737087
 30
0.0
 41
0.707106781186628
 10
1998.345244870591
 20
286.5067277737086
 30
0.0
 41
1.0
 10
1997.595244870591
 20
286.5067277737086
 30
0.0
 41
0.7071067811865609
 10
1997.595244870591
 20
287.2567277737086
 30
0.0
 41
1.0
  0
SPLINE
  5
130
330
1F
100
AcDbEntity
  8
Crea2D$visibili$linee
100
AcDbSpline
210
0.0
220
0.0
230
1.0
 70
    12
 71
     2
 72
     8
 73
     5
 74
     0
 42
0.000000001
 43
0.0000000001
 40
0.0
 40
0.0
 40
0.0
 40
1.17809724509618
 40
1.17809724509618
 40
2.356194490192337
 40
2.356194490192337
 40
2.356194490192337
 10
1983.595244870591
 20
287.2567277737086
 30
0.0
 41
1.0
 10
1983.595244870591
 20
286.5067277737087
 30
0.0
 41
0.707106781186628
 10
1982.845244870591
 20
286.5067277737086
 30
0.0
 41
1.0
 10
1982.095244870591
 20
286.5067277737087
 30
0.0
 41
0.7071067811866079
 10
1982.095244870591
 20
287.2567277737086
 30
0.0
 41
1.0
  0
SPLINE
  5
131
330
1F
100
AcDbEntity
  8
Crea2D$visibili$linee
100
AcDbSpline
210
0.0
220
0.0
230
1.0
 70
    12
 71
     2
 72
     6
 73
     3
 74
     0
 42
0.000000001
 43
0.0000000001
 40
0.0
 40
0.0
 40
0.0
 40
4.712388980384755
 40
4.712388980384755
 40
4.712388980384755
 10
1996.095244870591
 20
320.0067277737086
 30
0.0
 41
1.0
 10
1999.095244870591
 20
320.0067277737087
 30
0.0
 41
0.707106781186524
 10
1999.095244870591
 20
317.0067277737086
 30
0.0
 41
1.0
  0
SPLINE
  5
132
330
1F
100
AcDbEntity
  8
Crea2D$visibili$linee
100
AcDbSpline
210
0.0
220
0.0
230
1.0
 70
    12
 71
     2
 72
     6
 73
     3
 74
     0
 42
0.000000001
 43
0.0000000001
 40
0.0
 40
0.0
 40
0.0
 40
4.712388980384707
 40
4.712388980384707
 40
4.712388980384707
 10
1982.095244870591
 20
317.0067277737086
 30
0.0
 41
1.0
 10
1982.095244870591
 20
320.0067277737087
 30
0.0
 41
0.707106781186514
 10
1985.095244870591
 20
320.0067277737086
 30
0.0
 41
1.0
  0
SPLINE
  5
133
330
1F
100
AcDbEntity
  8
Crea2D$visibili$linee
100
AcDbSpline
210
0.0
220
0.0
230
1.0
 70
    12
 71
     2
 72
     6
 73
     3
 74
     0
 42
0.000000001
 43
0.0000000001
 40
0.0
 40
0.0
 40
0.0
 40
4.71238898038471
 40
4.71238898038471
 40
4.71238898038471
 10
1983.595244870591
 20
304.5067277737086
 30
0.0
 41
1.0
 10
1983.595244870591
 20
307.5067277737087
 30
0.0
 41
0.707106781186524
 10
1986.595244870591
 20
307.5067277737086
 30
0.0
 41
1.0
  0
SPLINE
  5
134
330
1F
100
AcDbEntity
  8
Crea2D$visibili$linee
100
AcDbSpline
210
0.0
220
0.0
230
1.0
 70
    12
 71
     2
 72
     6
 73
     3
 74
     0
 42
0.000000001
 43
0.0000000001
 40
0.0
 40
0.0
 40
0.0
 40
4.712388980384641
 40
4.712388980384641
 40
4.712388980384641
 10
1994.595244870591
 20
307.5067277737086
 30
0.0
 41
1.0
 10
1997.595244870591
 20
307.5067277737085
 30
0.0
 41
0.7071067811865743
 10
1997.595244870591
 20
304.5067277737086
 30
0.0
 41
1.0
  0
SPLINE
  5
135
330
1F
100
AcDbEntity
  8
Crea2D$visibili$linee
100
AcDbSpline
210
0.0
220
0.0
230
1.0
 70
    24
 71
     2
 72
     6
 73
     3
 74
     0
 42
0.000000001
 43
0.0000000001
 40
0.0
 40
0.0
 40
0.0
 40
2.0
 40
2.0
 40
2.0
 10
1983.595244870591
 20
288.0067277737086
 30
0.0
 10
1983.595244870591
 20
289.0067277737086
 30
0.0
 10
1983.595244870591
 20
290.0067277737086
 30
0.0
  0
SPLINE
  5
136
330
1F
100
AcDbEntity
  8
Crea2D$visibili$linee
100
AcDbSpline
210
0.0
220
0.0
230
1.0
 70
    24
 71
     2
 72
     6
 73
     3
 74
     0
 42
0.000000001
 43
0.0000000001
 40
0.0
 40
0.0
 40
0.0
 40
2.0
 40
2.0
 40
2.0
 10
1997.595244870591
 20
288.0067277737086
 30
0.0
 10
1997.595244870591
 20
289.0067277737086
 30
0.0
 10
1997.595244870591
 20
290.0067277737086
 30
0.0
  0
SPLINE
  5
137
330
1F
100
AcDbEntity
  8
Crea2D$visibili$linee
100
AcDbSpline
210
0.0
220
0.0
230
1.0
 70
    24
 71
     2
 72
     6
 73
     3
 74
     0
 42
0.000000001
 43
0.0000000001
 40
0.0
 40
0.0
 40
0.0
 40
0.5
 40
0.5
 40
0.5
 10
1997.595244870591
 20
290.0067277737086
 30
0.0
 10
1997.595244870591
 20
290.2567277737086
 30
0.0
 10
1997.595244870591
 20
290.5067277737086
 30
0.0
  0
SPLINE
  5
138
330
1F
100
AcDbEntity
  8
Crea2D$visibili$linee
100
AcDbSpline
210
0.0
220
0.0
230
1.0
 70
    24
 71
     2
 72
     6
 73
     3
 74
     0
 42
0.000000001
 43
0.0000000001
 40
0.0
 40
0.0
 40
0.0
 40
0.5
 40
0.5
 40
0.5
 10
1983.595244870591
 20
290.0067277737086
 30
0.0
 10
1983.595244870591
 20
290.2567277737086
 30
0.0
 10
1983.595244870591
 20
290.5067277737086
 30
0.0
  0
SPLINE
  5
139
330
1F
100
AcDbEntity
  8
Crea2D$visibili$linee
100
AcDbSpline
210
0.0
220
0.0
230
1.0
 70
    24
 71
     2
 72
     6
 73
     3
 74
     0
 42
0.000000001
 43
0.0000000001
 40
0.0
 40
0.0
 40
0.0
 40
9.039017145800287
 40
9.039017145800287
 40
9.039017145800287
 10
1997.595244870591
 20
299.5457449195089
 30
0.0
 10
1997.595244870591
 20
295.0262363466088
 30
0.0
 10
1997.595244870591
 20
290.5067277737086
 30
0.0
  0
SPLINE
  5
13A
330
1F
100
AcDbEntity
  8
Crea2D$visibili$linee
100
AcDbSpline
210
0.0
220
0.0
230
1.0
 70
    24
 71
     2
 72
     6
 73
     3
 74
     0
 42
0.000000001
 43
0.0000000001
 40
0.0
 40
0.0
 40
0.0
 40
3.101489268900167
 40
3.101489268900167
 40
3.101489268900167
 10
1997.595244870591
 20
304.5067277737086
 30
0.0
 10
1997.595244870591
 20
302.9559831392586
 30
0.0
 10
1997.595244870591
 20
301.4052385048085
 30
0.0
  0
SPLINE
  5
13B
330
1F
100
AcDbEntity
  8
Crea2D$visibili$linee
100
AcDbSpline
210
0.0
220
0.0
230
1.0
 70
    24
 71
     2
 72
     6
 73
     3
 74
     0
 42
0.000000001
 43
0.0000000001
 40
0.0
 40
0.0
 40
0.0
 40
8.0
 40
8.0
 40
8.0
 10
1986.595244870591
 20
307.5067277737086
 30
0.0
 10
1990.595244870591
 20
307.5067277737086
 30
0.0
 10
1994.595244870591
 20
307.5067277737086
 30
0.0
  0
SPLINE
  5
13C
330
1F
100
AcDbEntity
  8
Crea2D$visibili$linee
100
AcDbSpline
210
0.0
220
0.0
230
1.0
 70
    24
 71
     2
 72
     6
 73
     3
 74
     0
 42
0.000000001
 43
0.0000000001
 40
0.0
 40
0.0
 40
0.0
 40
3.209694160164048
 40
3.209694160164048
 40
3.209694160164048
 10
1983.595244870591
 20
301.2970336135446
 30
0.0
 10
1983.595244870591
 20
302.9018806936266
 30
0.0
 10
1983.595244870591
 20
304.5067277737086
 30
0.0
  0
SPLINE
  5
13D
330
1F
100
AcDbEntity
  8
Crea2D$visibili$linee
100
AcDbSpline
210
0.0
220
0.0
230
1.0
 70
    24
 71
     2
 72
     6
 73
     3
 74
     0
 42
0.000000001
 43
0.0000000001
 40
0.0
 40
0.0
 40
0.0
 40
9.147222037064068
 40
9.147222037064068
 40
9.147222037064068
 10
1983.595244870591
 20
290.5067277737086
 30
0.0
 10
1983.595244870591
 20
295.0803387922407
 30
0.0
 10
1983.595244870591
 20
299.6539498107727
 30
0.0
  0
SPLINE
  5
13E
330
1F
100
AcDbEntity
  8
Crea2D$visibili$linee
100
AcDbSpline
210
0.0
220
0.0
230
1.0
 70
    24
 71
     2
 72
     6
 73
     3
 74
     0
 42
0.000000001
 43
0.0000000001
 40
0.0
 40
0.0
 40
0.0
 40
14.0
 40
14.0
 40
14.0
 10
1997.595244870591
 20
290.0067277737086
 30
0.0
 10
1990.595244870591
 20
290.0067277737086
 30
0.0
 10
1983.595244870591
 20
290.0067277737086
 30
0.0
  0
SPLINE
  5
13F
330
1F
100
AcDbEntity
  8
Crea2D$visibili$linee
100
AcDbSpline
210
0.0
220
0.0
230
1.0
 70
    24
 71
     2
 72
     6
 73
     3
 74
     0
 42
0.000000001
 43
0.0000000001
 40
0.0
 40
0.0
 40
0.0
 40
16.0
 40
16.0
 40
16.0
 10
2056.595244870591
 20
292.5067277737086
 30
0.0
 10
2056.595244870591
 20
300.5067277737086
 30
0.0
 10
2056.595244870591
 20
308.5067277737086
 30
0.0
  0
SPLINE
  5
140
330
1F
100
AcDbEntity
  8
Crea2D$visibili$linee
100
AcDbSpline
210
0.0
220
0.0
230
1.0
 70
    12
 71
     2
 72
     6
 73
     3
 74
     0
 42
0.000000001
 43
0.0000000001
 40
0.0
 40
0.0
 40
0.0
 40
90.69498609690739
 40
90.69498609690739
 40
90.69498609690739
 10
2062.631307757721
 20
312.3306714356804
 30
0.0
 41
1.0
 10
2054.168675455806
 20
363.8883183696789
 30
0.0
 41
0.8131814813428231
 10
2002.636839449383
 20
372.5067277737086
 30
0.0
 41
1.0
  0
SPLINE
  5
141
330
1F
100
AcDbEntity
  8
Crea2D$visibili$linee
100
AcDbSpline
210
0.0
220
0.0
230
1.0
 70
    12
 71
     2
 72
     8
 73
     5
 74
     0
 42
0.000000001
 43
0.0000000001
 40
0.0
 40
0.0
 40
0.0
 40
64.56915757144449
 40
64.56915757144449
 40
129.1383151428888
 40
129.1383151428888
 40
129.1383151428888
 10
1964.81704901121
 20
232.209695493855
 30
0.0
 41
1.0
 10
1997.158264332301
 20
220.0027495249385
 30
0.0
 41
0.9037890825129011
 10
2027.095244870591
 20
237.2868732974447
 30
0.0
 41
1.0
 10
2057.032225408881
 20
254.5709970699509
 30
0.0
 41
0.9037890825129014
 10
2062.631307757721
 20
288.6827841117368
 30
0.0
 41
1.0
  0
SPLINE
  5
142
330
1F
100
AcDbEntity
  8
Crea2D$visibili$linee
100
AcDbSpline
210
0.0
220
0.0
230
1.0
 70
    12
 71
     2
 72
     8
 73
     5
 74
     0
 42
0.000000001
 43
0.0000000001
 40
0.0
 40
0.0
 40
0.0
 40
64.56915757144436
 40
64.56915757144436
 40
129.1383151428886
 40
129.1383151428886
 40
129.1383151428886
 10
1944.337377842842
 20
356.9798163915904
 30
0.0
 41
1.0
 10
1917.595244870591
 20
335.0749753187209
 30
0.0
 41
0.9037890825128986
 10
1917.595244870591
 20
300.5067277737085
 30
0.0
 41
1.0
 10
1917.595244870591
 20
265.9384802286962
 30
0.0
 41
0.9037890825128975
 10
1944.337377842843
 20
244.0336391558268
 30
0.0
 41
1.0
  0
SPLINE
  5
143
330
1F
100
AcDbEntity
  8
Crea2D$visibili$linee
100
AcDbSpline
210
0.0
220
0.0
230
1.0
 70
    12
 71
     2
 72
     6
 73
     3
 74
     0
 42
0.000000001
 43
0.0000000001
 40
0.0
 40
0.0
 40
0.0
 40
14.24956485955587
 40
14.24956485955587
 40
14.24956485955587
 10
1978.553650291799
 20
372.5067277737086
 30
0.0
 41
1.0
 10
1971.504069298314
 20
371.3277250476823
 30
0.0
 41
0.9952409230911797
 10
1964.81704901121
 20
368.8037600535624
 30
0.0
 41
1.0
  0
SPLINE
  5
144
330
1F
100
AcDbEntity
  8
Crea2D$visibili$linee
100
AcDbSpline
210
0.0
220
0.0
230
1.0
 70
    24
 71
     2
 72
     6
 73
     3
 74
     0
 42
0.000000001
 43
0.0000000001
 40
0.0
 40
0.0
 40
0.0
 40
5.5
 40
5.5
 40
5.5
 10
1988.345244870591
 20
254.2567277737087
 30
0.0
 10
1988.345244870591
 20
257.0067277737087
 30
0.0
 10
1988.345244870591
 20
259.7567277737087
 30
0.0
  0
SPLINE
  5
145
330
1F
100
AcDbEntity
  8
Crea2D$visibili$linee
100
AcDbSpline
210
0.0
220
0.0
230
1.0
 70
    24
 71
     2
 72
     6
 73
     3
 74
     0
 42
0.000000001
 43
0.0000000001
 40
0.0
 40
0.0
 40
0.0
 40
5.5
 40
5.5
 40
5.5
 10
1992.845244870591
 20
259.7567277737087
 30
0.0
 10
1992.845244870591
 20
257.0067277737087
 30
0.0
 10
1992.845244870591
 20
254.2567277737087
 30
0.0
  0
SPLINE
  5
146
330
1F
100
AcDbEntity
  8
Crea2D$visibili$linee
100
AcDbSpline
210
0.0
220
0.0
230
1.0
 70
    24
 71
     2
 72
     6
 73
     3
 74
     0
 42
0.000000001
 43
0.0000000001
 40
0.0
 40
0.0
 40
0.0
 40
5.5
 40
5.5
 40
5.5
 10
1993.345244870591
 20
341.7567277737087
 30
0.0
 10
1990.595244870591
 20
341.7567277737087
 30
0.0
 10
1987.845244870591
 20
341.7567277737087
 30
0.0
  0
SPLINE
  5
147
330
1F
100
AcDbEntity
  8
Crea2D$visibili$linee
100
AcDbSpline
210
0.0
220
0.0
230
1.0
 70
    24
 71
     2
 72
     6
 73
     3
 74
     0
 42
0.000000001
 43
0.0000000001
 40
0.0
 40
0.0
 40
0.0
 40
5.5
 40
5.5
 40
5.5
 10
1987.845244870591
 20
346.2567277737087
 30
0.0
 10
1990.595244870591
 20
346.2567277737087
 30
0.0
 10
1993.345244870591
 20
346.2567277737087
 30
0.0
  0
SPLINE
  5
148
330
1F
100
AcDbEntity
  8
Crea2D$visibili$linee
100
AcDbSpline
210
0.0
220
0.0
230
1.0
 70
    24
 71
     2
 72
     6
 73
     3
 74
     0
 42
0.000000001
 43
0.0000000001
 40
0.0
 40
0.0
 40
0.0
 40
11.0
 40
11.0
 40
11.0
 10
1985.095244870591
 20
320.0067277737086
 30
0.0
 10
1990.595244870591
 20
320.0067277737086
 30
0.0
 10
1996.095244870591
 20
320.0067277737086
 30
0.0
  0
SPLINE
  5
149
330
1F
100
AcDbEntity
  8
Crea2D$visibili$linee
100
AcDbSpline
210
0.0
220
0.0
230
1.0
 70
    24
 71
     2
 72
     6
 73
     3
 74
     0
 42
0.000000001
 43
0.0000000001
 40
0.0
 40
0.0
 40
0.0
 40
29.75
 40
29.75
 40
29.75
 10
1982.095244870591
 20
287.2567277737086
 30
0.0
 10
1982.095244870591
 20
302.1317277737086
 30
0.0
 10
1982.095244870591
 20
317.0067277737086
 30
0.0
  0
SPLINE
  5
14A
330
1F
100
AcDbEntity
  8
Crea2D$visibili$linee
100
AcDbSpline
210
0.0
220
0.0
230
1.0
 70
    24
 71
     2
 72
     6
 73
     3
 74
     0
 42
0.000000001
 43
0.0000000001
 40
0.0
 40
0.0
 40
0.0
 40
0.75
 40
0.75
 40
0.75
 10
1983.595244870591
 20
288.0067277737086
 30
0.0
 10
1983.595244870591
 20
287.6317277737086
 30
0.0
 10
1983.595244870591
 20
287.2567277737086
 30
0.0
  0
SPLINE
  5
14B
330
1F
100
AcDbEntity
  8
Crea2D$visibili$linee
100
AcDbSpline
210
0.0
220
0.0
230
1.0
 70
    24
 71
     2
 72
     6
 73
     3
 74
     0
 42
0.000000001
 43
0.0000000001
 40
0.0
 40
0.0
 40
0.0
 40
0.75
 40
0.75
 40
0.75
 10
1997.595244870591
 20
287.2567277737086
 30
0.0
 10
1997.595244870591
 20
287.6317277737086
 30
0.0
 10
1997.595244870591
 20
288.0067277737086
 30
0.0
  0
SPLINE
  5
14C
330
1F
100
AcDbEntity
  8
Crea2D$visibili$linee
100
AcDbSpline
210
0.0
220
0.0
230
1.0
 70
    24
 71
     2
 72
     6
 73
     3
 74
     0
 42
0.000000001
 43
0.0000000001
 40
0.0
 40
0.0
 40
0.0
 40
29.75
 40
29.75
 40
29.75
 10
1999.095244870591
 20
317.0067277737086
 30
0.0
 10
1999.095244870591
 20
302.1317277737086
 30
0.0
 10
1999.095244870591
 20
287.2567277737086
 30
0.0
  0
SPLINE
  5
14D
330
1F
100
AcDbEntity
  8
Crea2D$visibili$linee
100
AcDbSpline
210
0.0
220
0.0
230
1.0
 70
    24
 71
     2
 72
     6
 73
     3
 74
     0
 42
0.000000001
 43
0.0000000001
 40
0.0
 40
0.0
 40
0.0
 40
7.812472123099042
 40
7.812472123099042
 40
7.812472123099042
 10
2052.845244870591
 20
310.0067277737086
 30
0.0
 10
2056.751480932141
 20
310.0067277737086
 30
0.0
 10
2060.65771699369
 20
310.0067277737086
 30
0.0
  0
SPLINE
  5
14E
330
1F
100
AcDbEntity
  8
Crea2D$visibili$linee
100
AcDbSpline
210
0.0
220
0.0
230
1.0
 70
    24
 71
     2
 72
     6
 73
     3
 74
     0
 42
0.000000001
 43
0.0000000001
 40
0.0
 40
0.0
 40
0.0
 40
1.75
 40
1.75
 40
1.75
 10
2054.595244870591
 20
308.5067277737086
 30
0.0
 10
2053.720244870591
 20
308.5067277737086
 30
0.0
 10
2052.845244870591
 20
308.5067277737086
 30
0.0
  0
SPLINE
  5
14F
330
1F
100
AcDbEntity
  8
Crea2D$visibili$linee
100
AcDbSpline
210
0.0
220
0.0
230
1.0
 70
    24
 71
     2
 72
     6
 73
     3
 74
     0
 42
0.000000001
 43
0.0000000001
 40
0.0
 40
0.0
 40
0.0
 40
1.75
 40
1.75
 40
1.75
 10
2052.845244870591
 20
292.5067277737086
 30
0.0
 10
2053.720244870591
 20
292.5067277737086
 30
0.0
 10
2054.595244870591
 20
292.5067277737086
 30
0.0
  0
SPLINE
  5
150
330
1F
100
AcDbEntity
  8
Crea2D$visibili$linee
100
AcDbSpline
210
0.0
220
0.0
230
1.0
 70
    24
 71
     2
 72
     6
 73
     3
 74
     0
 42
0.000000001
 43
0.0000000001
 40
0.0
 40
0.0
 40
0.0
 40
7.812472123099042
 40
7.812472123099042
 40
7.812472123099042
 10
2060.65771699369
 20
291.0067277737086
 30
0.0
 10
2056.751480932141
 20
291.0067277737086
 30
0.0
 10
2052.845244870591
 20
291.0067277737086
 30
0.0
  0
SPLINE
  5
151
330
1F
100
AcDbEntity
  8
Crea2D$visibili$linee
100
AcDbSpline
210
0.0
220
0.0
230
1.0
 70
    24
 71
     2
 72
     6
 73
     3
 74
     0
 42
0.000000001
 43
0.0000000001
 40
0.0
 40
0.0
 40
0.0
 40
24.08318915758446
 40
24.08318915758446
 40
24.08318915758446
 10
2002.636839449383
 20
372.5067277737086
 30
0.0
 10
1990.595244870591
 20
372.5067277737086
 30
0.0
 10
1978.553650291799
 20
372.5067277737086
 30
0.0
  0
SPLINE
  5
152
330
1F
100
AcDbEntity
  8
Crea2D$visibili$linee
100
AcDbSpline
210
0.0
220
0.0
230
1.0
 70
    12
 71
     2
 72
     6
 73
     3
 74
     0
 42
0.000000001
 43
0.0000000001
 40
0.0
 40
0.0
 40
0.0
 40
0.0301457453343159
 40
0.0301457453343159
 40
0.0301457453343159
 10
1953.893356907931
 20
234.1803387417784
 30
0.0
 41
1.0
 10
1953.881172732679
 20
234.18923965751
 30
0.0
 41
0.9983893103342901
 10
1953.868058645558
 20
234.1967029775747
 30
0.0
 41
1.0
  0
SPLINE
  5
153
330
1F
100
AcDbEntity
  8
Crea2D$visibili$linee
100
AcDbSpline
210
0.0
220
0.0
230
1.0
 70
    12
 71
     2
 72
     8
 73
     5
 74
     0
 42
0.000000001
 43
0.0000000001
 40
0.0
 40
0.0
 40
0.0
 40
3.926990816987213
 40
3.926990816987213
 40
7.853981633974467
 40
7.853981633974467
 40
7.853981633974467
 10
1988.458356850683
 20
301.7263117899535
 30
0.0
 41
1.0
 10
1989.708356850683
 20
303.8913752994144
 30
0.0
 41
0.7071067811865834
 10
1991.873420360144
 20
302.6413752994146
 30
0.0
 41
1.0
 10
1994.038483869605
 20
301.3913752994146
 30
0.0
 41
0.7071067811865476
 10
1992.788483869605
 20
299.2263117899535
 30
0.0
 41
1.0
  0
SPLINE
  5
154
330
1F
100
AcDbEntity
  8
Crea2D$visibili$linee
100
AcDbSpline
210
0.0
220
0.0
230
1.0
 70
    12
 71
     2
 72
     8
 73
     5
 74
     0
 42
0.000000001
 43
0.0000000001
 40
0.0
 40
0.0
 40
0.0
 40
3.926990816987303
 40
3.926990816987303
 40
7.853981633974448
 40
7.853981633974448
 40
7.853981633974448
 10
1992.788483869605
 20
299.2263117899535
 30
0.0
 41
1.0
 10
1991.538483869605
 20
297.0612482804924
 30
0.0
 41
0.7071067811865532
 10
1989.373420360144
 20
298.3112482804924
 30
0.0
 41
1.0
 10
1987.208356850683
 20
299.5612482804925
 30
0.0
 41
0.7071067811866054
 10
1988.458356850683
 20
301.7263117899535
 30
0.0
 41
1.0
  0
SPLINE
  5
155
330
1F
100
AcDbEntity
  8
Crea2D$visibili$linee
100
AcDbSpline
210
0.0
220
0.0
230
1.0
 70
    12
 71
     2
 72
     8
 73
     5
 74
     0
 42
0.000000001
 43
0.0000000001
 40
0.0
 40
0.0
 40
0.0
 40
5.497787143781947
 40
5.497787143781947
 40
10.99557428756411
 40
10.99557428756411
 40
10.99557428756411
 10
1987.592331446899
 20
302.2263117899535
 30
0.0
 41
1.0
 10
1989.342331446899
 20
305.257400703199
 30
0.0
 41
0.7071067811865455
 10
1992.373420360144
 20
303.507400703199
 30
0.0
 41
1.0
 10
1995.40450927339
 20
301.757400703199
 30
0.0
 41
0.7071067811865386
 10
1993.65450927339
 20
298.7263117899535
 30
0.0
 41
1.0
  0
SPLINE
  5
156
330
1F
100
AcDbEntity
  8
Crea2D$visibili$linee
100
AcDbSpline
210
0.0
220
0.0
230
1.0
 70
    12
 71
     2
 72
     8
 73
     5
 74
     0
 42
0.000000001
 43
0.0000000001
 40
0.0
 40
0.0
 40
0.0
 40
5.497787143782222
 40
5.497787143782222
 40
10.9955742875644
 40
10.9955742875644
 40
10.9955742875644
 10
1993.65450927339
 20
298.7263117899535
 30
0.0
 41
1.0
 10
1991.90450927339
 20
295.695222876708
 30
0.0
 41
0.7071067811865535
 10
1988.873420360144
 20
297.445222876708
 30
0.0
 41
1.0
 10
1985.842331446898
 20
299.195222876708
 30
0.0
 41
0.7071067811864963
 10
1987.592331446899
 20
302.2263117899535
 30
0.0
 41
1.0
  0
SPLINE
  5
157
330
1F
100
AcDbEntity
  8
Crea2D$visibili$linee
100
AcDbSpline
210
0.0
220
0.0
230
1.0
 70
    24
 71
     2
 72
     6
 73
     3
 74
     0
 42
0.000000001
 43
0.0000000001
 40
0.0
 40
0.0
 40
0.0
 40
1.783803985384271
 40
1.783803985384271
 40
1.783803985384271
 10
1949.868274457312
 20
353.7339031343109
 30
0.0
 10
1949.422323460966
 20
354.5063129176683
 30
0.0
 10
1948.97637246462
 20
355.2787227010256
 30
0.0
  0
SPLINE
  5
158
330
1F
100
AcDbEntity
  8
Crea2D$visibili$linee
100
AcDbSpline
210
0.0
220
0.0
230
1.0
 70
    24
 71
     2
 72
     6
 73
     3
 74
     0
 42
0.000000001
 43
0.0000000001
 40
0.0
 40
0.0
 40
0.0
 40
0.9999862922475764
 40
0.9999862922475764
 40
0.9999862922475764
 10
1949.868274457312
 20
353.7339031343109
 30
0.0
 10
1950.301281223573
 20
353.9838997073728
 30
0.0
 10
1950.734287989834
 20
354.2338962804346
 30
0.0
  0
SPLINE
  5
159
330
1F
100
AcDbEntity
  8
Crea2D$visibili$linee
100
AcDbSpline
210
0.0
220
0.0
230
1.0
 70
    24
 71
     2
 72
     6
 73
     3
 74
     0
 42
0.000000001
 43
0.0000000001
 40
0.0
 40
0.0
 40
0.0
 40
0.9999862922473794
 40
0.9999862922473794
 40
0.9999862922473794
 10
1951.022171673688
 20
354.4001060028028
 30
0.0
 10
1951.455178439949
 20
354.6501025758647
 30
0.0
 10
1951.88818520621
 20
354.9000991489266
 30
0.0
  0
SPLINE
  5
15A
330
1F
100
AcDbEntity
  8
Crea2D$visibili$linee
100
AcDbSpline
210
0.0
220
0.0
230
1.0
 70
    24
 71
     2
 72
     6
 73
     3
 74
     0
 42
0.000000001
 43
0.0000000001
 40
0.0
 40
0.0
 40
0.0
 40
0.9999862922473227
 40
0.9999862922473227
 40
0.9999862922473227
 10
1962.858655514078
 20
361.2339031343109
 30
0.0
 10
1963.29166228034
 20
361.4838997073727
 30
0.0
 10
1963.724669046601
 20
361.7338962804345
 30
0.0
  0
SPLINE
  5
15B
330
1F
100
AcDbEntity
  8
Crea2D$visibili$linee
100
AcDbSpline
210
0.0
220
0.0
230
1.0
 70
    24
 71
     2
 72
     6
 73
     3
 74
     0
 42
0.000000001
 43
0.0000000001
 40
0.0
 40
0.0
 40
0.0
 40
0.9998058111938658
 40
0.9998058111938658
 40
0.9998058111938658
 10
1964.012552730454
 20
361.9001060028029
 30
0.0
 10
1964.445481346127
 20
362.1500574556013
 30
0.0
 10
1964.8784099618
 20
362.4000089083997
 30
0.0
  0
SPLINE
  5
15C
330
1F
100
AcDbEntity
  8
Crea2D$visibili$linee
100
AcDbSpline
210
0.0
220
0.0
230
1.0
 70
    24
 71
     2
 72
     6
 73
     3
 74
     0
 42
0.000000001
 43
0.0000000001
 40
0.0
 40
0.0
 40
0.0
 40
1.783803985384173
 40
1.783803985384173
 40
1.783803985384173
 10
1948.976372464619
 20
245.6739008788815
 30
0.0
 10
1949.422323460965
 20
246.4463106622388
 30
0.0
 10
1949.868274457311
 20
247.2187204455961
 30
0.0
  0
SPLINE
  5
15D
330
1F
100
AcDbEntity
  8
Crea2D$visibili$linee
100
AcDbSpline
210
0.0
220
0.0
230
1.0
 70
    24
 71
     2
 72
     6
 73
     3
 74
     0
 42
0.000000001
 43
0.0000000001
 40
0.0
 40
0.0
 40
0.0
 40
0.9999862922475196
 40
0.9999862922475196
 40
0.9999862922475196
 10
1950.734287989834
 20
246.7187272994725
 30
0.0
 10
1950.301281223573
 20
246.9687238725343
 30
0.0
 10
1949.868274457311
 20
247.2187204455961
 30
0.0
  0
SPLINE
  5
15E
330
1F
100
AcDbEntity
  8
Crea2D$visibili$linee
100
AcDbSpline
210
0.0
220
0.0
230
1.0
 70
    24
 71
     2
 72
     6
 73
     3
 74
     0
 42
0.000000001
 43
0.0000000001
 40
0.0
 40
0.0
 40
0.0
 40
0.9999999999998851
 40
0.9999999999998851
 40
0.9999999999998851
 10
1951.960761586491
 20
246.0106224382883
 30
0.0
 10
1951.527748884599
 20
246.2606224382883
 30
0.0
 10
1951.094736182707
 20
246.5106224382883
 30
0.0
  0
SPLINE
  5
15F
330
1F
100
AcDbEntity
  8
Crea2D$visibili$linee
100
AcDbSpline
210
0.0
220
0.0
230
1.0
 70
    24
 71
     2
 72
     6
 73
     3
 74
     0
 42
0.000000001
 43
0.0000000001
 40
0.0
 40
0.0
 40
0.0
 40
1.000000000000082
 40
1.000000000000082
 40
1.000000000000082
 10
1963.652104537581
 20
239.2606224382883
 30
0.0
 10
1963.219091835689
 20
239.5106224382883
 30
0.0
 10
1962.786079133797
 20
239.7606224382883
 30
0.0
  0
SPLINE
  5
160
330
1F
100
AcDbEntity
  8
Crea2D$visibili$linee
100
AcDbSpline
210
0.0
220
0.0
230
1.0
 70
    24
 71
     2
 72
     6
 73
     3
 74
     0
 42
0.000000001
 43
0.0000000001
 40
0.0
 40
0.0
 40
0.0
 40
1.783803985384271
 40
1.783803985384271
 40
1.783803985384271
 10
1964.878566262977
 20
238.5525244309804
 30
0.0
 10
1964.432615266631
 20
237.7801146476231
 30
0.0
 10
1963.986664270285
 20
237.0077048642657
 30
0.0
  0
SPLINE
  5
161
330
1F
100
AcDbEntity
  8
Crea2D$visibili$linee
100
AcDbSpline
210
0.0
220
0.0
230
1.0
 70
    24
 71
     2
 72
     6
 73
     3
 74
     0
 42
0.000000001
 43
0.0000000001
 40
0.0
 40
0.0
 40
0.0
 40
0.9999862922473794
 40
0.9999862922473794
 40
0.9999862922473794
 10
1964.878566262977
 20
238.5525244309804
 30
0.0
 10
1964.445559496716
 20
238.8025210040423
 30
0.0
 10
1964.012552730454
 20
239.0525175771042
 30
0.0
  0
SPLINE
  5
162
330
1F
100
AcDbEntity
  8
Crea2D$visibili$linee
100
AcDbSpline
210
0.0
220
0.0
230
1.0
 70
    24
 71
     2
 72
     6
 73
     3
 74
     0
 42
0.000000001
 43
0.0000000001
 40
0.0
 40
0.0
 40
0.0
 40
0.9999862922473227
 40
0.9999862922473227
 40
0.9999862922473227
 10
1951.94264716978
 20
354.9315427782539
 30
0.0
 10
1952.375653936041
 20
355.1815393513157
 30
0.0
 10
1952.808660702302
 20
355.4315359243776
 30
0.0
  0
SPLINE
  5
163
330
1F
100
AcDbEntity
  8
Crea2D$visibili$linee
100
AcDbSpline
210
0.0
220
0.0
230
1.0
 70
    24
 71
     2
 72
     6
 73
     3
 74
     0
 42
0.000000001
 43
0.0000000001
 40
0.0
 40
0.0
 40
0.0
 40
0.9999862922475196
 40
0.9999862922475196
 40
0.9999862922475196
 10
1961.938180017986
 20
360.7024663588599
 30
0.0
 10
1962.371186784248
 20
360.9524629319217
 30
0.0
 10
1962.804193550509
 20
361.2024595049836
 30
0.0
  0
SPLINE
  5
164
330
1F
100
AcDbEntity
  8
Crea2D$visibili$linee
100
AcDbSpline
210
0.0
220
0.0
230
1.0
 70
    24
 71
     2
 72
     6
 73
     3
 74
     0
 42
0.000000001
 43
0.0000000001
 40
0.0
 40
0.0
 40
0.0
 40
0.9999999999998851
 40
0.9999999999998851
 40
0.9999999999998851
 10
1962.786079133797
 20
239.7606224382883
 30
0.0
 10
1962.353066431905
 20
240.0106224382883
 30
0.0
 10
1961.920053730013
 20
240.2606224382883
 30
0.0
  0
SPLINE
  5
165
330
1F
100
AcDbEntity
  8
Crea2D$visibili$linee
100
AcDbSpline
210
0.0
220
0.0
230
1.0
 70
    24
 71
     2
 72
     6
 73
     3
 74
     0
 42
0.000000001
 43
0.0000000001
 40
0.0
 40
0.0
 40
0.0
 40
1.000000000000082
 40
1.000000000000082
 40
1.000000000000082
 10
1952.826786990276
 20
245.5106224382883
 30
0.0
 10
1952.393774288384
 20
245.7606224382883
 30
0.0
 10
1951.960761586491
 20
246.0106224382883
 30
0.0
  0
SPLINE
  5
166
330
1F
100
AcDbEntity
  8
Crea2D$visibili$linee
100
AcDbSpline
210
0.0
220
0.0
230
1.0
 70
    24
 71
     2
 72
     6
 73
     3
 74
     0
 42
0.000000001
 43
0.0000000001
 40
0.0
 40
0.0
 40
0.0
 40
0.5122532698367489
 40
0.5122532698367489
 40
0.5122532698367489
 10
1953.69281239406
 20
245.0106224382883
 30
0.0
 10
1953.820875711519
 20
245.2324346107134
 30
0.0
 10
1953.948939028979
 20
245.4542467831386
 30
0.0
  0
SPLINE
  5
167
330
1F
100
AcDbEntity
  8
Crea2D$visibili$linee
100
AcDbSpline
210
0.0
220
0.0
230
1.0
 70
    24
 71
     2
 72
     6
 73
     3
 74
     0
 42
0.000000001
 43
0.0000000001
 40
0.0
 40
0.0
 40
0.0
 40
0.5122532698368019
 40
0.5122532698368019
 40
0.5122532698368019
 10
1961.310154961147
 20
241.2042467831386
 30
0.0
 10
1961.182091643687
 20
240.9824346107135
 30
0.0
 10
1961.054028326228
 20
240.7606224382883
 30
0.0
  0
SPLINE
  5
168
330
1F
100
AcDbEntity
  8
Crea2D$visibili$linee
100
AcDbSpline
210
0.0
220
0.0
230
1.0
 70
    24
 71
     2
 72
     6
 73
     3
 74
     0
 42
0.000000001
 43
0.0000000001
 40
0.0
 40
0.0
 40
0.0
 40
0.4595712406106042
 40
0.4595712406106042
 40
0.4595712406106042
 10
1961.054028326228
 20
360.1920011416187
 30
0.0
 10
1961.168921136381
 20
359.9930009570099
 30
0.0
 10
1961.283813946533
 20
359.7940007724012
 30
0.0
  0
SPLINE
  5
169
330
1F
100
AcDbEntity
  8
Crea2D$visibili$linee
100
AcDbSpline
210
0.0
220
0.0
230
1.0
 70
    24
 71
     2
 72
     6
 73
     3
 74
     0
 42
0.000000001
 43
0.0000000001
 40
0.0
 40
0.0
 40
0.0
 40
0.4595712406104527
 40
0.4595712406104527
 40
0.4595712406104527
 10
1953.922598014366
 20
355.5440007724013
 30
0.0
 10
1953.807705204213
 20
355.7430009570101
 30
0.0
 10
1953.69281239406
 20
355.9420011416187
 30
0.0
  0
SPLINE
  5
16A
330
1F
100
AcDbEntity
  8
Crea2D$visibili$linee
100
AcDbSpline
210
0.0
220
0.0
230
1.0
 70
    24
 71
     2
 72
     6
 73
     3
 74
     0
 42
0.000000001
 43
0.0000000001
 40
0.0
 40
0.0
 40
0.0
 40
0.8740470666130022
 40
0.8740470666130022
 40
0.8740470666130022
 10
2054.968957309776
 20
291.0067277737086
 30
0.0
 10
2054.968957309776
 20
291.4437513070151
 30
0.0
 10
2054.968957309776
 20
291.8807748403216
 30
0.0
  0
SPLINE
  5
16B
330
1F
100
AcDbEntity
  8
Crea2D$visibili$linee
100
AcDbSpline
210
0.0
220
0.0
230
1.0
 70
    24
 71
     2
 72
     6
 73
     3
 74
     0
 42
0.000000001
 43
0.0000000001
 40
0.0
 40
0.0
 40
0.0
 40
1.394654570390799
 40
1.394654570390799
 40
1.394654570390799
 10
2063.514029784094
 20
290.3718487395851
 30
0.0
 10
2062.816702498898
 20
290.3718487395852
 30
0.0
 10
2062.119375213703
 20
290.3718487395852
 30
0.0
  0
SPLINE
  5
16C
330
1F
100
AcDbEntity
  8
Crea2D$visibili$linee
100
AcDbSpline
210
0.0
220
0.0
230
1.0
 70
    12
 71
     3
 72
     8
 73
     4
 74
     0
 42
0.000000001
 43
0.0000000001
 40
-1.0
 40
-1.0
 40
-1.0
 40
-1.0
 40
0.0
 40
0.0
 40
0.0
 40
0.0
 10
2063.514029784094
 20
290.3718487395851
 30
0.0
 41
1.0
 10
2063.618592865096
 20
290.4111190023876
 30
0.0
 41
1.0
 10
2063.723097592898
 20
290.4503892694509
 30
0.0
 41
1.0
 10
2063.827544713984
 20
290.4896595407135
 30
0.0
 41
1.0
  0
SPLINE
  5
16D
330
1F
100
AcDbEntity
  8
Crea2D$visibili$linee
100
AcDbSpline
210
0.0
220
0.0
230
1.0
 70
    24
 71
     2
 72
     6
 73
     3
 74
     0
 42
0.000000001
 43
0.0000000001
 40
0.0
 40
0.0
 40
0.0
 40
0.8952703525284144
 40
0.8952703525284144
 40
0.8952703525284144
 10
1966.669932111422
 20
360.9465850595651
 30
0.0
 10
1966.28226867715
 20
360.722767471433
 30
0.0
 10
1965.894605242877
 20
360.4989498833009
 30
0.0
  0
SPLINE
  5
16E
330
1F
100
AcDbEntity
  8
Crea2D$visibili$linee
100
AcDbSpline
210
0.0
220
0.0
230
1.0
 70
    24
 71
     2
 72
     6
 73
     3
 74
     0
 42
0.000000001
 43
0.0000000001
 40
0.0
 40
0.0
 40
0.0
 40
1.346164362934634
 40
1.346164362934634
 40
1.346164362934634
 10
1963.601919522857
 20
367.4878502376366
 30
0.0
 10
1963.265378432123
 20
368.0707565056219
 30
0.0
 10
1962.92883734139
 20
368.6536627736073
 30
0.0
  0
SPLINE
  5
16F
330
1F
100
AcDbEntity
  8
Crea2D$visibili$linee
100
AcDbSpline
210
0.0
220
0.0
230
1.0
 70
    12
 71
     3
 72
     8
 73
     4
 74
     0
 42
0.000000001
 43
0.0000000001
 40
-1.0
 40
-1.0
 40
-1.0
 40
-1.0
 40
0.0
 40
0.0
 40
0.0
 40
0.0
 10
1962.92883734139
 20
368.6536627736073
 30
0.0
 41
1.0
 10
1962.842546755688
 20
368.724581926652
 30
0.0
 41
1.0
 10
1962.756285342897
 20
368.7954505422129
 30
0.0
 41
1.0
 10
1962.670052729827
 20
368.8662692667944
 30
0.0
 41
1.0
  0
SPLINE
  5
170
330
1F
100
AcDbEntity
  8
Crea2D$visibili$linee
100
AcDbSpline
210
0.0
220
0.0
230
1.0
 70
    24
 71
     2
 72
     6
 73
     3
 74
     0
 42
0.000000001
 43
0.0000000001
 40
0.0
 40
0.0
 40
0.0
 40
1.453936865703099
 40
1.453936865703099
 40
1.453936865703099
 10
2062.060092918391
 20
310.5807748403216
 30
0.0
 10
2062.787061351242
 20
310.5807748403216
 30
0.0
 10
2063.514029784094
 20
310.5807748403216
 30
0.0
  0
SPLINE
  5
171
330
1F
100
AcDbEntity
  8
Crea2D$visibili$linee
100
AcDbSpline
210
0.0
220
0.0
230
1.0
 70
    12
 71
     3
 72
    11
 73
     7
 74
     0
 42
0.000000001
 43
0.0000000001
 40
-1.0
 40
-1.0
 40
-1.0
 40
-1.0
 40
-0.0222222245615913
 40
-0.0222222245615913
 40
-0.0222222245615913
 40
0.0
 40
0.0
 40
0.0
 40
0.0
 10
2063.827544713984
 20
310.4629640391933
 30
0.0
 41
1.0
 10
2063.725418640279
 20
310.501361637669
 30
0.0
 41
1.0
 10
2063.623237491659
 20
310.5397592321299
 30
0.0
 41
1.0
 10
2063.521000570454
 20
310.5781568225187
 30
0.0
 41
1.0
 10
2063.518677003812
 20
310.5790294951217
 30
0.0
 41
1.0
 10
2063.516353408361
 20
310.5799021677227
 30
0.0
 41
1.0
 10
2063.514029784094
 20
310.5807748403216
 30
0.0
 41
1.0
  0
SPLINE
  5
172
330
1F
100
AcDbEntity
  8
Crea2D$visibili$linee
100
AcDbSpline
210
0.0
220
0.0
230
1.0
 70
    24
 71
     2
 72
     6
 73
     3
 74
     0
 42
0.000000001
 43
0.0000000001
 40
0.0
 40
0.0
 40
0.0
 40
0.934879034123469
 40
0.934879034123469
 40
0.934879034123469
 10
2054.968957309776
 20
309.0718487395852
 30
0.0
 10
2054.968957309776
 20
309.5392882566469
 30
0.0
 10
2054.968957309776
 20
310.0067277737086
 30
0.0
  0
SPLINE
  5
173
330
1F
100
AcDbEntity
  8
Crea2D$visibili$linee
100
AcDbSpline
210
0.0
220
0.0
230
1.0
 70
    24
 71
     2
 72
     6
 73
     3
 74
     0
 42
0.000000001
 43
0.0000000001
 40
0.0
 40
0.0
 40
0.0
 40
1.364074241066261
 40
1.364074241066261
 40
1.364074241066261
 10
1946.109431075483
 20
357.3678767778279
 30
0.0
 10
1945.768412515216
 20
357.9585382505336
 30
0.0
 10
1945.42739395495
 20
358.5491997232393
 30
0.0
  0
SPLINE
  5
174
330
1F
100
AcDbEntity
  8
Crea2D$visibili$linee
100
AcDbSpline
210
0.0
220
0.0
230
1.0
 70
    12
 71
     3
 72
    11
 73
     7
 74
     0
 42
0.000000001
 43
0.0000000001
 40
-1.0
 40
-1.0
 40
-1.0
 40
-1.0
 40
-0.0222222245615936
 40
-0.0222222245615936
 40
-0.0222222245615936
 40
0.0
 40
0.0
 40
0.0
 40
0.0
 10
1945.372663636621
 20
358.8796170175546
 30
0.0
 41
1.0
 10
1945.39047337775
 20
358.7719744440986
 30
0.0
 41
1.0
 10
1945.408310659812
 20
358.6642841763762
 30
0.0
 41
1.0
 10
1945.426175831694
 20
358.5565456102129
 30
0.0
 41
1.0
 10
1945.426581858372
 20
358.5540970061721
 30
0.0
 41
1.0
 10
1945.426987899456
 20
358.5516483771833
 30
0.0
 41
1.0
 10
1945.42739395495
 20
358.5491997232393
 30
0.0
 41
1.0
  0
SPLINE
  5
175
330
1F
100
AcDbEntity
  8
Crea2D$visibili$linee
100
AcDbSpline
210
0.0
220
0.0
230
1.0
 70
    24
 71
     2
 72
     6
 73
     3
 74
     0
 42
0.000000001
 43
0.0000000001
 40
0.0
 40
0.0
 40
0.0
 40
0.9136557482079991
 40
0.9136557482079991
 40
0.9136557482079991
 10
1951.006698527779
 20
351.9034129336691
 30
0.0
 10
1950.611073983649
 20
351.6749989966171
 30
0.0
 10
1950.215449439518
 20
351.4465850595651
 30
0.0
  0
SPLINE
  5
176
330
1F
100
AcDbEntity
  8
Crea2D$visibili$linee
100
AcDbSpline
210
0.0
220
0.0
230
1.0
 70
    24
 71
     2
 72
     6
 73
     3
 74
     0
 42
0.000000001
 43
0.0000000001
 40
0.0
 40
0.0
 40
0.0
 40
4.738347228342488
 40
4.738347228342488
 40
4.738347228342488
 10
1963.893718471335
 20
363.9698234674096
 30
0.0
 10
1962.70913166425
 20
366.0215880032578
 30
0.0
 10
1961.524544857164
 20
368.0733525391059
 30
0.0
  0
SPLINE
  5
177
330
1F
100
AcDbEntity
  8
Crea2D$visibili$linee
100
AcDbSpline
210
0.0
220
0.0
230
1.0
 70
    12
 71
     3
 72
     8
 73
     4
 74
     0
 42
0.000000001
 43
0.0000000001
 40
-1.0
 40
-1.0
 40
-1.0
 40
-1.0
 40
0.0
 40
0.0
 40
0.0
 40
0.0
 10
1961.486112378496
 20
368.3703051114715
 30
0.0
 41
1.0
 10
1961.498915576331
 20
368.271334131431
 30
0.0
 41
1.0
 10
1961.511726373708
 20
368.1723499905967
 30
0.0
 41
1.0
 10
1961.524544857164
 20
368.0733525391059
 30
0.0
 41
1.0
  0
SPLINE
  5
178
330
1F
100
AcDbEntity
  8
Crea2D$visibili$linee
100
AcDbSpline
210
0.0
220
0.0
230
1.0
 70
    24
 71
     2
 72
     6
 73
     3
 74
     0
 42
0.000000001
 43
0.0000000001
 40
0.0
 40
0.0
 40
0.0
 40
2.154463050368084
 40
2.154463050368084
 40
2.154463050368084
 10
1965.894605242877
 20
360.4989498833009
 30
0.0
 10
1965.355989480285
 20
361.4318597498677
 30
0.0
 10
1964.817373717693
 20
362.3647696164346
 30
0.0
  0
SPLINE
  5
179
330
1F
100
AcDbEntity
  8
Crea2D$visibili$linee
100
AcDbSpline
210
0.0
220
0.0
230
1.0
 70
    24
 71
     2
 72
     6
 73
     3
 74
     0
 42
0.000000001
 43
0.0000000001
 40
0.0
 40
0.0
 40
0.0
 40
0.00018048108364
 40
0.00018048108364
 40
0.00018048108364
 10
1964.878566262977
 20
362.4000991489266
 30
0.0
 10
1964.878488112375
 20
362.4000540286556
 30
0.0
 10
1964.878409961774
 20
362.4000089083847
 30
0.0
  0
SPLINE
  5
17A
330
1F
100
AcDbEntity
  8
Crea2D$visibili$linee
100
AcDbSpline
210
0.0
220
0.0
230
1.0
 70
    24
 71
     2
 72
     6
 73
     3
 74
     0
 42
0.000000001
 43
0.0000000001
 40
0.0
 40
0.0
 40
0.0
 40
4.738347228342491
 40
4.738347228342491
 40
4.738347228342491
 10
2063.713612621052
 20
291.8781568225187
 30
0.0
 10
2061.344439006881
 20
291.8781568225187
 30
0.0
 10
2058.975265392709
 20
291.8781568225186
 30
0.0
  0
SPLINE
  5
17B
330
1F
100
AcDbEntity
  8
Crea2D$visibili$linee
100
AcDbSpline
210
0.0
220
0.0
230
1.0
 70
    12
 71
     3
 72
     8
 73
     4
 74
     0
 42
0.000000001
 43
0.0000000001
 40
-1.0
 40
-1.0
 40
-1.0
 40
-1.0
 40
0.0
 40
0.0
 40
0.0
 40
0.0
 10
2063.989997331774
 20
291.7629640391932
 30
0.0
 41
1.0
 10
2063.897884349904
 20
291.8013616346383
 30
0.0
 41
1.0
 10
2063.805756170681
 20
291.8397592290842
 30
0.0
 41
1.0
 10
2063.713612621052
 20
291.8781568225187
 30
0.0
 41
1.0
  0
SPLINE
  5
17C
330
1F
100
AcDbEntity
  8
Crea2D$visibili$linee
100
AcDbSpline
210
0.0
220
0.0
230
1.0
 70
    24
 71
     2
 72
     6
 73
     3
 74
     0
 42
0.000000001
 43
0.0000000001
 40
0.0
 40
0.0
 40
0.0
 40
2.154463050368122
 40
2.154463050368122
 40
2.154463050368122
 10
2054.968957309776
 20
291.8807748403216
 30
0.0
 10
2056.04618883496
 20
291.8807748403216
 30
0.0
 10
2057.123420360144
 20
291.8807748403215
 30
0.0
  0
SPLINE
  5
17D
330
1F
100
AcDbEntity
  8
Crea2D$visibili$linee
100
AcDbSpline
210
0.0
220
0.0
230
1.0
 70
    24
 71
     2
 72
     6
 73
     3
 74
     0
 42
0.000000001
 43
0.0000000001
 40
0.0
 40
0.0
 40
0.0
 40
1.783803985384338
 40
1.783803985384338
 40
1.783803985384338
 10
2058.907224345528
 20
291.8101157753377
 30
0.0
 10
2058.015322352836
 20
291.8101157753377
 30
0.0
 10
2057.123420360144
 20
291.8101157753377
 30
0.0
  0
SPLINE
  5
17E
330
1F
100
AcDbEntity
  8
Crea2D$visibili$linee
100
AcDbSpline
210
0.0
220
0.0
230
1.0
 70
    24
 71
     2
 72
     6
 73
     3
 74
     0
 42
0.000000001
 43
0.0000000001
 40
0.0
 40
0.0
 40
0.0
 40
2.154463050368084
 40
2.154463050368084
 40
2.154463050368084
 10
1949.929467002595
 20
353.7692326668028
 30
0.0
 10
1950.468082765187
 20
352.836322800236
 30
0.0
 10
1951.006698527779
 20
351.9034129336691
 30
0.0
  0
SPLINE
  5
17F
330
1F
100
AcDbEntity
  8
Crea2D$visibili$linee
100
AcDbSpline
210
0.0
220
0.0
230
1.0
 70
    12
 71
     3
 72
     8
 73
     4
 74
     0
 42
0.000000001
 43
0.0000000001
 40
-1.0
 40
-1.0
 40
-1.0
 40
-1.0
 40
0.0
 40
0.0
 40
0.0
 40
0.0
 10
1946.632103602217
 20
359.4751975716712
 30
0.0
 41
1.0
 10
1946.552778536044
 20
359.5357974297277
 30
0.0
 41
1.0
 10
1946.473461154198
 20
359.5963839761161
 30
0.0
 41
1.0
 10
1946.394151370163
 20
359.6569573607115
 30
0.0
 41
1.0
  0
SPLINE
  5
180
330
1F
100
AcDbEntity
  8
Crea2D$visibili$linee
100
AcDbSpline
210
0.0
220
0.0
230
1.0
 70
    24
 71
     2
 72
     6
 73
     3
 74
     0
 42
0.000000001
 43
0.0000000001
 40
0.0
 40
0.0
 40
0.0
 40
4.738347228342602
 40
4.738347228342602
 40
4.738347228342602
 10
1946.632103602217
 20
359.4751975716712
 30
0.0
 10
1947.816690409302
 20
357.4234330358231
 30
0.0
 10
1949.001277216388
 20
355.371668499975
 30
0.0
  0
SPLINE
  5
181
330
1F
100
AcDbEntity
  8
Crea2D$visibili$linee
100
AcDbSpline
210
0.0
220
0.0
230
1.0
 70
    24
 71
     2
 72
     6
 73
     3
 74
     0
 42
0.000000001
 43
0.0000000001
 40
0.0
 40
0.0
 40
0.0
 40
2.154463050368122
 40
2.154463050368122
 40
2.154463050368122
 10
2057.123420360144
 20
309.0718487395853
 30
0.0
 10
2056.04618883496
 20
309.0718487395852
 30
0.0
 10
2054.968957309776
 20
309.0718487395852
 30
0.0
  0
SPLINE
  5
182
330
1F
100
AcDbEntity
  8
Crea2D$visibili$linee
100
AcDbSpline
210
0.0
220
0.0
230
1.0
 70
    12
 71
     3
 72
     8
 73
     4
 74
     0
 42
0.000000001
 43
0.0000000001
 40
-1.0
 40
-1.0
 40
-1.0
 40
-1.0
 40
0.0
 40
0.0
 40
0.0
 40
0.0
 10
2063.713612621052
 20
309.0744667573881
 30
0.0
 41
1.0
 10
2063.805756170681
 20
309.1128643508226
 30
0.0
 41
1.0
 10
2063.897884349904
 20
309.1512619452683
 30
0.0
 41
1.0
 10
2063.989997331774
 20
309.1896595407135
 30
0.0
 41
1.0
  0
SPLINE
  5
183
330
1F
100
AcDbEntity
  8
Crea2D$visibili$linee
100
AcDbSpline
210
0.0
220
0.0
230
1.0
 70
    24
 71
     2
 72
     6
 73
     3
 74
     0
 42
0.000000001
 43
0.0000000001
 40
0.0
 40
0.0
 40
0.0
 40
4.738347228342718
 40
4.738347228342718
 40
4.738347228342718
 10
2063.713612621052
 20
309.0744667573881
 30
0.0
 10
2061.344439006881
 20
309.0744667573881
 30
0.0
 10
2058.975265392709
 20
309.0744667573881
 30
0.0
  0
SPLINE
  5
184
330
1F
100
AcDbEntity
  8
Crea2D$visibili$linee
100
AcDbSpline
210
0.0
220
0.0
230
1.0
 70
    24
 71
     2
 72
     6
 73
     3
 74
     0
 42
0.000000001
 43
0.0000000001
 40
0.0
 40
0.0
 40
0.0
 40
0.0628872586544961
 40
0.0628872586544961
 40
0.0628872586544961
 10
1951.88818520621
 20
354.9000991489266
 30
0.0
 10
1951.915416187995
 20
354.9158209635902
 30
0.0
 10
1951.94264716978
 20
354.9315427782539
 30
0.0
  0
SPLINE
  5
185
330
1F
100
AcDbEntity
  8
Crea2D$visibili$linee
100
AcDbSpline
210
0.0
220
0.0
230
1.0
 70
    24
 71
     2
 72
     6
 73
     3
 74
     0
 42
0.000000001
 43
0.0000000001
 40
0.0
 40
0.0
 40
0.0
 40
0.0628872586544961
 40
0.0628872586544961
 40
0.0628872586544961
 10
1962.804193550509
 20
361.2024595049836
 30
0.0
 10
1962.831424532294
 20
361.2181813196472
 30
0.0
 10
1962.858655514078
 20
361.2339031343109
 30
0.0
  0
SPLINE
  5
186
330
1F
100
AcDbEntity
  8
Crea2D$visibili$linee
100
AcDbSpline
210
0.0
220
0.0
230
1.0
 70
    12
 71
     3
 72
     8
 73
     4
 74
     0
 42
0.000000001
 43
0.0000000001
 40
-1.0
 40
-1.0
 40
-1.0
 40
-1.0
 40
0.0
 40
0.0
 40
0.0
 40
0.0
 10
1945.427393954949
 20
242.4034238566678
 30
0.0
 41
1.0
 10
1945.409121459649
 20
242.2932344408208
 30
0.0
 41
1.0
 10
1945.390878144637
 20
242.1830955581966
 30
0.0
 41
1.0
 10
1945.372663636621
 20
242.0730065623525
 30
0.0
 41
1.0
  0
SPLINE
  5
187
330
1F
100
AcDbEntity
  8
Crea2D$visibili$linee
100
AcDbSpline
210
0.0
220
0.0
230
1.0
 70
    12
 71
     3
 72
    11
 73
     7
 74
     0
 42
0.000000001
 43
0.0000000001
 40
-1.0
 40
-1.0
 40
-1.0
 40
-1.0
 40
-0.022222224561594
 40
-0.022222224561594
 40
-0.022222224561594
 40
0.0
 40
0.0
 40
0.0
 40
0.0
 10
1962.670052729827
 20
232.0863543131126
 30
0.0
 41
1.0
 10
1962.754369062404
 20
232.1555992880928
 30
0.0
 41
1.0
 10
1962.838712928961
 20
232.2248919613543
 30
0.0
 41
1.0
 10
1962.923084678285
 20
232.2942329371289
 30
0.0
 41
1.0
 10
1962.925002218249
 20
232.2958088685667
 30
0.0
 41
1.0
 10
1962.926919772616
 20
232.2973848249546
 30
0.0
 41
1.0
 10
1962.928837341389
 20
232.2989608062997
 30
0.0
 41
1.0
  0
SPLINE
  5
188
330
1F
100
AcDbEntity
  8
Crea2D$visibili$linee
100
AcDbSpline
210
0.0
220
0.0
230
1.0
 70
    24
 71
     2
 72
     6
 73
     3
 74
     0
 42
0.000000001
 43
0.0000000001
 40
0.0
 40
0.0
 40
0.0
 40
4.738347228342503
 40
4.738347228342503
 40
4.738347228342503
 10
1946.632103602216
 20
241.4774260082359
 30
0.0
 10
1947.816690409302
 20
243.529190544084
 30
0.0
 10
1949.001277216388
 20
245.580955079932
 30
0.0
  0
SPLINE
  5
189
330
1F
100
AcDbEntity
  8
Crea2D$visibili$linee
100
AcDbSpline
210
0.0
220
0.0
230
1.0
 70
    12
 71
     3
 72
     8
 73
     4
 74
     0
 42
0.000000001
 43
0.0000000001
 40
-1.0
 40
-1.0
 40
-1.0
 40
-1.0
 40
0.0
 40
0.0
 40
0.0
 40
0.0
 10
1946.394151370163
 20
241.2956662191957
 30
0.0
 41
1.0
 10
1946.473461154198
 20
241.3562396037909
 30
0.0
 41
1.0
 10
1946.552778536043
 20
241.4168261501795
 30
0.0
 41
1.0
 10
1946.632103602216
 20
241.4774260082359
 30
0.0
 41
1.0
  0
SPLINE
  5
18A
330
1F
100
AcDbEntity
  8
Crea2D$visibili$linee
100
AcDbSpline
210
0.0
220
0.0
230
1.0
 70
    12
 71
     3
 72
     8
 73
     4
 74
     0
 42
0.000000001
 43
0.0000000001
 40
-1.0
 40
-1.0
 40
-1.0
 40
-1.0
 40
0.0
 40
0.0
 40
0.0
 40
0.0
 10
1961.524544857164
 20
232.8792710408011
 30
0.0
 41
1.0
 10
1961.511726373708
 20
232.7802735893103
 30
0.0
 41
1.0
 10
1961.498915576331
 20
232.681289448476
 30
0.0
 41
1.0
 10
1961.486112378495
 20
232.5823184684355
 30
0.0
 41
1.0
  0
SPLINE
  5
18B
330
1F
100
AcDbEntity
  8
Crea2D$visibili$linee
100
AcDbSpline
210
0.0
220
0.0
230
1.0
 70
    24
 71
     2
 72
     6
 73
     3
 74
     0
 42
0.000000001
 43
0.0000000001
 40
0.0
 40
0.0
 40
0.0
 40
4.738347228342602
 40
4.738347228342602
 40
4.738347228342602
 10
1963.893718471335
 20
236.9828001124974
 30
0.0
 10
1962.70913166425
 20
234.9310355766493
 30
0.0
 10
1961.524544857164
 20
232.8792710408011
 30
0.0
  0
SPLINE
  5
18C
330
1F
100
AcDbEntity
  8
Crea2D$visibili$linee
100
AcDbSpline
210
0.0
220
0.0
230
1.0
 70
    24
 71
     2
 72
     6
 73
     3
 74
     0
 42
0.000000001
 43
0.0000000001
 40
0.0
 40
0.0
 40
0.0
 40
1.720827923670705
 40
1.720827923670705
 40
1.720827923670705
 10
1951.960761586491
 20
246.0106224382883
 30
0.0
 10
1951.530554605574
 20
245.265482089568
 30
0.0
 10
1951.100347624656
 20
244.5203417408478
 30
0.0
  0
SPLINE
  5
18D
330
1F
100
AcDbEntity
  8
Crea2D$visibili$linee
100
AcDbSpline
210
0.0
220
0.0
230
1.0
 70
    24
 71
     2
 72
     6
 73
     3
 74
     0
 42
0.000000001
 43
0.0000000001
 40
0.0
 40
0.0
 40
0.0
 40
0.0958873722463079
 40
0.0958873722463079
 40
0.0958873722463079
 10
1963.893718471335
 20
236.9828001124974
 30
0.0
 10
1963.940028515969
 20
236.9952088515585
 30
0.0
 10
1963.986338560603
 20
237.0076175906195
 30
0.0
  0
SPLINE
  5
18E
330
1F
100
AcDbEntity
  8
Crea2D$visibili$linee
100
AcDbSpline
210
0.0
220
0.0
230
1.0
 70
    24
 71
     2
 72
     6
 73
     3
 74
     0
 42
0.000000001
 43
0.0000000001
 40
0.0
 40
0.0
 40
0.0
 40
0.0958873722457157
 40
0.0958873722457157
 40
0.0958873722457157
 10
1948.976459738266
 20
245.6735751691992
 30
0.0
 10
1948.988868477327
 20
245.6272651245656
 30
0.0
 10
1949.001277216388
 20
245.580955079932
 30
0.0
  0
SPLINE
  5
18F
330
1F
100
AcDbEntity
  8
Crea2D$visibili$linee
100
AcDbSpline
210
0.0
220
0.0
230
1.0
 70
    12
 71
     2
 72
     6
 73
     3
 74
     0
 42
0.000000001
 43
0.0000000001
 40
3.141614185972347
 40
3.141614185972347
 40
3.141614185972347
 40
4.706611805501485
 40
4.706611805501485
 40
4.706611805501485
 10
1949.839781687185
 20
245.1693969355948
 30
0.0
 41
1.0
 10
1948.978279241859
 20
245.6667856043117
 30
0.0
 41
0.7089556757941364
 10
1948.976372464619
 20
245.6739008788815
 30
0.0
 41
1.0
  0
SPLINE
  5
190
330
1F
100
AcDbEntity
  8
Crea2D$visibili$linee
100
AcDbSpline
210
0.0
220
0.0
230
1.0
 70
    24
 71
     2
 72
     6
 73
     3
 74
     0
 42
0.000000001
 43
0.0000000001
 40
0.0
 40
0.0
 40
0.0
 40
0.416209722368545
 40
0.416209722368545
 40
0.416209722368545
 10
1950.200229880059
 20
244.9612920744106
 30
0.0
 10
1950.020005783622
 20
245.0653445050027
 30
0.0
 10
1949.839781687185
 20
245.1693969355948
 30
0.0
  0
SPLINE
  5
191
330
1F
100
AcDbEntity
  8
Crea2D$visibili$linee
100
AcDbSpline
210
0.0
220
0.0
230
1.0
 70
    12
 71
     2
 72
     6
 73
     3
 74
     0
 42
0.000000001
 43
0.0000000001
 40
4.712421278959384
 40
4.712421278959384
 40
4.712421278959384
 40
6.283228371944694
 40
6.283228371944694
 40
6.283228371944694
 10
1951.068873301646
 20
244.4658266142603
 30
0.0
 41
1.0
 10
1951.066255283843
 20
244.4612920744107
 30
0.0
 41
0.7071067811868225
 10
1950.200229880059
 20
244.9612920744106
 30
0.0
 41
1.0
  0
SPLINE
  5
192
330
1F
100
AcDbEntity
  8
Crea2D$visibili$linee
100
AcDbSpline
210
0.0
220
0.0
230
1.0
 70
    24
 71
     2
 72
     6
 73
     3
 74
     0
 42
0.000000001
 43
0.0000000001
 40
0.0
 40
0.0
 40
0.0
 40
0.0628324272684204
 40
0.0628324272684204
 40
0.0628324272684204
 10
1951.10028951528
 20
244.5202410924562
 30
0.0
 10
1951.084581408463
 20
244.4930338533582
 30
0.0
 10
1951.068873301646
 20
244.4658266142603
 30
0.0
  0
SPLINE
  5
193
330
1F
100
AcDbEntity
  8
Crea2D$visibili$linee
100
AcDbSpline
210
0.0
220
0.0
230
1.0
 70
    24
 71
     2
 72
     6
 73
     3
 74
     0
 42
0.000000001
 43
0.0000000001
 40
0.0
 40
0.0
 40
0.0
 40
10.50000000000007
 40
10.50000000000007
 40
10.50000000000007
 10
1961.920053730013
 20
240.2606224382883
 30
0.0
 10
1957.373420360144
 20
242.8856224382883
 30
0.0
 10
1952.826786990276
 20
245.5106224382883
 30
0.0
  0
SPLINE
  5
194
330
1F
100
AcDbEntity
  8
Crea2D$visibili$linee
100
AcDbSpline
210
0.0
220
0.0
230
1.0
 70
    24
 71
     2
 72
     6
 73
     3
 74
     0
 42
0.000000001
 43
0.0000000001
 40
0.0
 40
0.0
 40
0.0
 40
0.4162097223682911
 40
0.4162097223682911
 40
0.4162097223682911
 10
1964.012552730454
 20
239.0525175771042
 30
0.0
 10
1963.832328634018
 20
239.1565700076962
 30
0.0
 10
1963.652104537581
 20
239.2606224382883
 30
0.0
  0
SPLINE
  5
195
330
1F
100
AcDbEntity
  8
Crea2D$visibili$linee
100
AcDbSpline
210
0.0
220
0.0
230
1.0
 70
    24
 71
     2
 72
     6
 73
     3
 74
     0
 42
0.000000001
 43
0.0000000001
 40
0.0
 40
0.0
 40
0.0
 40
0.416209722368348
 40
0.416209722368348
 40
0.416209722368348
 10
1951.094736182707
 20
246.5106224382883
 30
0.0
 10
1950.91451208627
 20
246.6146748688804
 30
0.0
 10
1950.734287989834
 20
246.7187272994725
 30
0.0
  0
SPLINE
  5
196
330
1F
100
AcDbEntity
  8
Crea2D$visibili$linee
100
AcDbSpline
210
0.0
220
0.0
230
1.0
 70
    24
 71
     2
 72
     6
 73
     3
 74
     0
 42
0.000000001
 43
0.0000000001
 40
0.0
 40
0.0
 40
0.0
 40
1.370200605929768
 40
1.370200605929768
 40
1.370200605929768
 10
1963.613937644354
 20
233.4855893393157
 30
0.0
 10
1963.271387492872
 20
232.8922750728077
 30
0.0
 10
1962.928837341389
 20
232.2989608062997
 30
0.0
  0
SPLINE
  5
197
330
1F
100
AcDbEntity
  8
Crea2D$visibili$linee
100
AcDbSpline
210
0.0
220
0.0
230
1.0
 70
    24
 71
     2
 72
     6
 73
     3
 74
     0
 42
0.000000001
 43
0.0000000001
 40
0.0
 40
0.0
 40
0.0
 40
0.8648543687735206
 40
0.8648543687735206
 40
0.8648543687735206
 10
1965.894605242877
 20
240.4536736966061
 30
0.0
 10
1966.269098169843
 20
240.2374601044127
 30
0.0
 10
1966.643591096809
 20
240.0212465122193
 30
0.0
  0
SPLINE
  5
198
330
1F
100
AcDbEntity
  8
Crea2D$visibili$linee
100
AcDbSpline
210
0.0
220
0.0
230
1.0
 70
    24
 71
     2
 72
     6
 73
     3
 74
     0
 42
0.000000001
 43
0.0000000001
 40
0.0
 40
0.0
 40
0.0
 40
2.154463050368296
 40
2.154463050368296
 40
2.154463050368296
 10
1964.817373717693
 20
238.5878539634724
 30
0.0
 10
1965.355989480285
 20
239.5207638300392
 30
0.0
 10
1965.894605242877
 20
240.4536736966061
 30
0.0
  0
SPLINE
  5
199
330
1F
100
AcDbEntity
  8
Crea2D$visibili$linee
100
AcDbSpline
210
0.0
220
0.0
230
1.0
 70
    24
 71
     2
 72
     6
 73
     3
 74
     0
 42
0.000000001
 43
0.0000000001
 40
0.0
 40
0.0
 40
0.0
 40
2.154463050368084
 40
2.154463050368084
 40
2.154463050368084
 10
1951.006698527779
 20
249.0492106462379
 30
0.0
 10
1950.468082765187
 20
248.1163007796711
 30
0.0
 10
1949.929467002595
 20
247.1833909131042
 30
0.0
  0
SPLINE
  5
19A
330
1F
100
AcDbEntity
  8
Crea2D$visibili$linee
100
AcDbSpline
210
0.0
220
0.0
230
1.0
 70
    24
 71
     2
 72
     6
 73
     3
 74
     0
 42
0.000000001
 43
0.0000000001
 40
0.0
 40
0.0
 40
0.0
 40
0.9440717319626852
 40
0.9440717319626852
 40
0.9440717319626852
 10
1950.189108424905
 20
249.5212465122193
 30
0.0
 10
1950.597903476342
 20
249.2852285792286
 30
0.0
 10
1951.006698527779
 20
249.0492106462379
 30
0.0
  0
SPLINE
  5
19B
330
1F
100
AcDbEntity
  8
Crea2D$visibili$linee
100
AcDbSpline
210
0.0
220
0.0
230
1.0
 70
    24
 71
     2
 72
     6
 73
     3
 74
     0
 42
0.000000001
 43
0.0000000001
 40
0.0
 40
0.0
 40
0.0
 40
1.447423586046465
 40
1.447423586046465
 40
1.447423586046465
 10
1945.427393954949
 20
242.4034238566678
 30
0.0
 10
1945.789249851461
 20
243.0301766544443
 30
0.0
 10
1946.151105747972
 20
243.6569294522208
 30
0.0
  0
SPLINE
  5
19C
330
1F
100
AcDbEntity
  8
Crea2D$visibili$linee
100
AcDbSpline
210
0.0
220
0.0
230
1.0
 70
    24
 71
     2
 72
     6
 73
     3
 74
     0
 42
0.000000001
 43
0.0000000001
 40
0.0
 40
0.0
 40
0.0
 40
0.0958873722742589
 40
0.0958873722742589
 40
0.0958873722742589
 10
1949.001277216388
 20
355.371668499975
 30
0.0
 10
1948.988868477323
 20
355.3253584553277
 30
0.0
 10
1948.976459738258
 20
355.2790484106803
 30
0.0
  0
SPLINE
  5
19D
330
1F
100
AcDbEntity
  8
Crea2D$visibili$linee
100
AcDbSpline
210
0.0
220
0.0
230
1.0
 70
    24
 71
     2
 72
     6
 73
     3
 74
     0
 42
0.000000001
 43
0.0000000001
 40
0.0
 40
0.0
 40
0.0
 40
17.19630993486924
 40
17.19630993486924
 40
17.19630993486924
 10
1963.893718471335
 20
363.9698234674096
 30
0.0
 10
1956.447497843862
 20
359.6707459836923
 30
0.0
 10
1949.001277216388
 20
355.371668499975
 30
0.0
  0
SPLINE
  5
19E
330
1F
100
AcDbEntity
  8
Crea2D$visibili$linee
100
AcDbSpline
210
0.0
220
0.0
230
1.0
 70
    24
 71
     2
 72
     6
 73
     3
 74
     0
 42
0.000000001
 43
0.0000000001
 40
0.0
 40
0.0
 40
0.0
 40
0.0958873722458867
 40
0.0958873722458867
 40
0.0958873722458867
 10
1963.986338560603
 20
363.9450059892877
 30
0.0
 10
1963.940028515969
 20
363.9574147283487
 30
0.0
 10
1963.893718471335
 20
363.9698234674096
 30
0.0
  0
SPLINE
  5
19F
330
1F
100
AcDbEntity
  8
Crea2D$visibili$linee
100
AcDbSpline
210
0.0
220
0.0
230
1.0
 70
    24
 71
     2
 72
     6
 73
     3
 74
     0
 42
0.000000001
 43
0.0000000001
 40
0.0
 40
0.0
 40
0.0
 40
0.0001136447918139
 40
0.0001136447918139
 40
0.0001136447918139
 10
1963.986664270285
 20
363.9449187156413
 30
0.0
 10
1963.986609384065
 20
363.9449334223596
 30
0.0
 10
1963.986554497845
 20
363.9449481290778
 30
0.0
  0
SPLINE
  5
1A0
330
1F
100
AcDbEntity
  8
Crea2D$visibili$linee
100
AcDbSpline
210
0.0
220
0.0
230
1.0
 70
    24
 71
     2
 72
     6
 73
     3
 74
     0
 42
0.000000001
 43
0.0000000001
 40
0.0
 40
0.0
 40
0.0
 40
17.19630993486942
 40
17.19630993486942
 40
17.19630993486942
 10
2058.975265392709
 20
291.8781568225186
 30
0.0
 10
2058.975265392709
 20
300.4763117899533
 30
0.0
 10
2058.975265392709
 20
309.0744667573881
 30
0.0
  0
SPLINE
  5
1A1
330
1F
100
AcDbEntity
  8
Crea2D$visibili$linee
100
AcDbSpline
210
0.0
220
0.0
230
1.0
 70
    24
 71
     2
 72
     6
 73
     3
 74
     0
 42
0.000000001
 43
0.0000000001
 40
0.0
 40
0.0
 40
0.0
 40
0.0958873774827307
 40
0.0958873774827307
 40
0.0958873774827307
 10
2058.907462777861
 20
291.8103542076704
 30
0.0
 10
2058.941364085285
 20
291.8442555150945
 30
0.0
 10
2058.975265392709
 20
291.8781568225186
 30
0.0
  0
SPLINE
  5
1A2
330
1F
100
AcDbEntity
  8
Crea2D$visibili$linee
100
AcDbSpline
210
0.0
220
0.0
230
1.0
 70
    24
 71
     2
 72
     6
 73
     3
 74
     0
 42
0.000000001
 43
0.0000000001
 40
0.0
 40
0.0
 40
0.0
 40
0.0001136424552726
 40
0.0001136424552726
 40
0.0001136424552726
 10
2058.907224345528
 20
291.8101157753377
 30
0.0
 10
2058.907264524204
 20
291.8101559540131
 30
0.0
 10
2058.907304702879
 20
291.8101961326885
 30
0.0
  0
SPLINE
  5
1A3
330
1F
100
AcDbEntity
  8
Crea2D$visibili$linee
100
AcDbSpline
210
0.0
220
0.0
230
1.0
 70
    12
 71
     2
 72
     8
 73
     5
 74
     0
 42
0.000000001
 43
0.0000000001
 40
0.0
 40
0.0
 40
0.0
 40
116.2389281828223
 40
116.2389281828223
 40
232.4778563656448
 40
232.4778563656448
 40
232.4778563656448
 10
2054.709300240193
 20
263.4763117899535
 30
0.0
 41
1.0
 10
2017.709300240193
 20
199.3904319099051
 30
0.0
 41
0.7071067811865478
 10
1953.623420360144
 20
236.390431909905
 30
0.0
 41
1.0
 10
1889.537540480096
 20
273.390431909905
 30
0.0
 41
0.7071067811865479
 10
1926.537540480096
 20
337.4763117899535
 30
0.0
 41
1.0
  0
SPLINE
  5
1A4
330
1F
100
AcDbEntity
  8
Crea2D$visibili$linee
100
AcDbSpline
210
0.0
220
0.0
230
1.0
 70
    12
 71
     2
 72
     6
 73
     3
 74
     0
 42
0.000000001
 43
0.0000000001
 40
0.0
 40
0.0
 40
0.0
 40
105.4547103222929
 40
105.4547103222929
 40
105.4547103222929
 10
1962.928837341389
 20
232.2989608062997
 30
0.0
 41
1.0
 10
2022.307062260749
 20
208.1787045069639
 30
0.0
 41
0.7540928175942839
 10
2054.352188093392
 20
263.6824905840396
 30
0.0
 41
1.0
  0
SPLINE
  5
1A5
330
1F
100
AcDbEntity
  8
Crea2D$visibili$linee
100
AcDbSpline
210
0.0
220
0.0
230
1.0
 70
    12
 71
     2
 72
     6
 73
     3
 74
     0
 42
0.000000001
 43
0.0000000001
 40
0.0
 40
0.0
 40
0.0
 40
1.283641946782734
 40
1.283641946782734
 40
1.283641946782734
 10
1961.486112378495
 20
232.5823184684355
 30
0.0
 41
1.0
 10
1962.075928258028
 20
232.3291937648549
 30
0.0
 41
0.9999622674950006
 10
1962.670052729827
 20
232.0863543131126
 30
0.0
 41
1.0
  0
SPLINE
  5
1A6
330
1F
100
AcDbEntity
  8
Crea2D$visibili$linee
100
AcDbSpline
210
0.0
220
0.0
230
1.0
 70
    12
 71
     2
 72
     6
 73
     3
 74
     0
 42
0.000000001
 43
0.0000000001
 40
0.0
 40
0.0
 40
0.0
 40
17.23567298094057
 40
17.23567298094057
 40
17.23567298094057
 10
1946.632103602216
 20
241.4774260082359
 30
0.0
 41
1.0
 10
1953.572591062509
 20
236.3023929838874
 30
0.0
 41
0.9931516941115658
 10
1961.524544857164
 20
232.8792710408011
 30
0.0
 41
1.0
  0
SPLINE
  5
1A7
330
1F
100
AcDbEntity
  8
Crea2D$visibili$linee
100
AcDbSpline
210
0.0
220
0.0
230
1.0
 70
    12
 71
     2
 72
     6
 73
     3
 74
     0
 42
0.000000001
 43
0.0000000001
 40
0.0
 40
0.0
 40
0.0
 40
1.283641946782517
 40
1.283641946782517
 40
1.283641946782517
 10
1945.372663636621
 20
242.0730065623525
 30
0.0
 41
1.0
 10
1945.88003100677
 20
241.6798994026363
 30
0.0
 41
0.9999622674950007
 10
1946.394151370163
 20
241.2956662191957
 30
0.0
 41
1.0
  0
SPLINE
  5
1A8
330
1F
100
AcDbEntity
  8
Crea2D$visibili$linee
100
AcDbSpline
210
0.0
220
0.0
230
1.0
 70
    12
 71
     2
 72
     8
 73
     5
 74
     0
 42
0.000000001
 43
0.0000000001
 40
0.0
 40
0.0
 40
0.0
 40
66.92431085629434
 40
66.92431085629434
 40
133.8486217125888
 40
133.8486217125888
 40
133.8486217125888
 10
1945.42739395495
 20
358.5491997232393
 30
0.0
 41
1.0
 10
1917.035777948317
 20
336.4530327787598
 30
0.0
 41
0.898381758415831
 10
1917.035777948317
 20
300.4763117899536
 30
0.0
 41
1.0
 10
1917.035777948317
 20
264.4995908011473
 30
0.0
 41
0.8983817584158306
 10
1945.427393954949
 20
242.4034238566678
 30
0.0
 41
1.0
  0
SPLINE
  5
1A9
330
1F
100
AcDbEntity
  8
Crea2D$visibili$linee
100
AcDbSpline
210
0.0
220
0.0
230
1.0
 70
    12
 71
     2
 72
     6
 73
     3
 74
     0
 42
0.000000001
 43
0.0000000001
 40
0.0
 40
0.0
 40
0.0
 40
1.283641946782697
 40
1.283641946782697
 40
1.283641946782697
 10
1946.394151370163
 20
359.6569573607115
 30
0.0
 41
1.0
 10
1945.88003100677
 20
359.2727241772709
 30
0.0
 41
0.9999622674949992
 10
1945.372663636621
 20
358.8796170175546
 30
0.0
 41
1.0
  0
SPLINE
  5
1AA
330
1F
100
AcDbEntity
  8
Crea2D$visibili$linee
100
AcDbSpline
210
0.0
220
0.0
230
1.0
 70
    12
 71
     2
 72
     6
 73
     3
 74
     0
 42
0.000000001
 43
0.0000000001
 40
0.0
 40
0.0
 40
0.0
 40
17.23567298094051
 40
17.23567298094051
 40
17.23567298094051
 10
1961.524544857164
 20
368.0733525391059
 30
0.0
 41
1.0
 10
1953.572591062509
 20
364.6502305960196
 30
0.0
 41
0.993151694111566
 10
1946.632103602217
 20
359.4751975716712
 30
0.0
 41
1.0
  0
SPLINE
  5
1AB
330
1F
100
AcDbEntity
  8
Crea2D$visibili$linee
100
AcDbSpline
210
0.0
220
0.0
230
1.0
 70
    12
 71
     2
 72
     6
 73
     3
 74
     0
 42
0.000000001
 43
0.0000000001
 40
0.0
 40
0.0
 40
0.0
 40
1.283641946782479
 40
1.283641946782479
 40
1.283641946782479
 10
1962.670052729827
 20
368.8662692667944
 30
0.0
 41
1.0
 10
1962.075928258029
 20
368.6234298150522
 30
0.0
 41
0.9999622674950022
 10
1961.486112378496
 20
368.3703051114716
 30
0.0
 41
1.0
  0
SPLINE
  5
1AC
330
1F
100
AcDbEntity
  8
Crea2D$visibili$linee
100
AcDbSpline
210
0.0
220
0.0
230
1.0
 70
    12
 71
     2
 72
     8
 73
     5
 74
     0
 42
0.000000001
 43
0.0000000001
 40
0.0
 40
0.0
 40
0.0
 40
66.92431085629441
 40
66.92431085629441
 40
133.8486217125887
 40
133.8486217125887
 40
133.8486217125887
 10
2063.514029784094
 20
310.5807748403216
 30
0.0
 41
1.0
 10
2058.573995887229
 20
346.2167190287985
 30
0.0
 41
0.8983817584158287
 10
2027.417241566058
 20
364.2050795232016
 30
0.0
 41
1.0
 10
1996.260487244887
 20
382.1934400176048
 30
0.0
 41
0.8983817584158298
 10
1962.92883734139
 20
368.6536627736073
 30
0.0
 41
1.0
  0
SPLINE
  5
1AD
330
1F
100
AcDbEntity
  8
Crea2D$visibili$linee
100
AcDbSpline
210
0.0
220
0.0
230
1.0
 70
    12
 71
     2
 72
     6
 73
     3
 74
     0
 42
0.000000001
 43
0.0000000001
 40
0.0
 40
0.0
 40
0.0
 40
1.283641946782658
 40
1.283641946782658
 40
1.283641946782658
 10
2063.989997331774
 20
309.1896595407135
 30
0.0
 41
1.0
 10
2063.914301815634
 20
309.8270174277349
 30
0.0
 41
0.9999622674949963
 10
2063.827544713984
 20
310.4629640391933
 30
0.0
 41
1.0
  0
SPLINE
  5
1AE
330
1F
100
AcDbEntity
  8
Crea2D$visibili$linee
100
AcDbSpline
210
0.0
220
0.0
230
1.0
 70
    12
 71
     2
 72
     6
 73
     3
 74
     0
 42
0.000000001
 43
0.0000000001
 40
0.0
 40
0.0
 40
0.0
 40
17.23567298094038
 40
17.23567298094038
 40
17.23567298094038
 10
2063.713612621052
 20
291.8781568225187
 30
0.0
 41
1.0
 10
2064.725078955415
 20
300.4763117899534
 30
0.0
 41
0.9931516941115647
 10
2063.713612621052
 20
309.0744667573881
 30
0.0
 41
1.0
  0
SPLINE
  5
1AF
330
1F
100
AcDbEntity
  8
Crea2D$visibili$linee
100
AcDbSpline
210
0.0
220
0.0
230
1.0
 70
    12
 71
     2
 72
     6
 73
     3
 74
     0
 42
0.000000001
 43
0.0000000001
 40
0.0
 40
0.0
 40
0.0
 40
1.283641946782543
 40
1.283641946782543
 40
1.283641946782543
 10
2063.827544713984
 20
290.4896595407135
 30
0.0
 41
1.0
 10
2063.914301815634
 20
291.1256061521719
 30
0.0
 41
0.9999622674950024
 10
2063.989997331774
 20
291.7629640391932
 30
0.0
 41
1.0
  0
SPLINE
  5
1B0
330
1F
100
AcDbEntity
  8
Crea2D$visibili$linee
100
AcDbSpline
210
0.0
220
0.0
230
1.0
 70
    12
 71
     2
 72
     6
 73
     3
 74
     0
 42
0.000000001
 43
0.0000000001
 40
0.0
 40
0.0
 40
0.0
 40
28.39391139029561
 40
28.39391139029561
 40
28.39391139029561
 10
2054.352188093392
 20
263.6824905840396
 30
0.0
 41
1.0
 10
2061.54006650793
 20
276.1322611966457
 30
0.0
 41
0.9814474670473959
 10
2063.514029784094
 20
290.3718487395851
 30
0.0
 41
1.0
  0
SPLINE
  5
1B1
330
1F
100
AcDbEntity
  8
Crea2D$visibili$linee
100
AcDbSpline
210
0.0
220
0.0
230
1.0
 70
    24
 71
     2
 72
     6
 73
     3
 74
     0
 42
0.000000001
 43
0.0000000001
 40
0.0
 40
0.0
 40
0.0
 40
0.4123575881721233
 40
0.4123575881721233
 40
0.4123575881721233
 10
2054.352188093392
 20
263.6824905840396
 30
0.0
 10
2054.530744166792
 20
263.5794011869966
 30
0.0
 10
2054.709300240193
 20
263.4763117899535
 30
0.0
  0
SPLINE
  5
1B2
330
1F
100
AcDbEntity
  8
Crea2D$visibili$linee
100
AcDbSpline
210
0.0
220
0.0
230
1.0
 70
    12
 71
     2
 72
     8
 73
     5
 74
     0
 42
0.000000001
 43
0.0000000001
 40
0.0
 40
0.0
 40
0.0
 40
116.2389281828223
 40
116.2389281828223
 40
232.4778563656446
 40
232.4778563656446
 40
232.4778563656446
 10
1926.537540480096
 20
337.4763117899535
 30
0.0
 41
1.0
 10
1963.537540480096
 20
401.5621916700019
 30
0.0
 41
0.7071067811865483
 10
2027.623420360144
 20
364.562191670002
 30
0.0
 41
1.0
 10
2091.709300240193
 20
327.5621916700019
 30
0.0
 41
0.7071067811865471
 10
2054.709300240193
 20
263.4763117899535
 30
0.0
 41
1.0
  0
SPLINE
  5
1B3
330
1F
100
AcDbEntity
  8
Crea2D$visibili$linee
100
AcDbSpline
210
0.0
220
0.0
230
1.0
 70
    24
 71
     2
 72
     6
 73
     3
 74
     0
 42
0.000000001
 43
0.0000000001
 40
0.0
 40
0.0
 40
0.0
 40
10.54186086896472
 40
10.54186086896472
 40
10.54186086896472
 10
1952.808660702302
 20
355.4315359243776
 30
0.0
 10
1957.373420360144
 20
358.0670011416187
 30
0.0
 10
1961.938180017986
 20
360.7024663588599
 30
0.0
  0
SPLINE
  5
1B4
330
1F
100
AcDbEntity
  8
Crea2D$visibili$linee
100
AcDbSpline
210
0.0
220
0.0
230
1.0
 70
    24
 71
     2
 72
     6
 73
     3
 74
     0
 42
0.000000001
 43
0.0000000001
 40
0.0
 40
0.0
 40
0.0
 40
0.3324194447365982
 40
0.3324194447365982
 40
0.3324194447365982
 10
1950.734287989834
 20
354.2338962804346
 30
0.0
 10
1950.878229831761
 20
354.3170011416188
 30
0.0
 10
1951.022171673688
 20
354.4001060028029
 30
0.0
  0
SPLINE
  5
1B5
330
1F
100
AcDbEntity
  8
Crea2D$visibili$linee
100
AcDbSpline
210
0.0
220
0.0
230
1.0
 70
    24
 71
     2
 72
     6
 73
     3
 74
     0
 42
0.000000001
 43
0.0000000001
 40
0.0
 40
0.0
 40
0.0
 40
0.3324194447368519
 40
0.3324194447368519
 40
0.3324194447368519
 10
1963.724669046601
 20
361.7338962804345
 30
0.0
 10
1963.868610888528
 20
361.8170011416187
 30
0.0
 10
1964.012552730455
 20
361.9001060028029
 30
0.0
  0
SPLINE
  5
1B6
330
1F
100
AcDbEntity
  8
Crea2D$visibili$linee
100
AcDbSpline
210
0.0
220
0.0
230
1.0
 70
    12
 71
     2
 72
     8
 73
     5
 74
     0
 42
0.000000001
 43
0.0000000001
 40
0.0
 40
0.0
 40
0.0
 40
3.220132469929475
 40
3.220132469929475
 40
6.440264939859039
 40
6.440264939859039
 40
6.440264939859039
 10
1992.676480932141
 20
300.4754917121575
 30
0.0
 41
1.0
 10
1992.676480932141
 20
298.4254917121576
 30
0.0
 41
0.7071067811865769
 10
1990.626480932141
 20
298.4254917121575
 30
0.0
 41
1.0
 10
1988.57648093214
 20
298.4254917121575
 30
0.0
 41
0.70710678118655
 10
1988.576480932141
 20
300.4754917121575
 30
0.0
 41
1.0
  0
SPLINE
  5
1B7
330
1F
100
AcDbEntity
  8
Crea2D$visibili$linee
100
AcDbSpline
210
0.0
220
0.0
230
1.0
 70
    12
 71
     2
 72
     8
 73
     5
 74
     0
 42
0.000000001
 43
0.0000000001
 40
0.0
 40
0.0
 40
0.0
 40
3.220132469929438
 40
3.220132469929438
 40
6.440264939858816
 40
6.440264939858816
 40
6.440264939858816
 10
1988.576480932141
 20
300.4754917121575
 30
0.0
 41
1.0
 10
1988.576480932141
 20
302.5254917121575
 30
0.0
 41
0.7071067811865523
 10
1990.626480932141
 20
302.5254917121574
 30
0.0
 41
1.0
 10
1992.67648093214
 20
302.5254917121573
 30
0.0
 41
0.7071067811866014
 10
1992.676480932141
 20
300.4754917121575
 30
0.0
 41
1.0
  0
SPLINE
  5
1B8
330
1F
100
AcDbEntity
  8
Crea2D$visibili$linee
100
AcDbSpline
210
0.0
220
0.0
230
1.0
 70
    12
 71
     2
 72
     8
 73
     5
 74
     0
 42
0.000000001
 43
0.0000000001
 40
0.0
 40
0.0
 40
0.0
 40
2.984513020910395
 40
2.984513020910395
 40
5.969026041820648
 40
5.969026041820648
 40
5.969026041820648
 10
1988.726480932142
 20
300.4754917121587
 30
0.0
 41
1.0
 10
1988.726480932142
 20
298.5754917121586
 30
0.0
 41
0.7071067811865237
 10
1990.626480932142
 20
298.5754917121587
 30
0.0
 41
1.0
 10
1992.526480932142
 20
298.5754917121585
 30
0.0
 41
0.7071067811864841
 10
1992.526480932142
 20
300.4754917121587
 30
0.0
 41
1.0
  0
POLYLINE
  5
1BA
330
1F
100
AcDbEntity
  8
Predefinito
100
AcDb2dPolyline
 66
     1
 10
0.0
 20
0.0
 30
0.0
  0
VERTEX
  5
1BB
330
1BA
100
AcDbEntity
  8
Predefinito
100
AcDbVertex
100
AcDb2dVertex
 10
2057.123420360144
 20
291.8101157753377
 30
0.0
  0
VERTEX
  5
1BC
330
1BA
100
AcDbEntity
  8
Predefinito
100
AcDbVertex
100
AcDb2dVertex
 10
2057.123420360144
 20
309.0718487395853
 30
0.0
  0
SEQEND
  5
1BD
330
1BA
100
AcDbEntity
  8
Predefinito
  0
POLYLINE
  5
1BE
330
1F
100
AcDbEntity
  8
Predefinito
100
AcDb2dPolyline
 66
     1
 10
0.0
 20
0.0
 30
0.0
  0
VERTEX
  5
1BF
330
1BE
100
AcDbEntity
  8
Predefinito
100
AcDbVertex
100
AcDb2dVertex
 10
1951.601431088245
 20
365.450696068456
 30
0.0
  0
VERTEX
  5
1C0
330
1BE
100
AcDbEntity
  8
Predefinito
100
AcDbVertex
100
AcDb2dVertex
 10
1951.616943493218
 20
365.4560805000524
 30
0.0
  0
SEQEND
  5
1C1
330
1BE
100
AcDbEntity
  8
Predefinito
  0
POLYLINE
  5
1C2
330
1F
100
AcDbEntity
  8
Predefinito
100
AcDb2dPolyline
 66
     1
 10
0.0
 20
0.0
 30
0.0
  0
VERTEX
  5
1C3
330
1C2
100
AcDbEntity
  8
Predefinito
100
AcDbVertex
100
AcDb2dVertex
 10
1953.852527049565
 20
366.7467952351966
 30
0.0
  0
VERTEX
  5
1C4
330
1C2
100
AcDbEntity
  8
Predefinito
100
AcDbVertex
100
AcDb2dVertex
 10
1953.912962409931
 20
366.7905912043276
 30
0.0
  0
SEQEND
  5
1C5
330
1C2
100
AcDbEntity
  8
Predefinito
  0
SPLINE
  5
1C6
330
1F
100
AcDbEntity
  8
Crea2D$visibili$linee
100
AcDbSpline
210
0.0
220
0.0
230
1.0
 70
    24
 71
     2
 72
     6
 73
     3
 74
     0
 42
0.000000001
 43
0.0000000001
 40
0.0
 40
0.0
 40
0.0
 40
1.783803985384384
 40
1.783803985384384
 40
1.783803985384384
 10
1963.986664270285
 20
363.9449187156413
 30
0.0
 10
1964.432615266631
 20
363.172508932284
 30
0.0
 10
1964.878566262977
 20
362.4000991489266
 30
0.0
  0
SPLINE
  5
1C7
330
1F
100
AcDbEntity
  8
Crea2D$visibili$linee
100
AcDbSpline
210
0.0
220
0.0
230
1.0
 70
    24
 71
     2
 72
     6
 73
     3
 74
     0
 42
0.000000001
 43
0.0000000001
 40
0.0
 40
0.0
 40
0.0
 40
17.19630993486944
 40
17.19630993486944
 40
17.19630993486944
 10
1949.001277216388
 20
245.580955079932
 30
0.0
 10
1956.447497843862
 20
241.2818775962147
 30
0.0
 10
1963.893718471335
 20
236.9828001124974
 30
0.0
  0
POLYLINE
  5
1C8
330
1F
100
AcDbEntity
  8
Predefinito
100
AcDb2dPolyline
 66
     1
 10
0.0
 20
0.0
 30
0.0
  0
VERTEX
  5
1C9
330
1C8
100
AcDbEntity
  8
Predefinito
100
AcDbVertex
100
AcDb2dVertex
 10
1951.55345299194
 20
235.5242396010173
 30
0.0
  0
VERTEX
  5
1CA
330
1C8
100
AcDbEntity
  8
Predefinito
100
AcDbVertex
100
AcDb2dVertex
 10
1951.616304560248
 20
235.4968960827022
 30
0.0
  0
SEQEND
  5
1CB
330
1C8
100
AcDbEntity
  8
Predefinito
  0
SPLINE
  5
1CC
330
1F
100
AcDbEntity
  8
Crea2D$visibili$linee
100
AcDbSpline
210
0.0
220
0.0
230
1.0
 70
    12
 71
     2
 72
     8
 73
     5
 74
     0
 42
0.000000001
 43
0.0000000001
 40
0.0
 40
0.0
 40
0.0
 40
2.98451302091027
 40
2.98451302091027
 40
5.969026041820635
 40
5.969026041820635
 40
5.969026041820635
 10
1992.526480932142
 20
300.4754917121587
 30
0.0
 41
1.0
 10
1992.526480932142
 20
302.3754917121587
 30
0.0
 41
0.7071067811864973
 10
1990.626480932142
 20
302.3754917121587
 30
0.0
 41
1.0
 10
1988.726480932142
 20
302.3754917121587
 30
0.0
 41
0.707106781186521
 10
1988.726480932142
 20
300.4754917121587
 30
0.0
 41
1.0
  0
POLYLINE
  5
1CD
330
1F
100
AcDbEntity
  8
Predefinito
100
AcDb2dPolyline
 66
     1
 10
0.0
 20
0.0
 30
0.0
  0
VERTEX
  5
1CE
330
1CD
100
AcDbEntity
  8
Predefinito
100
AcDbVertex
100
AcDb2dVertex
 10
2066.126706855258
 20
1725.885138293339
 30
0.0
  0
VERTEX
  5
1CF
330
1CD
100
AcDbEntity
  8
Predefinito
100
AcDbVertex
100
AcDb2dVertex
 10
1915.12013386503
 20
1725.885138293339
 30
0.0
  0
SEQEND
  5
1D0
330
1CD
100
AcDbEntity
  8
Predefinito
  0
POLYLINE
  5
1D1
330
1F
100
AcDbEntity
  8
Predefinito
100
AcDb2dPolyline
 66
     1
 10
0.0
 20
0.0
 30
0.0
  0
VERTEX
  5
1D2
330
1D1
100
AcDbEntity
  8
Predefinito
100
AcDbVertex
100
AcDb2dVertex
 10
2066.108548588305
 20
1759.885138293339
 30
0.0
  0
VERTEX
  5
1D3
330
1D1
100
AcDbEntity
  8
Predefinito
100
AcDbVertex
100
AcDb2dVertex
 10
1915.126049843997
 20
1759.885138293338
 30
0.0
  0
SEQEND
  5
1D4
330
1D1
100
AcDbEntity
  8
Predefinito
  0
SPLINE
  5
1D5
330
1F
100
AcDbEntity
  8
Crea2D$visibili$linee
100
AcDbSpline
210
0.0
220
0.0
230
1.0
 70
    12
 71
     3
 72
    20
 73
    16
 74
     0
 42
0.000000001
 43
0.0000000001
 40
0.0
 40
0.0
 40
0.0
 40
0.0
 40
0.1854175815249073
 40
0.1854175815249073
 40
0.1854175815249073
 40
0.2016750026241687
 40
0.2016750026241687
 40
0.2016750026241687
 40
0.3334032000380068
 40
0.3334032000380068
 40
0.3334032000380068
 40
0.4141761467956616
 40
0.4141761467956616
 40
0.4141761467956616
 40
0.4730237191467258
 40
0.4730237191467258
 40
0.4730237191467258
 40
0.4730237191467258
 10
2066.108548588305
 20
1759.885138293339
 30
0.0
 41
1.0
 10
2066.171114564283
 20
1759.885138311562
 30
0.0
 41
0.9686551653729314
 10
2066.230738865526
 20
1759.866179301798
 30
0.0
 41
0.968655165372932
 10
2066.281814750449
 20
1759.830044065128
 30
0.0
 41
1.0
 10
2066.286221112201
 20
1759.826926648237
 30
0.0
 41
1.0
 10
2066.29054316467
 20
1759.823690436576
 30
0.0
 41
1.0
 10
2066.294776112105
 20
1759.820338865998
 30
0.0
 41
1.0
 10
2066.329347719306
 20
1759.792965700442
 30
0.0
 41
0.9841173866427035
 10
2066.357156269591
 20
1759.758743328402
 30
0.0
 41
0.9841173866427034
 10
2066.376876745605
 20
1759.719302371989
 30
0.0
 41
1.0
 10
2066.388908383706
 20
1759.695239096669
 30
0.0
 41
0.99401344192289
 10
2066.397614418587
 20
1759.669783125048
 30
0.0
 41
0.9940134419228897
 10
2066.402838492696
 20
1759.643391638084
 30
0.0
 41
1.0
 10
2066.406639151364
 20
1759.624191101524
 30
0.0
 41
0.9968201410296718
 10
2066.408548588306
 20
1759.604711377166
 30
0.0
 41
0.9968201410296719
 10
2066.408543281565
 20
1759.583353982552
 30
0.0
 41
1.0
  0
POLYLINE
  5
1D6
330
1F
100
AcDbEntity
  8
Predefinito
100
AcDb2dPolyline
 66
     1
 10
0.0
 20
0.0
 30
0.0
  0
VERTEX
  5
1D7
330
1D6
100
AcDbEntity
  8
Predefinito
100
AcDbVertex
100
AcDb2dVertex
 10
2066.403339202001
 20
1757.584065488672
 30
0.0
  0
VERTEX
  5
1D8
330
1D6
100
AcDbEntity
  8
Predefinito
100
AcDbVertex
100
AcDb2dVertex
 10
2066.402497277057
 20
1758.837335646541
 30
0.0
  0
SEQEND
  5
1D9
330
1D6
100
AcDbEntity
  8
Predefinito
  0
SPLINE
  5
1DA
330
1F
100
AcDbEntity
  8
Crea2D$visibili$linee
100
AcDbSpline
210
0.0
220
0.0
230
1.0
 70
    24
 71
     2
 72
     6
 73
     3
 74
     0
 42
0.000000001
 43
0.0000000001
 40
0.0
 40
0.0
 40
0.0
 40
482.2065262637634
 40
482.2065262637634
 40
482.2065262637634
 10
1992.526480932142
 20
1243.678612029575
 30
0.0
 10
1992.526480932142
 20
1484.781875161457
 30
0.0
 10
1992.526480932142
 20
1725.885138293339
 30
0.0
  0
SPLINE
  5
1DB
330
1F
100
AcDbEntity
  8
Crea2D$visibili$linee
100
AcDbSpline
210
0.0
220
0.0
230
1.0
 70
    24
 71
     2
 72
     6
 73
     3
 74
     0
 42
0.000000001
 43
0.0000000001
 40
0.0
 40
0.0
 40
0.0
 40
0.2999999999999545
 40
0.2999999999999545
 40
0.2999999999999545
 10
1986.97648093214
 20
1243.678612029575
 30
0.0
 10
1986.97648093214
 20
1243.528612029575
 30
0.0
 10
1986.97648093214
 20
1243.378612029575
 30
0.0
  0
SPLINE
  5
1DC
330
1F
100
AcDbEntity
  8
Crea2D$visibili$linee
100
AcDbSpline
210
0.0
220
0.0
230
1.0
 70
    24
 71
     2
 72
     6
 73
     3
 74
     0
 42
0.000000001
 43
0.0000000001
 40
0.0
 40
0.0
 40
0.0
 40
7.299100784881773
 40
7.299100784881773
 40
7.299100784881773
 10
1994.275581717022
 20
1243.678612029575
 30
0.0
 10
1990.626031324581
 20
1243.678612029575
 30
0.0
 10
1986.97648093214
 20
1243.678612029575
 30
0.0
  0
SPLINE
  5
1DD
330
1F
100
AcDbEntity
  8
Crea2D$visibili$linee
100
AcDbSpline
210
0.0
220
0.0
230
1.0
 70
    24
 71
     2
 72
     6
 73
     3
 74
     0
 42
0.000000001
 43
0.0000000001
 40
0.0
 40
0.0
 40
0.0
 40
0.3140488926590024
 40
0.3140488926590024
 40
0.3140488926590024
 10
1985.626480932141
 20
1236.378612029575
 30
0.0
 10
1985.469456485811
 20
1236.378612029575
 30
0.0
 10
1985.312432039482
 20
1236.378612029575
 30
0.0
  0
SPLINE
  5
1DE
330
1F
100
AcDbEntity
  8
Crea2D$visibili$linee
100
AcDbSpline
210
0.0
220
0.0
230
1.0
 70
    24
 71
     2
 72
     6
 73
     3
 74
     0
 42
0.000000001
 43
0.0000000001
 40
0.0
 40
0.0
 40
0.0
 40
5.999260919080598
 40
5.999260919080598
 40
5.999260919080598
 10
1985.312432039482
 20
1236.377872948656
 30
0.0
 10
1985.312432039482
 20
1233.378242489116
 30
0.0
 10
1985.312432039482
 20
1230.378612029575
 30
0.0
  0
SPLINE
  5
1DF
330
1F
100
AcDbEntity
  8
Crea2D$visibili$linee
100
AcDbSpline
210
0.0
220
0.0
230
1.0
 70
    24
 71
     2
 72
     6
 73
     3
 74
     0
 42
0.000000001
 43
0.0000000001
 40
0.0
 40
0.0
 40
0.0
 40
4.999384099233794
 40
4.999384099233794
 40
4.999384099233794
 10
1984.812432039482
 20
1235.877996128809
 30
0.0
 10
1984.812432039482
 20
1233.378304079192
 30
0.0
 10
1984.812432039482
 20
1230.878612029575
 30
0.0
  0
SPLINE
  5
1E0
330
1F
100
AcDbEntity
  8
Crea2D$visibili$linee
100
AcDbSpline
210
0.0
220
0.0
230
1.0
 70
    24
 71
     2
 72
     6
 73
     3
 74
     0
 42
0.000000001
 43
0.0000000001
 40
0.0
 40
0.0
 40
0.0
 40
0.7071067811865476
 40
0.7071067811865476
 40
0.7071067811865476
 10
1984.812432039482
 20
1230.878612029575
 30
0.0
 10
1985.062432039482
 20
1230.628612029575
 30
0.0
 10
1985.312432039482
 20
1230.378612029575
 30
0.0
  0
SPLINE
  5
1E1
330
1F
100
AcDbEntity
  8
Crea2D$visibili$linee
100
AcDbSpline
210
0.0
220
0.0
230
1.0
 70
    24
 71
     2
 72
     6
 73
     3
 74
     0
 42
0.000000001
 43
0.0000000001
 40
0.0
 40
0.0
 40
0.0
 40
5.0
 40
5.0
 40
5.0
 10
1985.626480932141
 20
1043.378612029575
 30
0.0
 10
1988.126480932141
 20
1043.378612029575
 30
0.0
 10
1990.626480932141
 20
1043.378612029575
 30
0.0
  0
SPLINE
  5
1E2
330
1F
100
AcDbEntity
  8
Crea2D$visibili$linee
100
AcDbSpline
210
0.0
220
0.0
230
1.0
 70
    24
 71
     2
 72
     6
 73
     3
 74
     0
 42
0.000000001
 43
0.0000000001
 40
0.0
 40
0.0
 40
0.0
 40
5.0
 40
5.0
 40
5.0
 10
1990.626480932141
 20
1043.378612029575
 30
0.0
 10
1993.126480932141
 20
1043.378612029575
 30
0.0
 10
1995.626480932141
 20
1043.378612029575
 30
0.0
  0
SPLINE
  5
1E3
330
1F
100
AcDbEntity
  8
Crea2D$visibili$linee
100
AcDbSpline
210
0.0
220
0.0
230
1.0
 70
    24
 71
     2
 72
     6
 73
     3
 74
     0
 42
0.000000001
 43
0.0000000001
 40
0.0
 40
0.0
 40
0.0
 40
3.799063830835507
 40
3.799063830835507
 40
3.799063830835507
 10
1990.626480932141
 20
1243.378612029575
 30
0.0
 10
1992.526012847558
 20
1243.378612029575
 30
0.0
 10
1994.425544762976
 20
1243.378612029575
 30
0.0
  0
SPLINE
  5
1E4
330
1F
100
AcDbEntity
  8
Crea2D$visibili$linee
100
AcDbSpline
210
0.0
220
0.0
230
1.0
 70
    28
 71
     2
 72
     8
 73
     5
 74
     0
 42
0.000000001
 43
0.0000000001
 40
17.81381209355838
 40
17.81381209355838
 40
17.81381209355838
 40
17.90707812546182
 40
17.90707812546182
 40
23.87610416728243
 40
23.87610416728243
 40
23.87610416728243
 10
1986.827417101305
 20
1243.378612029575
 30
0.0
 41
0.9909901011790783
 10
1986.826480932141
 20
1243.378612029575
 30
0.0
 41
0.9954235434560398
 10
1986.826480932141
 20
1243.378612029575
 30
0.0
 41
1.0
 10
1986.82648093214
 20
1243.378612029576
 30
0.0
 41
0.7071067811865476
 10
1990.626480932141
 20
1243.378612029575
 30
0.0
 41
1.0
  0
SPLINE
  5
1E5
330
1F
100
AcDbEntity
  8
Crea2D$visibili$linee
100
AcDbSpline
210
0.0
220
0.0
230
1.0
 70
    24
 71
     2
 72
     6
 73
     3
 74
     0
 42
0.000000001
 43
0.0000000001
 40
0.0
 40
0.0
 40
0.0
 40
40.14159363604654
 40
40.14159363604654
 40
40.14159363604654
 10
2030.768074568187
 20
1001.336217159065
 30
0.0
 10
2010.697277750164
 20
1001.336217159065
 30
0.0
 10
1990.626480932141
 20
1001.336217159065
 30
0.0
  0
SPLINE
  5
1E6
330
1F
100
AcDbEntity
  8
Crea2D$visibili$linee
100
AcDbSpline
210
0.0
220
0.0
230
1.0
 70
    12
 71
     2
 72
     6
 73
     3
 74
     0
 42
0.000000001
 43
0.0000000001
 40
2.449435404480202
 40
2.449435404480202
 40
2.449435404480202
 40
64.87526686081924
 40
64.87526686081924
 40
64.87526686081924
 10
1950.625716728416
 20
1001.337232574532
 30
0.0
 41
1.0
 10
1984.664237006567
 20
1001.623505517649
 30
0.0
 41
1.0
 10
1985.626480932137
 20
1043.378612029575
 30
0.0
 41
1.0
  0
SPLINE
  5
1E7
330
1F
100
AcDbEntity
  8
Crea2D$visibili$linee
100
AcDbSpline
210
0.0
220
0.0
230
1.0
 70
    24
 71
     2
 72
     6
 73
     3
 74
     0
 42
0.000000001
 43
0.0000000001
 40
0.0
 40
0.0
 40
0.0
 40
40.14317851981559
 40
40.14317851981559
 40
40.14317851981559
 10
1950.483302412325
 20
1001.336217159065
 30
0.0
 10
1970.554891672233
 20
1001.336217159065
 30
0.0
 10
1990.626480932141
 20
1001.336217159065
 30
0.0
  0
SPLINE
  5
1E8
330
1F
100
AcDbEntity
  8
Crea2D$visibili$linee
100
AcDbSpline
210
0.0
220
0.0
230
1.0
 70
    28
 71
     2
 72
     8
 73
     5
 74
     0
 42
0.000000001
 43
0.0000000001
 40
211.7813875754916
 40
211.7813875754916
 40
211.7813875754916
 40
212.0575041173111
 40
212.0575041173111
 40
282.7433388230814
 40
282.7433388230814
 40
282.7433388230814
 10
1945.627169146288
 20
985.378612029586
 30
0.0
 41
0.9977207101197072
 10
1945.626480932141
 20
985.3786120295862
 30
0.0
 41
0.9988558858640099
 10
1945.626480932141
 20
985.3786120295861
 30
0.0
 41
1.0
 10
1945.626480932141
 20
985.3786120295863
 30
0.0
 41
0.7071067811865476
 10
1990.626480932141
 20
985.3786120295861
 30
0.0
 41
1.0
  0
SPLINE
  5
1E9
330
1F
100
AcDbEntity
  8
Crea2D$visibili$linee
100
AcDbSpline
210
0.0
220
0.0
230
1.0
 70
    24
 71
     2
 72
     6
 73
     3
 74
     0
 42
0.000000001
 43
0.0000000001
 40
0.0
 40
0.0
 40
0.0
 40
44.99931178585268
 40
44.99931178585268
 40
44.99931178585268
 10
1990.626480932141
 20
985.3786120295861
 30
0.0
 10
2013.126136825067
 20
985.3786120295862
 30
0.0
 10
2035.625792717993
 20
985.3786120295863
 30
0.0
  0
SPLINE
  5
1EA
330
1F
100
AcDbEntity
  8
Crea2D$visibili$linee
100
AcDbSpline
210
0.0
220
0.0
230
1.0
 70
    24
 71
     2
 72
     6
 73
     3
 74
     0
 42
0.000000001
 43
0.0000000001
 40
0.0
 40
0.0
 40
0.0
 40
42.49935001997193
 40
42.49935001997193
 40
42.49935001997193
 10
1990.626480932141
 20
983.3786120295861
 30
0.0
 10
2011.876155942126
 20
983.3786120295861
 30
0.0
 10
2033.125830952112
 20
983.3786120295861
 30
0.0
  0
SPLINE
  5
1EB
330
1F
100
AcDbEntity
  8
Crea2D$visibili$linee
100
AcDbSpline
210
0.0
220
0.0
230
1.0
 70
    28
 71
     2
 72
     8
 73
     5
 74
     0
 42
0.000000001
 43
0.0000000001
 40
200.0157549324088
 40
200.0157549324088
 40
200.0157549324088
 40
200.2765316663493
 40
200.2765316663493
 40
267.0353755551324
 40
267.0353755551324
 40
267.0353755551324
 10
1948.127130912169
 20
983.378612029586
 30
0.0
 41
0.9977207101197074
 10
1948.126480932141
 20
983.3786120295858
 30
0.0
 41
0.99885588586401
 10
1948.126480932141
 20
983.3786120295861
 30
0.0
 41
1.0
 10
1948.126480932141
 20
983.3786120295863
 30
0.0
 41
0.7071067811865476
 10
1990.626480932141
 20
983.3786120295861
 30
0.0
 41
1.0
  0
SPLINE
  5
1EC
330
1F
100
AcDbEntity
  8
Crea2D$visibili$linee
100
AcDbSpline
210
0.0
220
0.0
230
1.0
 70
    12
 71
     2
 72
     6
 73
     3
 74
     0
 42
0.000000001
 43
0.0000000001
 40
0.0
 40
0.0
 40
0.0
 40
0.7956787835543538
 40
0.7956787835543538
 40
0.7956787835543538
 10
2095.242366841155
 20
564.4227418861699
 30
0.0
 41
1.0
 10
2095.744339329246
 20
564.448381431997
 30
0.0
 41
0.7147115268665678
 10
2095.729561001195
 20
564.9507909921481
 30
0.0
 41
1.0
  0
SPLINE
  5
1ED
330
1F
100
AcDbEntity
  8
Crea2D$visibili$linee
100
AcDbSpline
210
0.0
220
0.0
230
1.0
 70
    24
 71
     2
 72
     6
 73
     3
 74
     0
 42
0.000000001
 43
0.0000000001
 40
0.0
 40
0.0
 40
0.0
 40
209.832900109934
 40
209.832900109934
 40
209.832900109934
 10
1885.896665144602
 20
564.9930400382705
 30
0.0
 10
1990.813113072898
 20
564.9719155152093
 30
0.0
 10
2095.729561001195
 20
564.9507909921481
 30
0.0
  0
SPLINE
  5
1EE
330
1F
100
AcDbEntity
  8
Crea2D$visibili$linee
100
AcDbSpline
210
0.0
220
0.0
230
1.0
 70
    24
 71
     2
 72
     6
 73
     3
 74
     0
 42
0.000000001
 43
0.0000000001
 40
0.0
 40
0.0
 40
0.0
 40
0.0560499174357568
 40
0.0560499174357568
 40
0.0560499174357568
 10
1891.042219589233
 20
564.9367878594119
 30
0.0
 10
1891.037409260049
 20
564.9643968985889
 30
0.0
 10
1891.032598930865
 20
564.992005937766
 30
0.0
  0
SPLINE
  5
1EF
330
1F
100
AcDbEntity
  8
Crea2D$visibili$linee
100
AcDbSpline
210
0.0
220
0.0
230
1.0
 70
    24
 71
     2
 72
     6
 73
     3
 74
     0
 42
0.000000001
 43
0.0000000001
 40
0.0
 40
0.0
 40
0.0
 40
90.55876341722092
 40
90.55876341722092
 40
90.55876341722092
 10
2036.089611663857
 20
983.3052406001045
 30
0.0
 10
1990.810229955247
 20
983.3052406001044
 30
0.0
 10
1945.530848246636
 20
983.3052406001043
 30
0.0
  0
SPLINE
  5
1F0
330
1F
100
AcDbEntity
  8
Crea2D$visibili$linee
100
AcDbSpline
210
0.0
220
0.0
230
1.0
 70
    12
 71
     2
 72
     6
 73
     3
 74
     0
 42
0.000000001
 43
0.0000000001
 40
0.0
 40
0.0
 40
0.0
 40
0.2268678056230582
 40
0.2268678056230582
 40
0.2268678056230582
 10
1945.530848246636
 20
983.3052406001043
 30
0.0
 41
1.0
 10
1945.386503111809
 20
983.3101479979007
 30
0.0
 41
0.707106781185435
 10
1945.381595714013
 20
983.1658028630738
 30
0.0
 41
1.0
  0
SPLINE
  5
1F1
330
1F
100
AcDbEntity
  8
Crea2D$visibili$linee
100
AcDbSpline
210
0.0
220
0.0
230
1.0
 70
    24
 71
     2
 72
     6
 73
     3
 74
     0
 42
0.000000001
 43
0.0000000001
 40
0.0
 40
0.0
 40
0.0
 40
1.152544062551866
 40
1.152544062551866
 40
1.152544062551866
 10
2094.090092301662
 20
564.3978179667172
 30
0.0
 10
2094.666229571409
 20
564.4102799264435
 30
0.0
 10
2095.242366841155
 20
564.4227418861699
 30
0.0
  0
SPLINE
  5
1F2
330
1F
100
AcDbEntity
  8
Crea2D$visibili$linee
100
AcDbSpline
210
0.0
220
0.0
230
1.0
 70
    24
 71
     2
 72
     6
 73
     3
 74
     0
 42
0.000000001
 43
0.0000000001
 40
0.0
 40
0.0
 40
0.0
 40
422.3824292431883
 40
422.3824292431883
 40
422.3824292431883
 10
1945.381595714013
 20
983.1658028630736
 30
0.0
 10
1915.639130429308
 20
774.0794214506719
 30
0.0
 10
1885.896665144602
 20
564.9930400382702
 30
0.0
  0
SPLINE
  5
1F3
330
1F
100
AcDbEntity
  8
Crea2D$visibili$linee
100
AcDbSpline
210
0.0
220
0.0
230
1.0
 70
    24
 71
     2
 72
     6
 73
     3
 74
     0
 42
0.000000001
 43
0.0000000001
 40
0.0
 40
0.0
 40
0.0
 40
482.2065262637632
 40
482.2065262637632
 40
482.2065262637632
 10
1988.726480932142
 20
1243.678612029575
 30
0.0
 10
1988.726480932142
 20
1484.781875161457
 30
0.0
 10
1988.726480932142
 20
1725.885138293338
 30
0.0
  0
SPLINE
  5
1F4
330
1F
100
AcDbEntity
  8
Crea2D$visibili$linee
100
AcDbSpline
210
0.0
220
0.0
230
1.0
 70
    24
 71
     2
 72
     6
 73
     3
 74
     0
 42
0.000000001
 43
0.0000000001
 40
0.0
 40
0.0
 40
0.0
 40
0.2999999999999545
 40
0.2999999999999545
 40
0.2999999999999545
 10
1994.276480932141
 20
1243.678612029575
 30
0.0
 10
1994.276480932141
 20
1243.528612029575
 30
0.0
 10
1994.276480932141
 20
1243.378612029575
 30
0.0
  0
SPLINE
  5
1F5
330
1F
100
AcDbEntity
  8
Crea2D$visibili$linee
100
AcDbSpline
210
0.0
220
0.0
230
1.0
 70
    24
 71
     2
 72
     6
 73
     3
 74
     0
 42
0.000000001
 43
0.0000000001
 40
0.0
 40
0.0
 40
0.0
 40
33.69866518126165
 40
33.69866518126165
 40
33.69866518126165
 10
1915.12013386503
 20
1725.885138293339
 30
0.0
 10
1914.973097566054
 20
1742.733829313014
 30
0.0
 10
1914.826061267078
 20
1759.582520332689
 30
0.0
  0
SPLINE
  5
1F6
330
1F
100
AcDbEntity
  8
Crea2D$visibili$linee
100
AcDbSpline
210
0.0
220
0.0
230
1.0
 70
    24
 71
     2
 72
     6
 73
     3
 74
     0
 42
0.000000001
 43
0.0000000001
 40
0.0
 40
0.0
 40
0.0
 40
31.70013423931019
 40
31.70013423931019
 40
31.70013423931019
 10
2066.403339202001
 20
1757.584065488672
 30
0.0
 10
2066.26502302863
 20
1741.734601891005
 30
0.0
 10
2066.126706855258
 20
1725.885138293339
 30
0.0
  0
SPLINE
  5
1F7
330
1F
100
AcDbEntity
  8
Crea2D$visibili$linee
100
AcDbSpline
210
0.0
220
0.0
230
1.0
 70
    12
 71
     2
 72
     8
 73
     5
 74
     0
 42
0.000000001
 43
0.0000000001
 40
0.0
 40
0.0
 40
0.0
 40
0.2356194490190992
 40
0.2356194490190992
 40
0.4712389028189081
 40
0.4712389028189081
 40
0.4712389028189081
 10
1914.826049843997
 20
1759.585138293339
 30
0.0
 41
1.0
 10
1914.826049843997
 20
1759.70940236205
 30
0.0
 41
0.9238795325108092
 10
1914.913917809641
 20
1759.797270327695
 30
0.0
 41
1.0
 10
1915.001785767389
 20
1759.885138312401
 30
0.0
 41
0.9238794738040997
 10
1915.126049843997
 20
1759.885138293338
 30
0.0
 41
1.0
  0
SPLINE
  5
1F8
330
1F
100
AcDbEntity
  8
Crea2D$visibili$linee
100
AcDbSpline
210
0.0
220
0.0
230
1.0
 70
    24
 71
     2
 72
     6
 73
     3
 74
     0
 42
0.000000001
 43
0.0000000001
 40
0.0
 40
0.0
 40
0.0
 40
0.0025978801315116
 40
0.0025978801315116
 40
0.0025978801315116
 10
2066.400093285343
 20
1758.250602248852
 30
0.0
 10
2066.400093219539
 20
1758.249303308788
 30
0.0
 10
2066.400093153737
 20
1758.248004368724
 30
0.0
  0
SPLINE
  5
1F9
330
1F
100
AcDbEntity
  8
Crea2D$visibili$linee
100
AcDbSpline
210
0.0
220
0.0
230
1.0
 70
    12
 71
     3
 72
     8
 73
     4
 74
     0
 42
0.000000001
 43
0.0000000001
 40
0.0
 40
0.0
 40
0.0
 40
0.0
 40
0.745851729057539
 40
0.745851729057539
 40
0.745851729057539
 40
0.745851729057539
 10
2066.408538748912
 20
1759.582708573478
 30
0.0
 41
1.0
 10
2066.406526423002
 20
1759.334252781207
 30
0.0
 41
1.0
 10
2066.404512599191
 20
1759.085795138876
 30
0.0
 41
1.0
 10
2066.402497277057
 20
1758.837335646541
 30
0.0
 41
1.0
  0
SPLINE
  5
1FA
330
1F
100
AcDbEntity
  8
Crea2D$visibili$linee
100
AcDbSpline
210
0.0
220
0.0
230
1.0
 70
    24
 71
     2
 72
     6
 73
     3
 74
     0
 42
0.000000001
 43
0.0000000001
 40
0.0
 40
0.0
 40
0.0
 40
0.3140488926588318
 40
0.3140488926588318
 40
0.3140488926588318
 10
1985.626480932141
 20
1230.378612029575
 30
0.0
 10
1985.469456485811
 20
1230.378612029575
 30
0.0
 10
1985.312432039482
 20
1230.378612029575
 30
0.0
  0
SPLINE
  5
1FB
330
1F
100
AcDbEntity
  8
Crea2D$visibili$linee
100
AcDbSpline
210
0.0
220
0.0
230
1.0
 70
    24
 71
     2
 72
     6
 73
     3
 74
     0
 42
0.000000001
 43
0.0000000001
 40
0.0
 40
0.0
 40
0.0
 40
0.7065841720567535
 40
0.7065841720567535
 40
0.7065841720567535
 10
1984.812432039482
 20
1235.878612029575
 30
0.0
 10
1985.062247269252
 20
1236.128427259346
 30
0.0
 10
1985.312062499022
 20
1236.378242489116
 30
0.0
  0
SPLINE
  5
1FC
330
1F
100
AcDbEntity
  8
Crea2D$visibili$linee
100
AcDbSpline
210
0.0
220
0.0
230
1.0
 70
    24
 71
     2
 72
     6
 73
     3
 74
     0
 42
0.000000001
 43
0.0000000001
 40
0.0
 40
0.0
 40
0.0
 40
187.0000000000002
 40
187.0000000000002
 40
187.0000000000002
 10
1985.626480932141
 20
1043.378612029575
 30
0.0
 10
1985.626480932141
 20
1136.878612029575
 30
0.0
 10
1985.626480932141
 20
1230.378612029576
 30
0.0
  0
SPLINE
  5
1FD
330
1F
100
AcDbEntity
  8
Crea2D$visibili$linee
100
AcDbSpline
210
0.0
220
0.0
230
1.0
 70
    24
 71
     2
 72
     6
 73
     3
 74
     0
 42
0.000000001
 43
0.0000000001
 40
0.0
 40
0.0
 40
0.0
 40
3.333333333332803
 40
3.333333333332803
 40
3.333333333332803
 10
1985.626480932141
 20
1236.378612029576
 30
0.0
 10
1985.626480932141
 20
1238.045278696242
 30
0.0
 10
1985.626480932141
 20
1239.711945362908
 30
0.0
  0
SPLINE
  5
1FE
330
1F
100
AcDbEntity
  8
Crea2D$visibili$linee
100
AcDbSpline
210
0.0
220
0.0
230
1.0
 70
    24
 71
     2
 72
     6
 73
     3
 74
     0
 42
0.000000001
 43
0.0000000001
 40
0.0
 40
0.0
 40
0.0
 40
196.333333333333
 40
196.333333333333
 40
196.333333333333
 10
1995.626480932141
 20
1043.378612029575
 30
0.0
 10
1995.626480932141
 20
1141.545278696242
 30
0.0
 10
1995.626480932141
 20
1239.711945362908
 30
0.0
  0
SPLINE
  5
1FF
330
1F
100
AcDbEntity
  8
Crea2D$visibili$linee
100
AcDbSpline
210
0.0
220
0.0
230
1.0
 70
    24
 71
     2
 72
     6
 73
     3
 74
     0
 42
0.000000001
 43
0.0000000001
 40
0.0
 40
0.0
 40
0.0
 40
3.533333333332897
 40
3.533333333332897
 40
3.533333333332897
 10
1994.426480932141
 20
1243.378612029575
 30
0.0
 10
1994.999453905114
 20
1241.707440858404
 30
0.0
 10
1995.572426878086
 20
1240.036269687233
 30
0.0
  0
SPLINE
  5
200
330
1F
100
AcDbEntity
  8
Crea2D$visibili$linee
100
AcDbSpline
210
0.0
220
0.0
230
1.0
 70
    24
 71
     2
 72
     6
 73
     3
 74
     0
 42
0.000000001
 43
0.0000000001
 40
0.0
 40
0.0
 40
0.0
 40
3.533333333332897
 40
3.533333333332897
 40
3.533333333332897
 10
1986.826480932141
 20
1243.378612029575
 30
0.0
 10
1986.253507959168
 20
1241.707440858404
 30
0.0
 10
1985.680534986195
 20
1240.036269687233
 30
0.0
  0
SPLINE
  5
201
330
1F
100
AcDbEntity
  8
Crea2D$visibili$linee
100
AcDbSpline
210
0.0
220
0.0
230
1.0
 70
    12
 71
     2
 72
     6
 73
     3
 74
     0
 42
0.000000001
 43
0.0000000001
 40
0.0
 40
0.0
 40
0.0
 40
0.3302973548298366
 40
0.3302973548298366
 40
0.3302973548298366
 10
1995.626480932141
 20
1239.711945362908
 30
0.0
 41
1.0
 10
1995.626480932141
 20
1239.878612029575
 30
0.0
 41
0.9863939238317563
 10
1995.572426878086
 20
1240.036269687233
 30
0.0
 41
1.0
  0
SPLINE
  5
202
330
1F
100
AcDbEntity
  8
Crea2D$visibili$linee
100
AcDbSpline
210
0.0
220
0.0
230
1.0
 70
    12
 71
     2
 72
     6
 73
     3
 74
     0
 42
0.000000001
 43
0.0000000001
 40
0.0
 40
0.0
 40
0.0
 40
0.3302973548297972
 40
0.3302973548297972
 40
0.3302973548297972
 10
1985.626480932141
 20
1239.711945362908
 30
0.0
 41
1.0
 10
1985.626480932141
 20
1239.878612029575
 30
0.0
 41
0.9863939238320836
 10
1985.680534986195
 20
1240.036269687233
 30
0.0
 41
1.0
  0
SPLINE
  5
203
330
1F
100
AcDbEntity
  8
Crea2D$visibili$linee
100
AcDbSpline
210
0.0
220
0.0
230
1.0
 70
    24
 71
     2
 72
     6
 73
     3
 74
     0
 42
0.000000001
 43
0.0000000001
 40
0.0
 40
0.0
 40
0.0
 40
0.0003097989800379
 40
0.0003097989800379
 40
0.0003097989800379
 10
2030.769045537204
 20
1001.336220755283
 30
0.0
 10
2030.768890640378
 20
1001.336221663926
 30
0.0
 10
2030.768735743553
 20
1001.336222572569
 30
0.0
  0
SPLINE
  5
204
330
1F
100
AcDbEntity
  8
Crea2D$visibili$linee
100
AcDbSpline
210
0.0
220
0.0
230
1.0
 70
    12
 71
     2
 72
     8
 73
     5
 74
     0
 42
0.000000001
 43
0.0000000001
 40
0.1284183626715066
 40
0.1284183626715066
 40
0.1284183626715066
 40
30.78876440175985
 40
30.78876440175985
 40
65.41451280022815
 40
65.41451280022815
 40
65.41451280022815
 10
2030.627245365644
 20
1001.337232572599
 30
0.0
 41
0.5
 10
2013.643552520541
 20
1001.480069843518
 30
0.0
 41
0.5
 10
2004.894402990938
 20
1011.946829391103
 30
0.0
 41
0.5
 10
1996.108608360985
 20
1022.45742810873
 30
0.0
 41
0.5
 10
1995.626480932144
 20
1043.378612029575
 30
0.0
 41
0.5
  0
SPLINE
  5
205
330
1F
100
AcDbEntity
  8
Crea2D$visibili$linee
100
AcDbSpline
210
0.0
220
0.0
230
1.0
 70
    24
 71
     2
 72
     6
 73
     3
 74
     0
 42
0.000000001
 43
0.0000000001
 40
0.0
 40
0.0
 40
0.0
 40
13.51509541400525
 40
13.51509541400525
 40
13.51509541400525
 10
2033.72217367533
 20
998.7589722285609
 30
0.0
 10
2034.674320472123
 20
992.06884013048
 30
0.0
 10
2035.626467268917
 20
985.3787080323991
 30
0.0
  0
SPLINE
  5
206
330
1F
100
AcDbEntity
  8
Crea2D$visibili$linee
100
AcDbSpline
210
0.0
220
0.0
230
1.0
 70
    24
 71
     2
 72
     6
 73
     3
 74
     0
 42
0.000000001
 43
0.0000000001
 40
0.0
 40
0.0
 40
0.0
 40
13.51509541400525
 40
13.51509541400525
 40
13.51509541400525
 10
1947.530788188951
 20
998.7589722285609
 30
0.0
 10
1946.578641392158
 20
992.06884013048
 30
0.0
 10
1945.626494595364
 20
985.3787080323991
 30
0.0
  0
SPLINE
  5
207
330
1F
100
AcDbEntity
  8
Crea2D$visibili$linee
100
AcDbSpline
210
0.0
220
0.0
230
1.0
 70
    24
 71
     2
 72
     6
 73
     3
 74
     0
 42
0.000000001
 43
0.0000000001
 40
0.0
 40
0.0
 40
0.0
 40
2.0
 40
2.0
 40
2.0
 10
2033.126480932141
 20
983.3786120295861
 30
0.0
 10
2033.126480932141
 20
984.3786120295861
 30
0.0
 10
2033.126480932141
 20
985.3786120295861
 30
0.0
  0
SPLINE
  5
208
330
1F
100
AcDbEntity
  8
Crea2D$visibili$linee
100
AcDbSpline
210
0.0
220
0.0
230
1.0
 70
    24
 71
     2
 72
     6
 73
     3
 74
     0
 42
0.000000001
 43
0.0000000001
 40
0.0
 40
0.0
 40
0.0
 40
2.0
 40
2.0
 40
2.0
 10
1948.126480932141
 20
983.3786120295861
 30
0.0
 10
1948.126480932141
 20
984.3786120295861
 30
0.0
 10
1948.126480932141
 20
985.3786120295861
 30
0.0
  0
SPLINE
  5
209
330
1F
100
AcDbEntity
  8
Crea2D$visibili$linee
100
AcDbSpline
210
0.0
220
0.0
230
1.0
 70
    24
 71
     2
 72
     6
 73
     3
 74
     0
 42
0.000000001
 43
0.0000000001
 40
0.0
 40
0.0
 40
0.0
 40
0.0006611437366928
 40
0.0006611437366928
 40
0.0006611437366928
 10
2030.768074568193
 20
1001.336217159065
 30
0.0
 10
2030.768405140062
 20
1001.336217159065
 30
0.0
 10
2030.76873571193
 20
1001.336217159065
 30
0.0
  0
SPLINE
  5
20A
330
1F
100
AcDbEntity
  8
Crea2D$visibili$linee
100
AcDbSpline
210
0.0
220
0.0
230
1.0
 70
    12
 71
     2
 72
     8
 73
     5
 74
     0
 42
0.000000001
 43
0.0000000001
 40
0.0
 40
0.0
 40
0.0
 40
2.293715371073322
 40
2.293715371073322
 40
4.587430742146683
 40
4.587430742146683
 40
4.587430742146683
 10
2030.769659451956
 20
1001.336217159065
 30
0.0
 41
1.0
 10
2032.145865107278
 20
1001.328163121699
 30
0.0
 41
1.067897277366365
 10
2032.837063194854
 20
1000.724817419559
 30
0.0
 41
1.067897277366365
 10
2033.528261282431
 20
1000.121471717419
 30
0.0
 41
1.067897277366365
 10
2033.72217367533
 20
998.7589722285609
 30
0.0
 41
0.9999999999999999
  0
SPLINE
  5
20B
330
1F
100
AcDbEntity
  8
Crea2D$visibili$linee
100
AcDbSpline
210
0.0
220
0.0
230
1.0
 70
    12
 71
     2
 72
     8
 73
     5
 74
     0
 42
0.000000001
 43
0.0000000001
 40
0.0
 40
0.0
 40
0.0
 40
2.293715371073322
 40
2.293715371073322
 40
4.587430742146687
 40
4.587430742146687
 40
4.587430742146687
 10
1950.483302412325
 20
1001.336217159065
 30
0.0
 41
1.0
 10
1949.107096757003
 20
1001.328163121699
 30
0.0
 41
1.067897277366365
 10
1948.415898669427
 20
1000.724817419559
 30
0.0
 41
1.067897277366365
 10
1947.72470058185
 20
1000.121471717419
 30
0.0
 41
1.067897277366365
 10
1947.530788188952
 20
998.7589722285609
 30
0.0
 41
0.9999999999999999
  0
SPLINE
  5
20C
330
1F
100
AcDbEntity
  8
Crea2D$visibili$linee
100
AcDbSpline
210
0.0
220
0.0
230
1.0
 70
    12
 71
     2
 72
     6
 73
     3
 74
     0
 42
0.000000001
 43
0.0000000001
 40
0.0
 40
0.0
 40
0.0
 40
0.7745847538417728
 40
0.7745847538417728
 40
0.7745847538417728
 10
2095.242366841144
 20
564.4227418866685
 30
0.0
 41
1.0
 10
2095.731554274508
 20
564.4333231045335
 30
0.0
 41
0.714711526867224
 10
2095.731554274509
 20
564.9226249614001
 30
0.0
 41
1.0
  0
SPLINE
  5
20D
330
1F
100
AcDbEntity
  8
Crea2D$visibili$linee
100
AcDbSpline
210
0.0
220
0.0
230
1.0
 70
    12
 71
     2
 72
     6
 73
     3
 74
     0
 42
0.000000001
 43
0.0000000001
 40
0.0
 40
0.0
 40
0.0
 40
0.7745847538417528
 40
0.7745847538417528
 40
0.7745847538417528
 10
1886.380869394683
 20
564.4227418866685
 30
0.0
 41
1.0
 10
1885.891681961318
 20
564.4333231045338
 30
0.0
 41
0.7147115268669889
 10
1885.891681961318
 20
564.9226249614001
 30
0.0
 41
1.0
  0
SPLINE
  5
20E
330
1F
100
AcDbEntity
  8
Crea2D$visibili$linee
100
AcDbSpline
210
0.0
220
0.0
230
1.0
 70
    24
 71
     2
 72
     6
 73
     3
 74
     0
 42
0.000000001
 43
0.0000000001
 40
0.0
 40
0.0
 40
0.0
 40
0.0152712418747263
 40
0.0152712418747263
 40
0.0152712418747263
 10
2090.581016646582
 20
564.9367878594139
 30
0.0
 10
2090.582342558241
 20
564.9443074781124
 30
0.0
 10
2090.583668469901
 20
564.9518270968108
 30
0.0
  0
SPLINE
  5
20F
330
1F
100
AcDbEntity
  8
Crea2D$visibili$linee
100
AcDbSpline
210
0.0
220
0.0
230
1.0
 70
    12
 71
     2
 72
     6
 73
     3
 74
     0
 42
0.000000001
 43
0.0000000001
 40
0.0
 40
0.0
 40
0.0
 40
0.1222273096900687
 40
0.1222273096900687
 40
0.1222273096900687
 10
1945.489566510385
 20
983.2994481527915
 30
0.0
 41
1.0
 10
1945.427330505114
 20
983.2816320931813
 30
0.0
 41
0.9181444515238353
 10
1945.397601299653
 20
983.2241263832502
 30
0.0
 41
1.0
  0
SPLINE
  5
210
330
1F
100
AcDbEntity
  8
Crea2D$visibili$linee
100
AcDbSpline
210
0.0
220
0.0
230
1.0
 70
    12
 71
     2
 72
     6
 73
     3
 74
     0
 42
0.000000001
 43
0.0000000001
 40
0.0
 40
0.0
 40
0.0
 40
0.2143262476860971
 40
0.2143262476860971
 40
0.2143262476860971
 10
2036.09238798919
 20
983.3052406001041
 30
0.0
 41
1.0
 10
2036.222474727371
 20
983.3052406001042
 30
0.0
 41
0.7554728313537467
 10
2036.240879190668
 20
983.176462359779
 30
0.0
 41
1.0
  0
SPLINE
  5
211
330
1F
100
AcDbEntity
  8
Crea2D$visibili$linee
100
AcDbSpline
210
0.0
220
0.0
230
1.0
 70
    24
 71
     2
 72
     6
 73
     3
 74
     0
 42
0.000000001
 43
0.0000000001
 40
0.0
 40
0.0
 40
0.0
 40
0.0020838171901119
 40
0.0020838171901119
 40
0.0020838171901119
 10
2036.091695481047
 20
983.3052406001043
 30
0.0
 10
2036.090653572452
 20
983.3052406001043
 30
0.0
 10
2036.089611663857
 20
983.3052406001043
 30
0.0
  0
SPLINE
  5
212
330
1F
100
AcDbEntity
  8
Crea2D$visibili$linee
100
AcDbSpline
210
0.0
220
0.0
230
1.0
 70
    24
 71
     2
 72
     6
 73
     3
 74
     0
 42
0.000000001
 43
0.0000000001
 40
0.0
 40
0.0
 40
0.0
 40
1.152544062552
 40
1.152544062552
 40
1.152544062552
 10
1887.533143934165
 20
564.3978179667172
 30
0.0
 10
1886.957006664413
 20
564.4102799261943
 30
0.0
 10
1886.380869394661
 20
564.4227418856715
 30
0.0
  0
SPLINE
  5
213
330
1F
100
AcDbEntity
  8
Crea2D$visibili$linee
100
AcDbSpline
210
0.0
220
0.0
230
1.0
 70
    12
 71
     3
 72
     8
 73
     4
 74
     0
 42
0.000000001
 43
0.0000000001
 40
0.0
 40
0.0
 40
0.0
 40
0.0
 40
3.066070568811769
 40
3.066070568811769
 40
3.066070568811769
 40
3.066070568811769
 10
2091.024725928349
 20
564.3321103343695
 30
0.0
 41
0.4999999999999997
 10
2092.046518975389
 20
564.3538140312675
 30
0.0
 41
0.4999999936879662
 10
2093.068307779371
 20
564.3757165766721
 30
0.0
 41
0.4999999936879663
 10
2094.090092301597
 20
564.3978179697532
 30
0.0
 41
0.4999999999999997
  0
SPLINE
  5
214
330
1F
100
AcDbEntity
  8
Crea2D$visibili$linee
100
AcDbSpline
210
0.0
220
0.0
230
1.0
 70
    12
 71
     3
 72
     8
 73
     4
 74
     0
 42
0.000000001
 43
0.0000000001
 40
0.0
 40
0.0
 40
0.0
 40
0.0
 40
3.066070568811769
 40
3.066070568811769
 40
3.066070568811769
 40
3.066070568811769
 10
1890.598510307477
 20
564.3321103343695
 30
0.0
 41
0.4999999999999997
 10
1889.576717260438
 20
564.3538140312675
 30
0.0
 41
0.4999999936879662
 10
1888.554928456457
 20
564.3757165766721
 30
0.0
 41
0.4999999936879663
 10
1887.533143934231
 20
564.3978179697532
 30
0.0
 41
0.4999999999999997
  0
SPLINE
  5
215
330
1F
100
AcDbEntity
  8
Crea2D$visibili$linee
100
AcDbSpline
210
0.0
220
0.0
230
1.0
 70
    24
 71
     2
 72
     6
 73
     3
 74
     0
 42
0.000000001
 43
0.0000000001
 40
0.0
 40
0.0
 40
0.0
 40
100.2131078104362
 40
100.2131078104362
 40
100.2131078104362
 10
2091.02472592835
 20
564.332110334369
 30
0.0
 10
2040.918172023131
 20
564.332110334369
 30
0.0
 10
1990.811618117913
 20
564.332110334369
 30
0.0
  0
SPLINE
  5
216
330
1F
100
AcDbEntity
  8
Crea2D$visibili$linee
100
AcDbSpline
210
0.0
220
0.0
230
1.0
 70
    24
 71
     2
 72
     6
 73
     3
 74
     0
 42
0.000000001
 43
0.0000000001
 40
0.0
 40
0.0
 40
0.0
 40
100.2131078104359
 40
100.2131078104359
 40
100.2131078104359
 10
1990.811618117913
 20
564.332110334369
 30
0.0
 10
1940.705064212695
 20
564.332110334369
 30
0.0
 10
1890.598510307477
 20
564.332110334369
 30
0.0
  0
SPLINE
  5
217
330
1F
100
AcDbEntity
  8
Crea2D$visibili$linee
100
AcDbSpline
210
0.0
220
0.0
230
1.0
 70
    24
 71
     2
 72
     6
 73
     3
 74
     0
 42
0.000000001
 43
0.0000000001
 40
0.0
 40
0.0
 40
0.0
 40
422.371769219049
 40
422.371769219049
 40
422.371769219049
 10
2036.243881792707
 20
983.1553543458197
 30
0.0
 10
2065.985226441966
 20
774.0741971920451
 30
0.0
 10
2095.726571091224
 20
564.9930400382705
 30
0.0
  0
ENDSEC
  0
SECTION
  2
OBJECTS
  0
DICTIONARY
  5
C
330
0
100
AcDbDictionary
281
     1
  3
ACAD_DETAILVIEWSTYLE
350
25D
  3
ACAD_GROUP
350
D
  3
ACAD_LAYOUT
350
1A
  3
ACAD_MATERIAL
350
43
  3
ACAD_MLEADERSTYLE
350
6B
  3
ACAD_MLINESTYLE
350
17
  3
ACAD_PLOTSETTINGS
350
19
  3
ACAD_PLOTSTYLENAME
350
E
  3
ACAD_SCALELIST
350
47
  3
ACAD_SECTIONVIEWSTYLE
350
25E
  3
ACAD_TABLESTYLE
350
69
  3
ACAD_VISUALSTYLE
350
2A
  3
ACDB_RECOMPOSE_DATA
350
25A
  3
AcDbVariableDictionary
350
21A
  0
DICTIONARY
  5
218
330
8
100
AcDbDictionary
280
     1
281
     1
  3
ACAD_XREC_ROUNDTRIP
360
219
  0
DICTIONARY
  5
25D
102
{ACAD_REACTORS
330
C
102
}
330
C
100
AcDbDictionary
281
     1
  0
DICTIONARY
  5
D
102
{ACAD_REACTORS
330
C
102
}
330
C
100
AcDbDictionary
281
     1
  0
DICTIONARY
  5
1A
102
{ACAD_REACTORS
330
C
102
}
330
C
100
AcDbDictionary
281
     1
  3
Layout1
350
1E
  3
Layout2
350
26
  3
Model
350
22
  0
DICTIONARY
  5
43
102
{ACAD_REACTORS
330
C
102
}
330
C
100
AcDbDictionary
281
     1
  3
ByBlock
350
45
  3
ByLayer
350
44
  3
Global
350
46
  0
DICTIONARY
  5
6B
102
{ACAD_REACTORS
330
C
102
}
330
C
100
AcDbDictionary
281
     1
  3
Standard
350
6C
  0
DICTIONARY
  5
17
102
{ACAD_REACTORS
330
C
102
}
330
C
100
AcDbDictionary
281
     1
  3
Standard
350
18
  0
DICTIONARY
  5
19
102
{ACAD_REACTORS
330
C
102
}
330
C
100
AcDbDictionary
281
     1
  0
ACDBDICTIONARYWDFLT
  5
E
102
{ACAD_REACTORS
330
C
102
}
330
C
100
AcDbDictionary
281
     1
  3
Normal
350
F
100
AcDbDictionaryWithDefault
340
F
  0
DICTIONARY
  5
47
102
{ACAD_REACTORS
330
C
102
}
330
C
100
AcDbDictionary
281
     1
  3
A0
350
48
  3
A1
350
49
  3
A2
350
4A
  3
A3
350
4B
  3
A4
350
4C
  3
A5
350
4D
  3
A6
350
4E
  3
A7
350
4F
  3
A8
350
50
  3
A9
350
51
  3
B0
350
52
  3
B1
350
53
  3
B2
350
54
  3
B3
350
55
  3
B4
350
56
  3
B5
350
57
  3
B6
350
58
  3
B7
350
59
  3
B8
350
5A
  3
B9
350
5B
  3
C0
350
5C
  3
C1
350
5D
  3
C2
350
5E
  3
C3
350
5F
  3
C4
350
60
  3
C5
350
61
  3
C6
350
62
  3
C7
350
63
  3
C8
350
64
  3
C9
350
65
  3
D0
350
66
  3
D1
350
67
  3
D2
350
68
  0
DICTIONARY
  5
25E
102
{ACAD_REACTORS
330
C
102
}
330
C
100
AcDbDictionary
281
     1
  0
DICTIONARY
  5
69
102
{ACAD_REACTORS
330
C
102
}
330
C
100
AcDbDictionary
281
     1
  3
Standard
350
6A
  0
DICTIONARY
  5
2A
102
{ACAD_REACTORS
330
C
102
}
330
C
100
AcDbDictionary
281
     1
  3
2dWireframe
350
2F
  3
Basic
350
32
  3
Brighten
350
36
  3
ColorChange
350
3A
  3
Conceptual
350
34
  3
Dim
350
35
  3
EdgeColorOff
350
3D
  3
Facepattern
350
39
  3
Flat
350
2B
  3
FlatWithEdges
350
2C
  3
Gouraud
350
2D
  3
GouraudWithEdges
350
2E
  3
Hidden
350
31
  3
JitterOff
350
3B
  3
Linepattern
350
38
  3
OverhangOff
350
3C
  3
Realistic
350
33
  3
Shaded
350
42
  3
Shaded with edges
350
41
  3
Shades of Gray
350
3E
  3
Sketchy
350
3F
  3
Thicken
350
37
  3
Wireframe
350
30
  3
X-Ray
350
40
  0
XRECORD
  5
25A
102
{ACAD_REACTORS
330
C
102
}
330
C
100
AcDbXrecord
280
     1
 90
        1
330
6A
  0
DICTIONARY
  5
21A
102
{ACAD_REACTORS
330
C
102
}
330
C
100
AcDbDictionary
281
     1
  3
CANNOSCALE
350
21B
  3
CMLEADERSTYLE
350
25C
  3
CTABLESTYLE
350
25B
  3
MSLTSCALE
350
21C
  3
XCLIPFRAME
350
21D
  0
XRECORD
  5
219
102
{ACAD_REACTORS
330
218
102
}
330
218
100
AcDbXrecord
280
     1
102
VTR_0.000_0.000_1.000_1.000_GRIDDISPLAY
 70
     3
102
VTR_0.000_0.000_1.000_1.000_GRIDMAJOR
 70
     5
102
VTR_0.000_0.000_1.000_1.000_DEFAULTLIGHTING
280
     1
102
VTR_0.000_0.000_1.000_1.000_DEFAULTLIGHTINGTYPE
 70
     1
102
VTR_0.000_0.000_1.000_1.000_BRIGHTNESS
141
0.0
102
VTR_0.000_0.000_1.000_1.000_CONTRAST
142
0.0
  0
LAYOUT
  5
1E
102
{ACAD_REACTORS
330
1A
102
}
330
1A
100
AcDbPlotSettings
  1

  2
none_device
  4

  6

 40
0.0
 41
0.0
 42
0.0
 43
0.0
 44
0.0
 45
0.0
 46
0.0
 47
0.0
 48
0.0
 49
0.0
140
0.0
141
0.0
142
1.0
143
1.0
 70
   688
 72
     0
 73
     0
 74
     5
  7

 75
    16
 76
     0
 77
     2
 78
   300
147
1.0
148
0.0
149
0.0
100
AcDbLayout
  1
Layout1
 70
     1
 71
     1
 10
0.0
 20
0.0
 11
12.0
 21
9.0
 12
0.0
 22
0.0
 32
0.0
 14
1.000000000000000E+20
 24
1.000000000000000E+20
 34
1.000000000000000E+20
 15
-1.000000000000000E+20
 25
-1.000000000000000E+20
 35
-1.000000000000000E+20
146
0.0
 13
0.0
 23
0.0
 33
0.0
 16
1.0
 26
0.0
 36
0.0
 17
0.0
 27
1.0
 37
0.0
 76
     0
330
1B
  0
LAYOUT
  5
26
102
{ACAD_REACTORS
330
1A
102
}
330
1A
100
AcDbPlotSettings
  1

  2
none_device
  4

  6

 40
0.0
 41
0.0
 42
0.0
 43
0.0
 44
0.0
 45
0.0
 46
0.0
 47
0.0
 48
0.0
 49
0.0
140
0.0
141
0.0
142
1.0
143
1.0
 70
   688
 72
     0
 73
     0
 74
     5
  7

 75
    16
 76
     0
 77
     2
 78
   300
147
1.0
148
0.0
149
0.0
100
AcDbLayout
  1
Layout2
 70
     1
 71
     2
 10
0.0
 20
0.0
 11
0.0
 21
0.0
 12
0.0
 22
0.0
 32
0.0
 14
0.0
 24
0.0
 34
0.0
 15
0.0
 25
0.0
 35
0.0
146
0.0
 13
0.0
 23
0.0
 33
0.0
 16
1.0
 26
0.0
 36
0.0
 17
0.0
 27
1.0
 37
0.0
 76
     0
330
23
  0
LAYOUT
  5
22
102
{ACAD_REACTORS
330
1A
102
}
330
1A
100
AcDbPlotSettings
  1

  2
none_device
  4
Letter_(8.50_x_11.00_Inches)
  6

 40
6.35
 41
6.35
 42
6.35000508
 43
6.35000508
 44
215.9
 45
279.4
 46
0.0
 47
0.0
 48
0.0
 49
0.0
140
0.0
141
0.0
142
1.0
143
1.0
 70
  1712
 72
     0
 73
     0
 74
     0
  7

 75
     0
 76
     0
 77
     2
 78
   300
147
1.0
148
0.0
149
0.0
100
AcDbLayout
  1
Model
 70
     1
 71
     0
 10
0.0
 20
0.0
 11
12.0
 21
9.0
 12
0.0
 22
0.0
 32
0.0
 14
1885.891681961318
 24
195.5555555555637
 34
0.0
 15
2095.731554274509
 25
1759.885138293339
 35
0.0
146
0.0
 13
0.0
 23
0.0
 33
0.0
 16
1.0
 26
0.0
 36
0.0
 17
0.0
 27
1.0
 37
0.0
 76
     0
330
1F
331
29
  0
MATERIAL
  5
45
102
{ACAD_REACTORS
330
43
102
}
102
{ACAD_XDICTIONARY
360
250
102
}
330
43
100
AcDbMaterial
  1
ByBlock
  0
MATERIAL
  5
44
102
{ACAD_REACTORS
330
43
102
}
102
{ACAD_XDICTIONARY
360
24E
102
}
330
43
100
AcDbMaterial
  1
ByLayer
  0
MATERIAL
  5
46
102
{ACAD_REACTORS
330
43
102
}
102
{ACAD_XDICTIONARY
360
252
102
}
330
43
100
AcDbMaterial
  1
Global
  0
MLEADERSTYLE
  5
6C
102
{ACAD_REACTORS
330
6B
102
}
102
{ACAD_XDICTIONARY
360
258
102
}
330
6B
100
AcDbMLeaderStyle
170
     2
171
     1
172
     0
 90
        2
 40
0.0
 41
0.0
173
     1
 91
-1056964608
340
14
 92
       -2
290
     1
 42
0.09
291
     1
 43
0.36
  3
Standard
341
0
 44
0.18
300

342
11
174
     1
178
     6
175
     1
176
     0
 93
-1056964608
 45
0.18
292
     0
297
     0
 46
0.18
343
0
 94
-1056964608
 47
1.0
 49
1.0
140
1.0
293
     1
141
0.0
294
     1
177
     0
142
1.0
295
     0
296
     0
143
0.125
1001
ACAD_MLEADERVER
1070
     2
  0
MLINESTYLE
  5
18
102
{ACAD_REACTORS
330
17
102
}
330
17
100
AcDbMlineStyle
  2
Standard
 70
     0
  3

 62
   256
 51
90.0
 52
90.0
 71
     2
 49
0.5
 62
   256
  6
BYLAYER
 49
-0.5
 62
   256
  6
BYLAYER
  0
ACDBPLACEHOLDER
  5
F
102
{ACAD_REACTORS
330
E
102
}
330
E
  0
SCALE
  5
48
102
{ACAD_REACTORS
330
47
102
}
330
47
100
AcDbScale
 70
     0
300
1:1
140
1.0
141
1.0
290
     1
  0
SCALE
  5
49
102
{ACAD_REACTORS
330
47
102
}
330
47
100
AcDbScale
 70
     0
300
1:2
140
1.0
141
2.0
290
     0
  0
SCALE
  5
4A
102
{ACAD_REACTORS
330
47
102
}
330
47
100
AcDbScale
 70
     0
300
1:4
140
1.0
141
4.0
290
     0
  0
SCALE
  5
4B
102
{ACAD_REACTORS
330
47
102
}
330
47
100
AcDbScale
 70
     0
300
1:5
140
1.0
141
5.0
290
     0
  0
SCALE
  5
4C
102
{ACAD_REACTORS
330
47
102
}
330
47
100
AcDbScale
 70
     0
300
1:8
140
1.0
141
8.0
290
     0
  0
SCALE
  5
4D
102
{ACAD_REACTORS
330
47
102
}
330
47
100
AcDbScale
 70
     0
300
1:10
140
1.0
141
10.0
290
     0
  0
SCALE
  5
4E
102
{ACAD_REACTORS
330
47
102
}
330
47
100
AcDbScale
 70
     0
300
1:16
140
1.0
141
16.0
290
     0
  0
SCALE
  5
4F
102
{ACAD_REACTORS
330
47
102
}
330
47
100
AcDbScale
 70
     0
300
1:20
140
1.0
141
20.0
290
     0
  0
SCALE
  5
50
102
{ACAD_REACTORS
330
47
102
}
330
47
100
AcDbScale
 70
     0
300
1:30
140
1.0
141
30.0
290
     0
  0
SCALE
  5
51
102
{ACAD_REACTORS
330
47
102
}
330
47
100
AcDbScale
 70
     0
300
1:40
140
1.0
141
40.0
290
     0
  0
SCALE
  5
52
102
{ACAD_REACTORS
330
47
102
}
330
47
100
AcDbScale
 70
     0
300
1:50
140
1.0
141
50.0
290
     0
  0
SCALE
  5
53
102
{ACAD_REACTORS
330
47
102
}
330
47
100
AcDbScale
 70
     0
300
1:100
140
1.0
141
100.0
290
     0
  0
SCALE
  5
54
102
{ACAD_REACTORS
330
47
102
}
330
47
100
AcDbScale
 70
     0
300
2:1
140
2.0
141
1.0
290
     0
  0
SCALE
  5
55
102
{ACAD_REACTORS
330
47
102
}
330
47
100
AcDbScale
 70
     0
300
4:1
140
4.0
141
1.0
290
     0
  0
SCALE
  5
56
102
{ACAD_REACTORS
330
47
102
}
330
47
100
AcDbScale
 70
     0
300
8:1
140
8.0
141
1.0
290
     0
  0
SCALE
  5
57
102
{ACAD_REACTORS
330
47
102
}
330
47
100
AcDbScale
 70
     0
300
10:1
140
10.0
141
1.0
290
     0
  0
SCALE
  5
58
102
{ACAD_REACTORS
330
47
102
}
330
47
100
AcDbScale
 70
     0
300
100:1
140
100.0
141
1.0
290
     0
  0
SCALE
  5
59
102
{ACAD_REACTORS
330
47
102
}
330
47
100
AcDbScale
 70
     0
300
1/128" = 1'-0"
140
0.0078125
141
12.0
290
     0
  0
SCALE
  5
5A
102
{ACAD_REACTORS
330
47
102
}
330
47
100
AcDbScale
 70
     0
300
1/64" = 1'-0"
140
0.015625
141
12.0
290
     0
  0
SCALE
  5
5B
102
{ACAD_REACTORS
330
47
102
}
330
47
100
AcDbScale
 70
     0
300
1/32" = 1'-0"
140
0.03125
141
12.0
290
     0
  0
SCALE
  5
5C
102
{ACAD_REACTORS
330
47
102
}
330
47
100
AcDbScale
 70
     0
300
1/16" = 1'-0"
140
0.0625
141
12.0
290
     0
  0
SCALE
  5
5D
102
{ACAD_REACTORS
330
47
102
}
330
47
100
AcDbScale
 70
     0
300
3/32" = 1'-0"
140
0.09375
141
12.0
290
     0
  0
SCALE
  5
5E
102
{ACAD_REACTORS
330
47
102
}
330
47
100
AcDbScale
 70
     0
300
1/8" = 1'-0"
140
0.125
141
12.0
290
     0
  0
SCALE
  5
5F
102
{ACAD_REACTORS
330
47
102
}
330
47
100
AcDbScale
 70
     0
300
3/16" = 1'-0"
140
0.1875
141
12.0
290
     0
  0
SCALE
  5
60
102
{ACAD_REACTORS
330
47
102
}
330
47
100
AcDbScale
 70
     0
300
1/4" = 1'-0"
140
0.25
141
12.0
290
     0
  0
SCALE
  5
61
102
{ACAD_REACTORS
330
47
102
}
330
47
100
AcDbScale
 70
     0
300
3/8" = 1'-0"
140
0.375
141
12.0
290
     0
  0
SCALE
  5
62
102
{ACAD_REACTORS
330
47
102
}
330
47
100
AcDbScale
 70
     0
300
1/2" = 1'-0"
140
0.5
141
12.0
290
     0
  0
SCALE
  5
63
102
{ACAD_REACTORS
330
47
102
}
330
47
100
AcDbScale
 70
     0
300
3/4" = 1'-0"
140
0.75
141
12.0
290
     0
  0
SCALE
  5
64
102
{ACAD_REACTORS
330
47
102
}
330
47
100
AcDbScale
 70
     0
300
1" = 1'-0"
140
1.0
141
12.0
290
     0
  0
SCALE
  5
65
102
{ACAD_REACTORS
330
47
102
}
330
47
100
AcDbScale
 70
     0
300
1-1/2" = 1'-0"
140
1.5
141
12.0
290
     0
  0
SCALE
  5
66
102
{ACAD_REACTORS
330
47
102
}
330
47
100
AcDbScale
 70
     0
300
3" = 1'-0"
140
3.0
141
12.0
290
     0
  0
SCALE
  5
67
102
{ACAD_REACTORS
330
47
102
}
330
47
100
AcDbScale
 70
     0
300
6" = 1'-0"
140
6.0
141
12.0
290
     0
  0
SCALE
  5
68
102
{ACAD_REACTORS
330
47
102
}
330
47
100
AcDbScale
 70
     0
300
1'-0" = 1'-0"
140
12.0
141
12.0
290
     0
  0
TABLESTYLE
  5
6A
102
{ACAD_REACTORS
330
69
102
}
102
{ACAD_XDICTIONARY
360
254
102
}
330
69
100
AcDbTableStyle
  3
Standard
 70
     0
 71
     0
 40
0.06
 41
0.06
280
     0
281
     0
  7
Standard
140
0.18
170
     2
 62
     0
 63
   257
283
     0
274
    -2
284
     1
 64
     0
275
    -2
285
     1
 65
     0
276
    -2
286
     1
 66
     0
277
    -2
287
     1
 67
     0
278
    -2
288
     1
 68
     0
279
    -2
289
     1
 69
     0
  7
Standard
140
0.25
170
     5
 62
     0
 63
   257
283
     0
274
    -2
284
     1
 64
     0
275
    -2
285
     1
 65
     0
276
    -2
286
     1
 66
     0
277
    -2
287
     1
 67
     0
278
    -2
288
     1
 68
     0
279
    -2
289
     1
 69
     0
  7
Standard
140
0.18
170
     5
 62
     0
 63
   257
283
     0
274
    -2
284
     1
 64
     0
275
    -2
285
     1
 65
     0
276
    -2
286
     1
 66
     0
277
    -2
287
     1
 67
     0
278
    -2
288
     1
 68
     0
279
    -2
289
     1
 69
     0
  0
VISUALSTYLE
  5
2F
102
{ACAD_REACTORS
330
2A
102
}
102
{ACAD_XDICTIONARY
360
226
102
}
330
2A
100
AcDbVisualStyle
  2
2dWireframe
 70
     4
 71
     0
 72
     2
 73
     0
 90
        0
 40
0.6
 41
30.0
 62
     5
 63
     7
421
 16777215
 74
     1
 91
        4
 64
     7
 65
   257
 75
     1
175
     1
 42
1.0
 92
        0
 66
   257
 43
1.0
 76
     1
 77
     6
 78
     2
 67
     7
 79
     5
170
     0
171
     0
290
     0
174
     0
 93
        1
 44
0.0
173
     0
291
     0
 45
0.0
1001
ACAD
1000
AcDbSavedByObjectVersion
1070
     0
  0
VISUALSTYLE
  5
32
102
{ACAD_REACTORS
330
2A
102
}
102
{ACAD_XDICTIONARY
360
22C
102
}
330
2A
100
AcDbVisualStyle
  2
Basic
 70
     7
 71
     1
 72
     0
 73
     1
 90
        0
 40
0.6
 41
30.0
 62
     5
 63
     7
421
 16777215
 74
     0
 91
        4
 64
     7
 65
   257
 75
     1
175
     1
 42
1.0
 92
        8
 66
     7
 43
1.0
 76
     1
 77
     6
 78
     2
 67
     7
 79
     5
170
     0
171
     0
290
     0
174
     0
 93
        1
 44
0.0
173
     0
291
     1
 45
0.0
1001
ACAD
1000
AcDbSavedByObjectVersion
1070
     0
  0
VISUALSTYLE
  5
36
102
{ACAD_REACTORS
330
2A
102
}
102
{ACAD_XDICTIONARY
360
234
102
}
330
2A
100
AcDbVisualStyle
  2
Brighten
 70
    12
 71
     2
 72
     2
 73
     0
 90
        0
 40
0.6
 41
30.0
 62
     5
 63
     7
421
 16777215
 74
     1
 91
        4
 64
     7
 65
   257
 75
     1
175
     1
 42
1.0
 92
        8
 66
     7
 43
1.0
 76
     1
 77
     6
 78
     2
 67
     7
 79
     5
170
     0
171
     0
290
     0
174
     0
 93
        1
 44
50.0
173
     0
291
     1
 45
0.0
1001
ACAD
1000
AcDbSavedByObjectVersion
1070
     0
  0
VISUALSTYLE
  5
3A
102
{ACAD_REACTORS
330
2A
102
}
102
{ACAD_XDICTIONARY
360
23C
102
}
330
2A
100
AcDbVisualStyle
  2
ColorChange
 70
    16
 71
     2
 72
     2
 73
     3
 90
        0
 40
0.6
 41
30.0
 62
     5
 63
     8
421
  8421504
 74
     1
 91
        4
 64
     7
 65
   257
 75
     1
175
     1
 42
1.0
 92
        8
 66
     8
424
  8421504
 43
1.0
 76
     1
 77
     6
 78
     2
 67
     7
 79
     5
170
     0
171
     0
290
     0
174
     0
 93
        1
 44
0.0
173
     0
291
     1
 45
0.0
1001
ACAD
1000
AcDbSavedByObjectVersion
1070
     0
  0
VISUALSTYLE
  5
34
102
{ACAD_REACTORS
330
2A
102
}
102
{ACAD_XDICTIONARY
360
230
102
}
330
2A
100
AcDbVisualStyle
  2
Conceptual
 70
     9
 71
     3
 72
     2
 73
     0
 90
        0
 40
0.6
 41
30.0
 62
     5
 63
     7
421
 16777215
 74
     2
 91
        2
 64
     7
 65
   257
 75
     1
175
     1
 42
179.0
 92
        8
 66
     7
 43
1.0
 76
     1
 77
     6
 78
     2
 67
     7
 79
     3
170
     0
171
     0
290
     0
174
     0
 93
        1
 44
0.0
173
     0
291
     0
 45
0.0
1001
ACAD
1000
AcDbSavedByObjectVersion
1070
     0
  0
VISUALSTYLE
  5
35
102
{ACAD_REACTORS
330
2A
102
}
102
{ACAD_XDICTIONARY
360
232
102
}
330
2A
100
AcDbVisualStyle
  2
Dim
 70
    11
 71
     2
 72
     2
 73
     0
 90
        0
 40
0.6
 41
30.0
 62
     5
 63
     7
421
 16777215
 74
     1
 91
        4
 64
     7
 65
   257
 75
     1
175
     1
 42
1.0
 92
        8
 66
     7
 43
1.0
 76
     1
 77
     6
 78
     2
 67
     7
 79
     5
170
     0
171
     0
290
     0
174
     0
 93
        1
 44
-50.0
173
     0
291
     1
 45
0.0
1001
ACAD
1000
AcDbSavedByObjectVersion
1070
     0
  0
VISUALSTYLE
  5
3D
102
{ACAD_REACTORS
330
2A
102
}
102
{ACAD_XDICTIONARY
360
242
102
}
330
2A
100
AcDbVisualStyle
  2
EdgeColorOff
 70
    22
 71
     2
 72
     2
 73
     0
 90
        0
 40
0.6
 41
30.0
 62
     5
 63
     7
421
 16777215
 74
     1
 91
        4
 64
     7
 65
   257
 75
     1
175
     1
 42
1.0
 92
        8
 66
     7
 43
1.0
 76
     1
 77
     6
 78
     2
 67
     7
 79
     5
170
     0
171
     0
290
     0
174
     0
 93
        1
 44
0.0
173
     0
291
     1
 45
0.0
1001
ACAD
1000
AcDbSavedByObjectVersion
1070
     0
  0
VISUALSTYLE
  5
39
102
{ACAD_REACTORS
330
2A
102
}
102
{ACAD_XDICTIONARY
360
23A
102
}
330
2A
100
AcDbVisualStyle
  2
Facepattern
 70
    15
 71
     2
 72
     2
 73
     0
 90
        0
 40
0.6
 41
30.0
 62
     5
 63
     7
421
 16777215
 74
     1
 91
        4
 64
     7
 65
   257
 75
     1
175
     1
 42
1.0
 92
        8
 66
     7
 43
1.0
 76
     1
 77
     6
 78
     2
 67
     7
 79
     5
170
     0
171
     0
290
     0
174
     0
 93
        1
 44
0.0
173
     0
291
     1
 45
0.0
1001
ACAD
1000
AcDbSavedByObjectVersion
1070
     0
  0
VISUALSTYLE
  5
2B
102
{ACAD_REACTORS
330
2A
102
}
102
{ACAD_XDICTIONARY
360
21E
102
}
330
2A
100
AcDbVisualStyle
  2
Flat
 70
     0
 71
     2
 72
     1
 73
     1
 90
        2
 40
0.6
 41
30.0
 62
     5
 63
     7
421
 16777215
 74
     0
 91
        0
 64
     7
 65
   257
 75
     1
175
     1
 42
1.0
 92
        8
 66
     7
 43
1.0
 76
     1
 77
     6
 78
     2
 67
     7
 79
     5
170
     0
171
     0
290
     0
174
     0
 93
       13
 44
0.0
173
     0
291
     1
 45
0.0
1001
ACAD
1000
AcDbSavedByObjectVersion
1070
     0
  0
VISUALSTYLE
  5
2C
102
{ACAD_REACTORS
330
2A
102
}
102
{ACAD_XDICTIONARY
360
220
102
}
330
2A
100
AcDbVisualStyle
  2
FlatWithEdges
 70
     1
 71
     2
 72
     1
 73
     1
 90
        2
 40
0.6
 41
30.0
 62
     5
 63
     7
421
 16777215
 74
     1
 91
        0
 64
     7
 65
   257
 75
     1
175
     1
 42
1.0
 92
        0
 66
   257
 43
1.0
 76
     1
 77
     6
 78
     2
 67
     7
 79
     5
170
     0
171
     0
290
     0
174
     0
 93
       13
 44
0.0
173
     0
291
     1
 45
0.0
1001
ACAD
1000
AcDbSavedByObjectVersion
1070
     0
  0
VISUALSTYLE
  5
2D
102
{ACAD_REACTORS
330
2A
102
}
102
{ACAD_XDICTIONARY
360
222
102
}
330
2A
100
AcDbVisualStyle
  2
Gouraud
 70
     2
 71
     2
 72
     2
 73
     1
 90
        2
 40
0.6
 41
30.0
 62
     5
 63
     7
421
 16777215
 74
     0
 91
        0
 64
     7
 65
   257
 75
     1
175
     1
 42
1.0
 92
        0
 66
     7
 43
1.0
 76
     1
 77
     6
 78
     2
 67
     7
 79
     5
170
     0
171
     0
290
     0
174
     0
 93
       13
 44
0.0
173
     0
291
     1
 45
0.0
1001
ACAD
1000
AcDbSavedByObjectVersion
1070
     0
  0
VISUALSTYLE
  5
2E
102
{ACAD_REACTORS
330
2A
102
}
102
{ACAD_XDICTIONARY
360
224
102
}
330
2A
100
AcDbVisualStyle
  2
GouraudWithEdges
 70
     3
 71
     2
 72
     2
 73
     1
 90
        2
 40
0.6
 41
30.0
 62
     5
 63
     7
421
 16777215
 74
     1
 91
        0
 64
     7
 65
   257
 75
     1
175
     1
 42
1.0
 92
        0
 66
   257
 43
1.0
 76
     1
 77
     6
 78
     2
 67
     7
 79
     5
170
     0
171
     0
290
     0
174
     0
 93
       13
 44
0.0
173
     0
291
     1
 45
0.0
1001
ACAD
1000
AcDbSavedByObjectVersion
1070
     0
  0
VISUALSTYLE
  5
31
102
{ACAD_REACTORS
330
2A
102
}
102
{ACAD_XDICTIONARY
360
22A
102
}
330
2A
100
AcDbVisualStyle
  2
Hidden
 70
     6
 71
     1
 72
     2
 73
     2
 90
        0
 40
0.6
 41
30.0
 62
     5
 63
     7
421
 16777215
 74
     2
 91
        2
 64
     7
 65
   257
 75
     2
175
     1
 42
40.0
 92
        0
 66
   257
 43
1.0
 76
     1
 77
     6
 78
     2
 67
     7
 79
     3
170
     0
171
     0
290
     0
174
     0
 93
        1
 44
0.0
173
     0
291
     0
 45
0.0
1001
ACAD
1000
AcDbSavedByObjectVersion
1070
     0
  0
VISUALSTYLE
  5
3B
102
{ACAD_REACTORS
330
2A
102
}
102
{ACAD_XDICTIONARY
360
23E
102
}
330
2A
100
AcDbVisualStyle
  2
JitterOff
 70
    20
 71
     2
 72
     2
 73
     0
 90
        0
 40
0.6
 41
30.0
 62
     5
 63
     7
421
 16777215
 74
     1
 91
        4
 64
     7
 65
   257
 75
     1
175
     1
 42
1.0
 92
       10
 66
     7
 43
1.0
 76
     1
 77
     6
 78
     2
 67
     7
 79
     5
170
     0
171
     0
290
     0
174
     0
 93
        1
 44
0.0
173
     0
291
     1
 45
0.0
1001
ACAD
1000
AcDbSavedByObjectVersion
1070
     0
  0
VISUALSTYLE
  5
38
102
{ACAD_REACTORS
330
2A
102
}
102
{ACAD_XDICTIONARY
360
238
102
}
330
2A
100
AcDbVisualStyle
  2
Linepattern
 70
    14
 71
     2
 72
     2
 73
     0
 90
        0
 40
0.6
 41
30.0
 62
     5
 63
     7
421
 16777215
 74
     1
 91
        4
 64
     7
 65
   257
 75
     7
175
     7
 42
1.0
 92
        8
 66
     7
 43
1.0
 76
     1
 77
     6
 78
     2
 67
     7
 79
     5
170
     0
171
     0
290
     0
174
     0
 93
        1
 44
0.0
173
     0
291
     1
 45
0.0
1001
ACAD
1000
AcDbSavedByObjectVersion
1070
     0
  0
VISUALSTYLE
  5
3C
102
{ACAD_REACTORS
330
2A
102
}
102
{ACAD_XDICTIONARY
360
240
102
}
330
2A
100
AcDbVisualStyle
  2
OverhangOff
 70
    21
 71
     2
 72
     2
 73
     0
 90
        0
 40
0.6
 41
30.0
 62
     5
 63
     7
421
 16777215
 74
     1
 91
        4
 64
     7
 65
   257
 75
     1
175
     1
 42
1.0
 92
        9
 66
     7
 43
1.0
 76
     1
 77
     6
 78
     2
 67
     7
 79
     5
170
     0
171
     0
290
     0
174
     0
 93
        1
 44
0.0
173
     0
291
     1
 45
0.0
1001
ACAD
1000
AcDbSavedByObjectVersion
1070
     0
  0
VISUALSTYLE
  5
33
102
{ACAD_REACTORS
330
2A
102
}
102
{ACAD_XDICTIONARY
360
22E
102
}
330
2A
100
AcDbVisualStyle
  2
Realistic
 70
     8
 71
     2
 72
     3
 73
     0
 90
        2
 40
0.6
 41
30.0
 62
     5
 63
     7
421
 16777215
 74
     0
 91
        0
 64
     7
 65
   257
 75
     1
175
     1
 42
1.0
 92
        8
 66
   257
 43
1.0
 76
     1
 77
     6
 78
     2
 67
     7
 79
     3
170
     0
171
     0
290
     0
174
     0
 93
       13
 44
0.0
173
     0
291
     0
 45
0.0
1001
ACAD
1000
AcDbSavedByObjectVersion
1070
     0
  0
VISUALSTYLE
  5
42
102
{ACAD_REACTORS
330
2A
102
}
102
{ACAD_XDICTIONARY
360
24C
102
}
330
2A
100
AcDbVisualStyle
  2
Shaded
 70
    27
 71
     2
 72
     2
 73
     1
 90
        2
 40
0.6
 41
30.0
 62
     5
 63
     7
421
 16777215
 74
     0
 91
        4
 64
     7
 65
   257
 75
     1
175
     1
 42
1.0
 92
        8
 66
   257
 43
1.0
 76
     1
 77
     6
 78
     2
 67
     8
425
  7895160
 79
     3
170
     0
171
     0
290
     0
174
     0
 93
        5
 44
0.0
173
     0
291
     0
 45
0.0
1001
ACAD
1000
AcDbSavedByObjectVersion
1070
     0
  0
VISUALSTYLE
  5
41
102
{ACAD_REACTORS
330
2A
102
}
102
{ACAD_XDICTIONARY
360
24A
102
}
330
2A
100
AcDbVisualStyle
  2
Shaded with edges
 70
    26
 71
     2
 72
     2
 73
     1
 90
        2
 40
0.6
 41
30.0
 62
     5
 63
     7
421
 16777215
 74
     1
 91
       10
 64
     7
 65
   257
 75
     2
175
     1
 42
1.0
 92
        8
 66
   257
 43
1.0
 76
     1
 77
     6
 78
     2
 67
     7
 79
     3
170
     0
171
     0
290
     0
174
     0
 93
        5
 44
0.0
173
     0
291
     0
 45
0.0
1001
ACAD
1000
AcDbSavedByObjectVersion
1070
     0
  0
VISUALSTYLE
  5
3E
102
{ACAD_REACTORS
330
2A
102
}
102
{ACAD_XDICTIONARY
360
244
102
}
330
2A
100
AcDbVisualStyle
  2
Shades of Gray
 70
    23
 71
     2
 72
     2
 73
     3
 90
        0
 40
0.6
 41
30.0
 62
     5
 63
     7
421
 16777215
 74
     2
 91
        2
 64
     7
 65
     7
 75
     1
175
     1
 42
40.0
 92
        8
 66
     7
 43
1.0
 76
     1
 77
     6
 78
     2
 67
     7
 79
     3
170
     0
171
     0
290
     0
174
     0
 93
        1
 44
0.0
173
     0
291
     0
 45
0.0
1001
ACAD
1000
AcDbSavedByObjectVersion
1070
     0
  0
VISUALSTYLE
  5
3F
102
{ACAD_REACTORS
330
2A
102
}
102
{ACAD_XDICTIONARY
360
246
102
}
330
2A
100
AcDbVisualStyle
  2
Sketchy
 70
    24
 71
     1
 72
     2
 73
     2
 90
        0
 40
0.6
 41
30.0
 62
     5
 63
     7
421
 16777215
 74
     2
 91
        2
 64
     7
 65
     7
 75
     1
175
     1
 42
40.0
 92
       11
 66
     7
 43
1.0
 76
     1
 77
     6
 78
     2
 67
     7
 79
     6
170
     0
171
     0
290
     0
174
     0
 93
        1
 44
0.0
173
     0
291
     0
 45
0.0
1001
ACAD
1000
AcDbSavedByObjectVersion
1070
     0
  0
VISUALSTYLE
  5
37
102
{ACAD_REACTORS
330
2A
102
}
102
{ACAD_XDICTIONARY
360
236
102
}
330
2A
100
AcDbVisualStyle
  2
Thicken
 70
    13
 71
     2
 72
     2
 73
     0
 90
        0
 40
0.6
 41
30.0
 62
     5
 63
     7
421
 16777215
 74
     1
 91
        4
 64
     7
 65
   257
 75
     1
175
     1
 42
1.0
 92
       12
 66
     7
 43
1.0
 76
     1
 77
     6
 78
     2
 67
     7
 79
     5
170
     0
171
     0
290
     0
174
     0
 93
        1
 44
0.0
173
     0
291
     1
 45
0.0
1001
ACAD
1000
AcDbSavedByObjectVersion
1070
     0
  0
VISUALSTYLE
  5
30
102
{ACAD_REACTORS
330
2A
102
}
102
{ACAD_XDICTIONARY
360
228
102
}
330
2A
100
AcDbVisualStyle
  2
Wireframe
 70
     5
 71
     0
 72
     2
 73
     0
 90
        0
 40
0.6
 41
30.0
 62
     5
 63
     7
421
 16777215
 74
     1
 91
        4
 64
     7
 65
   257
 75
     1
175
     1
 42
1.0
 92
        0
 66
   257
 43
1.0
 76
     1
 77
     6
 78
     2
 67
     7
 79
     3
170
     0
171
     0
290
     0
174
     0
 93
        1
 44
0.0
173
     0
291
     0
 45
0.0
1001
ACAD
1000
AcDbSavedByObjectVersion
1070
     0
  0
VISUALSTYLE
  5
40
102
{ACAD_REACTORS
330
2A
102
}
102
{ACAD_XDICTIONARY
360
248
102
}
330
2A
100
AcDbVisualStyle
  2
X-Ray
 70
    25
 71
     2
 72
     2
 73
     1
 90
        1
 40
0.5
 41
30.0
 62
     5
 63
     7
421
 16777215
 74
     1
 91
        0
 64
     7
 65
   257
 75
     1
175
     1
 42
1.0
 92
        8
 66
     7
 43
1.0
 76
     1
 77
     6
 78
     2
 67
     7
 79
     3
170
     0
171
     0
290
     0
174
     0
 93
       13
 44
0.0
173
     0
291
     0
 45
0.0
1001
ACAD
1000
AcDbSavedByObjectVersion
1070
     0
  0
DICTIONARYVAR
  5
21B
102
{ACAD_REACTORS
330
21A
102
}
330
21A
100
DictionaryVariables
280
     0
  1
1:1
  0
DICTIONARYVAR
  5
25C
102
{ACAD_REACTORS
330
21A
102
}
330
21A
100
DictionaryVariables
280
     0
  1
Standard
  0
DICTIONARYVAR
  5
25B
102
{ACAD_REACTORS
330
21A
102
}
330
21A
100
DictionaryVariables
280
     0
  1
Standard
  0
DICTIONARYVAR
  5
21C
102
{ACAD_REACTORS
330
21A
102
}
330
21A
100
DictionaryVariables
280
     0
  1
1
  0
DICTIONARYVAR
  5
21D
102
{ACAD_REACTORS
330
21A
102
}
330
21A
100
DictionaryVariables
280
     0
  1
2
  0
DICTIONARY
  5
250
330
45
100
AcDbDictionary
280
     1
281
     1
  3
ACAD_XREC_ROUNDTRIP
360
251
  0
DICTIONARY
  5
24E
330
44
100
AcDbDictionary
280
     1
281
     1
  3
ACAD_XREC_ROUNDTRIP
360
24F
  0
DICTIONARY
  5
252
330
46
100
AcDbDictionary
280
     1
281
     1
  3
ACAD_XREC_ROUNDTRIP
360
253
  0
DICTIONARY
  5
258
330
6C
100
AcDbDictionary
280
     1
281
     1
  3
ACAD_XREC_ROUNDTRIP
360
259
  0
DICTIONARY
  5
254
330
6A
100
AcDbDictionary
280
     1
281
     1
  3
ACAD_ROUNDTRIP_2008_TABLESTYLE_CELLSTYLEMAP
360
256
  3
ACAD_XREC_ROUNDTRIP
360
255
  0
DICTIONARY
  5
226
330
2F
100
AcDbDictionary
280
     1
281
     1
  3
ACAD_XREC_ROUNDTRIP
360
227
  0
DICTIONARY
  5
22C
330
32
100
AcDbDictionary
280
     1
281
     1
  3
ACAD_XREC_ROUNDTRIP
360
22D
  0
DICTIONARY
  5
234
330
36
100
AcDbDictionary
280
     1
281
     1
  3
ACAD_XREC_ROUNDTRIP
360
235
  0
DICTIONARY
  5
23C
330
3A
100
AcDbDictionary
280
     1
281
     1
  3
ACAD_XREC_ROUNDTRIP
360
23D
  0
DICTIONARY
  5
230
330
34
100
AcDbDictionary
280
     1
281
     1
  3
ACAD_XREC_ROUNDTRIP
360
231
  0
DICTIONARY
  5
232
330
35
100
AcDbDictionary
280
     1
281
     1
  3
ACAD_XREC_ROUNDTRIP
360
233
  0
DICTIONARY
  5
242
330
3D
100
AcDbDictionary
280
     1
281
     1
  3
ACAD_XREC_ROUNDTRIP
360
243
  0
DICTIONARY
  5
23A
330
39
100
AcDbDictionary
280
     1
281
     1
  3
ACAD_XREC_ROUNDTRIP
360
23B
  0
DICTIONARY
  5
21E
330
2B
100
AcDbDictionary
280
     1
281
     1
  3
ACAD_XREC_ROUNDTRIP
360
21F
  0
DICTIONARY
  5
220
330
2C
100
AcDbDictionary
280
     1
281
     1
  3
ACAD_XREC_ROUNDTRIP
360
221
  0
DICTIONARY
  5
222
330
2D
100
AcDbDictionary
280
     1
281
     1
  3
ACAD_XREC_ROUNDTRIP
360
223
  0
DICTIONARY
  5
224
330
2E
100
AcDbDictionary
280
     1
281
     1
  3
ACAD_XREC_ROUNDTRIP
360
225
  0
DICTIONARY
  5
22A
330
31
100
AcDbDictionary
280
     1
281
     1
  3
ACAD_XREC_ROUNDTRIP
360
22B
  0
DICTIONARY
  5
23E
330
3B
100
AcDbDictionary
280
     1
281
     1
  3
ACAD_XREC_ROUNDTRIP
360
23F
  0
DICTIONARY
  5
238
330
38
100
AcDbDictionary
280
     1
281
     1
  3
ACAD_XREC_ROUNDTRIP
360
239
  0
DICTIONARY
  5
240
330
3C
100
AcDbDictionary
280
     1
281
     1
  3
ACAD_XREC_ROUNDTRIP
360
241
  0
DICTIONARY
  5
22E
330
33
100
AcDbDictionary
280
     1
281
     1
  3
ACAD_XREC_ROUNDTRIP
360
22F
  0
DICTIONARY
  5
24C
330
42
100
AcDbDictionary
280
     1
281
     1
  3
ACAD_XREC_ROUNDTRIP
360
24D
  0
DICTIONARY
  5
24A
330
41
100
AcDbDictionary
280
     1
281
     1
  3
ACAD_XREC_ROUNDTRIP
360
24B
  0
DICTIONARY
  5
244
330
3E
100
AcDbDictionary
280
     1
281
     1
  3
ACAD_XREC_ROUNDTRIP
360
245
  0
DICTIONARY
  5
246
330
3F
100
AcDbDictionary
280
     1
281
     1
  3
ACAD_XREC_ROUNDTRIP
360
247
  0
DICTIONARY
  5
236
330
37
100
AcDbDictionary
280
     1
281
     1
  3
ACAD_XREC_ROUNDTRIP
360
237
  0
DICTIONARY
  5
228
330
30
100
AcDbDictionary
280
     1
281
     1
  3
ACAD_XREC_ROUNDTRIP
360
229
  0
DICTIONARY
  5
248
330
40
100
AcDbDictionary
280
     1
281
     1
  3
ACAD_XREC_ROUNDTRIP
360
249
  0
XRECORD
  5
251
102
{ACAD_REACTORS
330
250
102
}
330
250
100
AcDbXrecord
280
     1
102
MATERIAL
148
0.0
149
0.0
149
0.0
 93
        0
 94
      127
282
     0
 72
     1
 77
     1
171
     1
175
     1
179
     1
273
     0
  0
XRECORD
  5
24F
102
{ACAD_REACTORS
330
24E
102
}
330
24E
100
AcDbXrecord
280
     1
102
MATERIAL
148
0.0
149
0.0
149
0.0
 93
        0
 94
      127
282
     0
 72
     1
 77
     1
171
     1
175
     1
179
     1
273
     0
  0
XRECORD
  5
253
102
{ACAD_REACTORS
330
252
102
}
330
252
100
AcDbXrecord
280
     1
102
MATERIAL
148
0.0
149
0.0
149
0.0
 93
        0
 94
      127
282
     0
 72
     1
 77
     1
171
     1
175
     1
179
     1
273
     0
  0
XRECORD
  5
259
102
{ACAD_REACTORS
330
258
102
}
330
258
100
AcDbXrecord
280
     1
102
ACAD_ROUNDTRIP_2010_MLEADER_STYLE
  0
CELLSTYLEMAP
  5
256
102
{ACAD_REACTORS
330
254
102
}
330
254
100
AcDbCellStyleMap
 90
        3
300
CELLSTYLE
  1
TABLEFORMAT_BEGIN
 90
        5
170
     1
 91
        0
 92
    32768
 62
   257
 93
        1
300
CONTENTFORMAT
  1
CONTENTFORMAT_BEGIN
 90
        0
 91
        0
 92
        4
 93
        0
300

 40
0.0
140
1.0
 94
        5
 62
     0
340
11
144
0.25
309
CONTENTFORMAT_END
171
     1
301
MARGIN
  1
CELLMARGIN_BEGIN
 40
0.06
 40
0.06
 40
0.06
 40
0.06
 40
0.06
 40
0.06
309
CELLMARGIN_END
 94
        6
 95
        1
302
GRIDFORMAT
  1
GRIDFORMAT_BEGIN
 90
        0
 91
        1
 62
     0
 92
       -2
340
14
 93
        0
 40
0.045
309
GRIDFORMAT_END
 95
        2
302
GRIDFORMAT
  1
GRIDFORMAT_BEGIN
 90
        0
 91
        1
 62
     0
 92
       -2
340
14
 93
        0
 40
0.045
309
GRIDFORMAT_END
 95
        4
302
GRIDFORMAT
  1
GRIDFORMAT_BEGIN
 90
        0
 91
        1
 62
     0
 92
       -2
340
14
 93
        0
 40
0.045
309
GRIDFORMAT_END
 95
        8
302
GRIDFORMAT
  1
GRIDFORMAT_BEGIN
 90
        0
 91
        1
 62
     0
 92
       -2
340
14
 93
        0
 40
0.045
309
GRIDFORMAT_END
 95
       16
302
GRIDFORMAT
  1
GRIDFORMAT_BEGIN
 90
        0
 91
        1
 62
     0
 92
       -2
340
14
 93
        0
 40
0.045
309
GRIDFORMAT_END
 95
       32
302
GRIDFORMAT
  1
GRIDFORMAT_BEGIN
 90
        0
 91
        1
 62
     0
 92
       -2
340
14
 93
        0
 40
0.045
309
GRIDFORMAT_END
309
TABLEFORMAT_END
  1
CELLSTYLE_BEGIN
 90
        1
 91
        1
300
_TITLE
309
CELLSTYLE_END
300
CELLSTYLE
  1
TABLEFORMAT_BEGIN
 90
        5
170
     1
 91
        0
 92
        0
 62
   257
 93
        1
300
CONTENTFORMAT
  1
CONTENTFORMAT_BEGIN
 90
        0
 91
        0
 92
        4
 93
        0
300

 40
0.0
140
1.0
 94
        5
 62
     0
340
11
144
0.18
309
CONTENTFORMAT_END
171
     1
301
MARGIN
  1
CELLMARGIN_BEGIN
 40
0.06
 40
0.06
 40
0.06
 40
0.06
 40
0.06
 40
0.06
309
CELLMARGIN_END
 94
        6
 95
        1
302
GRIDFORMAT
  1
GRIDFORMAT_BEGIN
 90
        0
 91
        1
 62
     0
 92
       -2
340
14
 93
        0
 40
0.045
309
GRIDFORMAT_END
 95
        2
302
GRIDFORMAT
  1
GRIDFORMAT_BEGIN
 90
        0
 91
        1
 62
     0
 92
       -2
340
14
 93
        0
 40
0.045
309
GRIDFORMAT_END
 95
        4
302
GRIDFORMAT
  1
GRIDFORMAT_BEGIN
 90
        0
 91
        1
 62
     0
 92
       -2
340
14
 93
        0
 40
0.045
309
GRIDFORMAT_END
 95
        8
302
GRIDFORMAT
  1
GRIDFORMAT_BEGIN
 90
        0
 91
        1
 62
     0
 92
       -2
340
14
 93
        0
 40
0.045
309
GRIDFORMAT_END
 95
       16
302
GRIDFORMAT
  1
GRIDFORMAT_BEGIN
 90
        0
 91
        1
 62
     0
 92
       -2
340
14
 93
        0
 40
0.045
309
GRIDFORMAT_END
 95
       32
302
GRIDFORMAT
  1
GRIDFORMAT_BEGIN
 90
        0
 91
        1
 62
     0
 92
       -2
340
14
 93
        0
 40
0.045
309
GRIDFORMAT_END
309
TABLEFORMAT_END
  1
CELLSTYLE_BEGIN
 90
        2
 91
        1
300
_HEADER
309
CELLSTYLE_END
300
CELLSTYLE
  1
TABLEFORMAT_BEGIN
 90
        5
170
     1
 91
        0
 92
        0
 62
   257
 93
        1
300
CONTENTFORMAT
  1
CONTENTFORMAT_BEGIN
 90
        0
 91
        0
 92
        4
 93
        0
300

 40
0.0
140
1.0
 94
        2
 62
     0
340
11
144
0.18
309
CONTENTFORMAT_END
171
     1
301
MARGIN
  1
CELLMARGIN_BEGIN
 40
0.06
 40
0.06
 40
0.06
 40
0.06
 40
0.06
 40
0.06
309
CELLMARGIN_END
 94
        6
 95
        1
302
GRIDFORMAT
  1
GRIDFORMAT_BEGIN
 90
        0
 91
        1
 62
     0
 92
       -2
340
14
 93
        0
 40
0.045
309
GRIDFORMAT_END
 95
        2
302
GRIDFORMAT
  1
GRIDFORMAT_BEGIN
 90
        0
 91
        1
 62
     0
 92
       -2
340
14
 93
        0
 40
0.045
309
GRIDFORMAT_END
 95
        4
302
GRIDFORMAT
  1
GRIDFORMAT_BEGIN
 90
        0
 91
        1
 62
     0
 92
       -2
340
14
 93
        0
 40
0.045
309
GRIDFORMAT_END
 95
        8
302
GRIDFORMAT
  1
GRIDFORMAT_BEGIN
 90
        0
 91
        1
 62
     0
 92
       -2
340
14
 93
        0
 40
0.045
309
GRIDFORMAT_END
 95
       16
302
GRIDFORMAT
  1
GRIDFORMAT_BEGIN
 90
        0
 91
        1
 62
     0
 92
       -2
340
14
 93
        0
 40
0.045
309
GRIDFORMAT_END
 95
       32
302
GRIDFORMAT
  1
GRIDFORMAT_BEGIN
 90
        0
 91
        1
 62
     0
 92
       -2
340
14
 93
        0
 40
0.045
309
GRIDFORMAT_END
309
TABLEFORMAT_END
  1
CELLSTYLE_BEGIN
 90
        3
 91
        2
300
_DATA
309
CELLSTYLE_END
  0
XRECORD
  5
255
102
{ACAD_REACTORS
330
254
102
}
330
254
100
AcDbXrecord
280
     1
102
ACAD_ROUNDTRIP_PRE2007_TABLESTYLE
 90
        4
 91
        0
  1

 92
        4
 93
        0
  2

 94
        4
 95
        0
  3

  0
XRECORD
  5
227
102
{ACAD_REACTORS
330
226
102
}
330
226
100
AcDbXrecord
280
     1
102
RTVSPropertyOp0
 70
     1
102
RTVSPropertyOp1
 70
     1
102
RTVSPropertyOp2
 70
     1
102
RTVSPropertyOp3
 70
     1
102
RTVSPropertyOp4
 70
     1
102
RTVSPropertyOp5
 70
     1
102
RTVSPropertyOp6
 70
     1
102
RTVSPropertyOp7
 70
     1
102
RTVSPropertyOp8
 70
     1
102
RTVSPropertyOp9
 70
     1
102
RTVSPropertyOp10
 70
     1
102
RTVSPropertyOp11
 70
     1
102
RTVSPropertyOp12
 70
     1
102
RTVSPropertyOp13
 70
     1
102
RTVSPropertyOp14
 70
     1
102
RTVSPropertyOp15
 70
     1
102
RTVSPropertyOp16
 70
     1
102
RTVSPropertyOp17
 70
     1
102
RTVSPropertyOp18
 70
     1
102
RTVSPropertyOp19
 70
     1
102
RTVSPropertyOp20
 70
     1
102
RTVSPropertyOp21
 70
     1
102
RTVSPropertyOp22
 70
     1
102
RTVSPropertyOp23
 70
     1
102
RTVSPropertyOp24
 70
     1
102
RTVSPropertyOp25
 70
     1
102
RTVSPropertyOp26
 70
     1
102
RTVSPropertyOp27
 70
     1
102
RTVSPropertyOp28
 70
     1
102
RTVSPropertyOp29
 70
     1
102
RTVSPropertyOp30
 70
     1
102
RTVSPropertyOp31
 70
     1
102
RTVSPropertyOp32
 70
     1
102
RTVSPropertyOp33
 70
     1
102
RTVSPropertyOp34
 70
     1
102
RTVSPropertyOp35
 70
     1
102
RTVSPropertyOp36
 70
     1
102
RTVSPropertyOp37
 70
     1
102
RTVSPropertyOp38
 70
     1
102
RTVSPropertyOp39
 70
     1
102
RTVSPropertyOp40
 70
     1
102
RTVSPropertyOp41
 70
     1
102
RTVSPropertyOp42
 70
     1
102
RTVSPropertyOp43
 70
     1
102
RTVSPropertyOp44
 70
     1
102
RTVSPropertyOp45
 70
     1
102
RTVSPropertyOp46
 70
     1
102
RTVSPropertyOp47
 70
     1
102
RTVSPropertyOp48
 70
     1
102
RTVSPropertyOp49
 70
     1
102
RTVSPropertyOp50
 70
     1
102
RTVSPropertyOp51
 70
     0
102
RTVSPropertyOp52
 70
     0
102
RTVSPropertyOp53
 70
     1
102
RTVSPropertyOp54
 70
     1
102
RTVSPropertyOp55
 70
     1
102
RTVSPropertyOp56
 70
     1
102
RTVSPropertyOp57
 70
     1
102
RTVSPost2010Prop28
280
     1
102
RTVSPost2010PropOp28
 70
     1
102
RTVSPost2010Prop29
280
     1
102
RTVSPost2010PropOp29
 70
     1
102
RTVSPost2010Prop30
280
     0
102
RTVSPost2010PropOp30
 70
     1
102
RTVSPost2010Prop31
280
     0
102
RTVSPost2010PropOp31
 70
     1
102
RTVSPost2010Prop32
280
     0
102
RTVSPost2010PropOp32
 70
     1
102
RTVSPost2010Prop33
280
     0
102
RTVSPost2010PropOp33
 70
     1
102
RTVSPost2010Prop34
280
     0
102
RTVSPost2010PropOp34
 70
     1
102
RTVSPost2010Prop35
280
     0
102
RTVSPost2010PropOp35
 70
     1
102
RTVSPost2010Prop36
280
     0
102
RTVSPost2010PropOp36
 70
     1
102
RTVSPost2010Prop37
 90
       50
102
RTVSPost2010PropOp37
 70
     1
102
RTVSPost2010Prop38
140
0.0
102
RTVSPost2010PropOp38
 70
     1
102
RTVSPost2010Prop39
140
1.0
102
RTVSPost2010PropOp39
 70
     1
102
RTVSPost2010Prop40
 90
        0
102
RTVSPost2010PropOp40
 70
     1
102
RTVSPost2010Prop41ColorIndex
 90
       18
102
RTVSPost2010Prop41ColorRGB
 90
        0
102
RTVSPost2010PropOp41
 70
     1
102
RTVSPost2010Prop42
 90
       50
102
RTVSPost2010PropOp42
 70
     1
102
RTVSPost2010Prop43
 90
        3
102
RTVSPost2010PropOp43
 70
     1
102
RTVSPost2010Prop44ColorIndex
 90
        5
102
RTVSPost2010Prop44ColorRGB
 90
      255
102
RTVSPost2010PropOp44
 70
     1
102
RTVSPost2010Prop45
280
     0
102
RTVSPost2010PropOp45
 70
     1
102
RTVSPost2010Prop46
 90
       50
102
RTVSPost2010PropOp46
 70
     1
102
RTVSPost2010Prop47
 90
       50
102
RTVSPost2010PropOp47
 70
     1
102
RTVSPost2010Prop48
 90
       50
102
RTVSPost2010PropOp48
 70
     1
102
RTVSPost2010Prop49
280
     0
102
RTVSPost2010PropOp49
 70
     1
102
RTVSPost2010Prop50
 90
       50
102
RTVSPost2010PropOp50
 70
     1
102
RTVSPost2010Prop51ColorIndex
 90
      256
102
RTVSPost2010Prop51ColorRGB
 90
-16777216
102
RTVSPost2010PropOp51
 70
     0
102
RTVSPost2010Prop52
140
1.0
102
RTVSPost2010PropOp52
 70
     0
102
RTVSPost2010Prop53
 90
        2
102
RTVSPost2010PropOp53
 70
     1
102
RTVSPost2010Prop54
  1
strokes_ogs.tif
102
RTVSPost2010PropOp54
 70
     1
102
RTVSPost2010Prop55
280
     0
102
RTVSPost2010PropOp55
 70
     1
102
RTVSPost2010Prop56
140
1.0
102
RTVSPost2010PropOp56
 70
     1
102
RTVSPost2010Prop57
140
1.0
102
RTVSPost2010PropOp57
 70
     1
  0
XRECORD
  5
22D
102
{ACAD_REACTORS
330
22C
102
}
330
22C
100
AcDbXrecord
280
     1
102
RTVSPropertyOp0
 70
     1
102
RTVSPropertyOp1
 70
     1
102
RTVSPropertyOp2
 70
     1
102
RTVSPropertyOp3
 70
     1
102
RTVSPropertyOp4
 70
     1
102
RTVSPropertyOp5
 70
     1
102
RTVSPropertyOp6
 70
     1
102
RTVSPropertyOp7
 70
     1
102
RTVSPropertyOp8
 70
     1
102
RTVSPropertyOp9
 70
     1
102
RTVSPropertyOp10
 70
     1
102
RTVSPropertyOp11
 70
     1
102
RTVSPropertyOp12
 70
     1
102
RTVSPropertyOp13
 70
     1
102
RTVSPropertyOp14
 70
     1
102
RTVSPropertyOp15
 70
     1
102
RTVSPropertyOp16
 70
     1
102
RTVSPropertyOp17
 70
     1
102
RTVSPropertyOp18
 70
     1
102
RTVSPropertyOp19
 70
     1
102
RTVSPropertyOp20
 70
     1
102
RTVSPropertyOp21
 70
     1
102
RTVSPropertyOp22
 70
     1
102
RTVSPropertyOp23
 70
     1
102
RTVSPropertyOp24
 70
     1
102
RTVSPropertyOp25
 70
     1
102
RTVSPropertyOp26
 70
     1
102
RTVSPropertyOp27
 70
     1
102
RTVSPropertyOp28
 70
     1
102
RTVSPropertyOp29
 70
     1
102
RTVSPropertyOp30
 70
     1
102
RTVSPropertyOp31
 70
     1
102
RTVSPropertyOp32
 70
     1
102
RTVSPropertyOp33
 70
     1
102
RTVSPropertyOp34
 70
     1
102
RTVSPropertyOp35
 70
     1
102
RTVSPropertyOp36
 70
     1
102
RTVSPropertyOp37
 70
     1
102
RTVSPropertyOp38
 70
     1
102
RTVSPropertyOp39
 70
     1
102
RTVSPropertyOp40
 70
     1
102
RTVSPropertyOp41
 70
     1
102
RTVSPropertyOp42
 70
     1
102
RTVSPropertyOp43
 70
     1
102
RTVSPropertyOp44
 70
     1
102
RTVSPropertyOp45
 70
     1
102
RTVSPropertyOp46
 70
     1
102
RTVSPropertyOp47
 70
     1
102
RTVSPropertyOp48
 70
     1
102
RTVSPropertyOp49
 70
     1
102
RTVSPropertyOp50
 70
     1
102
RTVSPropertyOp51
 70
     0
102
RTVSPropertyOp52
 70
     0
102
RTVSPropertyOp53
 70
     1
102
RTVSPropertyOp54
 70
     1
102
RTVSPropertyOp55
 70
     1
102
RTVSPropertyOp56
 70
     1
102
RTVSPropertyOp57
 70
     1
102
RTVSPost2010Prop28
280
     0
102
RTVSPost2010PropOp28
 70
     1
102
RTVSPost2010Prop29
280
     1
102
RTVSPost2010PropOp29
 70
     1
102
RTVSPost2010Prop30
280
     1
102
RTVSPost2010PropOp30
 70
     1
102
RTVSPost2010Prop31
280
     0
102
RTVSPost2010PropOp31
 70
     1
102
RTVSPost2010Prop32
280
     0
102
RTVSPost2010PropOp32
 70
     1
102
RTVSPost2010Prop33
280
     0
102
RTVSPost2010PropOp33
 70
     1
102
RTVSPost2010Prop34
280
     0
102
RTVSPost2010PropOp34
 70
     1
102
RTVSPost2010Prop35
280
     0
102
RTVSPost2010PropOp35
 70
     1
102
RTVSPost2010Prop36
280
     0
102
RTVSPost2010PropOp36
 70
     1
102
RTVSPost2010Prop37
 90
       50
102
RTVSPost2010PropOp37
 70
     1
102
RTVSPost2010Prop38
140
0.0
102
RTVSPost2010PropOp38
 70
     1
102
RTVSPost2010Prop39
140
1.0
102
RTVSPost2010PropOp39
 70
     1
102
RTVSPost2010Prop40
 90
        0
102
RTVSPost2010PropOp40
 70
     1
102
RTVSPost2010Prop41ColorIndex
 90
       18
102
RTVSPost2010Prop41ColorRGB
 90
        0
102
RTVSPost2010PropOp41
 70
     1
102
RTVSPost2010Prop42
 90
       50
102
RTVSPost2010PropOp42
 70
     1
102
RTVSPost2010Prop43
 90
        3
102
RTVSPost2010PropOp43
 70
     1
102
RTVSPost2010Prop44ColorIndex
 90
        5
102
RTVSPost2010Prop44ColorRGB
 90
      255
102
RTVSPost2010PropOp44
 70
     1
102
RTVSPost2010Prop45
280
     0
102
RTVSPost2010PropOp45
 70
     1
102
RTVSPost2010Prop46
 90
       50
102
RTVSPost2010PropOp46
 70
     1
102
RTVSPost2010Prop47
 90
       50
102
RTVSPost2010PropOp47
 70
     1
102
RTVSPost2010Prop48
 90
       50
102
RTVSPost2010PropOp48
 70
     1
102
RTVSPost2010Prop49
280
     0
102
RTVSPost2010PropOp49
 70
     1
102
RTVSPost2010Prop50
 90
       50
102
RTVSPost2010PropOp50
 70
     1
102
RTVSPost2010Prop51ColorIndex
 90
      256
102
RTVSPost2010Prop51ColorRGB
 90
-16777216
102
RTVSPost2010PropOp51
 70
     0
102
RTVSPost2010Prop52
140
1.0
102
RTVSPost2010PropOp52
 70
     0
102
RTVSPost2010Prop53
 90
        2
102
RTVSPost2010PropOp53
 70
     1
102
RTVSPost2010Prop54
  1
strokes_ogs.tif
102
RTVSPost2010PropOp54
 70
     1
102
RTVSPost2010Prop55
280
     0
102
RTVSPost2010PropOp55
 70
     1
102
RTVSPost2010Prop56
140
1.0
102
RTVSPost2010PropOp56
 70
     1
102
RTVSPost2010Prop57
140
1.0
102
RTVSPost2010PropOp57
 70
     1
  0
XRECORD
  5
235
102
{ACAD_REACTORS
330
234
102
}
330
234
100
AcDbXrecord
280
     1
102
RTVSPropertyOp0
 70
     1
102
RTVSPropertyOp1
 70
     1
102
RTVSPropertyOp2
 70
     1
102
RTVSPropertyOp3
 70
     1
102
RTVSPropertyOp4
 70
     1
102
RTVSPropertyOp5
 70
     1
102
RTVSPropertyOp6
 70
     1
102
RTVSPropertyOp7
 70
     1
102
RTVSPropertyOp8
 70
     1
102
RTVSPropertyOp9
 70
     1
102
RTVSPropertyOp10
 70
     1
102
RTVSPropertyOp11
 70
     1
102
RTVSPropertyOp12
 70
     1
102
RTVSPropertyOp13
 70
     1
102
RTVSPropertyOp14
 70
     1
102
RTVSPropertyOp15
 70
     1
102
RTVSPropertyOp16
 70
     1
102
RTVSPropertyOp17
 70
     1
102
RTVSPropertyOp18
 70
     1
102
RTVSPropertyOp19
 70
     1
102
RTVSPropertyOp20
 70
     1
102
RTVSPropertyOp21
 70
     1
102
RTVSPropertyOp22
 70
     1
102
RTVSPropertyOp23
 70
     1
102
RTVSPropertyOp24
 70
     1
102
RTVSPropertyOp25
 70
     1
102
RTVSPropertyOp26
 70
     1
102
RTVSPropertyOp27
 70
     1
102
RTVSPropertyOp28
 70
     1
102
RTVSPropertyOp29
 70
     1
102
RTVSPropertyOp30
 70
     1
102
RTVSPropertyOp31
 70
     1
102
RTVSPropertyOp32
 70
     1
102
RTVSPropertyOp33
 70
     1
102
RTVSPropertyOp34
 70
     1
102
RTVSPropertyOp35
 70
     1
102
RTVSPropertyOp36
 70
     1
102
RTVSPropertyOp37
 70
     1
102
RTVSPropertyOp38
 70
     1
102
RTVSPropertyOp39
 70
     1
102
RTVSPropertyOp40
 70
     1
102
RTVSPropertyOp41
 70
     1
102
RTVSPropertyOp42
 70
     1
102
RTVSPropertyOp43
 70
     1
102
RTVSPropertyOp44
 70
     1
102
RTVSPropertyOp45
 70
     1
102
RTVSPropertyOp46
 70
     1
102
RTVSPropertyOp47
 70
     1
102
RTVSPropertyOp48
 70
     1
102
RTVSPropertyOp49
 70
     1
102
RTVSPropertyOp50
 70
     1
102
RTVSPropertyOp51
 70
     0
102
RTVSPropertyOp52
 70
     0
102
RTVSPropertyOp53
 70
     1
102
RTVSPropertyOp54
 70
     1
102
RTVSPropertyOp55
 70
     1
102
RTVSPropertyOp56
 70
     1
102
RTVSPropertyOp57
 70
     1
102
RTVSPost2010Prop28
280
     0
102
RTVSPost2010PropOp28
 70
     1
102
RTVSPost2010Prop29
280
     1
102
RTVSPost2010PropOp29
 70
     1
102
RTVSPost2010Prop30
280
     1
102
RTVSPost2010PropOp30
 70
     1
102
RTVSPost2010Prop31
280
     0
102
RTVSPost2010PropOp31
 70
     1
102
RTVSPost2010Prop32
280
     0
102
RTVSPost2010PropOp32
 70
     1
102
RTVSPost2010Prop33
280
     0
102
RTVSPost2010PropOp33
 70
     1
102
RTVSPost2010Prop34
280
     0
102
RTVSPost2010PropOp34
 70
     1
102
RTVSPost2010Prop35
280
     0
102
RTVSPost2010PropOp35
 70
     1
102
RTVSPost2010Prop36
280
     0
102
RTVSPost2010PropOp36
 70
     1
102
RTVSPost2010Prop37
 90
       50
102
RTVSPost2010PropOp37
 70
     1
102
RTVSPost2010Prop38
140
0.0
102
RTVSPost2010PropOp38
 70
     1
102
RTVSPost2010Prop39
140
1.0
102
RTVSPost2010PropOp39
 70
     1
102
RTVSPost2010Prop40
 90
        0
102
RTVSPost2010PropOp40
 70
     1
102
RTVSPost2010Prop41ColorIndex
 90
       18
102
RTVSPost2010Prop41ColorRGB
 90
        0
102
RTVSPost2010PropOp41
 70
     1
102
RTVSPost2010Prop42
 90
       50
102
RTVSPost2010PropOp42
 70
     1
102
RTVSPost2010Prop43
 90
        3
102
RTVSPost2010PropOp43
 70
     1
102
RTVSPost2010Prop44ColorIndex
 90
        5
102
RTVSPost2010Prop44ColorRGB
 90
      255
102
RTVSPost2010PropOp44
 70
     1
102
RTVSPost2010Prop45
280
     0
102
RTVSPost2010PropOp45
 70
     1
102
RTVSPost2010Prop46
 90
       50
102
RTVSPost2010PropOp46
 70
     1
102
RTVSPost2010Prop47
 90
       50
102
RTVSPost2010PropOp47
 70
     1
102
RTVSPost2010Prop48
 90
       50
102
RTVSPost2010PropOp48
 70
     1
102
RTVSPost2010Prop49
280
     0
102
RTVSPost2010PropOp49
 70
     1
102
RTVSPost2010Prop50
 90
       50
102
RTVSPost2010PropOp50
 70
     1
102
RTVSPost2010Prop51ColorIndex
 90
      256
102
RTVSPost2010Prop51ColorRGB
 90
-16777216
102
RTVSPost2010PropOp51
 70
     0
102
RTVSPost2010Prop52
140
1.0
102
RTVSPost2010PropOp52
 70
     0
102
RTVSPost2010Prop53
 90
        2
102
RTVSPost2010PropOp53
 70
     1
102
RTVSPost2010Prop54
  1
strokes_ogs.tif
102
RTVSPost2010PropOp54
 70
     1
102
RTVSPost2010Prop55
280
     0
102
RTVSPost2010PropOp55
 70
     1
102
RTVSPost2010Prop56
140
1.0
102
RTVSPost2010PropOp56
 70
     1
102
RTVSPost2010Prop57
140
1.0
102
RTVSPost2010PropOp57
 70
     1
  0
XRECORD
  5
23D
102
{ACAD_REACTORS
330
23C
102
}
330
23C
100
AcDbXrecord
280
     1
102
RTVSPropertyOp0
 70
     1
102
RTVSPropertyOp1
 70
     1
102
RTVSPropertyOp2
 70
     1
102
RTVSPropertyOp3
 70
     1
102
RTVSPropertyOp4
 70
     1
102
RTVSPropertyOp5
 70
     1
102
RTVSPropertyOp6
 70
     1
102
RTVSPropertyOp7
 70
     1
102
RTVSPropertyOp8
 70
     1
102
RTVSPropertyOp9
 70
     1
102
RTVSPropertyOp10
 70
     1
102
RTVSPropertyOp11
 70
     1
102
RTVSPropertyOp12
 70
     1
102
RTVSPropertyOp13
 70
     1
102
RTVSPropertyOp14
 70
     1
102
RTVSPropertyOp15
 70
     1
102
RTVSPropertyOp16
 70
     1
102
RTVSPropertyOp17
 70
     1
102
RTVSPropertyOp18
 70
     1
102
RTVSPropertyOp19
 70
     1
102
RTVSPropertyOp20
 70
     1
102
RTVSPropertyOp21
 70
     1
102
RTVSPropertyOp22
 70
     1
102
RTVSPropertyOp23
 70
     1
102
RTVSPropertyOp24
 70
     1
102
RTVSPropertyOp25
 70
     1
102
RTVSPropertyOp26
 70
     1
102
RTVSPropertyOp27
 70
     1
102
RTVSPropertyOp28
 70
     1
102
RTVSPropertyOp29
 70
     1
102
RTVSPropertyOp30
 70
     1
102
RTVSPropertyOp31
 70
     1
102
RTVSPropertyOp32
 70
     1
102
RTVSPropertyOp33
 70
     1
102
RTVSPropertyOp34
 70
     1
102
RTVSPropertyOp35
 70
     1
102
RTVSPropertyOp36
 70
     1
102
RTVSPropertyOp37
 70
     1
102
RTVSPropertyOp38
 70
     1
102
RTVSPropertyOp39
 70
     1
102
RTVSPropertyOp40
 70
     1
102
RTVSPropertyOp41
 70
     1
102
RTVSPropertyOp42
 70
     1
102
RTVSPropertyOp43
 70
     1
102
RTVSPropertyOp44
 70
     1
102
RTVSPropertyOp45
 70
     1
102
RTVSPropertyOp46
 70
     1
102
RTVSPropertyOp47
 70
     1
102
RTVSPropertyOp48
 70
     1
102
RTVSPropertyOp49
 70
     1
102
RTVSPropertyOp50
 70
     1
102
RTVSPropertyOp51
 70
     0
102
RTVSPropertyOp52
 70
     0
102
RTVSPropertyOp53
 70
     1
102
RTVSPropertyOp54
 70
     1
102
RTVSPropertyOp55
 70
     1
102
RTVSPropertyOp56
 70
     1
102
RTVSPropertyOp57
 70
     1
102
RTVSPost2010Prop28
280
     0
102
RTVSPost2010PropOp28
 70
     1
102
RTVSPost2010Prop29
280
     1
102
RTVSPost2010PropOp29
 70
     1
102
RTVSPost2010Prop30
280
     1
102
RTVSPost2010PropOp30
 70
     1
102
RTVSPost2010Prop31
280
     0
102
RTVSPost2010PropOp31
 70
     1
102
RTVSPost2010Prop32
280
     0
102
RTVSPost2010PropOp32
 70
     1
102
RTVSPost2010Prop33
280
     0
102
RTVSPost2010PropOp33
 70
     1
102
RTVSPost2010Prop34
280
     0
102
RTVSPost2010PropOp34
 70
     1
102
RTVSPost2010Prop35
280
     0
102
RTVSPost2010PropOp35
 70
     1
102
RTVSPost2010Prop36
280
     0
102
RTVSPost2010PropOp36
 70
     1
102
RTVSPost2010Prop37
 90
       50
102
RTVSPost2010PropOp37
 70
     1
102
RTVSPost2010Prop38
140
0.0
102
RTVSPost2010PropOp38
 70
     1
102
RTVSPost2010Prop39
140
1.0
102
RTVSPost2010PropOp39
 70
     1
102
RTVSPost2010Prop40
 90
        0
102
RTVSPost2010PropOp40
 70
     1
102
RTVSPost2010Prop41ColorIndex
 90
       18
102
RTVSPost2010Prop41ColorRGB
 90
        0
102
RTVSPost2010PropOp41
 70
     1
102
RTVSPost2010Prop42
 90
       50
102
RTVSPost2010PropOp42
 70
     1
102
RTVSPost2010Prop43
 90
        3
102
RTVSPost2010PropOp43
 70
     1
102
RTVSPost2010Prop44ColorIndex
 90
        5
102
RTVSPost2010Prop44ColorRGB
 90
      255
102
RTVSPost2010PropOp44
 70
     1
102
RTVSPost2010Prop45
280
     0
102
RTVSPost2010PropOp45
 70
     1
102
RTVSPost2010Prop46
 90
       50
102
RTVSPost2010PropOp46
 70
     1
102
RTVSPost2010Prop47
 90
       50
102
RTVSPost2010PropOp47
 70
     1
102
RTVSPost2010Prop48
 90
       50
102
RTVSPost2010PropOp48
 70
     1
102
RTVSPost2010Prop49
280
     0
102
RTVSPost2010PropOp49
 70
     1
102
RTVSPost2010Prop50
 90
       50
102
RTVSPost2010PropOp50
 70
     1
102
RTVSPost2010Prop51ColorIndex
 90
      256
102
RTVSPost2010Prop51ColorRGB
 90
-16777216
102
RTVSPost2010PropOp51
 70
     0
102
RTVSPost2010Prop52
140
1.0
102
RTVSPost2010PropOp52
 70
     0
102
RTVSPost2010Prop53
 90
        2
102
RTVSPost2010PropOp53
 70
     1
102
RTVSPost2010Prop54
  1
strokes_ogs.tif
102
RTVSPost2010PropOp54
 70
     1
102
RTVSPost2010Prop55
280
     0
102
RTVSPost2010PropOp55
 70
     1
102
RTVSPost2010Prop56
140
1.0
102
RTVSPost2010PropOp56
 70
     1
102
RTVSPost2010Prop57
140
1.0
102
RTVSPost2010PropOp57
 70
     1
  0
XRECORD
  5
231
102
{ACAD_REACTORS
330
230
102
}
330
230
100
AcDbXrecord
280
     1
102
RTVSPropertyOp0
 70
     1
102
RTVSPropertyOp1
 70
     1
102
RTVSPropertyOp2
 70
     1
102
RTVSPropertyOp3
 70
     1
102
RTVSPropertyOp4
 70
     1
102
RTVSPropertyOp5
 70
     1
102
RTVSPropertyOp6
 70
     1
102
RTVSPropertyOp7
 70
     1
102
RTVSPropertyOp8
 70
     1
102
RTVSPropertyOp9
 70
     1
102
RTVSPropertyOp10
 70
     1
102
RTVSPropertyOp11
 70
     1
102
RTVSPropertyOp12
 70
     1
102
RTVSPropertyOp13
 70
     1
102
RTVSPropertyOp14
 70
     1
102
RTVSPropertyOp15
 70
     1
102
RTVSPropertyOp16
 70
     1
102
RTVSPropertyOp17
 70
     1
102
RTVSPropertyOp18
 70
     1
102
RTVSPropertyOp19
 70
     1
102
RTVSPropertyOp20
 70
     1
102
RTVSPropertyOp21
 70
     1
102
RTVSPropertyOp22
 70
     1
102
RTVSPropertyOp23
 70
     1
102
RTVSPropertyOp24
 70
     1
102
RTVSPropertyOp25
 70
     1
102
RTVSPropertyOp26
 70
     1
102
RTVSPropertyOp27
 70
     1
102
RTVSPropertyOp28
 70
     1
102
RTVSPropertyOp29
 70
     1
102
RTVSPropertyOp30
 70
     1
102
RTVSPropertyOp31
 70
     1
102
RTVSPropertyOp32
 70
     1
102
RTVSPropertyOp33
 70
     1
102
RTVSPropertyOp34
 70
     1
102
RTVSPropertyOp35
 70
     1
102
RTVSPropertyOp36
 70
     1
102
RTVSPropertyOp37
 70
     1
102
RTVSPropertyOp38
 70
     1
102
RTVSPropertyOp39
 70
     1
102
RTVSPropertyOp40
 70
     1
102
RTVSPropertyOp41
 70
     1
102
RTVSPropertyOp42
 70
     1
102
RTVSPropertyOp43
 70
     1
102
RTVSPropertyOp44
 70
     1
102
RTVSPropertyOp45
 70
     1
102
RTVSPropertyOp46
 70
     1
102
RTVSPropertyOp47
 70
     1
102
RTVSPropertyOp48
 70
     1
102
RTVSPropertyOp49
 70
     1
102
RTVSPropertyOp50
 70
     1
102
RTVSPropertyOp51
 70
     0
102
RTVSPropertyOp52
 70
     0
102
RTVSPropertyOp53
 70
     1
102
RTVSPropertyOp54
 70
     1
102
RTVSPropertyOp55
 70
     1
102
RTVSPropertyOp56
 70
     1
102
RTVSPropertyOp57
 70
     1
102
RTVSPost2010Prop28
280
     0
102
RTVSPost2010PropOp28
 70
     1
102
RTVSPost2010Prop29
280
     1
102
RTVSPost2010PropOp29
 70
     1
102
RTVSPost2010Prop30
280
     1
102
RTVSPost2010PropOp30
 70
     1
102
RTVSPost2010Prop31
280
     0
102
RTVSPost2010PropOp31
 70
     1
102
RTVSPost2010Prop32
280
     0
102
RTVSPost2010PropOp32
 70
     1
102
RTVSPost2010Prop33
280
     0
102
RTVSPost2010PropOp33
 70
     1
102
RTVSPost2010Prop34
280
     0
102
RTVSPost2010PropOp34
 70
     1
102
RTVSPost2010Prop35
280
     0
102
RTVSPost2010PropOp35
 70
     1
102
RTVSPost2010Prop36
280
     0
102
RTVSPost2010PropOp36
 70
     1
102
RTVSPost2010Prop37
 90
       50
102
RTVSPost2010PropOp37
 70
     1
102
RTVSPost2010Prop38
140
0.0
102
RTVSPost2010PropOp38
 70
     1
102
RTVSPost2010Prop39
140
1.0
102
RTVSPost2010PropOp39
 70
     1
102
RTVSPost2010Prop40
 90
        0
102
RTVSPost2010PropOp40
 70
     1
102
RTVSPost2010Prop41ColorIndex
 90
       18
102
RTVSPost2010Prop41ColorRGB
 90
        0
102
RTVSPost2010PropOp41
 70
     1
102
RTVSPost2010Prop42
 90
       50
102
RTVSPost2010PropOp42
 70
     1
102
RTVSPost2010Prop43
 90
        3
102
RTVSPost2010PropOp43
 70
     1
102
RTVSPost2010Prop44ColorIndex
 90
        5
102
RTVSPost2010Prop44ColorRGB
 90
      255
102
RTVSPost2010PropOp44
 70
     1
102
RTVSPost2010Prop45
280
     0
102
RTVSPost2010PropOp45
 70
     1
102
RTVSPost2010Prop46
 90
       50
102
RTVSPost2010PropOp46
 70
     1
102
RTVSPost2010Prop47
 90
       50
102
RTVSPost2010PropOp47
 70
     1
102
RTVSPost2010Prop48
 90
       50
102
RTVSPost2010PropOp48
 70
     1
102
RTVSPost2010Prop49
280
     0
102
RTVSPost2010PropOp49
 70
     1
102
RTVSPost2010Prop50
 90
       50
102
RTVSPost2010PropOp50
 70
     1
102
RTVSPost2010Prop51ColorIndex
 90
      256
102
RTVSPost2010Prop51ColorRGB
 90
-16777216
102
RTVSPost2010PropOp51
 70
     0
102
RTVSPost2010Prop52
140
1.0
102
RTVSPost2010PropOp52
 70
     0
102
RTVSPost2010Prop53
 90
        2
102
RTVSPost2010PropOp53
 70
     1
102
RTVSPost2010Prop54
  1
strokes_ogs.tif
102
RTVSPost2010PropOp54
 70
     1
102
RTVSPost2010Prop55
280
     0
102
RTVSPost2010PropOp55
 70
     1
102
RTVSPost2010Prop56
140
1.0
102
RTVSPost2010PropOp56
 70
     1
102
RTVSPost2010Prop57
140
1.0
102
RTVSPost2010PropOp57
 70
     1
  0
XRECORD
  5
233
102
{ACAD_REACTORS
330
232
102
}
330
232
100
AcDbXrecord
280
     1
102
RTVSPropertyOp0
 70
     1
102
RTVSPropertyOp1
 70
     1
102
RTVSPropertyOp2
 70
     1
102
RTVSPropertyOp3
 70
     1
102
RTVSPropertyOp4
 70
     1
102
RTVSPropertyOp5
 70
     1
102
RTVSPropertyOp6
 70
     1
102
RTVSPropertyOp7
 70
     1
102
RTVSPropertyOp8
 70
     1
102
RTVSPropertyOp9
 70
     1
102
RTVSPropertyOp10
 70
     1
102
RTVSPropertyOp11
 70
     1
102
RTVSPropertyOp12
 70
     1
102
RTVSPropertyOp13
 70
     1
102
RTVSPropertyOp14
 70
     1
102
RTVSPropertyOp15
 70
     1
102
RTVSPropertyOp16
 70
     1
102
RTVSPropertyOp17
 70
     1
102
RTVSPropertyOp18
 70
     1
102
RTVSPropertyOp19
 70
     1
102
RTVSPropertyOp20
 70
     1
102
RTVSPropertyOp21
 70
     1
102
RTVSPropertyOp22
 70
     1
102
RTVSPropertyOp23
 70
     1
102
RTVSPropertyOp24
 70
     1
102
RTVSPropertyOp25
 70
     1
102
RTVSPropertyOp26
 70
     1
102
RTVSPropertyOp27
 70
     1
102
RTVSPropertyOp28
 70
     1
102
RTVSPropertyOp29
 70
     1
102
RTVSPropertyOp30
 70
     1
102
RTVSPropertyOp31
 70
     1
102
RTVSPropertyOp32
 70
     1
102
RTVSPropertyOp33
 70
     1
102
RTVSPropertyOp34
 70
     1
102
RTVSPropertyOp35
 70
     1
102
RTVSPropertyOp36
 70
     1
102
RTVSPropertyOp37
 70
     1
102
RTVSPropertyOp38
 70
     1
102
RTVSPropertyOp39
 70
     1
102
RTVSPropertyOp40
 70
     1
102
RTVSPropertyOp41
 70
     1
102
RTVSPropertyOp42
 70
     1
102
RTVSPropertyOp43
 70
     1
102
RTVSPropertyOp44
 70
     1
102
RTVSPropertyOp45
 70
     1
102
RTVSPropertyOp46
 70
     1
102
RTVSPropertyOp47
 70
     1
102
RTVSPropertyOp48
 70
     1
102
RTVSPropertyOp49
 70
     1
102
RTVSPropertyOp50
 70
     1
102
RTVSPropertyOp51
 70
     0
102
RTVSPropertyOp52
 70
     0
102
RTVSPropertyOp53
 70
     1
102
RTVSPropertyOp54
 70
     1
102
RTVSPropertyOp55
 70
     1
102
RTVSPropertyOp56
 70
     1
102
RTVSPropertyOp57
 70
     1
102
RTVSPost2010Prop28
280
     0
102
RTVSPost2010PropOp28
 70
     1
102
RTVSPost2010Prop29
280
     1
102
RTVSPost2010PropOp29
 70
     1
102
RTVSPost2010Prop30
280
     1
102
RTVSPost2010PropOp30
 70
     1
102
RTVSPost2010Prop31
280
     0
102
RTVSPost2010PropOp31
 70
     1
102
RTVSPost2010Prop32
280
     0
102
RTVSPost2010PropOp32
 70
     1
102
RTVSPost2010Prop33
280
     0
102
RTVSPost2010PropOp33
 70
     1
102
RTVSPost2010Prop34
280
     0
102
RTVSPost2010PropOp34
 70
     1
102
RTVSPost2010Prop35
280
     0
102
RTVSPost2010PropOp35
 70
     1
102
RTVSPost2010Prop36
280
     0
102
RTVSPost2010PropOp36
 70
     1
102
RTVSPost2010Prop37
 90
       50
102
RTVSPost2010PropOp37
 70
     1
102
RTVSPost2010Prop38
140
0.0
102
RTVSPost2010PropOp38
 70
     1
102
RTVSPost2010Prop39
140
1.0
102
RTVSPost2010PropOp39
 70
     1
102
RTVSPost2010Prop40
 90
        0
102
RTVSPost2010PropOp40
 70
     1
102
RTVSPost2010Prop41ColorIndex
 90
       18
102
RTVSPost2010Prop41ColorRGB
 90
        0
102
RTVSPost2010PropOp41
 70
     1
102
RTVSPost2010Prop42
 90
       50
102
RTVSPost2010PropOp42
 70
     1
102
RTVSPost2010Prop43
 90
        3
102
RTVSPost2010PropOp43
 70
     1
102
RTVSPost2010Prop44ColorIndex
 90
        5
102
RTVSPost2010Prop44ColorRGB
 90
      255
102
RTVSPost2010PropOp44
 70
     1
102
RTVSPost2010Prop45
280
     0
102
RTVSPost2010PropOp45
 70
     1
102
RTVSPost2010Prop46
 90
       50
102
RTVSPost2010PropOp46
 70
     1
102
RTVSPost2010Prop47
 90
       50
102
RTVSPost2010PropOp47
 70
     1
102
RTVSPost2010Prop48
 90
       50
102
RTVSPost2010PropOp48
 70
     1
102
RTVSPost2010Prop49
280
     0
102
RTVSPost2010PropOp49
 70
     1
102
RTVSPost2010Prop50
 90
       50
102
RTVSPost2010PropOp50
 70
     1
102
RTVSPost2010Prop51ColorIndex
 90
      256
102
RTVSPost2010Prop51ColorRGB
 90
-16777216
102
RTVSPost2010PropOp51
 70
     0
102
RTVSPost2010Prop52
140
1.0
102
RTVSPost2010PropOp52
 70
     0
102
RTVSPost2010Prop53
 90
        2
102
RTVSPost2010PropOp53
 70
     1
102
RTVSPost2010Prop54
  1
strokes_ogs.tif
102
RTVSPost2010PropOp54
 70
     1
102
RTVSPost2010Prop55
280
     0
102
RTVSPost2010PropOp55
 70
     1
102
RTVSPost2010Prop56
140
1.0
102
RTVSPost2010PropOp56
 70
     1
102
RTVSPost2010Prop57
140
1.0
102
RTVSPost2010PropOp57
 70
     1
  0
XRECORD
  5
243
102
{ACAD_REACTORS
330
242
102
}
330
242
100
AcDbXrecord
280
     1
102
RTVSPropertyOp0
 70
     0
102
RTVSPropertyOp1
 70
     0
102
RTVSPropertyOp2
 70
     0
102
RTVSPropertyOp3
 70
     0
102
RTVSPropertyOp4
 70
     0
102
RTVSPropertyOp5
 70
     0
102
RTVSPropertyOp6
 70
     0
102
RTVSPropertyOp7
 70
     0
102
RTVSPropertyOp8
 70
     0
102
RTVSPropertyOp9
 70
     0
102
RTVSPropertyOp10
 70
     0
102
RTVSPropertyOp11
 70
     0
102
RTVSPropertyOp12
 70
     0
102
RTVSPropertyOp13
 70
     0
102
RTVSPropertyOp14
 70
     2
102
RTVSPropertyOp15
 70
     0
102
RTVSPropertyOp16
 70
     0
102
RTVSPropertyOp17
 70
     0
102
RTVSPropertyOp18
 70
     0
102
RTVSPropertyOp19
 70
     0
102
RTVSPropertyOp20
 70
     0
102
RTVSPropertyOp21
 70
     0
102
RTVSPropertyOp22
 70
     0
102
RTVSPropertyOp23
 70
     0
102
RTVSPropertyOp24
 70
     0
102
RTVSPropertyOp25
 70
     0
102
RTVSPropertyOp26
 70
     0
102
RTVSPropertyOp27
 70
     0
102
RTVSPropertyOp28
 70
     0
102
RTVSPropertyOp29
 70
     0
102
RTVSPropertyOp30
 70
     0
102
RTVSPropertyOp31
 70
     0
102
RTVSPropertyOp32
 70
     0
102
RTVSPropertyOp33
 70
     0
102
RTVSPropertyOp34
 70
     0
102
RTVSPropertyOp35
 70
     0
102
RTVSPropertyOp36
 70
     0
102
RTVSPropertyOp37
 70
     0
102
RTVSPropertyOp38
 70
     0
102
RTVSPropertyOp39
 70
     0
102
RTVSPropertyOp40
 70
     0
102
RTVSPropertyOp41
 70
     0
102
RTVSPropertyOp42
 70
     0
102
RTVSPropertyOp43
 70
     0
102
RTVSPropertyOp44
 70
     0
102
RTVSPropertyOp45
 70
     0
102
RTVSPropertyOp46
 70
     0
102
RTVSPropertyOp47
 70
     0
102
RTVSPropertyOp48
 70
     0
102
RTVSPropertyOp49
 70
     0
102
RTVSPropertyOp50
 70
     0
102
RTVSPropertyOp51
 70
     0
102
RTVSPropertyOp52
 70
     0
102
RTVSPropertyOp53
 70
     0
102
RTVSPropertyOp54
 70
     0
102
RTVSPropertyOp55
 70
     0
102
RTVSPropertyOp56
 70
     0
102
RTVSPropertyOp57
 70
     0
102
RTVSPost2010Prop28
280
     0
102
RTVSPost2010PropOp28
 70
     0
102
RTVSPost2010Prop29
280
     1
102
RTVSPost2010PropOp29
 70
     0
102
RTVSPost2010Prop30
280
     1
102
RTVSPost2010PropOp30
 70
     0
102
RTVSPost2010Prop31
280
     0
102
RTVSPost2010PropOp31
 70
     0
102
RTVSPost2010Prop32
280
     0
102
RTVSPost2010PropOp32
 70
     0
102
RTVSPost2010Prop33
280
     0
102
RTVSPost2010PropOp33
 70
     0
102
RTVSPost2010Prop34
280
     0
102
RTVSPost2010PropOp34
 70
     0
102
RTVSPost2010Prop35
280
     0
102
RTVSPost2010PropOp35
 70
     0
102
RTVSPost2010Prop36
280
     0
102
RTVSPost2010PropOp36
 70
     0
102
RTVSPost2010Prop37
 90
       50
102
RTVSPost2010PropOp37
 70
     0
102
RTVSPost2010Prop38
140
0.0
102
RTVSPost2010PropOp38
 70
     0
102
RTVSPost2010Prop39
140
1.0
102
RTVSPost2010PropOp39
 70
     0
102
RTVSPost2010Prop40
 90
        0
102
RTVSPost2010PropOp40
 70
     0
102
RTVSPost2010Prop41ColorIndex
 90
       18
102
RTVSPost2010Prop41ColorRGB
 90
        0
102
RTVSPost2010PropOp41
 70
     0
102
RTVSPost2010Prop42
 90
       50
102
RTVSPost2010PropOp42
 70
     0
102
RTVSPost2010Prop43
 90
        3
102
RTVSPost2010PropOp43
 70
     0
102
RTVSPost2010Prop44ColorIndex
 90
        5
102
RTVSPost2010Prop44ColorRGB
 90
      255
102
RTVSPost2010PropOp44
 70
     0
102
RTVSPost2010Prop45
280
     0
102
RTVSPost2010PropOp45
 70
     0
102
RTVSPost2010Prop46
 90
       50
102
RTVSPost2010PropOp46
 70
     0
102
RTVSPost2010Prop47
 90
       50
102
RTVSPost2010PropOp47
 70
     0
102
RTVSPost2010Prop48
 90
       50
102
RTVSPost2010PropOp48
 70
     0
102
RTVSPost2010Prop49
280
     0
102
RTVSPost2010PropOp49
 70
     0
102
RTVSPost2010Prop50
 90
       50
102
RTVSPost2010PropOp50
 70
     0
102
RTVSPost2010Prop51ColorIndex
 90
      256
102
RTVSPost2010Prop51ColorRGB
 90
-16777216
102
RTVSPost2010PropOp51
 70
     0
102
RTVSPost2010Prop52
140
1.0
102
RTVSPost2010PropOp52
 70
     0
102
RTVSPost2010Prop53
 90
        2
102
RTVSPost2010PropOp53
 70
     0
102
RTVSPost2010Prop54
  1
strokes_ogs.tif
102
RTVSPost2010PropOp54
 70
     0
102
RTVSPost2010Prop55
280
     0
102
RTVSPost2010PropOp55
 70
     0
102
RTVSPost2010Prop56
140
1.0
102
RTVSPost2010PropOp56
 70
     0
102
RTVSPost2010Prop57
140
1.0
102
RTVSPost2010PropOp57
 70
     0
  0
XRECORD
  5
23B
102
{ACAD_REACTORS
330
23A
102
}
330
23A
100
AcDbXrecord
280
     1
102
RTVSPropertyOp0
 70
     1
102
RTVSPropertyOp1
 70
     1
102
RTVSPropertyOp2
 70
     1
102
RTVSPropertyOp3
 70
     1
102
RTVSPropertyOp4
 70
     1
102
RTVSPropertyOp5
 70
     1
102
RTVSPropertyOp6
 70
     1
102
RTVSPropertyOp7
 70
     1
102
RTVSPropertyOp8
 70
     1
102
RTVSPropertyOp9
 70
     1
102
RTVSPropertyOp10
 70
     1
102
RTVSPropertyOp11
 70
     1
102
RTVSPropertyOp12
 70
     1
102
RTVSPropertyOp13
 70
     1
102
RTVSPropertyOp14
 70
     1
102
RTVSPropertyOp15
 70
     1
102
RTVSPropertyOp16
 70
     1
102
RTVSPropertyOp17
 70
     1
102
RTVSPropertyOp18
 70
     1
102
RTVSPropertyOp19
 70
     1
102
RTVSPropertyOp20
 70
     1
102
RTVSPropertyOp21
 70
     1
102
RTVSPropertyOp22
 70
     1
102
RTVSPropertyOp23
 70
     1
102
RTVSPropertyOp24
 70
     1
102
RTVSPropertyOp25
 70
     1
102
RTVSPropertyOp26
 70
     1
102
RTVSPropertyOp27
 70
     1
102
RTVSPropertyOp28
 70
     1
102
RTVSPropertyOp29
 70
     1
102
RTVSPropertyOp30
 70
     1
102
RTVSPropertyOp31
 70
     1
102
RTVSPropertyOp32
 70
     1
102
RTVSPropertyOp33
 70
     1
102
RTVSPropertyOp34
 70
     1
102
RTVSPropertyOp35
 70
     1
102
RTVSPropertyOp36
 70
     1
102
RTVSPropertyOp37
 70
     1
102
RTVSPropertyOp38
 70
     1
102
RTVSPropertyOp39
 70
     1
102
RTVSPropertyOp40
 70
     1
102
RTVSPropertyOp41
 70
     1
102
RTVSPropertyOp42
 70
     1
102
RTVSPropertyOp43
 70
     1
102
RTVSPropertyOp44
 70
     1
102
RTVSPropertyOp45
 70
     1
102
RTVSPropertyOp46
 70
     1
102
RTVSPropertyOp47
 70
     1
102
RTVSPropertyOp48
 70
     1
102
RTVSPropertyOp49
 70
     1
102
RTVSPropertyOp50
 70
     1
102
RTVSPropertyOp51
 70
     0
102
RTVSPropertyOp52
 70
     0
102
RTVSPropertyOp53
 70
     1
102
RTVSPropertyOp54
 70
     1
102
RTVSPropertyOp55
 70
     1
102
RTVSPropertyOp56
 70
     1
102
RTVSPropertyOp57
 70
     1
102
RTVSPost2010Prop28
280
     0
102
RTVSPost2010PropOp28
 70
     1
102
RTVSPost2010Prop29
280
     1
102
RTVSPost2010PropOp29
 70
     1
102
RTVSPost2010Prop30
280
     1
102
RTVSPost2010PropOp30
 70
     1
102
RTVSPost2010Prop31
280
     0
102
RTVSPost2010PropOp31
 70
     1
102
RTVSPost2010Prop32
280
     0
102
RTVSPost2010PropOp32
 70
     1
102
RTVSPost2010Prop33
280
     0
102
RTVSPost2010PropOp33
 70
     1
102
RTVSPost2010Prop34
280
     0
102
RTVSPost2010PropOp34
 70
     1
102
RTVSPost2010Prop35
280
     0
102
RTVSPost2010PropOp35
 70
     1
102
RTVSPost2010Prop36
280
     0
102
RTVSPost2010PropOp36
 70
     1
102
RTVSPost2010Prop37
 90
       50
102
RTVSPost2010PropOp37
 70
     1
102
RTVSPost2010Prop38
140
0.0
102
RTVSPost2010PropOp38
 70
     1
102
RTVSPost2010Prop39
140
1.0
102
RTVSPost2010PropOp39
 70
     1
102
RTVSPost2010Prop40
 90
        0
102
RTVSPost2010PropOp40
 70
     1
102
RTVSPost2010Prop41ColorIndex
 90
       18
102
RTVSPost2010Prop41ColorRGB
 90
        0
102
RTVSPost2010PropOp41
 70
     1
102
RTVSPost2010Prop42
 90
       50
102
RTVSPost2010PropOp42
 70
     1
102
RTVSPost2010Prop43
 90
        3
102
RTVSPost2010PropOp43
 70
     1
102
RTVSPost2010Prop44ColorIndex
 90
        5
102
RTVSPost2010Prop44ColorRGB
 90
      255
102
RTVSPost2010PropOp44
 70
     1
102
RTVSPost2010Prop45
280
     0
102
RTVSPost2010PropOp45
 70
     1
102
RTVSPost2010Prop46
 90
       50
102
RTVSPost2010PropOp46
 70
     1
102
RTVSPost2010Prop47
 90
       50
102
RTVSPost2010PropOp47
 70
     1
102
RTVSPost2010Prop48
 90
       50
102
RTVSPost2010PropOp48
 70
     1
102
RTVSPost2010Prop49
280
     0
102
RTVSPost2010PropOp49
 70
     1
102
RTVSPost2010Prop50
 90
       50
102
RTVSPost2010PropOp50
 70
     1
102
RTVSPost2010Prop51ColorIndex
 90
      256
102
RTVSPost2010Prop51ColorRGB
 90
-16777216
102
RTVSPost2010PropOp51
 70
     0
102
RTVSPost2010Prop52
140
1.0
102
RTVSPost2010PropOp52
 70
     0
102
RTVSPost2010Prop53
 90
        2
102
RTVSPost2010PropOp53
 70
     1
102
RTVSPost2010Prop54
  1
strokes_ogs.tif
102
RTVSPost2010PropOp54
 70
     1
102
RTVSPost2010Prop55
280
     0
102
RTVSPost2010PropOp55
 70
     1
102
RTVSPost2010Prop56
140
1.0
102
RTVSPost2010PropOp56
 70
     1
102
RTVSPost2010Prop57
140
1.0
102
RTVSPost2010PropOp57
 70
     1
  0
XRECORD
  5
21F
102
{ACAD_REACTORS
330
21E
102
}
330
21E
100
AcDbXrecord
280
     1
102
RTVSPropertyOp0
 70
     1
102
RTVSPropertyOp1
 70
     1
102
RTVSPropertyOp2
 70
     1
102
RTVSPropertyOp3
 70
     1
102
RTVSPropertyOp4
 70
     1
102
RTVSPropertyOp5
 70
     1
102
RTVSPropertyOp6
 70
     1
102
RTVSPropertyOp7
 70
     1
102
RTVSPropertyOp8
 70
     1
102
RTVSPropertyOp9
 70
     1
102
RTVSPropertyOp10
 70
     1
102
RTVSPropertyOp11
 70
     1
102
RTVSPropertyOp12
 70
     1
102
RTVSPropertyOp13
 70
     1
102
RTVSPropertyOp14
 70
     1
102
RTVSPropertyOp15
 70
     1
102
RTVSPropertyOp16
 70
     1
102
RTVSPropertyOp17
 70
     1
102
RTVSPropertyOp18
 70
     1
102
RTVSPropertyOp19
 70
     1
102
RTVSPropertyOp20
 70
     1
102
RTVSPropertyOp21
 70
     1
102
RTVSPropertyOp22
 70
     1
102
RTVSPropertyOp23
 70
     1
102
RTVSPropertyOp24
 70
     1
102
RTVSPropertyOp25
 70
     1
102
RTVSPropertyOp26
 70
     1
102
RTVSPropertyOp27
 70
     1
102
RTVSPropertyOp28
 70
     1
102
RTVSPropertyOp29
 70
     1
102
RTVSPropertyOp30
 70
     1
102
RTVSPropertyOp31
 70
     1
102
RTVSPropertyOp32
 70
     1
102
RTVSPropertyOp33
 70
     1
102
RTVSPropertyOp34
 70
     1
102
RTVSPropertyOp35
 70
     1
102
RTVSPropertyOp36
 70
     1
102
RTVSPropertyOp37
 70
     1
102
RTVSPropertyOp38
 70
     1
102
RTVSPropertyOp39
 70
     1
102
RTVSPropertyOp40
 70
     1
102
RTVSPropertyOp41
 70
     1
102
RTVSPropertyOp42
 70
     1
102
RTVSPropertyOp43
 70
     1
102
RTVSPropertyOp44
 70
     1
102
RTVSPropertyOp45
 70
     1
102
RTVSPropertyOp46
 70
     1
102
RTVSPropertyOp47
 70
     1
102
RTVSPropertyOp48
 70
     1
102
RTVSPropertyOp49
 70
     1
102
RTVSPropertyOp50
 70
     1
102
RTVSPropertyOp51
 70
     0
102
RTVSPropertyOp52
 70
     0
102
RTVSPropertyOp53
 70
     1
102
RTVSPropertyOp54
 70
     1
102
RTVSPropertyOp55
 70
     1
102
RTVSPropertyOp56
 70
     1
102
RTVSPropertyOp57
 70
     1
102
RTVSPost2010Prop28
280
     0
102
RTVSPost2010PropOp28
 70
     1
102
RTVSPost2010Prop29
280
     1
102
RTVSPost2010PropOp29
 70
     1
102
RTVSPost2010Prop30
280
     1
102
RTVSPost2010PropOp30
 70
     1
102
RTVSPost2010Prop31
280
     0
102
RTVSPost2010PropOp31
 70
     1
102
RTVSPost2010Prop32
280
     0
102
RTVSPost2010PropOp32
 70
     1
102
RTVSPost2010Prop33
280
     0
102
RTVSPost2010PropOp33
 70
     1
102
RTVSPost2010Prop34
280
     0
102
RTVSPost2010PropOp34
 70
     1
102
RTVSPost2010Prop35
280
     0
102
RTVSPost2010PropOp35
 70
     1
102
RTVSPost2010Prop36
280
     0
102
RTVSPost2010PropOp36
 70
     1
102
RTVSPost2010Prop37
 90
       50
102
RTVSPost2010PropOp37
 70
     1
102
RTVSPost2010Prop38
140
0.0
102
RTVSPost2010PropOp38
 70
     1
102
RTVSPost2010Prop39
140
1.0
102
RTVSPost2010PropOp39
 70
     1
102
RTVSPost2010Prop40
 90
        0
102
RTVSPost2010PropOp40
 70
     1
102
RTVSPost2010Prop41ColorIndex
 90
       18
102
RTVSPost2010Prop41ColorRGB
 90
        0
102
RTVSPost2010PropOp41
 70
     1
102
RTVSPost2010Prop42
 90
       50
102
RTVSPost2010PropOp42
 70
     1
102
RTVSPost2010Prop43
 90
        3
102
RTVSPost2010PropOp43
 70
     1
102
RTVSPost2010Prop44ColorIndex
 90
        5
102
RTVSPost2010Prop44ColorRGB
 90
      255
102
RTVSPost2010PropOp44
 70
     1
102
RTVSPost2010Prop45
280
     0
102
RTVSPost2010PropOp45
 70
     1
102
RTVSPost2010Prop46
 90
       50
102
RTVSPost2010PropOp46
 70
     1
102
RTVSPost2010Prop47
 90
       50
102
RTVSPost2010PropOp47
 70
     1
102
RTVSPost2010Prop48
 90
       50
102
RTVSPost2010PropOp48
 70
     1
102
RTVSPost2010Prop49
280
     0
102
RTVSPost2010PropOp49
 70
     1
102
RTVSPost2010Prop50
 90
       50
102
RTVSPost2010PropOp50
 70
     1
102
RTVSPost2010Prop51ColorIndex
 90
      256
102
RTVSPost2010Prop51ColorRGB
 90
-16777216
102
RTVSPost2010PropOp51
 70
     0
102
RTVSPost2010Prop52
140
1.0
102
RTVSPost2010PropOp52
 70
     0
102
RTVSPost2010Prop53
 90
        2
102
RTVSPost2010PropOp53
 70
     1
102
RTVSPost2010Prop54
  1
strokes_ogs.tif
102
RTVSPost2010PropOp54
 70
     1
102
RTVSPost2010Prop55
280
     0
102
RTVSPost2010PropOp55
 70
     1
102
RTVSPost2010Prop56
140
1.0
102
RTVSPost2010PropOp56
 70
     1
102
RTVSPost2010Prop57
140
1.0
102
RTVSPost2010PropOp57
 70
     1
  0
XRECORD
  5
221
102
{ACAD_REACTORS
330
220
102
}
330
220
100
AcDbXrecord
280
     1
102
RTVSPropertyOp0
 70
     1
102
RTVSPropertyOp1
 70
     1
102
RTVSPropertyOp2
 70
     1
102
RTVSPropertyOp3
 70
     1
102
RTVSPropertyOp4
 70
     1
102
RTVSPropertyOp5
 70
     1
102
RTVSPropertyOp6
 70
     1
102
RTVSPropertyOp7
 70
     1
102
RTVSPropertyOp8
 70
     1
102
RTVSPropertyOp9
 70
     1
102
RTVSPropertyOp10
 70
     1
102
RTVSPropertyOp11
 70
     1
102
RTVSPropertyOp12
 70
     1
102
RTVSPropertyOp13
 70
     1
102
RTVSPropertyOp14
 70
     1
102
RTVSPropertyOp15
 70
     1
102
RTVSPropertyOp16
 70
     1
102
RTVSPropertyOp17
 70
     1
102
RTVSPropertyOp18
 70
     1
102
RTVSPropertyOp19
 70
     1
102
RTVSPropertyOp20
 70
     1
102
RTVSPropertyOp21
 70
     1
102
RTVSPropertyOp22
 70
     1
102
RTVSPropertyOp23
 70
     1
102
RTVSPropertyOp24
 70
     1
102
RTVSPropertyOp25
 70
     1
102
RTVSPropertyOp26
 70
     1
102
RTVSPropertyOp27
 70
     1
102
RTVSPropertyOp28
 70
     1
102
RTVSPropertyOp29
 70
     1
102
RTVSPropertyOp30
 70
     1
102
RTVSPropertyOp31
 70
     1
102
RTVSPropertyOp32
 70
     1
102
RTVSPropertyOp33
 70
     1
102
RTVSPropertyOp34
 70
     1
102
RTVSPropertyOp35
 70
     1
102
RTVSPropertyOp36
 70
     1
102
RTVSPropertyOp37
 70
     1
102
RTVSPropertyOp38
 70
     1
102
RTVSPropertyOp39
 70
     1
102
RTVSPropertyOp40
 70
     1
102
RTVSPropertyOp41
 70
     1
102
RTVSPropertyOp42
 70
     1
102
RTVSPropertyOp43
 70
     1
102
RTVSPropertyOp44
 70
     1
102
RTVSPropertyOp45
 70
     1
102
RTVSPropertyOp46
 70
     1
102
RTVSPropertyOp47
 70
     1
102
RTVSPropertyOp48
 70
     1
102
RTVSPropertyOp49
 70
     1
102
RTVSPropertyOp50
 70
     1
102
RTVSPropertyOp51
 70
     0
102
RTVSPropertyOp52
 70
     0
102
RTVSPropertyOp53
 70
     1
102
RTVSPropertyOp54
 70
     1
102
RTVSPropertyOp55
 70
     1
102
RTVSPropertyOp56
 70
     1
102
RTVSPropertyOp57
 70
     1
102
RTVSPost2010Prop28
280
     0
102
RTVSPost2010PropOp28
 70
     1
102
RTVSPost2010Prop29
280
     1
102
RTVSPost2010PropOp29
 70
     1
102
RTVSPost2010Prop30
280
     1
102
RTVSPost2010PropOp30
 70
     1
102
RTVSPost2010Prop31
280
     0
102
RTVSPost2010PropOp31
 70
     1
102
RTVSPost2010Prop32
280
     0
102
RTVSPost2010PropOp32
 70
     1
102
RTVSPost2010Prop33
280
     0
102
RTVSPost2010PropOp33
 70
     1
102
RTVSPost2010Prop34
280
     0
102
RTVSPost2010PropOp34
 70
     1
102
RTVSPost2010Prop35
280
     0
102
RTVSPost2010PropOp35
 70
     1
102
RTVSPost2010Prop36
280
     0
102
RTVSPost2010PropOp36
 70
     1
102
RTVSPost2010Prop37
 90
       50
102
RTVSPost2010PropOp37
 70
     1
102
RTVSPost2010Prop38
140
0.0
102
RTVSPost2010PropOp38
 70
     1
102
RTVSPost2010Prop39
140
1.0
102
RTVSPost2010PropOp39
 70
     1
102
RTVSPost2010Prop40
 90
        0
102
RTVSPost2010PropOp40
 70
     1
102
RTVSPost2010Prop41ColorIndex
 90
       18
102
RTVSPost2010Prop41ColorRGB
 90
        0
102
RTVSPost2010PropOp41
 70
     1
102
RTVSPost2010Prop42
 90
       50
102
RTVSPost2010PropOp42
 70
     1
102
RTVSPost2010Prop43
 90
        3
102
RTVSPost2010PropOp43
 70
     1
102
RTVSPost2010Prop44ColorIndex
 90
        5
102
RTVSPost2010Prop44ColorRGB
 90
      255
102
RTVSPost2010PropOp44
 70
     1
102
RTVSPost2010Prop45
280
     0
102
RTVSPost2010PropOp45
 70
     1
102
RTVSPost2010Prop46
 90
       50
102
RTVSPost2010PropOp46
 70
     1
102
RTVSPost2010Prop47
 90
       50
102
RTVSPost2010PropOp47
 70
     1
102
RTVSPost2010Prop48
 90
       50
102
RTVSPost2010PropOp48
 70
     1
102
RTVSPost2010Prop49
280
     0
102
RTVSPost2010PropOp49
 70
     1
102
RTVSPost2010Prop50
 90
       50
102
RTVSPost2010PropOp50
 70
     1
102
RTVSPost2010Prop51ColorIndex
 90
      256
102
RTVSPost2010Prop51ColorRGB
 90
-16777216
102
RTVSPost2010PropOp51
 70
     0
102
RTVSPost2010Prop52
140
1.0
102
RTVSPost2010PropOp52
 70
     0
102
RTVSPost2010Prop53
 90
        2
102
RTVSPost2010PropOp53
 70
     1
102
RTVSPost2010Prop54
  1
strokes_ogs.tif
102
RTVSPost2010PropOp54
 70
     1
102
RTVSPost2010Prop55
280
     0
102
RTVSPost2010PropOp55
 70
     1
102
RTVSPost2010Prop56
140
1.0
102
RTVSPost2010PropOp56
 70
     1
102
RTVSPost2010Prop57
140
1.0
102
RTVSPost2010PropOp57
 70
     1
  0
XRECORD
  5
223
102
{ACAD_REACTORS
330
222
102
}
330
222
100
AcDbXrecord
280
     1
102
RTVSPropertyOp0
 70
     1
102
RTVSPropertyOp1
 70
     1
102
RTVSPropertyOp2
 70
     1
102
RTVSPropertyOp3
 70
     1
102
RTVSPropertyOp4
 70
     1
102
RTVSPropertyOp5
 70
     1
102
RTVSPropertyOp6
 70
     1
102
RTVSPropertyOp7
 70
     1
102
RTVSPropertyOp8
 70
     1
102
RTVSPropertyOp9
 70
     1
102
RTVSPropertyOp10
 70
     1
102
RTVSPropertyOp11
 70
     1
102
RTVSPropertyOp12
 70
     1
102
RTVSPropertyOp13
 70
     1
102
RTVSPropertyOp14
 70
     1
102
RTVSPropertyOp15
 70
     1
102
RTVSPropertyOp16
 70
     1
102
RTVSPropertyOp17
 70
     1
102
RTVSPropertyOp18
 70
     1
102
RTVSPropertyOp19
 70
     1
102
RTVSPropertyOp20
 70
     1
102
RTVSPropertyOp21
 70
     1
102
RTVSPropertyOp22
 70
     1
102
RTVSPropertyOp23
 70
     1
102
RTVSPropertyOp24
 70
     1
102
RTVSPropertyOp25
 70
     1
102
RTVSPropertyOp26
 70
     1
102
RTVSPropertyOp27
 70
     1
102
RTVSPropertyOp28
 70
     1
102
RTVSPropertyOp29
 70
     1
102
RTVSPropertyOp30
 70
     1
102
RTVSPropertyOp31
 70
     1
102
RTVSPropertyOp32
 70
     1
102
RTVSPropertyOp33
 70
     1
102
RTVSPropertyOp34
 70
     1
102
RTVSPropertyOp35
 70
     1
102
RTVSPropertyOp36
 70
     1
102
RTVSPropertyOp37
 70
     1
102
RTVSPropertyOp38
 70
     1
102
RTVSPropertyOp39
 70
     1
102
RTVSPropertyOp40
 70
     1
102
RTVSPropertyOp41
 70
     1
102
RTVSPropertyOp42
 70
     1
102
RTVSPropertyOp43
 70
     1
102
RTVSPropertyOp44
 70
     1
102
RTVSPropertyOp45
 70
     1
102
RTVSPropertyOp46
 70
     1
102
RTVSPropertyOp47
 70
     1
102
RTVSPropertyOp48
 70
     1
102
RTVSPropertyOp49
 70
     1
102
RTVSPropertyOp50
 70
     1
102
RTVSPropertyOp51
 70
     0
102
RTVSPropertyOp52
 70
     0
102
RTVSPropertyOp53
 70
     1
102
RTVSPropertyOp54
 70
     1
102
RTVSPropertyOp55
 70
     1
102
RTVSPropertyOp56
 70
     1
102
RTVSPropertyOp57
 70
     1
102
RTVSPost2010Prop28
280
     0
102
RTVSPost2010PropOp28
 70
     1
102
RTVSPost2010Prop29
280
     1
102
RTVSPost2010PropOp29
 70
     1
102
RTVSPost2010Prop30
280
     1
102
RTVSPost2010PropOp30
 70
     1
102
RTVSPost2010Prop31
280
     0
102
RTVSPost2010PropOp31
 70
     1
102
RTVSPost2010Prop32
280
     0
102
RTVSPost2010PropOp32
 70
     1
102
RTVSPost2010Prop33
280
     0
102
RTVSPost2010PropOp33
 70
     1
102
RTVSPost2010Prop34
280
     0
102
RTVSPost2010PropOp34
 70
     1
102
RTVSPost2010Prop35
280
     0
102
RTVSPost2010PropOp35
 70
     1
102
RTVSPost2010Prop36
280
     0
102
RTVSPost2010PropOp36
 70
     1
102
RTVSPost2010Prop37
 90
       50
102
RTVSPost2010PropOp37
 70
     1
102
RTVSPost2010Prop38
140
0.0
102
RTVSPost2010PropOp38
 70
     1
102
RTVSPost2010Prop39
140
1.0
102
RTVSPost2010PropOp39
 70
     1
102
RTVSPost2010Prop40
 90
        0
102
RTVSPost2010PropOp40
 70
     1
102
RTVSPost2010Prop41ColorIndex
 90
       18
102
RTVSPost2010Prop41ColorRGB
 90
        0
102
RTVSPost2010PropOp41
 70
     1
102
RTVSPost2010Prop42
 90
       50
102
RTVSPost2010PropOp42
 70
     1
102
RTVSPost2010Prop43
 90
        3
102
RTVSPost2010PropOp43
 70
     1
102
RTVSPost2010Prop44ColorIndex
 90
        5
102
RTVSPost2010Prop44ColorRGB
 90
      255
102
RTVSPost2010PropOp44
 70
     1
102
RTVSPost2010Prop45
280
     0
102
RTVSPost2010PropOp45
 70
     1
102
RTVSPost2010Prop46
 90
       50
102
RTVSPost2010PropOp46
 70
     1
102
RTVSPost2010Prop47
 90
       50
102
RTVSPost2010PropOp47
 70
     1
102
RTVSPost2010Prop48
 90
       50
102
RTVSPost2010PropOp48
 70
     1
102
RTVSPost2010Prop49
280
     0
102
RTVSPost2010PropOp49
 70
     1
102
RTVSPost2010Prop50
 90
       50
102
RTVSPost2010PropOp50
 70
     1
102
RTVSPost2010Prop51ColorIndex
 90
      256
102
RTVSPost2010Prop51ColorRGB
 90
-16777216
102
RTVSPost2010PropOp51
 70
     0
102
RTVSPost2010Prop52
140
1.0
102
RTVSPost2010PropOp52
 70
     0
102
RTVSPost2010Prop53
 90
        2
102
RTVSPost2010PropOp53
 70
     1
102
RTVSPost2010Prop54
  1
strokes_ogs.tif
102
RTVSPost2010PropOp54
 70
     1
102
RTVSPost2010Prop55
280
     0
102
RTVSPost2010PropOp55
 70
     1
102
RTVSPost2010Prop56
140
1.0
102
RTVSPost2010PropOp56
 70
     1
102
RTVSPost2010Prop57
140
1.0
102
RTVSPost2010PropOp57
 70
     1
  0
XRECORD
  5
225
102
{ACAD_REACTORS
330
224
102
}
330
224
100
AcDbXrecord
280
     1
102
RTVSPropertyOp0
 70
     1
102
RTVSPropertyOp1
 70
     1
102
RTVSPropertyOp2
 70
     1
102
RTVSPropertyOp3
 70
     1
102
RTVSPropertyOp4
 70
     1
102
RTVSPropertyOp5
 70
     1
102
RTVSPropertyOp6
 70
     1
102
RTVSPropertyOp7
 70
     1
102
RTVSPropertyOp8
 70
     1
102
RTVSPropertyOp9
 70
     1
102
RTVSPropertyOp10
 70
     1
102
RTVSPropertyOp11
 70
     1
102
RTVSPropertyOp12
 70
     1
102
RTVSPropertyOp13
 70
     1
102
RTVSPropertyOp14
 70
     1
102
RTVSPropertyOp15
 70
     1
102
RTVSPropertyOp16
 70
     1
102
RTVSPropertyOp17
 70
     1
102
RTVSPropertyOp18
 70
     1
102
RTVSPropertyOp19
 70
     1
102
RTVSPropertyOp20
 70
     1
102
RTVSPropertyOp21
 70
     1
102
RTVSPropertyOp22
 70
     1
102
RTVSPropertyOp23
 70
     1
102
RTVSPropertyOp24
 70
     1
102
RTVSPropertyOp25
 70
     1
102
RTVSPropertyOp26
 70
     1
102
RTVSPropertyOp27
 70
     1
102
RTVSPropertyOp28
 70
     1
102
RTVSPropertyOp29
 70
     1
102
RTVSPropertyOp30
 70
     1
102
RTVSPropertyOp31
 70
     1
102
RTVSPropertyOp32
 70
     1
102
RTVSPropertyOp33
 70
     1
102
RTVSPropertyOp34
 70
     1
102
RTVSPropertyOp35
 70
     1
102
RTVSPropertyOp36
 70
     1
102
RTVSPropertyOp37
 70
     1
102
RTVSPropertyOp38
 70
     1
102
RTVSPropertyOp39
 70
     1
102
RTVSPropertyOp40
 70
     1
102
RTVSPropertyOp41
 70
     1
102
RTVSPropertyOp42
 70
     1
102
RTVSPropertyOp43
 70
     1
102
RTVSPropertyOp44
 70
     1
102
RTVSPropertyOp45
 70
     1
102
RTVSPropertyOp46
 70
     1
102
RTVSPropertyOp47
 70
     1
102
RTVSPropertyOp48
 70
     1
102
RTVSPropertyOp49
 70
     1
102
RTVSPropertyOp50
 70
     1
102
RTVSPropertyOp51
 70
     0
102
RTVSPropertyOp52
 70
     0
102
RTVSPropertyOp53
 70
     1
102
RTVSPropertyOp54
 70
     1
102
RTVSPropertyOp55
 70
     1
102
RTVSPropertyOp56
 70
     1
102
RTVSPropertyOp57
 70
     1
102
RTVSPost2010Prop28
280
     0
102
RTVSPost2010PropOp28
 70
     1
102
RTVSPost2010Prop29
280
     1
102
RTVSPost2010PropOp29
 70
     1
102
RTVSPost2010Prop30
280
     1
102
RTVSPost2010PropOp30
 70
     1
102
RTVSPost2010Prop31
280
     0
102
RTVSPost2010PropOp31
 70
     1
102
RTVSPost2010Prop32
280
     0
102
RTVSPost2010PropOp32
 70
     1
102
RTVSPost2010Prop33
280
     0
102
RTVSPost2010PropOp33
 70
     1
102
RTVSPost2010Prop34
280
     0
102
RTVSPost2010PropOp34
 70
     1
102
RTVSPost2010Prop35
280
     0
102
RTVSPost2010PropOp35
 70
     1
102
RTVSPost2010Prop36
280
     0
102
RTVSPost2010PropOp36
 70
     1
102
RTVSPost2010Prop37
 90
       50
102
RTVSPost2010PropOp37
 70
     1
102
RTVSPost2010Prop38
140
0.0
102
RTVSPost2010PropOp38
 70
     1
102
RTVSPost2010Prop39
140
1.0
102
RTVSPost2010PropOp39
 70
     1
102
RTVSPost2010Prop40
 90
        0
102
RTVSPost2010PropOp40
 70
     1
102
RTVSPost2010Prop41ColorIndex
 90
       18
102
RTVSPost2010Prop41ColorRGB
 90
        0
102
RTVSPost2010PropOp41
 70
     1
102
RTVSPost2010Prop42
 90
       50
102
RTVSPost2010PropOp42
 70
     1
102
RTVSPost2010Prop43
 90
        3
102
RTVSPost2010PropOp43
 70
     1
102
RTVSPost2010Prop44ColorIndex
 90
        5
102
RTVSPost2010Prop44ColorRGB
 90
      255
102
RTVSPost2010PropOp44
 70
     1
102
RTVSPost2010Prop45
280
     0
102
RTVSPost2010PropOp45
 70
     1
102
RTVSPost2010Prop46
 90
       50
102
RTVSPost2010PropOp46
 70
     1
102
RTVSPost2010Prop47
 90
       50
102
RTVSPost2010PropOp47
 70
     1
102
RTVSPost2010Prop48
 90
       50
102
RTVSPost2010PropOp48
 70
     1
102
RTVSPost2010Prop49
280
     0
102
RTVSPost2010PropOp49
 70
     1
102
RTVSPost2010Prop50
 90
       50
102
RTVSPost2010PropOp50
 70
     1
102
RTVSPost2010Prop51ColorIndex
 90
      256
102
RTVSPost2010Prop51ColorRGB
 90
-16777216
102
RTVSPost2010PropOp51
 70
     0
102
RTVSPost2010Prop52
140
1.0
102
RTVSPost2010PropOp52
 70
     0
102
RTVSPost2010Prop53
 90
        2
102
RTVSPost2010PropOp53
 70
     1
102
RTVSPost2010Prop54
  1
strokes_ogs.tif
102
RTVSPost2010PropOp54
 70
     1
102
RTVSPost2010Prop55
280
     0
102
RTVSPost2010PropOp55
 70
     1
102
RTVSPost2010Prop56
140
1.0
102
RTVSPost2010PropOp56
 70
     1
102
RTVSPost2010Prop57
140
1.0
102
RTVSPost2010PropOp57
 70
     1
  0
XRECORD
  5
22B
102
{ACAD_REACTORS
330
22A
102
}
330
22A
100
AcDbXrecord
280
     1
102
RTVSPropertyOp0
 70
     1
102
RTVSPropertyOp1
 70
     1
102
RTVSPropertyOp2
 70
     1
102
RTVSPropertyOp3
 70
     1
102
RTVSPropertyOp4
 70
     1
102
RTVSPropertyOp5
 70
     1
102
RTVSPropertyOp6
 70
     1
102
RTVSPropertyOp7
 70
     1
102
RTVSPropertyOp8
 70
     1
102
RTVSPropertyOp9
 70
     1
102
RTVSPropertyOp10
 70
     1
102
RTVSPropertyOp11
 70
     1
102
RTVSPropertyOp12
 70
     1
102
RTVSPropertyOp13
 70
     1
102
RTVSPropertyOp14
 70
     1
102
RTVSPropertyOp15
 70
     1
102
RTVSPropertyOp16
 70
     1
102
RTVSPropertyOp17
 70
     1
102
RTVSPropertyOp18
 70
     1
102
RTVSPropertyOp19
 70
     1
102
RTVSPropertyOp20
 70
     1
102
RTVSPropertyOp21
 70
     1
102
RTVSPropertyOp22
 70
     1
102
RTVSPropertyOp23
 70
     1
102
RTVSPropertyOp24
 70
     1
102
RTVSPropertyOp25
 70
     1
102
RTVSPropertyOp26
 70
     1
102
RTVSPropertyOp27
 70
     1
102
RTVSPropertyOp28
 70
     1
102
RTVSPropertyOp29
 70
     1
102
RTVSPropertyOp30
 70
     1
102
RTVSPropertyOp31
 70
     1
102
RTVSPropertyOp32
 70
     1
102
RTVSPropertyOp33
 70
     1
102
RTVSPropertyOp34
 70
     1
102
RTVSPropertyOp35
 70
     1
102
RTVSPropertyOp36
 70
     1
102
RTVSPropertyOp37
 70
     1
102
RTVSPropertyOp38
 70
     1
102
RTVSPropertyOp39
 70
     1
102
RTVSPropertyOp40
 70
     1
102
RTVSPropertyOp41
 70
     1
102
RTVSPropertyOp42
 70
     1
102
RTVSPropertyOp43
 70
     1
102
RTVSPropertyOp44
 70
     1
102
RTVSPropertyOp45
 70
     1
102
RTVSPropertyOp46
 70
     1
102
RTVSPropertyOp47
 70
     1
102
RTVSPropertyOp48
 70
     1
102
RTVSPropertyOp49
 70
     1
102
RTVSPropertyOp50
 70
     1
102
RTVSPropertyOp51
 70
     0
102
RTVSPropertyOp52
 70
     0
102
RTVSPropertyOp53
 70
     1
102
RTVSPropertyOp54
 70
     1
102
RTVSPropertyOp55
 70
     1
102
RTVSPropertyOp56
 70
     1
102
RTVSPropertyOp57
 70
     1
102
RTVSPost2010Prop28
280
     0
102
RTVSPost2010PropOp28
 70
     1
102
RTVSPost2010Prop29
280
     1
102
RTVSPost2010PropOp29
 70
     1
102
RTVSPost2010Prop30
280
     1
102
RTVSPost2010PropOp30
 70
     1
102
RTVSPost2010Prop31
280
     0
102
RTVSPost2010PropOp31
 70
     1
102
RTVSPost2010Prop32
280
     0
102
RTVSPost2010PropOp32
 70
     1
102
RTVSPost2010Prop33
280
     0
102
RTVSPost2010PropOp33
 70
     1
102
RTVSPost2010Prop34
280
     0
102
RTVSPost2010PropOp34
 70
     1
102
RTVSPost2010Prop35
280
     0
102
RTVSPost2010PropOp35
 70
     1
102
RTVSPost2010Prop36
280
     0
102
RTVSPost2010PropOp36
 70
     1
102
RTVSPost2010Prop37
 90
       50
102
RTVSPost2010PropOp37
 70
     1
102
RTVSPost2010Prop38
140
0.0
102
RTVSPost2010PropOp38
 70
     1
102
RTVSPost2010Prop39
140
1.0
102
RTVSPost2010PropOp39
 70
     1
102
RTVSPost2010Prop40
 90
        0
102
RTVSPost2010PropOp40
 70
     1
102
RTVSPost2010Prop41ColorIndex
 90
       18
102
RTVSPost2010Prop41ColorRGB
 90
        0
102
RTVSPost2010PropOp41
 70
     1
102
RTVSPost2010Prop42
 90
       50
102
RTVSPost2010PropOp42
 70
     1
102
RTVSPost2010Prop43
 90
        3
102
RTVSPost2010PropOp43
 70
     1
102
RTVSPost2010Prop44ColorIndex
 90
        5
102
RTVSPost2010Prop44ColorRGB
 90
      255
102
RTVSPost2010PropOp44
 70
     1
102
RTVSPost2010Prop45
280
     0
102
RTVSPost2010PropOp45
 70
     1
102
RTVSPost2010Prop46
 90
       50
102
RTVSPost2010PropOp46
 70
     1
102
RTVSPost2010Prop47
 90
       50
102
RTVSPost2010PropOp47
 70
     1
102
RTVSPost2010Prop48
 90
       50
102
RTVSPost2010PropOp48
 70
     1
102
RTVSPost2010Prop49
280
     0
102
RTVSPost2010PropOp49
 70
     1
102
RTVSPost2010Prop50
 90
       50
102
RTVSPost2010PropOp50
 70
     1
102
RTVSPost2010Prop51ColorIndex
 90
      256
102
RTVSPost2010Prop51ColorRGB
 90
-16777216
102
RTVSPost2010PropOp51
 70
     0
102
RTVSPost2010Prop52
140
1.0
102
RTVSPost2010PropOp52
 70
     0
102
RTVSPost2010Prop53
 90
        2
102
RTVSPost2010PropOp53
 70
     1
102
RTVSPost2010Prop54
  1
strokes_ogs.tif
102
RTVSPost2010PropOp54
 70
     1
102
RTVSPost2010Prop55
280
     0
102
RTVSPost2010PropOp55
 70
     1
102
RTVSPost2010Prop56
140
1.0
102
RTVSPost2010PropOp56
 70
     1
102
RTVSPost2010Prop57
140
1.0
102
RTVSPost2010PropOp57
 70
     1
  0
XRECORD
  5
23F
102
{ACAD_REACTORS
330
23E
102
}
330
23E
100
AcDbXrecord
280
     1
102
RTVSPropertyOp0
 70
     0
102
RTVSPropertyOp1
 70
     0
102
RTVSPropertyOp2
 70
     0
102
RTVSPropertyOp3
 70
     0
102
RTVSPropertyOp4
 70
     0
102
RTVSPropertyOp5
 70
     0
102
RTVSPropertyOp6
 70
     0
102
RTVSPropertyOp7
 70
     0
102
RTVSPropertyOp8
 70
     0
102
RTVSPropertyOp9
 70
     0
102
RTVSPropertyOp10
 70
     0
102
RTVSPropertyOp11
 70
     0
102
RTVSPropertyOp12
 70
     0
102
RTVSPropertyOp13
 70
     0
102
RTVSPropertyOp14
 70
     2
102
RTVSPropertyOp15
 70
     0
102
RTVSPropertyOp16
 70
     0
102
RTVSPropertyOp17
 70
     0
102
RTVSPropertyOp18
 70
     0
102
RTVSPropertyOp19
 70
     0
102
RTVSPropertyOp20
 70
     0
102
RTVSPropertyOp21
 70
     0
102
RTVSPropertyOp22
 70
     0
102
RTVSPropertyOp23
 70
     0
102
RTVSPropertyOp24
 70
     0
102
RTVSPropertyOp25
 70
     0
102
RTVSPropertyOp26
 70
     0
102
RTVSPropertyOp27
 70
     0
102
RTVSPropertyOp28
 70
     0
102
RTVSPropertyOp29
 70
     0
102
RTVSPropertyOp30
 70
     0
102
RTVSPropertyOp31
 70
     0
102
RTVSPropertyOp32
 70
     0
102
RTVSPropertyOp33
 70
     0
102
RTVSPropertyOp34
 70
     0
102
RTVSPropertyOp35
 70
     0
102
RTVSPropertyOp36
 70
     0
102
RTVSPropertyOp37
 70
     0
102
RTVSPropertyOp38
 70
     0
102
RTVSPropertyOp39
 70
     0
102
RTVSPropertyOp40
 70
     0
102
RTVSPropertyOp41
 70
     0
102
RTVSPropertyOp42
 70
     0
102
RTVSPropertyOp43
 70
     0
102
RTVSPropertyOp44
 70
     0
102
RTVSPropertyOp45
 70
     0
102
RTVSPropertyOp46
 70
     0
102
RTVSPropertyOp47
 70
     0
102
RTVSPropertyOp48
 70
     0
102
RTVSPropertyOp49
 70
     0
102
RTVSPropertyOp50
 70
     0
102
RTVSPropertyOp51
 70
     0
102
RTVSPropertyOp52
 70
     0
102
RTVSPropertyOp53
 70
     0
102
RTVSPropertyOp54
 70
     0
102
RTVSPropertyOp55
 70
     0
102
RTVSPropertyOp56
 70
     0
102
RTVSPropertyOp57
 70
     0
102
RTVSPost2010Prop28
280
     0
102
RTVSPost2010PropOp28
 70
     0
102
RTVSPost2010Prop29
280
     1
102
RTVSPost2010PropOp29
 70
     0
102
RTVSPost2010Prop30
280
     1
102
RTVSPost2010PropOp30
 70
     0
102
RTVSPost2010Prop31
280
     0
102
RTVSPost2010PropOp31
 70
     0
102
RTVSPost2010Prop32
280
     0
102
RTVSPost2010PropOp32
 70
     0
102
RTVSPost2010Prop33
280
     0
102
RTVSPost2010PropOp33
 70
     0
102
RTVSPost2010Prop34
280
     0
102
RTVSPost2010PropOp34
 70
     0
102
RTVSPost2010Prop35
280
     0
102
RTVSPost2010PropOp35
 70
     0
102
RTVSPost2010Prop36
280
     0
102
RTVSPost2010PropOp36
 70
     0
102
RTVSPost2010Prop37
 90
       50
102
RTVSPost2010PropOp37
 70
     0
102
RTVSPost2010Prop38
140
0.0
102
RTVSPost2010PropOp38
 70
     0
102
RTVSPost2010Prop39
140
1.0
102
RTVSPost2010PropOp39
 70
     0
102
RTVSPost2010Prop40
 90
        0
102
RTVSPost2010PropOp40
 70
     0
102
RTVSPost2010Prop41ColorIndex
 90
       18
102
RTVSPost2010Prop41ColorRGB
 90
        0
102
RTVSPost2010PropOp41
 70
     0
102
RTVSPost2010Prop42
 90
       50
102
RTVSPost2010PropOp42
 70
     0
102
RTVSPost2010Prop43
 90
        3
102
RTVSPost2010PropOp43
 70
     0
102
RTVSPost2010Prop44ColorIndex
 90
        5
102
RTVSPost2010Prop44ColorRGB
 90
      255
102
RTVSPost2010PropOp44
 70
     0
102
RTVSPost2010Prop45
280
     0
102
RTVSPost2010PropOp45
 70
     0
102
RTVSPost2010Prop46
 90
       50
102
RTVSPost2010PropOp46
 70
     0
102
RTVSPost2010Prop47
 90
       50
102
RTVSPost2010PropOp47
 70
     0
102
RTVSPost2010Prop48
 90
       50
102
RTVSPost2010PropOp48
 70
     0
102
RTVSPost2010Prop49
280
     0
102
RTVSPost2010PropOp49
 70
     0
102
RTVSPost2010Prop50
 90
       50
102
RTVSPost2010PropOp50
 70
     0
102
RTVSPost2010Prop51ColorIndex
 90
      256
102
RTVSPost2010Prop51ColorRGB
 90
-16777216
102
RTVSPost2010PropOp51
 70
     0
102
RTVSPost2010Prop52
140
1.0
102
RTVSPost2010PropOp52
 70
     0
102
RTVSPost2010Prop53
 90
        2
102
RTVSPost2010PropOp53
 70
     0
102
RTVSPost2010Prop54
  1
strokes_ogs.tif
102
RTVSPost2010PropOp54
 70
     0
102
RTVSPost2010Prop55
280
     0
102
RTVSPost2010PropOp55
 70
     0
102
RTVSPost2010Prop56
140
1.0
102
RTVSPost2010PropOp56
 70
     0
102
RTVSPost2010Prop57
140
1.0
102
RTVSPost2010PropOp57
 70
     0
  0
XRECORD
  5
239
102
{ACAD_REACTORS
330
238
102
}
330
238
100
AcDbXrecord
280
     1
102
RTVSPropertyOp0
 70
     1
102
RTVSPropertyOp1
 70
     1
102
RTVSPropertyOp2
 70
     1
102
RTVSPropertyOp3
 70
     1
102
RTVSPropertyOp4
 70
     1
102
RTVSPropertyOp5
 70
     1
102
RTVSPropertyOp6
 70
     1
102
RTVSPropertyOp7
 70
     1
102
RTVSPropertyOp8
 70
     1
102
RTVSPropertyOp9
 70
     1
102
RTVSPropertyOp10
 70
     1
102
RTVSPropertyOp11
 70
     1
102
RTVSPropertyOp12
 70
     1
102
RTVSPropertyOp13
 70
     1
102
RTVSPropertyOp14
 70
     1
102
RTVSPropertyOp15
 70
     1
102
RTVSPropertyOp16
 70
     1
102
RTVSPropertyOp17
 70
     1
102
RTVSPropertyOp18
 70
     1
102
RTVSPropertyOp19
 70
     1
102
RTVSPropertyOp20
 70
     1
102
RTVSPropertyOp21
 70
     1
102
RTVSPropertyOp22
 70
     1
102
RTVSPropertyOp23
 70
     1
102
RTVSPropertyOp24
 70
     1
102
RTVSPropertyOp25
 70
     1
102
RTVSPropertyOp26
 70
     1
102
RTVSPropertyOp27
 70
     1
102
RTVSPropertyOp28
 70
     1
102
RTVSPropertyOp29
 70
     1
102
RTVSPropertyOp30
 70
     1
102
RTVSPropertyOp31
 70
     1
102
RTVSPropertyOp32
 70
     1
102
RTVSPropertyOp33
 70
     1
102
RTVSPropertyOp34
 70
     1
102
RTVSPropertyOp35
 70
     1
102
RTVSPropertyOp36
 70
     1
102
RTVSPropertyOp37
 70
     1
102
RTVSPropertyOp38
 70
     1
102
RTVSPropertyOp39
 70
     1
102
RTVSPropertyOp40
 70
     1
102
RTVSPropertyOp41
 70
     1
102
RTVSPropertyOp42
 70
     1
102
RTVSPropertyOp43
 70
     1
102
RTVSPropertyOp44
 70
     1
102
RTVSPropertyOp45
 70
     1
102
RTVSPropertyOp46
 70
     1
102
RTVSPropertyOp47
 70
     1
102
RTVSPropertyOp48
 70
     1
102
RTVSPropertyOp49
 70
     1
102
RTVSPropertyOp50
 70
     1
102
RTVSPropertyOp51
 70
     0
102
RTVSPropertyOp52
 70
     0
102
RTVSPropertyOp53
 70
     1
102
RTVSPropertyOp54
 70
     1
102
RTVSPropertyOp55
 70
     1
102
RTVSPropertyOp56
 70
     1
102
RTVSPropertyOp57
 70
     1
102
RTVSPost2010Prop28
280
     0
102
RTVSPost2010PropOp28
 70
     1
102
RTVSPost2010Prop29
280
     1
102
RTVSPost2010PropOp29
 70
     1
102
RTVSPost2010Prop30
280
     1
102
RTVSPost2010PropOp30
 70
     1
102
RTVSPost2010Prop31
280
     0
102
RTVSPost2010PropOp31
 70
     1
102
RTVSPost2010Prop32
280
     0
102
RTVSPost2010PropOp32
 70
     1
102
RTVSPost2010Prop33
280
     0
102
RTVSPost2010PropOp33
 70
     1
102
RTVSPost2010Prop34
280
     0
102
RTVSPost2010PropOp34
 70
     1
102
RTVSPost2010Prop35
280
     0
102
RTVSPost2010PropOp35
 70
     1
102
RTVSPost2010Prop36
280
     0
102
RTVSPost2010PropOp36
 70
     1
102
RTVSPost2010Prop37
 90
       50
102
RTVSPost2010PropOp37
 70
     1
102
RTVSPost2010Prop38
140
0.0
102
RTVSPost2010PropOp38
 70
     1
102
RTVSPost2010Prop39
140
1.0
102
RTVSPost2010PropOp39
 70
     1
102
RTVSPost2010Prop40
 90
        0
102
RTVSPost2010PropOp40
 70
     1
102
RTVSPost2010Prop41ColorIndex
 90
       18
102
RTVSPost2010Prop41ColorRGB
 90
        0
102
RTVSPost2010PropOp41
 70
     1
102
RTVSPost2010Prop42
 90
       50
102
RTVSPost2010PropOp42
 70
     1
102
RTVSPost2010Prop43
 90
        3
102
RTVSPost2010PropOp43
 70
     1
102
RTVSPost2010Prop44ColorIndex
 90
        5
102
RTVSPost2010Prop44ColorRGB
 90
      255
102
RTVSPost2010PropOp44
 70
     1
102
RTVSPost2010Prop45
280
     0
102
RTVSPost2010PropOp45
 70
     1
102
RTVSPost2010Prop46
 90
       50
102
RTVSPost2010PropOp46
 70
     1
102
RTVSPost2010Prop47
 90
       50
102
RTVSPost2010PropOp47
 70
     1
102
RTVSPost2010Prop48
 90
       50
102
RTVSPost2010PropOp48
 70
     1
102
RTVSPost2010Prop49
280
     0
102
RTVSPost2010PropOp49
 70
     1
102
RTVSPost2010Prop50
 90
       50
102
RTVSPost2010PropOp50
 70
     1
102
RTVSPost2010Prop51ColorIndex
 90
      256
102
RTVSPost2010Prop51ColorRGB
 90
-16777216
102
RTVSPost2010PropOp51
 70
     0
102
RTVSPost2010Prop52
140
1.0
102
RTVSPost2010PropOp52
 70
     0
102
RTVSPost2010Prop53
 90
        2
102
RTVSPost2010PropOp53
 70
     1
102
RTVSPost2010Prop54
  1
strokes_ogs.tif
102
RTVSPost2010PropOp54
 70
     1
102
RTVSPost2010Prop55
280
     0
102
RTVSPost2010PropOp55
 70
     1
102
RTVSPost2010Prop56
140
1.0
102
RTVSPost2010PropOp56
 70
     1
102
RTVSPost2010Prop57
140
1.0
102
RTVSPost2010PropOp57
 70
     1
  0
XRECORD
  5
241
102
{ACAD_REACTORS
330
240
102
}
330
240
100
AcDbXrecord
280
     1
102
RTVSPropertyOp0
 70
     0
102
RTVSPropertyOp1
 70
     0
102
RTVSPropertyOp2
 70
     0
102
RTVSPropertyOp3
 70
     0
102
RTVSPropertyOp4
 70
     0
102
RTVSPropertyOp5
 70
     0
102
RTVSPropertyOp6
 70
     0
102
RTVSPropertyOp7
 70
     0
102
RTVSPropertyOp8
 70
     0
102
RTVSPropertyOp9
 70
     0
102
RTVSPropertyOp10
 70
     0
102
RTVSPropertyOp11
 70
     0
102
RTVSPropertyOp12
 70
     0
102
RTVSPropertyOp13
 70
     0
102
RTVSPropertyOp14
 70
     2
102
RTVSPropertyOp15
 70
     0
102
RTVSPropertyOp16
 70
     0
102
RTVSPropertyOp17
 70
     0
102
RTVSPropertyOp18
 70
     0
102
RTVSPropertyOp19
 70
     0
102
RTVSPropertyOp20
 70
     0
102
RTVSPropertyOp21
 70
     0
102
RTVSPropertyOp22
 70
     0
102
RTVSPropertyOp23
 70
     0
102
RTVSPropertyOp24
 70
     0
102
RTVSPropertyOp25
 70
     0
102
RTVSPropertyOp26
 70
     0
102
RTVSPropertyOp27
 70
     0
102
RTVSPropertyOp28
 70
     0
102
RTVSPropertyOp29
 70
     0
102
RTVSPropertyOp30
 70
     0
102
RTVSPropertyOp31
 70
     0
102
RTVSPropertyOp32
 70
     0
102
RTVSPropertyOp33
 70
     0
102
RTVSPropertyOp34
 70
     0
102
RTVSPropertyOp35
 70
     0
102
RTVSPropertyOp36
 70
     0
102
RTVSPropertyOp37
 70
     0
102
RTVSPropertyOp38
 70
     0
102
RTVSPropertyOp39
 70
     0
102
RTVSPropertyOp40
 70
     0
102
RTVSPropertyOp41
 70
     0
102
RTVSPropertyOp42
 70
     0
102
RTVSPropertyOp43
 70
     0
102
RTVSPropertyOp44
 70
     0
102
RTVSPropertyOp45
 70
     0
102
RTVSPropertyOp46
 70
     0
102
RTVSPropertyOp47
 70
     0
102
RTVSPropertyOp48
 70
     0
102
RTVSPropertyOp49
 70
     0
102
RTVSPropertyOp50
 70
     0
102
RTVSPropertyOp51
 70
     0
102
RTVSPropertyOp52
 70
     0
102
RTVSPropertyOp53
 70
     0
102
RTVSPropertyOp54
 70
     0
102
RTVSPropertyOp55
 70
     0
102
RTVSPropertyOp56
 70
     0
102
RTVSPropertyOp57
 70
     0
102
RTVSPost2010Prop28
280
     0
102
RTVSPost2010PropOp28
 70
     0
102
RTVSPost2010Prop29
280
     1
102
RTVSPost2010PropOp29
 70
     0
102
RTVSPost2010Prop30
280
     1
102
RTVSPost2010PropOp30
 70
     0
102
RTVSPost2010Prop31
280
     0
102
RTVSPost2010PropOp31
 70
     0
102
RTVSPost2010Prop32
280
     0
102
RTVSPost2010PropOp32
 70
     0
102
RTVSPost2010Prop33
280
     0
102
RTVSPost2010PropOp33
 70
     0
102
RTVSPost2010Prop34
280
     0
102
RTVSPost2010PropOp34
 70
     0
102
RTVSPost2010Prop35
280
     0
102
RTVSPost2010PropOp35
 70
     0
102
RTVSPost2010Prop36
280
     0
102
RTVSPost2010PropOp36
 70
     0
102
RTVSPost2010Prop37
 90
       50
102
RTVSPost2010PropOp37
 70
     0
102
RTVSPost2010Prop38
140
0.0
102
RTVSPost2010PropOp38
 70
     0
102
RTVSPost2010Prop39
140
1.0
102
RTVSPost2010PropOp39
 70
     0
102
RTVSPost2010Prop40
 90
        0
102
RTVSPost2010PropOp40
 70
     0
102
RTVSPost2010Prop41ColorIndex
 90
       18
102
RTVSPost2010Prop41ColorRGB
 90
        0
102
RTVSPost2010PropOp41
 70
     0
102
RTVSPost2010Prop42
 90
       50
102
RTVSPost2010PropOp42
 70
     0
102
RTVSPost2010Prop43
 90
        3
102
RTVSPost2010PropOp43
 70
     0
102
RTVSPost2010Prop44ColorIndex
 90
        5
102
RTVSPost2010Prop44ColorRGB
 90
      255
102
RTVSPost2010PropOp44
 70
     0
102
RTVSPost2010Prop45
280
     0
102
RTVSPost2010PropOp45
 70
     0
102
RTVSPost2010Prop46
 90
       50
102
RTVSPost2010PropOp46
 70
     0
102
RTVSPost2010Prop47
 90
       50
102
RTVSPost2010PropOp47
 70
     0
102
RTVSPost2010Prop48
 90
       50
102
RTVSPost2010PropOp48
 70
     0
102
RTVSPost2010Prop49
280
     0
102
RTVSPost2010PropOp49
 70
     0
102
RTVSPost2010Prop50
 90
       50
102
RTVSPost2010PropOp50
 70
     0
102
RTVSPost2010Prop51ColorIndex
 90
      256
102
RTVSPost2010Prop51ColorRGB
 90
-16777216
102
RTVSPost2010PropOp51
 70
     0
102
RTVSPost2010Prop52
140
1.0
102
RTVSPost2010PropOp52
 70
     0
102
RTVSPost2010Prop53
 90
        2
102
RTVSPost2010PropOp53
 70
     0
102
RTVSPost2010Prop54
  1
strokes_ogs.tif
102
RTVSPost2010PropOp54
 70
     0
102
RTVSPost2010Prop55
280
     0
102
RTVSPost2010PropOp55
 70
     0
102
RTVSPost2010Prop56
140
1.0
102
RTVSPost2010PropOp56
 70
     0
102
RTVSPost2010Prop57
140
1.0
102
RTVSPost2010PropOp57
 70
     0
  0
XRECORD
  5
22F
102
{ACAD_REACTORS
330
22E
102
}
330
22E
100
AcDbXrecord
280
     1
102
RTVSPropertyOp0
 70
     1
102
RTVSPropertyOp1
 70
     1
102
RTVSPropertyOp2
 70
     1
102
RTVSPropertyOp3
 70
     1
102
RTVSPropertyOp4
 70
     1
102
RTVSPropertyOp5
 70
     1
102
RTVSPropertyOp6
 70
     1
102
RTVSPropertyOp7
 70
     1
102
RTVSPropertyOp8
 70
     1
102
RTVSPropertyOp9
 70
     1
102
RTVSPropertyOp10
 70
     1
102
RTVSPropertyOp11
 70
     1
102
RTVSPropertyOp12
 70
     1
102
RTVSPropertyOp13
 70
     1
102
RTVSPropertyOp14
 70
     1
102
RTVSPropertyOp15
 70
     1
102
RTVSPropertyOp16
 70
     1
102
RTVSPropertyOp17
 70
     1
102
RTVSPropertyOp18
 70
     1
102
RTVSPropertyOp19
 70
     1
102
RTVSPropertyOp20
 70
     1
102
RTVSPropertyOp21
 70
     1
102
RTVSPropertyOp22
 70
     1
102
RTVSPropertyOp23
 70
     1
102
RTVSPropertyOp24
 70
     1
102
RTVSPropertyOp25
 70
     1
102
RTVSPropertyOp26
 70
     1
102
RTVSPropertyOp27
 70
     1
102
RTVSPropertyOp28
 70
     1
102
RTVSPropertyOp29
 70
     1
102
RTVSPropertyOp30
 70
     1
102
RTVSPropertyOp31
 70
     1
102
RTVSPropertyOp32
 70
     1
102
RTVSPropertyOp33
 70
     1
102
RTVSPropertyOp34
 70
     1
102
RTVSPropertyOp35
 70
     1
102
RTVSPropertyOp36
 70
     1
102
RTVSPropertyOp37
 70
     1
102
RTVSPropertyOp38
 70
     1
102
RTVSPropertyOp39
 70
     1
102
RTVSPropertyOp40
 70
     1
102
RTVSPropertyOp41
 70
     1
102
RTVSPropertyOp42
 70
     1
102
RTVSPropertyOp43
 70
     1
102
RTVSPropertyOp44
 70
     1
102
RTVSPropertyOp45
 70
     1
102
RTVSPropertyOp46
 70
     1
102
RTVSPropertyOp47
 70
     1
102
RTVSPropertyOp48
 70
     1
102
RTVSPropertyOp49
 70
     1
102
RTVSPropertyOp50
 70
     1
102
RTVSPropertyOp51
 70
     0
102
RTVSPropertyOp52
 70
     0
102
RTVSPropertyOp53
 70
     1
102
RTVSPropertyOp54
 70
     1
102
RTVSPropertyOp55
 70
     1
102
RTVSPropertyOp56
 70
     1
102
RTVSPropertyOp57
 70
     1
102
RTVSPost2010Prop28
280
     0
102
RTVSPost2010PropOp28
 70
     1
102
RTVSPost2010Prop29
280
     1
102
RTVSPost2010PropOp29
 70
     1
102
RTVSPost2010Prop30
280
     1
102
RTVSPost2010PropOp30
 70
     1
102
RTVSPost2010Prop31
280
     0
102
RTVSPost2010PropOp31
 70
     1
102
RTVSPost2010Prop32
280
     0
102
RTVSPost2010PropOp32
 70
     1
102
RTVSPost2010Prop33
280
     0
102
RTVSPost2010PropOp33
 70
     1
102
RTVSPost2010Prop34
280
     0
102
RTVSPost2010PropOp34
 70
     1
102
RTVSPost2010Prop35
280
     0
102
RTVSPost2010PropOp35
 70
     1
102
RTVSPost2010Prop36
280
     0
102
RTVSPost2010PropOp36
 70
     1
102
RTVSPost2010Prop37
 90
       50
102
RTVSPost2010PropOp37
 70
     1
102
RTVSPost2010Prop38
140
0.0
102
RTVSPost2010PropOp38
 70
     1
102
RTVSPost2010Prop39
140
1.0
102
RTVSPost2010PropOp39
 70
     1
102
RTVSPost2010Prop40
 90
        0
102
RTVSPost2010PropOp40
 70
     1
102
RTVSPost2010Prop41ColorIndex
 90
       18
102
RTVSPost2010Prop41ColorRGB
 90
        0
102
RTVSPost2010PropOp41
 70
     1
102
RTVSPost2010Prop42
 90
       50
102
RTVSPost2010PropOp42
 70
     1
102
RTVSPost2010Prop43
 90
        3
102
RTVSPost2010PropOp43
 70
     1
102
RTVSPost2010Prop44ColorIndex
 90
        5
102
RTVSPost2010Prop44ColorRGB
 90
      255
102
RTVSPost2010PropOp44
 70
     1
102
RTVSPost2010Prop45
280
     0
102
RTVSPost2010PropOp45
 70
     1
102
RTVSPost2010Prop46
 90
       50
102
RTVSPost2010PropOp46
 70
     1
102
RTVSPost2010Prop47
 90
       50
102
RTVSPost2010PropOp47
 70
     1
102
RTVSPost2010Prop48
 90
       50
102
RTVSPost2010PropOp48
 70
     1
102
RTVSPost2010Prop49
280
     0
102
RTVSPost2010PropOp49
 70
     1
102
RTVSPost2010Prop50
 90
       50
102
RTVSPost2010PropOp50
 70
     1
102
RTVSPost2010Prop51ColorIndex
 90
      256
102
RTVSPost2010Prop51ColorRGB
 90
-16777216
102
RTVSPost2010PropOp51
 70
     0
102
RTVSPost2010Prop52
140
1.0
102
RTVSPost2010PropOp52
 70
     0
102
RTVSPost2010Prop53
 90
        2
102
RTVSPost2010PropOp53
 70
     1
102
RTVSPost2010Prop54
  1
strokes_ogs.tif
102
RTVSPost2010PropOp54
 70
     1
102
RTVSPost2010Prop55
280
     0
102
RTVSPost2010PropOp55
 70
     1
102
RTVSPost2010Prop56
140
1.0
102
RTVSPost2010PropOp56
 70
     1
102
RTVSPost2010Prop57
140
1.0
102
RTVSPost2010PropOp57
 70
     1
  0
XRECORD
  5
24D
102
{ACAD_REACTORS
330
24C
102
}
330
24C
100
AcDbXrecord
280
     1
102
RTVSPropertyOp0
 70
     1
102
RTVSPropertyOp1
 70
     1
102
RTVSPropertyOp2
 70
     1
102
RTVSPropertyOp3
 70
     1
102
RTVSPropertyOp4
 70
     1
102
RTVSPropertyOp5
 70
     1
102
RTVSPropertyOp6
 70
     1
102
RTVSPropertyOp7
 70
     1
102
RTVSPropertyOp8
 70
     1
102
RTVSPropertyOp9
 70
     1
102
RTVSPropertyOp10
 70
     1
102
RTVSPropertyOp11
 70
     1
102
RTVSPropertyOp12
 70
     1
102
RTVSPropertyOp13
 70
     1
102
RTVSPropertyOp14
 70
     1
102
RTVSPropertyOp15
 70
     1
102
RTVSPropertyOp16
 70
     1
102
RTVSPropertyOp17
 70
     1
102
RTVSPropertyOp18
 70
     1
102
RTVSPropertyOp19
 70
     1
102
RTVSPropertyOp20
 70
     1
102
RTVSPropertyOp21
 70
     1
102
RTVSPropertyOp22
 70
     1
102
RTVSPropertyOp23
 70
     1
102
RTVSPropertyOp24
 70
     1
102
RTVSPropertyOp25
 70
     1
102
RTVSPropertyOp26
 70
     1
102
RTVSPropertyOp27
 70
     1
102
RTVSPropertyOp28
 70
     1
102
RTVSPropertyOp29
 70
     1
102
RTVSPropertyOp30
 70
     1
102
RTVSPropertyOp31
 70
     1
102
RTVSPropertyOp32
 70
     1
102
RTVSPropertyOp33
 70
     1
102
RTVSPropertyOp34
 70
     1
102
RTVSPropertyOp35
 70
     1
102
RTVSPropertyOp36
 70
     1
102
RTVSPropertyOp37
 70
     1
102
RTVSPropertyOp38
 70
     1
102
RTVSPropertyOp39
 70
     1
102
RTVSPropertyOp40
 70
     1
102
RTVSPropertyOp41
 70
     1
102
RTVSPropertyOp42
 70
     1
102
RTVSPropertyOp43
 70
     1
102
RTVSPropertyOp44
 70
     1
102
RTVSPropertyOp45
 70
     1
102
RTVSPropertyOp46
 70
     1
102
RTVSPropertyOp47
 70
     1
102
RTVSPropertyOp48
 70
     1
102
RTVSPropertyOp49
 70
     1
102
RTVSPropertyOp50
 70
     1
102
RTVSPropertyOp51
 70
     0
102
RTVSPropertyOp52
 70
     0
102
RTVSPropertyOp53
 70
     1
102
RTVSPropertyOp54
 70
     1
102
RTVSPropertyOp55
 70
     1
102
RTVSPropertyOp56
 70
     1
102
RTVSPropertyOp57
 70
     1
102
RTVSPost2010Prop28
280
     0
102
RTVSPost2010PropOp28
 70
     1
102
RTVSPost2010Prop29
280
     1
102
RTVSPost2010PropOp29
 70
     1
102
RTVSPost2010Prop30
280
     1
102
RTVSPost2010PropOp30
 70
     1
102
RTVSPost2010Prop31
280
     0
102
RTVSPost2010PropOp31
 70
     1
102
RTVSPost2010Prop32
280
     0
102
RTVSPost2010PropOp32
 70
     1
102
RTVSPost2010Prop33
280
     0
102
RTVSPost2010PropOp33
 70
     1
102
RTVSPost2010Prop34
280
     0
102
RTVSPost2010PropOp34
 70
     1
102
RTVSPost2010Prop35
280
     0
102
RTVSPost2010PropOp35
 70
     1
102
RTVSPost2010Prop36
280
     0
102
RTVSPost2010PropOp36
 70
     1
102
RTVSPost2010Prop37
 90
       50
102
RTVSPost2010PropOp37
 70
     1
102
RTVSPost2010Prop38
140
0.0
102
RTVSPost2010PropOp38
 70
     1
102
RTVSPost2010Prop39
140
1.0
102
RTVSPost2010PropOp39
 70
     1
102
RTVSPost2010Prop40
 90
        0
102
RTVSPost2010PropOp40
 70
     1
102
RTVSPost2010Prop41ColorIndex
 90
       18
102
RTVSPost2010Prop41ColorRGB
 90
        0
102
RTVSPost2010PropOp41
 70
     1
102
RTVSPost2010Prop42
 90
       50
102
RTVSPost2010PropOp42
 70
     1
102
RTVSPost2010Prop43
 90
        3
102
RTVSPost2010PropOp43
 70
     1
102
RTVSPost2010Prop44ColorIndex
 90
        5
102
RTVSPost2010Prop44ColorRGB
 90
      255
102
RTVSPost2010PropOp44
 70
     1
102
RTVSPost2010Prop45
280
     0
102
RTVSPost2010PropOp45
 70
     1
102
RTVSPost2010Prop46
 90
       50
102
RTVSPost2010PropOp46
 70
     1
102
RTVSPost2010Prop47
 90
       50
102
RTVSPost2010PropOp47
 70
     1
102
RTVSPost2010Prop48
 90
       50
102
RTVSPost2010PropOp48
 70
     1
102
RTVSPost2010Prop49
280
     0
102
RTVSPost2010PropOp49
 70
     1
102
RTVSPost2010Prop50
 90
       50
102
RTVSPost2010PropOp50
 70
     1
102
RTVSPost2010Prop51ColorIndex
 90
      256
102
RTVSPost2010Prop51ColorRGB
 90
-16777216
102
RTVSPost2010PropOp51
 70
     0
102
RTVSPost2010Prop52
140
1.0
102
RTVSPost2010PropOp52
 70
     0
102
RTVSPost2010Prop53
 90
        2
102
RTVSPost2010PropOp53
 70
     1
102
RTVSPost2010Prop54
  1
strokes_ogs.tif
102
RTVSPost2010PropOp54
 70
     1
102
RTVSPost2010Prop55
280
     0
102
RTVSPost2010PropOp55
 70
     1
102
RTVSPost2010Prop56
140
1.0
102
RTVSPost2010PropOp56
 70
     1
102
RTVSPost2010Prop57
140
1.0
102
RTVSPost2010PropOp57
 70
     1
  0
XRECORD
  5
24B
102
{ACAD_REACTORS
330
24A
102
}
330
24A
100
AcDbXrecord
280
     1
102
RTVSPropertyOp0
 70
     1
102
RTVSPropertyOp1
 70
     1
102
RTVSPropertyOp2
 70
     1
102
RTVSPropertyOp3
 70
     1
102
RTVSPropertyOp4
 70
     1
102
RTVSPropertyOp5
 70
     1
102
RTVSPropertyOp6
 70
     1
102
RTVSPropertyOp7
 70
     1
102
RTVSPropertyOp8
 70
     1
102
RTVSPropertyOp9
 70
     1
102
RTVSPropertyOp10
 70
     1
102
RTVSPropertyOp11
 70
     1
102
RTVSPropertyOp12
 70
     1
102
RTVSPropertyOp13
 70
     1
102
RTVSPropertyOp14
 70
     1
102
RTVSPropertyOp15
 70
     1
102
RTVSPropertyOp16
 70
     1
102
RTVSPropertyOp17
 70
     1
102
RTVSPropertyOp18
 70
     1
102
RTVSPropertyOp19
 70
     1
102
RTVSPropertyOp20
 70
     1
102
RTVSPropertyOp21
 70
     1
102
RTVSPropertyOp22
 70
     1
102
RTVSPropertyOp23
 70
     1
102
RTVSPropertyOp24
 70
     1
102
RTVSPropertyOp25
 70
     1
102
RTVSPropertyOp26
 70
     1
102
RTVSPropertyOp27
 70
     1
102
RTVSPropertyOp28
 70
     1
102
RTVSPropertyOp29
 70
     1
102
RTVSPropertyOp30
 70
     1
102
RTVSPropertyOp31
 70
     1
102
RTVSPropertyOp32
 70
     1
102
RTVSPropertyOp33
 70
     1
102
RTVSPropertyOp34
 70
     1
102
RTVSPropertyOp35
 70
     1
102
RTVSPropertyOp36
 70
     1
102
RTVSPropertyOp37
 70
     1
102
RTVSPropertyOp38
 70
     1
102
RTVSPropertyOp39
 70
     1
102
RTVSPropertyOp40
 70
     1
102
RTVSPropertyOp41
 70
     1
102
RTVSPropertyOp42
 70
     1
102
RTVSPropertyOp43
 70
     1
102
RTVSPropertyOp44
 70
     1
102
RTVSPropertyOp45
 70
     1
102
RTVSPropertyOp46
 70
     1
102
RTVSPropertyOp47
 70
     1
102
RTVSPropertyOp48
 70
     1
102
RTVSPropertyOp49
 70
     1
102
RTVSPropertyOp50
 70
     1
102
RTVSPropertyOp51
 70
     0
102
RTVSPropertyOp52
 70
     0
102
RTVSPropertyOp53
 70
     1
102
RTVSPropertyOp54
 70
     1
102
RTVSPropertyOp55
 70
     1
102
RTVSPropertyOp56
 70
     1
102
RTVSPropertyOp57
 70
     1
102
RTVSPost2010Prop28
280
     0
102
RTVSPost2010PropOp28
 70
     1
102
RTVSPost2010Prop29
280
     1
102
RTVSPost2010PropOp29
 70
     1
102
RTVSPost2010Prop30
280
     1
102
RTVSPost2010PropOp30
 70
     1
102
RTVSPost2010Prop31
280
     0
102
RTVSPost2010PropOp31
 70
     1
102
RTVSPost2010Prop32
280
     0
102
RTVSPost2010PropOp32
 70
     1
102
RTVSPost2010Prop33
280
     0
102
RTVSPost2010PropOp33
 70
     1
102
RTVSPost2010Prop34
280
     0
102
RTVSPost2010PropOp34
 70
     1
102
RTVSPost2010Prop35
280
     0
102
RTVSPost2010PropOp35
 70
     1
102
RTVSPost2010Prop36
280
     0
102
RTVSPost2010PropOp36
 70
     1
102
RTVSPost2010Prop37
 90
       50
102
RTVSPost2010PropOp37
 70
     1
102
RTVSPost2010Prop38
140
0.0
102
RTVSPost2010PropOp38
 70
     1
102
RTVSPost2010Prop39
140
1.0
102
RTVSPost2010PropOp39
 70
     1
102
RTVSPost2010Prop40
 90
        0
102
RTVSPost2010PropOp40
 70
     1
102
RTVSPost2010Prop41ColorIndex
 90
       18
102
RTVSPost2010Prop41ColorRGB
 90
        0
102
RTVSPost2010PropOp41
 70
     1
102
RTVSPost2010Prop42
 90
       50
102
RTVSPost2010PropOp42
 70
     1
102
RTVSPost2010Prop43
 90
        3
102
RTVSPost2010PropOp43
 70
     1
102
RTVSPost2010Prop44ColorIndex
 90
        5
102
RTVSPost2010Prop44ColorRGB
 90
      255
102
RTVSPost2010PropOp44
 70
     1
102
RTVSPost2010Prop45
280
     0
102
RTVSPost2010PropOp45
 70
     1
102
RTVSPost2010Prop46
 90
       50
102
RTVSPost2010PropOp46
 70
     1
102
RTVSPost2010Prop47
 90
       50
102
RTVSPost2010PropOp47
 70
     1
102
RTVSPost2010Prop48
 90
       50
102
RTVSPost2010PropOp48
 70
     1
102
RTVSPost2010Prop49
280
     0
102
RTVSPost2010PropOp49
 70
     1
102
RTVSPost2010Prop50
 90
       50
102
RTVSPost2010PropOp50
 70
     1
102
RTVSPost2010Prop51ColorIndex
 90
      256
102
RTVSPost2010Prop51ColorRGB
 90
-16777216
102
RTVSPost2010PropOp51
 70
     0
102
RTVSPost2010Prop52
140
1.0
102
RTVSPost2010PropOp52
 70
     0
102
RTVSPost2010Prop53
 90
        2
102
RTVSPost2010PropOp53
 70
     1
102
RTVSPost2010Prop54
  1
strokes_ogs.tif
102
RTVSPost2010PropOp54
 70
     1
102
RTVSPost2010Prop55
280
     0
102
RTVSPost2010PropOp55
 70
     1
102
RTVSPost2010Prop56
140
1.0
102
RTVSPost2010PropOp56
 70
     1
102
RTVSPost2010Prop57
140
1.0
102
RTVSPost2010PropOp57
 70
     1
  0
XRECORD
  5
245
102
{ACAD_REACTORS
330
244
102
}
330
244
100
AcDbXrecord
280
     1
102
RTVSPropertyOp0
 70
     1
102
RTVSPropertyOp1
 70
     1
102
RTVSPropertyOp2
 70
     1
102
RTVSPropertyOp3
 70
     1
102
RTVSPropertyOp4
 70
     1
102
RTVSPropertyOp5
 70
     1
102
RTVSPropertyOp6
 70
     1
102
RTVSPropertyOp7
 70
     1
102
RTVSPropertyOp8
 70
     1
102
RTVSPropertyOp9
 70
     1
102
RTVSPropertyOp10
 70
     1
102
RTVSPropertyOp11
 70
     1
102
RTVSPropertyOp12
 70
     1
102
RTVSPropertyOp13
 70
     1
102
RTVSPropertyOp14
 70
     1
102
RTVSPropertyOp15
 70
     1
102
RTVSPropertyOp16
 70
     1
102
RTVSPropertyOp17
 70
     1
102
RTVSPropertyOp18
 70
     1
102
RTVSPropertyOp19
 70
     1
102
RTVSPropertyOp20
 70
     1
102
RTVSPropertyOp21
 70
     1
102
RTVSPropertyOp22
 70
     1
102
RTVSPropertyOp23
 70
     1
102
RTVSPropertyOp24
 70
     1
102
RTVSPropertyOp25
 70
     1
102
RTVSPropertyOp26
 70
     1
102
RTVSPropertyOp27
 70
     1
102
RTVSPropertyOp28
 70
     1
102
RTVSPropertyOp29
 70
     1
102
RTVSPropertyOp30
 70
     1
102
RTVSPropertyOp31
 70
     1
102
RTVSPropertyOp32
 70
     1
102
RTVSPropertyOp33
 70
     1
102
RTVSPropertyOp34
 70
     1
102
RTVSPropertyOp35
 70
     1
102
RTVSPropertyOp36
 70
     1
102
RTVSPropertyOp37
 70
     1
102
RTVSPropertyOp38
 70
     1
102
RTVSPropertyOp39
 70
     1
102
RTVSPropertyOp40
 70
     1
102
RTVSPropertyOp41
 70
     1
102
RTVSPropertyOp42
 70
     1
102
RTVSPropertyOp43
 70
     1
102
RTVSPropertyOp44
 70
     1
102
RTVSPropertyOp45
 70
     1
102
RTVSPropertyOp46
 70
     1
102
RTVSPropertyOp47
 70
     1
102
RTVSPropertyOp48
 70
     1
102
RTVSPropertyOp49
 70
     1
102
RTVSPropertyOp50
 70
     1
102
RTVSPropertyOp51
 70
     0
102
RTVSPropertyOp52
 70
     0
102
RTVSPropertyOp53
 70
     1
102
RTVSPropertyOp54
 70
     1
102
RTVSPropertyOp55
 70
     1
102
RTVSPropertyOp56
 70
     1
102
RTVSPropertyOp57
 70
     1
102
RTVSPost2010Prop28
280
     0
102
RTVSPost2010PropOp28
 70
     1
102
RTVSPost2010Prop29
280
     1
102
RTVSPost2010PropOp29
 70
     1
102
RTVSPost2010Prop30
280
     1
102
RTVSPost2010PropOp30
 70
     1
102
RTVSPost2010Prop31
280
     0
102
RTVSPost2010PropOp31
 70
     1
102
RTVSPost2010Prop32
280
     0
102
RTVSPost2010PropOp32
 70
     1
102
RTVSPost2010Prop33
280
     0
102
RTVSPost2010PropOp33
 70
     1
102
RTVSPost2010Prop34
280
     0
102
RTVSPost2010PropOp34
 70
     1
102
RTVSPost2010Prop35
280
     0
102
RTVSPost2010PropOp35
 70
     1
102
RTVSPost2010Prop36
280
     0
102
RTVSPost2010PropOp36
 70
     1
102
RTVSPost2010Prop37
 90
       50
102
RTVSPost2010PropOp37
 70
     1
102
RTVSPost2010Prop38
140
0.0
102
RTVSPost2010PropOp38
 70
     1
102
RTVSPost2010Prop39
140
1.0
102
RTVSPost2010PropOp39
 70
     1
102
RTVSPost2010Prop40
 90
        0
102
RTVSPost2010PropOp40
 70
     1
102
RTVSPost2010Prop41ColorIndex
 90
       18
102
RTVSPost2010Prop41ColorRGB
 90
        0
102
RTVSPost2010PropOp41
 70
     1
102
RTVSPost2010Prop42
 90
       50
102
RTVSPost2010PropOp42
 70
     1
102
RTVSPost2010Prop43
 90
        3
102
RTVSPost2010PropOp43
 70
     1
102
RTVSPost2010Prop44ColorIndex
 90
        5
102
RTVSPost2010Prop44ColorRGB
 90
      255
102
RTVSPost2010PropOp44
 70
     1
102
RTVSPost2010Prop45
280
     0
102
RTVSPost2010PropOp45
 70
     1
102
RTVSPost2010Prop46
 90
       50
102
RTVSPost2010PropOp46
 70
     1
102
RTVSPost2010Prop47
 90
       50
102
RTVSPost2010PropOp47
 70
     1
102
RTVSPost2010Prop48
 90
       50
102
RTVSPost2010PropOp48
 70
     1
102
RTVSPost2010Prop49
280
     0
102
RTVSPost2010PropOp49
 70
     1
102
RTVSPost2010Prop50
 90
       50
102
RTVSPost2010PropOp50
 70
     1
102
RTVSPost2010Prop51ColorIndex
 90
      256
102
RTVSPost2010Prop51ColorRGB
 90
-16777216
102
RTVSPost2010PropOp51
 70
     0
102
RTVSPost2010Prop52
140
1.0
102
RTVSPost2010PropOp52
 70
     0
102
RTVSPost2010Prop53
 90
        2
102
RTVSPost2010PropOp53
 70
     1
102
RTVSPost2010Prop54
  1
strokes_ogs.tif
102
RTVSPost2010PropOp54
 70
     1
102
RTVSPost2010Prop55
280
     0
102
RTVSPost2010PropOp55
 70
     1
102
RTVSPost2010Prop56
140
1.0
102
RTVSPost2010PropOp56
 70
     1
102
RTVSPost2010Prop57
140
1.0
102
RTVSPost2010PropOp57
 70
     1
  0
XRECORD
  5
247
102
{ACAD_REACTORS
330
246
102
}
330
246
100
AcDbXrecord
280
     1
102
RTVSPropertyOp0
 70
     1
102
RTVSPropertyOp1
 70
     1
102
RTVSPropertyOp2
 70
     1
102
RTVSPropertyOp3
 70
     1
102
RTVSPropertyOp4
 70
     1
102
RTVSPropertyOp5
 70
     1
102
RTVSPropertyOp6
 70
     1
102
RTVSPropertyOp7
 70
     1
102
RTVSPropertyOp8
 70
     1
102
RTVSPropertyOp9
 70
     1
102
RTVSPropertyOp10
 70
     1
102
RTVSPropertyOp11
 70
     1
102
RTVSPropertyOp12
 70
     1
102
RTVSPropertyOp13
 70
     1
102
RTVSPropertyOp14
 70
     1
102
RTVSPropertyOp15
 70
     1
102
RTVSPropertyOp16
 70
     1
102
RTVSPropertyOp17
 70
     1
102
RTVSPropertyOp18
 70
     1
102
RTVSPropertyOp19
 70
     1
102
RTVSPropertyOp20
 70
     1
102
RTVSPropertyOp21
 70
     1
102
RTVSPropertyOp22
 70
     1
102
RTVSPropertyOp23
 70
     1
102
RTVSPropertyOp24
 70
     1
102
RTVSPropertyOp25
 70
     1
102
RTVSPropertyOp26
 70
     1
102
RTVSPropertyOp27
 70
     1
102
RTVSPropertyOp28
 70
     1
102
RTVSPropertyOp29
 70
     1
102
RTVSPropertyOp30
 70
     1
102
RTVSPropertyOp31
 70
     1
102
RTVSPropertyOp32
 70
     1
102
RTVSPropertyOp33
 70
     1
102
RTVSPropertyOp34
 70
     1
102
RTVSPropertyOp35
 70
     1
102
RTVSPropertyOp36
 70
     1
102
RTVSPropertyOp37
 70
     1
102
RTVSPropertyOp38
 70
     1
102
RTVSPropertyOp39
 70
     1
102
RTVSPropertyOp40
 70
     1
102
RTVSPropertyOp41
 70
     1
102
RTVSPropertyOp42
 70
     1
102
RTVSPropertyOp43
 70
     1
102
RTVSPropertyOp44
 70
     1
102
RTVSPropertyOp45
 70
     1
102
RTVSPropertyOp46
 70
     1
102
RTVSPropertyOp47
 70
     1
102
RTVSPropertyOp48
 70
     1
102
RTVSPropertyOp49
 70
     1
102
RTVSPropertyOp50
 70
     1
102
RTVSPropertyOp51
 70
     0
102
RTVSPropertyOp52
 70
     0
102
RTVSPropertyOp53
 70
     1
102
RTVSPropertyOp54
 70
     1
102
RTVSPropertyOp55
 70
     1
102
RTVSPropertyOp56
 70
     1
102
RTVSPropertyOp57
 70
     1
102
RTVSPost2010Prop28
280
     0
102
RTVSPost2010PropOp28
 70
     1
102
RTVSPost2010Prop29
280
     1
102
RTVSPost2010PropOp29
 70
     1
102
RTVSPost2010Prop30
280
     1
102
RTVSPost2010PropOp30
 70
     1
102
RTVSPost2010Prop31
280
     0
102
RTVSPost2010PropOp31
 70
     1
102
RTVSPost2010Prop32
280
     0
102
RTVSPost2010PropOp32
 70
     1
102
RTVSPost2010Prop33
280
     0
102
RTVSPost2010PropOp33
 70
     1
102
RTVSPost2010Prop34
280
     0
102
RTVSPost2010PropOp34
 70
     1
102
RTVSPost2010Prop35
280
     0
102
RTVSPost2010PropOp35
 70
     1
102
RTVSPost2010Prop36
280
     0
102
RTVSPost2010PropOp36
 70
     1
102
RTVSPost2010Prop37
 90
       50
102
RTVSPost2010PropOp37
 70
     1
102
RTVSPost2010Prop38
140
0.0
102
RTVSPost2010PropOp38
 70
     1
102
RTVSPost2010Prop39
140
1.0
102
RTVSPost2010PropOp39
 70
     1
102
RTVSPost2010Prop40
 90
        0
102
RTVSPost2010PropOp40
 70
     1
102
RTVSPost2010Prop41ColorIndex
 90
       18
102
RTVSPost2010Prop41ColorRGB
 90
        0
102
RTVSPost2010PropOp41
 70
     1
102
RTVSPost2010Prop42
 90
       50
102
RTVSPost2010PropOp42
 70
     1
102
RTVSPost2010Prop43
 90
        3
102
RTVSPost2010PropOp43
 70
     1
102
RTVSPost2010Prop44ColorIndex
 90
        5
102
RTVSPost2010Prop44ColorRGB
 90
      255
102
RTVSPost2010PropOp44
 70
     1
102
RTVSPost2010Prop45
280
     0
102
RTVSPost2010PropOp45
 70
     1
102
RTVSPost2010Prop46
 90
       50
102
RTVSPost2010PropOp46
 70
     1
102
RTVSPost2010Prop47
 90
       50
102
RTVSPost2010PropOp47
 70
     1
102
RTVSPost2010Prop48
 90
       50
102
RTVSPost2010PropOp48
 70
     1
102
RTVSPost2010Prop49
280
     0
102
RTVSPost2010PropOp49
 70
     1
102
RTVSPost2010Prop50
 90
       50
102
RTVSPost2010PropOp50
 70
     1
102
RTVSPost2010Prop51ColorIndex
 90
      256
102
RTVSPost2010Prop51ColorRGB
 90
-16777216
102
RTVSPost2010PropOp51
 70
     0
102
RTVSPost2010Prop52
140
1.0
102
RTVSPost2010PropOp52
 70
     0
102
RTVSPost2010Prop53
 90
        2
102
RTVSPost2010PropOp53
 70
     1
102
RTVSPost2010Prop54
  1
strokes_ogs.tif
102
RTVSPost2010PropOp54
 70
     1
102
RTVSPost2010Prop55
280
     0
102
RTVSPost2010PropOp55
 70
     1
102
RTVSPost2010Prop56
140
1.0
102
RTVSPost2010PropOp56
 70
     1
102
RTVSPost2010Prop57
140
1.0
102
RTVSPost2010PropOp57
 70
     1
  0
XRECORD
  5
237
102
{ACAD_REACTORS
330
236
102
}
330
236
100
AcDbXrecord
280
     1
102
RTVSPropertyOp0
 70
     1
102
RTVSPropertyOp1
 70
     1
102
RTVSPropertyOp2
 70
     1
102
RTVSPropertyOp3
 70
     1
102
RTVSPropertyOp4
 70
     1
102
RTVSPropertyOp5
 70
     1
102
RTVSPropertyOp6
 70
     1
102
RTVSPropertyOp7
 70
     1
102
RTVSPropertyOp8
 70
     1
102
RTVSPropertyOp9
 70
     1
102
RTVSPropertyOp10
 70
     1
102
RTVSPropertyOp11
 70
     1
102
RTVSPropertyOp12
 70
     1
102
RTVSPropertyOp13
 70
     1
102
RTVSPropertyOp14
 70
     1
102
RTVSPropertyOp15
 70
     1
102
RTVSPropertyOp16
 70
     1
102
RTVSPropertyOp17
 70
     1
102
RTVSPropertyOp18
 70
     1
102
RTVSPropertyOp19
 70
     1
102
RTVSPropertyOp20
 70
     1
102
RTVSPropertyOp21
 70
     1
102
RTVSPropertyOp22
 70
     1
102
RTVSPropertyOp23
 70
     1
102
RTVSPropertyOp24
 70
     1
102
RTVSPropertyOp25
 70
     1
102
RTVSPropertyOp26
 70
     1
102
RTVSPropertyOp27
 70
     1
102
RTVSPropertyOp28
 70
     1
102
RTVSPropertyOp29
 70
     1
102
RTVSPropertyOp30
 70
     1
102
RTVSPropertyOp31
 70
     1
102
RTVSPropertyOp32
 70
     1
102
RTVSPropertyOp33
 70
     1
102
RTVSPropertyOp34
 70
     1
102
RTVSPropertyOp35
 70
     1
102
RTVSPropertyOp36
 70
     1
102
RTVSPropertyOp37
 70
     1
102
RTVSPropertyOp38
 70
     1
102
RTVSPropertyOp39
 70
     1
102
RTVSPropertyOp40
 70
     1
102
RTVSPropertyOp41
 70
     1
102
RTVSPropertyOp42
 70
     1
102
RTVSPropertyOp43
 70
     1
102
RTVSPropertyOp44
 70
     1
102
RTVSPropertyOp45
 70
     1
102
RTVSPropertyOp46
 70
     1
102
RTVSPropertyOp47
 70
     1
102
RTVSPropertyOp48
 70
     1
102
RTVSPropertyOp49
 70
     1
102
RTVSPropertyOp50
 70
     1
102
RTVSPropertyOp51
 70
     0
102
RTVSPropertyOp52
 70
     0
102
RTVSPropertyOp53
 70
     1
102
RTVSPropertyOp54
 70
     1
102
RTVSPropertyOp55
 70
     1
102
RTVSPropertyOp56
 70
     1
102
RTVSPropertyOp57
 70
     1
102
RTVSPost2010Prop28
280
     0
102
RTVSPost2010PropOp28
 70
     1
102
RTVSPost2010Prop29
280
     1
102
RTVSPost2010PropOp29
 70
     1
102
RTVSPost2010Prop30
280
     1
102
RTVSPost2010PropOp30
 70
     1
102
RTVSPost2010Prop31
280
     0
102
RTVSPost2010PropOp31
 70
     1
102
RTVSPost2010Prop32
280
     0
102
RTVSPost2010PropOp32
 70
     1
102
RTVSPost2010Prop33
280
     0
102
RTVSPost2010PropOp33
 70
     1
102
RTVSPost2010Prop34
280
     0
102
RTVSPost2010PropOp34
 70
     1
102
RTVSPost2010Prop35
280
     0
102
RTVSPost2010PropOp35
 70
     1
102
RTVSPost2010Prop36
280
     0
102
RTVSPost2010PropOp36
 70
     1
102
RTVSPost2010Prop37
 90
       50
102
RTVSPost2010PropOp37
 70
     1
102
RTVSPost2010Prop38
140
0.0
102
RTVSPost2010PropOp38
 70
     1
102
RTVSPost2010Prop39
140
1.0
102
RTVSPost2010PropOp39
 70
     1
102
RTVSPost2010Prop40
 90
        0
102
RTVSPost2010PropOp40
 70
     1
102
RTVSPost2010Prop41ColorIndex
 90
       18
102
RTVSPost2010Prop41ColorRGB
 90
        0
102
RTVSPost2010PropOp41
 70
     1
102
RTVSPost2010Prop42
 90
       50
102
RTVSPost2010PropOp42
 70
     1
102
RTVSPost2010Prop43
 90
        3
102
RTVSPost2010PropOp43
 70
     1
102
RTVSPost2010Prop44ColorIndex
 90
        5
102
RTVSPost2010Prop44ColorRGB
 90
      255
102
RTVSPost2010PropOp44
 70
     1
102
RTVSPost2010Prop45
280
     0
102
RTVSPost2010PropOp45
 70
     1
102
RTVSPost2010Prop46
 90
       50
102
RTVSPost2010PropOp46
 70
     1
102
RTVSPost2010Prop47
 90
       50
102
RTVSPost2010PropOp47
 70
     1
102
RTVSPost2010Prop48
 90
       50
102
RTVSPost2010PropOp48
 70
     1
102
RTVSPost2010Prop49
280
     0
102
RTVSPost2010PropOp49
 70
     1
102
RTVSPost2010Prop50
 90
       50
102
RTVSPost2010PropOp50
 70
     1
102
RTVSPost2010Prop51ColorIndex
 90
      256
102
RTVSPost2010Prop51ColorRGB
 90
-16777216
102
RTVSPost2010PropOp51
 70
     0
102
RTVSPost2010Prop52
140
1.0
102
RTVSPost2010PropOp52
 70
     0
102
RTVSPost2010Prop53
 90
        2
102
RTVSPost2010PropOp53
 70
     1
102
RTVSPost2010Prop54
  1
strokes_ogs.tif
102
RTVSPost2010PropOp54
 70
     1
102
RTVSPost2010Prop55
280
     0
102
RTVSPost2010PropOp55
 70
     1
102
RTVSPost2010Prop56
140
1.0
102
RTVSPost2010PropOp56
 70
     1
102
RTVSPost2010Prop57
140
1.0
102
RTVSPost2010PropOp57
 70
     1
  0
XRECORD
  5
229
102
{ACAD_REACTORS
330
228
102
}
330
228
100
AcDbXrecord
280
     1
102
RTVSPropertyOp0
 70
     1
102
RTVSPropertyOp1
 70
     1
102
RTVSPropertyOp2
 70
     1
102
RTVSPropertyOp3
 70
     1
102
RTVSPropertyOp4
 70
     1
102
RTVSPropertyOp5
 70
     1
102
RTVSPropertyOp6
 70
     1
102
RTVSPropertyOp7
 70
     1
102
RTVSPropertyOp8
 70
     1
102
RTVSPropertyOp9
 70
     1
102
RTVSPropertyOp10
 70
     1
102
RTVSPropertyOp11
 70
     1
102
RTVSPropertyOp12
 70
     1
102
RTVSPropertyOp13
 70
     1
102
RTVSPropertyOp14
 70
     1
102
RTVSPropertyOp15
 70
     1
102
RTVSPropertyOp16
 70
     1
102
RTVSPropertyOp17
 70
     1
102
RTVSPropertyOp18
 70
     1
102
RTVSPropertyOp19
 70
     1
102
RTVSPropertyOp20
 70
     1
102
RTVSPropertyOp21
 70
     1
102
RTVSPropertyOp22
 70
     1
102
RTVSPropertyOp23
 70
     1
102
RTVSPropertyOp24
 70
     1
102
RTVSPropertyOp25
 70
     1
102
RTVSPropertyOp26
 70
     1
102
RTVSPropertyOp27
 70
     1
102
RTVSPropertyOp28
 70
     1
102
RTVSPropertyOp29
 70
     1
102
RTVSPropertyOp30
 70
     1
102
RTVSPropertyOp31
 70
     1
102
RTVSPropertyOp32
 70
     1
102
RTVSPropertyOp33
 70
     1
102
RTVSPropertyOp34
 70
     1
102
RTVSPropertyOp35
 70
     1
102
RTVSPropertyOp36
 70
     1
102
RTVSPropertyOp37
 70
     1
102
RTVSPropertyOp38
 70
     1
102
RTVSPropertyOp39
 70
     1
102
RTVSPropertyOp40
 70
     1
102
RTVSPropertyOp41
 70
     1
102
RTVSPropertyOp42
 70
     1
102
RTVSPropertyOp43
 70
     1
102
RTVSPropertyOp44
 70
     1
102
RTVSPropertyOp45
 70
     1
102
RTVSPropertyOp46
 70
     1
102
RTVSPropertyOp47
 70
     1
102
RTVSPropertyOp48
 70
     1
102
RTVSPropertyOp49
 70
     1
102
RTVSPropertyOp50
 70
     1
102
RTVSPropertyOp51
 70
     0
102
RTVSPropertyOp52
 70
     0
102
RTVSPropertyOp53
 70
     1
102
RTVSPropertyOp54
 70
     1
102
RTVSPropertyOp55
 70
     1
102
RTVSPropertyOp56
 70
     1
102
RTVSPropertyOp57
 70
     1
102
RTVSPost2010Prop28
280
     0
102
RTVSPost2010PropOp28
 70
     1
102
RTVSPost2010Prop29
280
     1
102
RTVSPost2010PropOp29
 70
     1
102
RTVSPost2010Prop30
280
     1
102
RTVSPost2010PropOp30
 70
     1
102
RTVSPost2010Prop31
280
     0
102
RTVSPost2010PropOp31
 70
     1
102
RTVSPost2010Prop32
280
     0
102
RTVSPost2010PropOp32
 70
     1
102
RTVSPost2010Prop33
280
     0
102
RTVSPost2010PropOp33
 70
     1
102
RTVSPost2010Prop34
280
     0
102
RTVSPost2010PropOp34
 70
     1
102
RTVSPost2010Prop35
280
     0
102
RTVSPost2010PropOp35
 70
     1
102
RTVSPost2010Prop36
280
     0
102
RTVSPost2010PropOp36
 70
     1
102
RTVSPost2010Prop37
 90
       50
102
RTVSPost2010PropOp37
 70
     1
102
RTVSPost2010Prop38
140
0.0
102
RTVSPost2010PropOp38
 70
     1
102
RTVSPost2010Prop39
140
1.0
102
RTVSPost2010PropOp39
 70
     1
102
RTVSPost2010Prop40
 90
        0
102
RTVSPost2010PropOp40
 70
     1
102
RTVSPost2010Prop41ColorIndex
 90
       18
102
RTVSPost2010Prop41ColorRGB
 90
        0
102
RTVSPost2010PropOp41
 70
     1
102
RTVSPost2010Prop42
 90
       50
102
RTVSPost2010PropOp42
 70
     1
102
RTVSPost2010Prop43
 90
        3
102
RTVSPost2010PropOp43
 70
     1
102
RTVSPost2010Prop44ColorIndex
 90
        5
102
RTVSPost2010Prop44ColorRGB
 90
      255
102
RTVSPost2010PropOp44
 70
     1
102
RTVSPost2010Prop45
280
     0
102
RTVSPost2010PropOp45
 70
     1
102
RTVSPost2010Prop46
 90
       50
102
RTVSPost2010PropOp46
 70
     1
102
RTVSPost2010Prop47
 90
       50
102
RTVSPost2010PropOp47
 70
     1
102
RTVSPost2010Prop48
 90
       50
102
RTVSPost2010PropOp48
 70
     1
102
RTVSPost2010Prop49
280
     0
102
RTVSPost2010PropOp49
 70
     1
102
RTVSPost2010Prop50
 90
       50
102
RTVSPost2010PropOp50
 70
     1
102
RTVSPost2010Prop51ColorIndex
 90
      256
102
RTVSPost2010Prop51ColorRGB
 90
-16777216
102
RTVSPost2010PropOp51
 70
     0
102
RTVSPost2010Prop52
140
1.0
102
RTVSPost2010PropOp52
 70
     0
102
RTVSPost2010Prop53
 90
        2
102
RTVSPost2010PropOp53
 70
     1
102
RTVSPost2010Prop54
  1
strokes_ogs.tif
102
RTVSPost2010PropOp54
 70
     1
102
RTVSPost2010Prop55
280
     0
102
RTVSPost2010PropOp55
 70
     1
102
RTVSPost2010Prop56
140
1.0
102
RTVSPost2010PropOp56
 70
     1
102
RTVSPost2010Prop57
140
1.0
102
RTVSPost2010PropOp57
 70
     1
  0
XRECORD
  5
249
102
{ACAD_REACTORS
330
248
102
}
330
248
100
AcDbXrecord
280
     1
102
RTVSPropertyOp0
 70
     1
102
RTVSPropertyOp1
 70
     1
102
RTVSPropertyOp2
 70
     1
102
RTVSPropertyOp3
 70
     1
102
RTVSPropertyOp4
 70
     1
102
RTVSPropertyOp5
 70
     1
102
RTVSPropertyOp6
 70
     1
102
RTVSPropertyOp7
 70
     1
102
RTVSPropertyOp8
 70
     1
102
RTVSPropertyOp9
 70
     1
102
RTVSPropertyOp10
 70
     1
102
RTVSPropertyOp11
 70
     1
102
RTVSPropertyOp12
 70
     1
102
RTVSPropertyOp13
 70
     1
102
RTVSPropertyOp14
 70
     1
102
RTVSPropertyOp15
 70
     1
102
RTVSPropertyOp16
 70
     1
102
RTVSPropertyOp17
 70
     1
102
RTVSPropertyOp18
 70
     1
102
RTVSPropertyOp19
 70
     1
102
RTVSPropertyOp20
 70
     1
102
RTVSPropertyOp21
 70
     1
102
RTVSPropertyOp22
 70
     1
102
RTVSPropertyOp23
 70
     1
102
RTVSPropertyOp24
 70
     1
102
RTVSPropertyOp25
 70
     1
102
RTVSPropertyOp26
 70
     1
102
RTVSPropertyOp27
 70
     1
102
RTVSPropertyOp28
 70
     1
102
RTVSPropertyOp29
 70
     1
102
RTVSPropertyOp30
 70
     1
102
RTVSPropertyOp31
 70
     1
102
RTVSPropertyOp32
 70
     1
102
RTVSPropertyOp33
 70
     1
102
RTVSPropertyOp34
 70
     1
102
RTVSPropertyOp35
 70
     1
102
RTVSPropertyOp36
 70
     1
102
RTVSPropertyOp37
 70
     1
102
RTVSPropertyOp38
 70
     1
102
RTVSPropertyOp39
 70
     1
102
RTVSPropertyOp40
 70
     1
102
RTVSPropertyOp41
 70
     1
102
RTVSPropertyOp42
 70
     1
102
RTVSPropertyOp43
 70
     1
102
RTVSPropertyOp44
 70
     1
102
RTVSPropertyOp45
 70
     1
102
RTVSPropertyOp46
 70
     1
102
RTVSPropertyOp47
 70
     1
102
RTVSPropertyOp48
 70
     1
102
RTVSPropertyOp49
 70
     1
102
RTVSPropertyOp50
 70
     1
102
RTVSPropertyOp51
 70
     0
102
RTVSPropertyOp52
 70
     0
102
RTVSPropertyOp53
 70
     1
102
RTVSPropertyOp54
 70
     1
102
RTVSPropertyOp55
 70
     1
102
RTVSPropertyOp56
 70
     1
102
RTVSPropertyOp57
 70
     1
102
RTVSPost2010Prop28
280
     0
102
RTVSPost2010PropOp28
 70
     1
102
RTVSPost2010Prop29
280
     1
102
RTVSPost2010PropOp29
 70
     1
102
RTVSPost2010Prop30
280
     1
102
RTVSPost2010PropOp30
 70
     1
102
RTVSPost2010Prop31
280
     0
102
RTVSPost2010PropOp31
 70
     1
102
RTVSPost2010Prop32
280
     0
102
RTVSPost2010PropOp32
 70
     1
102
RTVSPost2010Prop33
280
     0
102
RTVSPost2010PropOp33
 70
     1
102
RTVSPost2010Prop34
280
     0
102
RTVSPost2010PropOp34
 70
     1
102
RTVSPost2010Prop35
280
     0
102
RTVSPost2010PropOp35
 70
     1
102
RTVSPost2010Prop36
280
     0
102
RTVSPost2010PropOp36
 70
     1
102
RTVSPost2010Prop37
 90
       50
102
RTVSPost2010PropOp37
 70
     1
102
RTVSPost2010Prop38
140
0.0
102
RTVSPost2010PropOp38
 70
     1
102
RTVSPost2010Prop39
140
1.0
102
RTVSPost2010PropOp39
 70
     1
102
RTVSPost2010Prop40
 90
        0
102
RTVSPost2010PropOp40
 70
     1
102
RTVSPost2010Prop41ColorIndex
 90
       18
102
RTVSPost2010Prop41ColorRGB
 90
        0
102
RTVSPost2010PropOp41
 70
     1
102
RTVSPost2010Prop42
 90
       50
102
RTVSPost2010PropOp42
 70
     1
102
RTVSPost2010Prop43
 90
        3
102
RTVSPost2010PropOp43
 70
     1
102
RTVSPost2010Prop44ColorIndex
 90
        5
102
RTVSPost2010Prop44ColorRGB
 90
      255
102
RTVSPost2010PropOp44
 70
     1
102
RTVSPost2010Prop45
280
     0
102
RTVSPost2010PropOp45
 70
     1
102
RTVSPost2010Prop46
 90
       50
102
RTVSPost2010PropOp46
 70
     1
102
RTVSPost2010Prop47
 90
       50
102
RTVSPost2010PropOp47
 70
     1
102
RTVSPost2010Prop48
 90
       50
102
RTVSPost2010PropOp48
 70
     1
102
RTVSPost2010Prop49
280
     0
102
RTVSPost2010PropOp49
 70
     1
102
RTVSPost2010Prop50
 90
       50
102
RTVSPost2010PropOp50
 70
     1
102
RTVSPost2010Prop51ColorIndex
 90
      256
102
RTVSPost2010Prop51ColorRGB
 90
-16777216
102
RTVSPost2010PropOp51
 70
     0
102
RTVSPost2010Prop52
140
1.0
102
RTVSPost2010PropOp52
 70
     0
102
RTVSPost2010Prop53
 90
        2
102
RTVSPost2010PropOp53
 70
     1
102
RTVSPost2010Prop54
  1
strokes_ogs.tif
102
RTVSPost2010PropOp54
 70
     1
102
RTVSPost2010Prop55
280
     0
102
RTVSPost2010PropOp55
 70
     1
102
RTVSPost2010Prop56
140
1.0
102
RTVSPost2010PropOp56
 70
     1
102
RTVSPost2010Prop57
140
1.0
102
RTVSPost2010PropOp57
 70
     1
  0
ENDSEC
  0
EOF
