  0
SECTION
  2
HEADER
  9
$ACADVER
  1
AC1018
  9
$ACADMAINTVER
 70
     0
  9
$DWGCODEPAGE
  3
ANSI_1252
  9
$INSBASE
 10
0.0
 20
0.0
 30
0.0
  9
$EXTMIN
 10
-0.0006030235165634
 20
0.9621098654404406
 30
-0.0000000000000003
  9
$EXTMAX
 10
77.28530241461753
 20
62.97047130154053
 30
0.0000000000000005
  9
$LIMMIN
 10
0.0
 20
0.0
  9
$LIMMAX
 10
12.0
 20
9.0
  9
$ORTHOMODE
 70
     0
  9
$REGENMODE
 70
     1
  9
$FILLMODE
 70
     1
  9
$QTEXTMODE
 70
     0
  9
$MIRRTEXT
 70
     1
  9
$LTSCALE
 40
1.0
  9
$ATTMODE
 70
     1
  9
$TEXTSIZE
 40
0.2
  9
$TRACEWID
 40
0.05
  9
$TEXTSTYLE
  7
Standard
  9
$CLAYER
  8
DEFAULT
  9
$CELTYPE
  6
ByLayer
  9
$CECOLOR
 62
   256
  9
$CELTSCALE
 40
1.0
  9
$DISPSILH
 70
     0
  9
$DIMSCALE
 40
1.0
  9
$DIMASZ
 40
0.18
  9
$DIMEXO
 40
0.0625
  9
$DIMDLI
 40
0.38
  9
$DIMRND
 40
0.0
  9
$DIMDLE
 40
0.0
  9
$DIMEXE
 40
0.18
  9
$DIMTP
 40
0.0
  9
$DIMTM
 40
0.0
  9
$DIMTXT
 40
0.18
  9
$DIMCEN
 40
0.09
  9
$DIMTSZ
 40
0.0
  9
$DIMTOL
 70
     0
  9
$DIMLIM
 70
     0
  9
$DIMTIH
 70
     1
  9
$DIMTOH
 70
     1
  9
$DIMSE1
 70
     0
  9
$DIMSE2
 70
     0
  9
$DIMTAD
 70
     0
  9
$DIMZIN
 70
     0
  9
$DIMBLK
  1

  9
$DIMASO
 70
     1
  9
$DIMSHO
 70
     1
  9
$DIMPOST
  1

  9
$DIMAPOST
  1

  9
$DIMALT
 70
     0
  9
$DIMALTD
 70
     2
  9
$DIMALTF
 40
25.4
  9
$DIMLFAC
 40
1.0
  9
$DIMTOFL
 70
     0
  9
$DIMTVP
 40
0.0
  9
$DIMTIX
 70
     0
  9
$DIMSOXD
 70
     0
  9
$DIMSAH
 70
     0
  9
$DIMBLK1
  1

  9
$DIMBLK2
  1

  9
$DIMSTYLE
  2
Standard
  9
$DIMCLRD
 70
     0
  9
$DIMCLRE
 70
     0
  9
$DIMCLRT
 70
     0
  9
$DIMTFAC
 40
1.0
  9
$DIMGAP
 40
0.09
  9
$DIMJUST
 70
     0
  9
$DIMSD1
 70
     0
  9
$DIMSD2
 70
     0
  9
$DIMTOLJ
 70
     1
  9
$DIMTZIN
 70
     0
  9
$DIMALTZ
 70
     0
  9
$DIMALTTZ
 70
     0
  9
$DIMUPT
 70
     0
  9
$DIMDEC
 70
     4
  9
$DIMTDEC
 70
     4
  9
$DIMALTU
 70
     2
  9
$DIMALTTD
 70
     2
  9
$DIMTXSTY
  7
Standard
  9
$DIMAUNIT
 70
     0
  9
$DIMADEC
 70
     0
  9
$DIMALTRND
 40
0.0
  9
$DIMAZIN
 70
     0
  9
$DIMDSEP
 70
    46
  9
$DIMATFIT
 70
     3
  9
$DIMFRAC
 70
     0
  9
$DIMLDRBLK
  1

  9
$DIMLUNIT
 70
     2
  9
$DIMLWD
 70
    -2
  9
$DIMLWE
 70
    -2
  9
$DIMTMOVE
 70
     0
  9
$LUNITS
 70
     2
  9
$LUPREC
 70
     2
  9
$SKETCHINC
 40
0.1
  9
$FILLETRAD
 40
0.5
  9
$AUNITS
 70
     0
  9
$AUPREC
 70
     0
  9
$MENU
  1
.
  9
$ELEVATION
 40
0.0
  9
$PELEVATION
 40
0.0
  9
$THICKNESS
 40
0.0
  9
$LIMCHECK
 70
     0
  9
$CHAMFERA
 40
0.5
  9
$CHAMFERB
 40
0.5
  9
$CHAMFERC
 40
1.0
  9
$CHAMFERD
 40
0.0
  9
$SKPOLY
 70
     0
  9
$TDCREATE
 40
2455868.681882789
  9
$TDUCREATE
 40
2455868.640216123
  9
$TDUPDATE
 40
2455868.681882801
  9
$TDUUPDATE
 40
2455868.640216134
  9
$TDINDWG
 40
0.0000000116
  9
$TDUSRTIMER
 40
0.0000000116
  9
$USRTIMER
 70
     1
  9
$ANGBASE
 50
0.0
  9
$ANGDIR
 70
     0
  9
$PDMODE
 70
     0
  9
$PDSIZE
 40
0.0
  9
$PLINEWID
 40
0.0
  9
$SPLFRAME
 70
     0
  9
$SPLINETYPE
 70
     6
  9
$SPLINESEGS
 70
     8
  9
$HANDSEED
  5
160
  9
$SURFTAB1
 70
     6
  9
$SURFTAB2
 70
     6
  9
$SURFTYPE
 70
     6
  9
$SURFU
 70
     6
  9
$SURFV
 70
     6
  9
$UCSBASE
  2

  9
$UCSNAME
  2

  9
$UCSORG
 10
0.0
 20
0.0
 30
0.0
  9
$UCSXDIR
 10
1.0
 20
0.0
 30
0.0
  9
$UCSYDIR
 10
0.0
 20
1.0
 30
0.0
  9
$UCSORTHOREF
  2

  9
$UCSORTHOVIEW
 70
     0
  9
$UCSORGTOP
 10
0.0
 20
0.0
 30
0.0
  9
$UCSORGBOTTOM
 10
0.0
 20
0.0
 30
0.0
  9
$UCSORGLEFT
 10
0.0
 20
0.0
 30
0.0
  9
$UCSORGRIGHT
 10
0.0
 20
0.0
 30
0.0
  9
$UCSORGFRONT
 10
0.0
 20
0.0
 30
0.0
  9
$UCSORGBACK
 10
0.0
 20
0.0
 30
0.0
  9
$PUCSBASE
  2

  9
$PUCSNAME
  2

  9
$PUCSORG
 10
0.0
 20
0.0
 30
0.0
  9
$PUCSXDIR
 10
1.0
 20
0.0
 30
0.0
  9
$PUCSYDIR
 10
0.0
 20
1.0
 30
0.0
  9
$PUCSORTHOREF
  2

  9
$PUCSORTHOVIEW
 70
     0
  9
$PUCSORGTOP
 10
0.0
 20
0.0
 30
0.0
  9
$PUCSORGBOTTOM
 10
0.0
 20
0.0
 30
0.0
  9
$PUCSORGLEFT
 10
0.0
 20
0.0
 30
0.0
  9
$PUCSORGRIGHT
 10
0.0
 20
0.0
 30
0.0
  9
$PUCSORGFRONT
 10
0.0
 20
0.0
 30
0.0
  9
$PUCSORGBACK
 10
0.0
 20
0.0
 30
0.0
  9
$USERI1
 70
     0
  9
$USERI2
 70
     0
  9
$USERI3
 70
     0
  9
$USERI4
 70
     0
  9
$USERI5
 70
     0
  9
$USERR1
 40
0.0
  9
$USERR2
 40
0.0
  9
$USERR3
 40
0.0
  9
$USERR4
 40
0.0
  9
$USERR5
 40
0.0
  9
$WORLDVIEW
 70
     1
  9
$SHADEDGE
 70
     3
  9
$SHADEDIF
 70
    70
  9
$TILEMODE
 70
     1
  9
$MAXACTVP
 70
    64
  9
$PINSBASE
 10
0.0
 20
0.0
 30
0.0
  9
$PLIMCHECK
 70
     0
  9
$PEXTMIN
 10
1.000000000000000E+20
 20
1.000000000000000E+20
 30
1.000000000000000E+20
  9
$PEXTMAX
 10
-1.000000000000000E+20
 20
-1.000000000000000E+20
 30
-1.000000000000000E+20
  9
$PLIMMIN
 10
0.0
 20
0.0
  9
$PLIMMAX
 10
12.0
 20
9.0
  9
$UNITMODE
 70
     0
  9
$VISRETAIN
 70
     1
  9
$PLINEGEN
 70
     0
  9
$PSLTSCALE
 70
     1
  9
$TREEDEPTH
 70
  3020
  9
$CMLSTYLE
  2
Standard
  9
$CMLJUST
 70
     0
  9
$CMLSCALE
 40
1.0
  9
$PROXYGRAPHICS
 70
     1
  9
$MEASUREMENT
 70
     0
  9
$CELWEIGHT
370
    -1
  9
$ENDCAPS
280
     0
  9
$JOINSTYLE
280
     0
  9
$LWDISPLAY
290
     0
  9
$INSUNITS
 70
     4
  9
$HYPERLINKBASE
  1

  9
$STYLESHEET
  1

  9
$XEDIT
290
     1
  9
$CEPSNTYPE
380
     0
  9
$PSTYLEMODE
290
     1
  9
$FINGERPRINTGUID
  2
{CA43F5A7-D20C-41B5-96D7-D03FF8C925CA}
  9
$VERSIONGUID
  2
{FAEB1C32-E019-11D5-929B-00C0DF256EC4}
  9
$EXTNAMES
290
     1
  9
$PSVPSCALE
 40
0.0
  9
$OLESTARTUP
290
     0
  9
$SORTENTS
280
   127
  9
$INDEXCTL
280
     0
  9
$HIDETEXT
280
     1
  9
$XCLIPFRAME
290
     0
  9
$HALOGAP
280
     0
  9
$OBSCOLOR
 70
   257
  9
$OBSLTYPE
280
     0
  9
$INTERSECTIONDISPLAY
280
     0
  9
$INTERSECTIONCOLOR
 70
   257
  9
$DIMASSOC
280
     2
  9
$PROJECTNAME
  1

  0
ENDSEC
  0
SECTION
  2
CLASSES
  0
CLASS
  1
ACDBDICTIONARYWDFLT
  2
AcDbDictionaryWithDefault
  3
ObjectDBX Classes
 90
        0
 91
        3
280
     0
281
     0
  0
CLASS
  1
VISUALSTYLE
  2
AcDbVisualStyle
  3
ObjectDBX Classes
 90
     4095
 91
        3
280
     0
281
     0
  0
CLASS
  1
SCALE
  2
AcDbScale
  3
ObjectDBX Classes
 90
     1153
 91
        3
280
     0
281
     0
  0
ENDSEC
  0
SECTION
  2
TABLES
  0
TABLE
  2
VPORT
  5
8
330
0
100
AcDbSymbolTable
 70
     1
  0
VPORT
  5
29
330
8
100
AcDbSymbolTableRecord
100
AcDbViewportTableRecord
  2
*Active
 70
     0
 10
0.0
 20
0.0
 11
1.0
 21
1.0
 12
0.0
 22
0.0
 13
0.0
 23
0.0
 14
0.5
 24
0.5
 15
0.5
 25
0.5
 16
0.0
 26
0.0
 36
1.0
 17
38.64234969555049
 27
31.96629058349048
 37
0.0
 40
63.24852866482209
 41
1.246378772930125
 42
50.0
 43
0.0
 44
0.0
 50
0.0
 51
0.0
 71
     0
 72
   100
 73
     1
 74
     3
 75
     0
 76
     0
 77
     0
 78
     0
281
     0
 65
     1
110
0.0
120
0.0
130
0.0
111
1.0
121
0.0
131
0.0
112
0.0
122
1.0
132
0.0
 79
     0
146
0.0
  0
ENDTAB
  0
TABLE
  2
LTYPE
  5
5
330
0
100
AcDbSymbolTable
 70
     1
  0
LTYPE
  5
14
330
5
100
AcDbSymbolTableRecord
100
AcDbLinetypeTableRecord
  2
ByBlock
 70
     0
  3

 72
    65
 73
     0
 40
0.0
  0
LTYPE
  5
15
330
5
100
AcDbSymbolTableRecord
100
AcDbLinetypeTableRecord
  2
ByLayer
 70
     0
  3

 72
    65
 73
     0
 40
0.0
  0
LTYPE
  5
16
330
5
100
AcDbSymbolTableRecord
100
AcDbLinetypeTableRecord
  2
Continuous
 70
     0
  3
Solid line
 72
    65
 73
     0
 40
0.0
  0
ENDTAB
  0
TABLE
  2
LAYER
  5
2
330
0
100
AcDbSymbolTable
 70
     4
  0
LAYER
  5
10
330
2
100
AcDbSymbolTableRecord
100
AcDbLayerTableRecord
  2
0
 70
     0
 62
     7
  6
Continuous
370
    -3
390
F
  0
LAYER
  5
5D
330
2
100
AcDbSymbolTableRecord
100
AcDbLayerTableRecord
  2
LINEE VISIBILI 2D
 70
     0
 62
     7
  6
Continuous
370
    -3
390
F
  0
LAYER
  5
6D
330
2
100
AcDbSymbolTableRecord
100
AcDbLayerTableRecord
  2
PREDEFINITO
 70
     0
 62
     7
  6
Continuous
370
    -3
390
F
  0
LAYER
  5
AA
330
2
100
AcDbSymbolTableRecord
100
AcDbLayerTableRecord
  2
DEFAULT
 70
     0
 62
     7
  6
Continuous
370
    -3
390
F
  0
ENDTAB
  0
TABLE
  2
STYLE
  5
3
330
0
100
AcDbSymbolTable
 70
     1
  0
STYLE
  5
11
330
3
100
AcDbSymbolTableRecord
100
AcDbTextStyleTableRecord
  2
Standard
 70
     0
 40
0.0
 41
1.0
 50
0.0
 71
     0
 42
0.2
  3
txt
  4

  0
ENDTAB
  0
TABLE
  2
VIEW
  5
6
330
0
100
AcDbSymbolTable
 70
     0
  0
ENDTAB
  0
TABLE
  2
UCS
  5
7
330
0
100
AcDbSymbolTable
 70
     0
  0
ENDTAB
  0
TABLE
  2
APPID
  5
9
330
0
100
AcDbSymbolTable
 70
     1
  0
APPID
  5
12
330
9
100
AcDbSymbolTableRecord
100
AcDbRegAppTableRecord
  2
ACAD
 70
     0
  0
ENDTAB
  0
TABLE
  2
DIMSTYLE
  5
A
330
0
100
AcDbSymbolTable
 70
     1
100
AcDbDimStyleTable
  0
DIMSTYLE
105
27
330
A
100
AcDbSymbolTableRecord
100
AcDbDimStyleTableRecord
  2
Standard
 70
     0
340
11
  0
ENDTAB
  0
TABLE
  2
BLOCK_RECORD
  5
1
330
0
100
AcDbSymbolTable
 70
     1
  0
BLOCK_RECORD
  5
1F
330
1
100
AcDbSymbolTableRecord
100
AcDbBlockTableRecord
  2
*Model_Space
340
22
  0
BLOCK_RECORD
  5
1B
330
1
100
AcDbSymbolTableRecord
100
AcDbBlockTableRecord
  2
*Paper_Space
340
1E
  0
BLOCK_RECORD
  5
23
330
1
100
AcDbSymbolTableRecord
100
AcDbBlockTableRecord
  2
*Paper_Space0
340
26
  0
ENDTAB
  0
ENDSEC
  0
SECTION
  2
BLOCKS
  0
BLOCK
  5
20
330
1F
100
AcDbEntity
  8
0
100
AcDbBlockBegin
  2
*Model_Space
 70
     0
 10
0.0
 20
0.0
 30
0.0
  3
*Model_Space
  1

  0
ENDBLK
  5
21
330
1F
100
AcDbEntity
  8
0
100
AcDbBlockEnd
  0
BLOCK
  5
1C
330
1B
100
AcDbEntity
 67
     1
  8
0
100
AcDbBlockBegin
  2
*Paper_Space
 70
     0
 10
0.0
 20
0.0
 30
0.0
  3
*Paper_Space
  1

  0
ENDBLK
  5
1D
330
1B
100
AcDbEntity
 67
     1
  8
0
100
AcDbBlockEnd
  0
BLOCK
  5
24
330
23
100
AcDbEntity
  8
0
100
AcDbBlockBegin
  2
*Paper_Space0
 70
     0
 10
0.0
 20
0.0
 30
0.0
  3
*Paper_Space0
  1

  0
ENDBLK
  5
25
330
23
100
AcDbEntity
  8
0
100
AcDbBlockEnd
  0
ENDSEC
  0
SECTION
  2
ENTITIES
  0
SPLINE
  5
5E
330
1F
100
AcDbEntity
  8
LINEE VISIBILI 2D
100
AcDbSpline
210
0.0
220
0.0
230
1.0
 70
    24
 71
     2
 72
     6
 73
     3
 74
     0
 42
0.0000000001
 43
0.0000000001
 40
0.0
 40
0.0
 40
0.0
 40
12.2269851889303
 40
12.2269851889303
 40
12.2269851889303
 10
10.82892763634165
 20
62.79515522172407
 30
0.0
 10
16.9424202308068
 20
62.79515522172407
 30
0.0
 10
23.05591282527195
 20
62.79515522172407
 30
0.0
  0
SPLINE
  5
5F
330
1F
100
AcDbEntity
  8
LINEE VISIBILI 2D
100
AcDbSpline
210
0.0
220
0.0
230
1.0
 70
    12
 71
     2
 72
     6
 73
     3
 74
     0
 42
0.0000000001
 43
0.0000000001
 40
0.0
 40
0.0
 40
0.0
 40
0.0261009033190882
 40
0.0261009033190882
 40
0.0261009033190882
 10
12.18095549915919
 20
58.70789540540763
 30
0.0
 41
1.0
 10
12.18858308355727
 20
58.71848475385857
 30
0.0
 41
0.9999997540711737
 10
12.19622551361056
 20
58.72906339305487
 30
0.0
 41
1.0
  0
SPLINE
  5
60
330
1F
100
AcDbEntity
  8
LINEE VISIBILI 2D
100
AcDbSpline
210
0.0
220
0.0
230
1.0
 70
    12
 71
     2
 72
     6
 73
     3
 74
     0
 42
0.0000000001
 43
0.0000000001
 40
0.0
 40
0.0
 40
0.0
 40
0.0261473635186256
 40
0.0261473635186256
 40
0.0261473635186256
 10
21.83453187076061
 20
58.72906382561005
 30
0.0
 41
1.0
 10
21.84218790496033
 20
58.71846635651005
 30
0.0
 41
0.9999997531806414
 10
21.84982904016374
 20
58.70785813970439
 30
0.0
 41
1.0
  0
SPLINE
  5
61
330
1F
100
AcDbEntity
  8
LINEE VISIBILI 2D
100
AcDbSpline
210
0.0
220
0.0
230
1.0
 70
     8
 71
     3
 72
    11
 73
     7
 74
     0
 42
0.0000000001
 43
0.0000000001
 40
0.0
 40
0.0
 40
0.0
 40
0.0
 40
0.9702797340720518
 40
1.94785043654426
 40
3.976143885333555
 40
7.734568885887073
 40
7.734568885887073
 40
7.734568885887073
 40
7.734568885887073
 10
21.10760617857106
 20
58.60482647349491
 30
0.0
 10
21.42845923645243
 20
58.64607392474851
 30
0.0
 10
22.07115203342832
 20
58.73759043208486
 30
0.0
 10
23.37888570034281
 20
58.95509484516322
 30
0.0
 10
25.58790688637201
 20
59.40793014236101
 30
0.0
 10
27.45053356888265
 20
59.91909679950048
 30
0.0
 10
28.63494060892695
 20
60.32794627773116
 30
0.0
  0
SPLINE
  5
62
330
1F
100
AcDbEntity
  8
LINEE VISIBILI 2D
100
AcDbSpline
210
0.0
220
0.0
230
1.0
 70
    12
 71
     2
 72
     6
 73
     3
 74
     0
 42
0.0000000001
 43
0.0000000001
 40
0.0
 40
0.0
 40
0.0
 40
1.627863363824962
 40
1.627863363824962
 40
1.627863363824962
 10
28.63494060892695
 20
60.32794627773116
 30
0.0
 41
0.9999999999763112
 10
29.40722126111361
 20
60.58782747993533
 30
0.0
 41
0.9983384205046879
 10
30.14447591387388
 20
60.93483100047727
 30
0.0
 41
1.0
  0
SPLINE
  5
63
330
1F
100
AcDbEntity
  8
LINEE VISIBILI 2D
100
AcDbSpline
210
0.0
220
0.0
230
1.0
 70
    12
 71
     2
 72
     6
 73
     3
 74
     0
 42
0.0000000001
 43
0.0000000001
 40
0.0
 40
0.0
 40
0.0
 40
0.4294263680897755
 40
0.4294263680897755
 40
0.4294263680897755
 10
30.14447591387388
 20
60.93483100047727
 30
0.0
 41
1.0
 10
30.34354979436799
 20
61.0190516473921
 30
0.0
 41
0.9852454602565269
 10
30.50241039428227
 20
61.16563538121119
 30
0.0
 41
0.9999052360146089
  0
SPLINE
  5
64
330
1F
100
AcDbEntity
  8
LINEE VISIBILI 2D
100
AcDbSpline
210
0.0
220
0.0
230
1.0
 70
     8
 71
     3
 72
    16
 73
    12
 74
     0
 42
0.0000000001
 43
0.0000000001
 40
0.0
 40
0.0
 40
0.0
 40
0.0
 40
0.0243215679005859
 40
0.0734295708500196
 40
0.1978409397917401
 40
0.630958015667806
 40
1.062377375292709
 40
3.254072426128897
 40
4.955871069404608
 40
7.785046085525263
 40
13.87124300205043
 40
13.87124300205043
 40
13.87124300205043
 40
13.87124300205043
 10
30.50241039428227
 20
61.16563538121119
 30
0.0
 10
30.49620764271783
 20
61.1718800499749
 30
0.0
 10
30.472077128879
 20
61.17768542674637
 30
0.0
 10
30.40559270948289
 20
61.18299184258306
 30
0.0
 10
30.20622338104595
 20
61.14782883487174
 30
0.0
 10
29.8887853171897
 20
61.05705219677336
 30
0.0
 10
28.92899407367581
 20
60.71570853970059
 30
0.0
 10
27.57776904851258
 20
60.21262481134099
 30
0.0
 10
25.44156832854689
 20
59.53297930304932
 30
0.0
 10
22.01173943796827
 20
58.65298966796825
 30
0.0
 10
19.04492692891131
 20
58.30672846146528
 30
0.0
 10
17.01537885716833
 20
58.30576140277536
 30
0.0
  0
SPLINE
  5
65
330
1F
100
AcDbEntity
  8
LINEE VISIBILI 2D
100
AcDbSpline
210
0.0
220
0.0
230
1.0
 70
     8
 71
     3
 72
    18
 73
    14
 74
     0
 42
0.0000000001
 43
0.0000000001
 40
0.0
 40
0.0
 40
0.0
 40
0.0
 40
1.524342760360109
 40
2.998539621056276
 40
6.114983009975805
 40
8.91550308346692
 40
10.61734241176269
 40
12.80891806796807
 40
13.23793857918592
 40
13.67704839721816
 40
13.80347879394776
 40
13.84752944035503
 40
13.87132292563049
 40
13.87132292563049
 40
13.87132292563049
 40
13.87132292563049
 10
17.01537885716833
 20
58.30576140277536
 30
0.0
 10
16.50729057311838
 20
58.30595604872895
 30
0.0
 10
15.50770011841723
 20
58.33494489235663
 30
0.0
 10
13.47601601107139
 20
58.50652336139531
 30
0.0
 10
11.04101916557903
 20
58.90288421740041
 30
0.0
 10
8.579874866450798
 20
59.53616068828181
 30
0.0
 10
6.452911916422951
 20
60.21250792763698
 30
0.0
 10
5.102318754828866
 20
60.71531478090839
 30
0.0
 10
4.141849929867116
 20
61.05797696349183
 30
0.0
 10
3.822340117080823
 20
61.14873169458766
 30
0.0
 10
3.621865525159082
 20
61.18331073778012
 30
0.0
 10
3.556618545010784
 20
61.17769823612904
 30
0.0
 10
3.53433526949505
 20
61.17173806243507
 30
0.0
 10
3.528323364083186
 20
61.16565904708006
 30
0.0
  0
SPLINE
  5
66
330
1F
100
AcDbEntity
  8
LINEE VISIBILI 2D
100
AcDbSpline
210
0.0
220
0.0
230
1.0
 70
    12
 71
     2
 72
     6
 73
     3
 74
     0
 42
0.0000000001
 43
0.0000000001
 40
0.0
 40
0.0
 40
0.0
 40
0.4294224352558445
 40
0.4294224352558445
 40
0.4294224352558445
 10
3.528323364083187
 20
61.16565904708006
 30
0.0
 41
0.9999077199421574
 10
3.687210881717764
 20
61.01908775263782
 30
0.0
 41
0.9852714961346629
 10
3.886281731308483
 20
60.93483086029788
 30
0.0
 41
1.0
  0
SPLINE
  5
67
330
1F
100
AcDbEntity
  8
LINEE VISIBILI 2D
100
AcDbSpline
210
0.0
220
0.0
230
1.0
 70
    12
 71
     2
 72
     6
 73
     3
 74
     0
 42
0.0000000001
 43
0.0000000001
 40
0.0
 40
0.0
 40
0.0
 40
1.627863749131656
 40
1.627863749131656
 40
1.627863749131656
 10
3.886281731308483
 20
60.93483086029788
 30
0.0
 41
1.0
 10
4.623532873610452
 20
60.58781858395209
 30
0.0
 41
0.9983377543473294
 10
5.395817106104496
 20
60.32794627973352
 30
0.0
 41
0.9999999999762317
  0
SPLINE
  5
68
330
1F
100
AcDbEntity
  8
LINEE VISIBILI 2D
100
AcDbSpline
210
0.0
220
0.0
230
1.0
 70
     8
 71
     3
 72
    11
 73
     7
 74
     0
 42
0.0000000001
 43
0.0000000001
 40
0.0
 40
0.0
 40
0.0
 40
0.0
 40
0.9273672395101581
 40
1.859591134144908
 40
3.936430629219054
 40
8.025851381824785
 40
8.025851381824785
 40
8.025851381824785
 40
8.025851381824785
 10
5.395817106104496
 20
60.32794627973352
 30
0.0
 10
5.687883097503333
 20
60.22661642142993
 30
0.0
 10
6.277144741571362
 20
60.03419154511066
 30
0.0
 10
7.535972871129837
 20
59.6631836516219
 30
0.0
 10
9.831938986458333
 20
59.08842755475853
 30
0.0
 10
11.85894529859842
 20
58.73321530599421
 30
0.0
 10
13.21217536776809
 20
58.56861296630471
 30
0.0
  0
SPLINE
  5
69
330
1F
100
AcDbEntity
  8
LINEE VISIBILI 2D
100
AcDbSpline
210
0.0
220
0.0
230
1.0
 70
    12
 71
     2
 72
     6
 73
     3
 74
     0
 42
0.0000000001
 43
0.0000000001
 40
0.0
 40
0.0
 40
0.0
 40
0.305381739951985
 40
0.305381739951985
 40
0.305381739951985
 10
21.60874004718943
 20
55.52555627552453
 30
0.0
 41
1.0
 10
21.5298773434151
 20
55.38071232242118
 30
0.0
 41
0.8923831974354326
 10
21.36647459899637
 20
55.35838207581189
 30
0.0
 41
1.0
  0
SPLINE
  5
6A
330
1F
100
AcDbEntity
  8
LINEE VISIBILI 2D
100
AcDbSpline
210
0.0
220
0.0
230
1.0
 70
    12
 71
     2
 72
     6
 73
     3
 74
     0
 42
0.0000000001
 43
0.0000000001
 40
0.0
 40
0.0
 40
0.0
 40
4.364468864148473
 40
4.364468864148473
 40
4.364468864148473
 10
21.36647459899637
 20
55.35838207581189
 30
0.0
 41
1.0
 10
19.20097549147405
 20
55.06266873011371
 30
0.0
 41
0.9976940599627713
 10
17.01537884842701
 20
55.06295404650066
 30
0.0
 41
1.0
  0
SPLINE
  5
6B
330
1F
100
AcDbEntity
  8
LINEE VISIBILI 2D
100
AcDbSpline
210
0.0
220
0.0
230
1.0
 70
    12
 71
     2
 72
     6
 73
     3
 74
     0
 42
0.0000000001
 43
0.0000000001
 40
0.0
 40
0.0
 40
0.0
 40
4.364468864148737
 40
4.364468864148737
 40
4.364468864148737
 10
17.01537884842701
 20
55.06295404650066
 30
0.0
 41
1.0
 10
14.82978220537983
 20
55.06266873011374
 30
0.0
 41
0.9976940599627716
 10
12.66428309785738
 20
55.35838207581192
 30
0.0
 41
1.0
  0
SPLINE
  5
6C
330
1F
100
AcDbEntity
  8
LINEE VISIBILI 2D
100
AcDbSpline
210
0.0
220
0.0
230
1.0
 70
    12
 71
     2
 72
     6
 73
     3
 74
     0
 42
0.0000000001
 43
0.0000000001
 40
0.0
 40
0.0
 40
0.0
 40
0.3053813570573873
 40
0.3053813570573873
 40
0.3053813570573873
 10
12.66428309785738
 20
55.35838207581192
 30
0.0
 41
1.0
 10
12.50088062084092
 20
55.38071235432415
 30
0.0
 41
0.8923836216098227
 10
12.42201782896137
 20
55.52555596271096
 30
0.0
 41
1.0
  0
SPLINE
  5
6E
330
1F
100
AcDbEntity
  8
PREDEFINITO
100
AcDbSpline
210
0.0
220
0.0
230
1.0
 70
     8
 71
     3
 72
    11
 73
     7
 74
     0
 42
0.0000000001
 43
0.0000000001
 40
0.1630077993634451
 40
0.1630077993634451
 40
0.1630077993634451
 40
0.1630077993634451
 40
0.5423473354254424
 40
0.5423473354254424
 40
0.5423473354254424
 40
0.8988951910425336
 40
0.8988951910425336
 40
0.8988951910425336
 40
0.8988951910425336
 10
55.06293070782846
 20
55.75302230407382
 30
0.0
 10
56.00337266185517
 20
55.82540775353949
 30
0.0
 10
56.94381539798256
 20
55.89778195398711
 30
0.0
 10
57.88425853080543
 20
55.9701504461056
 30
0.0
 10
58.76819745746605
 20
56.03817085586206
 30
0.0
 10
59.65213673418297
 20
56.10618622917906
 30
0.0
 10
60.53607603001285
 20
56.17420132736936
 30
0.0
  0
SPLINE
  5
6F
330
1F
100
AcDbEntity
  8
PREDEFINITO
100
AcDbSpline
210
0.0
220
0.0
230
1.0
 70
     8
 71
     3
 72
     8
 73
     4
 74
     0
 42
0.0000000001
 43
0.0000000001
 40
0.984977396195851
 40
0.984977396195851
 40
0.984977396195851
 40
0.984977396195851
 40
1.0
 40
1.0
 40
1.0
 40
1.0
 10
61.46899121005952
 20
58.62191507051237
 30
0.0
 10
61.47018103544823
 20
58.62265185752231
 30
0.0
 10
61.4713749844274
 20
58.62338137324854
 30
0.0
 10
61.47257301433248
 20
58.62410356797457
 30
0.0
  0
SPLINE
  5
70
330
1F
100
AcDbEntity
  8
LINEE VISIBILI 2D
100
AcDbSpline
210
0.0
220
0.0
230
1.0
 70
    12
 71
     2
 72
     6
 73
     3
 74
     0
 42
0.0000000001
 43
0.0000000001
 40
-6.527844947930241
 40
-6.527844947930241
 40
-6.527844947930241
 40
0.0
 40
0.0
 40
0.0
 10
61.56644701426659
 20
58.68163385114013
 30
0.0
 41
1.0
 10
58.31514474165697
 20
58.96838467115299
 30
0.0
 41
0.9999998180404394
 10
55.06321478624355
 20
59.24795053473322
 30
0.0
 41
1.0
  0
SPLINE
  5
71
330
1F
100
AcDbEntity
  8
LINEE VISIBILI 2D
100
AcDbSpline
210
0.0
220
0.0
230
1.0
 70
    24
 71
     2
 72
     6
 73
     3
 74
     0
 42
0.0000000001
 43
0.0000000001
 40
-0.3178700688961343
 40
-0.3178700688961343
 40
-0.3178700688961343
 40
0.0
 40
0.0
 40
0.0
 10
55.06321478624355
 20
59.24795053473322
 30
0.0
 10
55.06307274317496
 20
59.08738449713705
 30
0.0
 10
55.06293070010636
 20
58.92681845954088
 30
0.0
  0
SPLINE
  5
72
330
1F
100
AcDbEntity
  8
LINEE VISIBILI 2D
100
AcDbSpline
210
0.0
220
0.0
230
1.0
 70
    24
 71
     2
 72
     6
 73
     3
 74
     0
 42
0.0000000001
 43
0.0000000001
 40
-3.239163685893928
 40
-3.239163685893928
 40
-3.239163685893928
 40
0.0
 40
0.0
 40
0.0
 10
55.06293070010636
 20
58.92681845954088
 30
0.0
 10
55.06293070404907
 20
57.3063564074174
 30
0.0
 10
55.06293070799178
 20
55.6858943552939
 30
0.0
  0
SPLINE
  5
73
330
1F
100
AcDbEntity
  8
LINEE VISIBILI 2D
100
AcDbSpline
210
0.0
220
0.0
230
1.0
 70
    24
 71
     2
 72
     6
 73
     3
 74
     0
 42
0.0000000001
 43
0.0000000001
 40
-0.3257518611289356
 40
-0.3257518611289356
 40
-0.3257518611289356
 40
0.0
 40
0.0
 40
0.0
 10
55.06293070799178
 20
55.6858943552939
 30
0.0
 10
55.06293070804821
 20
55.52213821555291
 30
0.0
 10
55.06293070810464
 20
55.35838207581192
 30
0.0
  0
SPLINE
  5
74
330
1F
100
AcDbEntity
  8
LINEE VISIBILI 2D
100
AcDbSpline
210
0.0
220
0.0
230
1.0
 70
    24
 71
     2
 72
     6
 73
     3
 74
     0
 42
0.0000000001
 43
0.0000000001
 40
-0.2954280293112603
 40
-0.2954280293112603
 40
-0.2954280293112603
 40
0.0
 40
0.0
 40
0.0
 10
55.06293070810464
 20
55.35838207581192
 30
0.0
 10
55.06293070765636
 20
55.21066805912652
 30
0.0
 10
55.0629307072081
 20
55.06295404244112
 30
0.0
  0
SPLINE
  5
75
330
1F
100
AcDbEntity
  8
LINEE VISIBILI 2D
100
AcDbSpline
210
0.0
220
0.0
230
1.0
 70
    12
 71
     2
 72
     6
 73
     3
 74
     0
 42
0.0000000001
 43
0.0000000001
 40
0.0
 40
0.0
 40
0.0
 40
4.983917419740465
 40
4.983917419740465
 40
4.983917419740465
 10
55.0629307072081
 20
55.06295404244112
 30
0.0
 41
1.0
 10
57.54245500316511
 20
55.31158524147784
 30
0.0
 41
1.0
 10
60.02197929124917
 20
55.56021650433138
 30
0.0
 41
1.0
  0
SPLINE
  5
76
330
1F
100
AcDbEntity
  8
LINEE VISIBILI 2D
100
AcDbSpline
210
0.0
220
0.0
230
1.0
 70
    12
 71
     2
 72
     6
 73
     3
 74
     0
 42
0.0000000001
 43
0.0000000001
 40
0.0
 40
0.0
 40
0.0
 40
0.5675710059286366
 40
0.5675710059286366
 40
0.5675710059286366
 10
60.02197929124917
 20
55.56021650433138
 30
0.0
 41
0.9999999999994884
 10
60.23164546991926
 20
55.75152083031736
 30
0.0
 41
0.9997854915344893
 10
60.43320902525326
 20
55.95134421428475
 30
0.0
 41
1.0
  0
SPLINE
  5
77
330
1F
100
AcDbEntity
  8
LINEE VISIBILI 2D
100
AcDbSpline
210
0.0
220
0.0
230
1.0
 70
    12
 71
     2
 72
     6
 73
     3
 74
     0
 42
0.0000000001
 43
0.0000000001
 40
0.0
 40
0.0
 40
0.0
 40
0.3424674222862006
 40
0.3424674222862006
 40
0.3424674222862006
 10
60.43320902525326
 20
55.95134421428475
 30
0.0
 41
1.0
 10
60.52262268375831
 20
56.09901979380903
 30
0.0
 41
0.9878678740356777
 10
60.56241295861174
 20
56.26700673717718
 30
0.0
 41
1.0
  0
SPLINE
  5
78
330
1F
100
AcDbEntity
  8
LINEE VISIBILI 2D
100
AcDbSpline
210
0.0
220
0.0
230
1.0
 70
    12
 71
     2
 72
     6
 73
     3
 74
     0
 42
0.0000000001
 43
0.0000000001
 40
0.0
 40
0.0
 40
0.0
 40
1.168662483364071
 40
1.168662483364071
 40
1.168662483364071
 10
60.56241295861174
 20
56.26700673717718
 30
0.0
 41
1.0
 10
60.73332359456789
 20
56.82578609744353
 30
0.0
 41
0.9999960046168328
 10
60.90739059202265
 20
57.38359027396042
 30
0.0
 41
1.0
  0
SPLINE
  5
79
330
1F
100
AcDbEntity
  8
LINEE VISIBILI 2D
100
AcDbSpline
210
0.0
220
0.0
230
1.0
 70
    12
 71
     2
 72
     6
 73
     3
 74
     0
 42
0.0000000001
 43
0.0000000001
 40
0.0
 40
0.0
 40
0.0
 40
0.0551808921857516
 40
0.0551808921857516
 40
0.0551808921857516
 10
60.90739059202265
 20
57.38359027396042
 30
0.0
 41
1.0
 10
60.93497885991352
 20
57.38385315221663
 30
0.0
 41
0.9999999995438426
 10
60.962567143634
 20
57.38411436391685
 30
0.0
 41
0.9999999999999694
  0
SPLINE
  5
7A
330
1F
100
AcDbEntity
  8
LINEE VISIBILI 2D
100
AcDbSpline
210
0.0
220
0.0
230
1.0
 70
    12
 71
     2
 72
     6
 73
     3
 74
     0
 42
0.0000000001
 43
0.0000000001
 40
-1.022324091314987
 40
-1.022324091314987
 40
-1.022324091314987
 40
0.0
 40
0.0
 40
0.0
 10
60.962567143634
 20
57.38411436391685
 30
0.0
 41
0.9999995735007883
 10
61.11517631777786
 20
57.87196703240478
 30
0.0
 41
0.9999900158762517
 10
61.27306452466387
 20
58.36151475874766
 30
0.0
 41
1.0
  0
SPLINE
  5
7B
330
1F
100
AcDbEntity
  8
LINEE VISIBILI 2D
100
AcDbSpline
210
0.0
220
0.0
230
1.0
 70
    12
 71
     2
 72
     6
 73
     3
 74
     0
 42
0.0000000001
 43
0.0000000001
 40
-0.0249496650356456
 40
-0.0249496650356456
 40
-0.0249496650356456
 40
0.0
 40
0.0
 40
0.0
 10
61.27306452466387
 20
58.36151475874766
 30
0.0
 41
1.0
 10
61.27775892856508
 20
58.37648730776027
 30
0.0
 41
0.9996894907092142
 10
61.28207184531864
 20
58.38819562320909
 30
0.0
 41
1.0
  0
SPLINE
  5
7C
330
1F
100
AcDbEntity
  8
LINEE VISIBILI 2D
100
AcDbSpline
210
0.0
220
0.0
230
1.0
 70
    12
 71
     2
 72
     6
 73
     3
 74
     0
 42
0.0000000001
 43
0.0000000001
 40
-0.2902812777773974
 40
-0.2902812777773974
 40
-0.2902812777773974
 40
0.0
 40
0.0
 40
0.0
 10
61.28207184531864
 20
58.38819562320909
 30
0.0
 41
1.0
 10
61.32972111253438
 20
58.53129192185189
 30
0.0
 41
0.9444504518942156
 10
61.45592697274598
 20
58.61397324223268
 30
0.0
 41
1.0
  0
SPLINE
  5
7D
330
1F
100
AcDbEntity
  8
LINEE VISIBILI 2D
100
AcDbSpline
210
0.0
220
0.0
230
1.0
 70
    12
 71
     2
 72
     6
 73
     3
 74
     0
 42
0.0000000001
 43
0.0000000001
 40
0.0
 40
0.0
 40
0.0
 40
6.325874308011338
 40
6.325874308011338
 40
6.325874308011338
 10
61.45592697274598
 20
58.61397324223268
 30
0.0
 41
1.0
 10
64.14506261741991
 20
60.27930429089057
 30
0.0
 41
0.9999807497072505
 10
66.85464166593258
 20
61.91105998469924
 30
0.0
 41
1.0
  0
SPLINE
  5
7E
330
1F
100
AcDbEntity
  8
LINEE VISIBILI 2D
100
AcDbSpline
210
0.0
220
0.0
230
1.0
 70
    12
 71
     2
 72
     6
 73
     3
 74
     0
 42
0.0000000001
 43
0.0000000001
 40
0.0
 40
0.0
 40
0.0
 40
0.1386383270821339
 40
0.1386383270821339
 40
0.1386383270821339
 10
66.85464166593258
 20
61.91105998469924
 30
0.0
 41
1.0
 10
66.91297376359086
 20
61.94851520528794
 30
0.0
 41
0.9999988876405338
 10
66.97119489548788
 20
61.98614493570494
 30
0.0
 41
1.0
  0
SPLINE
  5
7F
330
1F
100
AcDbEntity
  8
LINEE VISIBILI 2D
100
AcDbSpline
210
0.0
220
0.0
230
1.0
 70
    12
 71
     2
 72
     6
 73
     3
 74
     0
 42
0.0000000001
 43
0.0000000001
 40
0.0
 40
0.0
 40
0.0
 40
3.275988542247069
 40
3.275988542247069
 40
3.275988542247069
 10
66.97119489548788
 20
61.98614493570494
 30
0.0
 41
1.0
 10
68.38781045297858
 20
62.89072542387456
 30
0.0
 41
0.9622421328490407
 10
70.06835852061619
 20
62.91919543295612
 30
0.0
 41
1.0
  0
SPLINE
  5
80
330
1F
100
AcDbEntity
  8
LINEE VISIBILI 2D
100
AcDbSpline
210
0.0
220
0.0
230
1.0
 70
    12
 71
     2
 72
     6
 73
     3
 74
     0
 42
0.0000000001
 43
0.0000000001
 40
0.0
 40
0.0
 40
0.0
 40
2.042778420320844
 40
2.042778420320844
 40
2.042778420320844
 10
70.06835852061619
 20
62.91919543295612
 30
0.0
 41
1.0
 10
71.08963831597353
 20
62.93414536968615
 30
0.0
 41
0.9999999981798814
 10
72.11091634548865
 20
62.94921545374459
 30
0.0
 41
1.0
  0
POLYLINE
  5
81
330
1F
100
AcDbEntity
  8
LINEE VISIBILI 2D
100
AcDb2dPolyline
 66
     1
 10
0.0
 20
0.0
 30
0.0
  0
VERTEX
  5
83
330
81
100
AcDbEntity
  8
LINEE VISIBILI 2D
100
AcDbVertex
100
AcDb2dVertex
 10
72.11091634548865
 20
62.94921545374459
 30
0.0
  0
VERTEX
  5
84
330
81
100
AcDbEntity
  8
LINEE VISIBILI 2D
100
AcDbVertex
100
AcDb2dVertex
 10
72.72303170409668
 20
62.95825262217477
 30
0.0
  0
SEQEND
  5
82
330
81
100
AcDbEntity
  8
LINEE VISIBILI 2D
  0
SPLINE
  5
85
330
1F
100
AcDbEntity
  8
LINEE VISIBILI 2D
100
AcDbSpline
210
0.0
220
0.0
230
1.0
 70
    12
 71
     2
 72
     6
 73
     3
 74
     0
 42
0.0000000001
 43
0.0000000001
 40
0.0
 40
0.0
 40
0.0
 40
0.6699001951102157
 40
0.6699001951102157
 40
0.6699001951102157
 10
72.72303170409668
 20
62.95825262217477
 30
0.0
 41
1.0
 10
73.05794523815428
 20
62.96320161883938
 30
0.0
 41
0.9999999999281789
 10
73.39285865332442
 20
62.9681586544935
 30
0.0
 41
1.0
  0
SPLINE
  5
86
330
1F
100
AcDbEntity
  8
LINEE VISIBILI 2D
100
AcDbSpline
210
0.0
220
0.0
230
1.0
 70
     8
 71
     3
 72
    13
 73
     9
 74
     0
 42
0.0000000001
 43
0.0000000001
 40
0.0
 40
0.0
 40
0.0
 40
0.0
 40
0.5763289342488103
 40
1.165289332986755
 40
2.396352642577123
 40
3.860287128800026
 40
3.91839930680785
 40
3.974188271084491
 40
3.974188271084491
 40
3.974188271084491
 40
3.974188271084491
 10
73.39285865332442
 20
62.9681586544935
 30
0.0
 10
73.58490960735313
 20
62.97126602225478
 30
0.0
 10
73.9734838702272
 20
62.97051116467119
 30
0.0
 10
74.77184835324461
 20
62.94947049927644
 30
0.0
 10
75.8646011791158
 20
62.87199648796184
 30
0.0
 10
76.77500568682001
 20
62.75870038437733
 30
0.0
 10
77.29377190986828
 20
62.66667527330272
 30
0.0
 10
77.29574916752166
 20
62.60569799072921
 30
0.0
 10
77.28385346756367
 20
62.59688829403296
 30
0.0
  0
SPLINE
  5
87
330
1F
100
AcDbEntity
  8
LINEE VISIBILI 2D
100
AcDbSpline
210
0.0
220
0.0
230
1.0
 70
    12
 71
     2
 72
     6
 73
     3
 74
     0
 42
0.0000000001
 43
0.0000000001
 40
0.0
 40
0.0
 40
0.0
 40
0.0129109069132466
 40
0.0129109069132466
 40
0.0129109069132466
 10
77.28385346756367
 20
62.59688829403296
 30
0.0
 41
1.0
 10
77.28020623418381
 20
62.59151022668879
 30
0.0
 41
0.9916773824584706
 10
77.27531125000266
 20
62.58724648377795
 30
0.0
 41
1.0
  0
SPLINE
  5
88
330
1F
100
AcDbEntity
  8
LINEE VISIBILI 2D
100
AcDbSpline
210
0.0
220
0.0
230
1.0
 70
    12
 71
     2
 72
     6
 73
     3
 74
     0
 42
0.0000000001
 43
0.0000000001
 40
0.0
 40
0.0
 40
0.0
 40
6.499899389503813
 40
6.499899389503813
 40
6.499899389503813
 10
77.27531125000266
 20
62.58724648377795
 30
0.0
 41
1.0
 10
74.82466278779152
 20
60.45265164344568
 30
0.0
 41
0.9999999999999405
 10
72.37371063493191
 20
58.31779945802431
 30
0.0
 41
1.0
  0
SPLINE
  5
89
330
1F
100
AcDbEntity
  8
LINEE VISIBILI 2D
100
AcDbSpline
210
0.0
220
0.0
230
1.0
 70
    12
 71
     2
 72
     6
 73
     3
 74
     0
 42
0.0000000001
 43
0.0000000001
 40
0.0
 40
0.0
 40
0.0
 40
0.0781189489154677
 40
0.0781189489154677
 40
0.0781189489154677
 10
72.37371063493191
 20
58.31779945802431
 30
0.0
 41
1.0
 10
72.3354873443409
 20
58.28568452674755
 30
0.0
 41
0.7111646542534035
 10
72.30319705323032
 20
58.32323642446192
 30
0.0
 41
1.0
  0
SPLINE
  5
8A
330
1F
100
AcDbEntity
  8
LINEE VISIBILI 2D
100
AcDbSpline
210
0.0
220
0.0
230
1.0
 70
    12
 71
     2
 72
     6
 73
     3
 74
     0
 42
0.0000000001
 43
0.0000000001
 40
-0.1471645463144229
 40
-0.1471645463144229
 40
-0.1471645463144229
 40
0.0
 40
0.0
 40
0.0
 10
72.30319705323032
 20
58.32323642446192
 30
0.0
 41
1.0
 10
72.2553312603702
 20
58.3791221992167
 30
0.0
 41
0.999999999999956
 10
72.20675604504487
 20
58.43743196050699
 30
0.0
 41
1.0
  0
SPLINE
  5
8B
330
1F
100
AcDbEntity
  8
LINEE VISIBILI 2D
100
AcDbSpline
210
0.0
220
0.0
230
1.0
 70
     8
 71
     3
 72
    12
 73
     8
 74
     0
 42
0.0000000001
 43
0.0000000001
 40
0.0
 40
0.0
 40
0.0
 40
0.0
 40
0.909169727444472
 40
1.856419622133944
 40
3.50442839016096
 40
4.713641081184127
 40
5.798507105016203
 40
5.798507105016203
 40
5.798507105016203
 40
5.798507105016203
 10
72.20675604504487
 20
58.43743196050699
 30
0.0
 10
72.00918016567434
 20
58.67024778045378
 30
0.0
 10
71.58858573310451
 20
59.12481281850472
 30
0.0
 10
70.72946998872824
 20
59.91759998485359
 30
0.0
 10
69.70416314226517
 20
60.67101923922932
 30
0.0
 10
68.48490274205213
 20
61.19805756875914
 30
0.0
 10
67.69839294554109
 20
61.19803912781213
 30
0.0
 10
67.34679016208361
 20
61.11932504147843
 30
0.0
  0
SPLINE
  5
8C
330
1F
100
AcDbEntity
  8
LINEE VISIBILI 2D
100
AcDbSpline
210
0.0
220
0.0
230
1.0
 70
    12
 71
     2
 72
     6
 73
     3
 74
     0
 42
0.0000000001
 43
0.0000000001
 40
0.0
 40
0.0
 40
0.0
 40
0.2957968748506303
 40
0.2957968748506303
 40
0.2957968748506303
 10
67.34679016208361
 20
61.11932504147843
 30
0.0
 41
1.0
 10
67.20236229578956
 20
61.08724505663066
 30
0.0
 41
0.9995002026895026
 10
67.05815272141609
 20
61.04550206699922
 30
0.0
 41
1.0
  0
SPLINE
  5
8D
330
1F
100
AcDbEntity
  8
LINEE VISIBILI 2D
100
AcDbSpline
210
0.0
220
0.0
230
1.0
 70
    12
 71
     2
 72
     6
 73
     3
 74
     0
 42
0.0000000001
 43
0.0000000001
 40
0.0
 40
0.0
 40
0.0
 40
0.3203454949485849
 40
0.3203454949485849
 40
0.3203454949485849
 10
67.05815272141609
 20
61.04550206699922
 30
0.0
 41
1.0
 10
66.9021568989417
 20
60.99553430122295
 30
0.0
 41
0.9865998054898973
 10
66.77036575770504
 20
60.89783054089929
 30
0.0
 41
1.0
  0
SPLINE
  5
8E
330
1F
100
AcDbEntity
  8
LINEE VISIBILI 2D
100
AcDbSpline
210
0.0
220
0.0
230
1.0
 70
     8
 71
     3
 72
    11
 73
     7
 74
     0
 42
0.0000000001
 43
0.0000000001
 40
0.0
 40
0.0
 40
0.0
 40
0.0
 40
0.9245013928856388
 40
1.899971071062316
 40
4.003638234935909
 40
8.3560070034759
 40
8.3560070034759
 40
8.3560070034759
 40
8.3560070034759
 10
66.77036575770504
 20
60.89783054089929
 30
0.0
 10
66.51767474445788
 20
60.71714761066981
 30
0.0
 10
66.00835386398454
 20
60.34079969640939
 30
0.0
 10
64.9512701463701
 20
59.52589784822063
 30
0.0
 10
63.03875370145589
 20
57.95105814292769
 30
0.0
 10
61.44764224594918
 20
56.50010512289354
 30
0.0
 10
60.41067745732769
 20
55.48550064994744
 30
0.0
  0
SPLINE
  5
8F
330
1F
100
AcDbEntity
  8
LINEE VISIBILI 2D
100
AcDbSpline
210
0.0
220
0.0
230
1.0
 70
    12
 71
     2
 72
     6
 73
     3
 74
     0
 42
0.0000000001
 43
0.0000000001
 40
0.0
 40
0.0
 40
0.0
 40
0.4976112760425576
 40
0.4976112760425576
 40
0.4976112760425576
 10
60.41067745732769
 20
55.48550064994744
 30
0.0
 41
1.0
 10
60.23265672671798
 20
55.31165705084872
 30
0.0
 41
0.9998942225719337
 10
60.05975767905979
 20
55.13269978687013
 30
0.0
 41
1.0
  0
SPLINE
  5
90
330
1F
100
AcDbEntity
  8
LINEE VISIBILI 2D
100
AcDbSpline
210
0.0
220
0.0
230
1.0
 70
    12
 71
     2
 72
     8
 73
     5
 74
     0
 42
0.0000000001
 43
0.0000000001
 40
0.0
 40
0.0
 40
0.0
 40
0.0657904418462646
 40
0.0657904418462646
 40
0.1315808836925292
 40
0.1315808836925292
 40
0.1315808836925292
 10
60.05975767905979
 20
55.13269978687013
 30
0.0
 41
1.0
 10
60.03315074581079
 20
55.10466469073364
 30
0.0
 41
0.7912854501953248
 10
59.99932188987293
 20
55.1233314436666
 30
0.0
 41
1.0
 10
59.96549303393505
 20
55.14199819659956
 30
0.0
 41
0.7912854501953248
 10
59.97502222125271
 20
55.17944193770777
 30
0.0
 41
1.0
  0
SPLINE
  5
91
330
1F
100
AcDbEntity
  8
LINEE VISIBILI 2D
100
AcDbSpline
210
0.0
220
0.0
230
1.0
 70
    12
 71
     2
 72
     6
 73
     3
 74
     0
 42
0.0000000001
 43
0.0000000001
 40
0.0
 40
0.0
 40
0.0
 40
0.4545602520189264
 40
0.4545602520189264
 40
0.4545602520189264
 10
59.97502222125271
 20
55.17944193770777
 30
0.0
 41
1.0
 10
60.03110474903264
 20
55.39969407902979
 30
0.0
 41
0.9999999999885946
 10
60.08718938069949
 20
55.61994568463277
 30
0.0
 41
1.0
  0
SPLINE
  5
92
330
1F
100
AcDbEntity
  8
PREDEFINITO
 62
     7
100
AcDbSpline
210
0.0
220
0.0
230
1.0
 70
     8
 71
     3
 72
    31
 73
    27
 74
     0
 42
0.0000000001
 43
0.0000000001
 40
0.0078792729672517
 40
0.0078792729672517
 40
0.0078792729672517
 40
0.0078792729672517
 40
0.0314229431930891
 40
0.0627584079170604
 40
0.0926424531333749
 40
0.1153641148514821
 40
0.1377319712662339
 40
0.1609254129518306
 40
0.1855430078352357
 40
0.2118859772248892
 40
0.2401671276770606
 40
0.273391002053207
 40
0.3091956096852457
 40
0.3475938316061366
 40
0.3885456091948689
 40
0.4319671618704989
 40
0.4777115764725249
 40
0.5256075534966256
 40
0.5805484907284812
 40
0.6375543646753958
 40
0.696300739655634
 40
0.7564539433177097
 40
0.8176490105164935
 40
0.8795126679955323
 40
0.9416731255439829
 40
1.0
 40
1.0
 40
1.0
 40
1.0
 10
69.03264247432622
 20
62.49254015691169
 30
0.0
 10
68.91641329151548
 20
62.45565757276574
 30
0.0
 10
68.64325045030652
 20
62.36079117672161
 30
0.0
 10
68.21069098635715
 20
62.18346581748405
 30
0.0
 10
67.78202670786683
 20
61.96841650634755
 30
0.0
 10
67.40647614111757
 20
61.74582567652755
 30
0.0
 10
67.07917414914681
 20
61.51500258271147
 30
0.0
 10
66.74799445413959
 20
61.27651868779812
 30
0.0
 10
66.41005872265183
 20
61.02914553466204
 30
0.0
 10
66.06557799625352
 20
60.77326309406897
 30
0.0
 10
65.70412081543762
 20
60.50135319176816
 30
0.0
 10
65.32789964695232
 20
60.21499390297944
 30
0.0
 10
64.93984857691675
 20
59.91646099276534
 30
0.0
 10
64.55151794848729
 20
59.61485689448564
 30
0.0
 10
64.16523495146268
 20
59.31226293786148
 30
0.0
 10
63.78353162288221
 20
59.01091454718247
 30
0.0
 10
63.40870247845058
 20
58.71285506544406
 30
0.0
 10
63.03030807560123
 20
58.40993398077529
 30
0.0
 10
62.65349399576661
 20
58.10624685355732
 30
0.0
 10
62.28327403883895
 20
57.80590032363267
 30
0.0
 10
61.9338737829419
 20
57.52064697855414
 30
0.0
 10
61.6086343044432
 20
57.25346014941051
 30
0.0
 10
61.31048488380915
 20
57.00703861348819
 30
0.0
 10
61.04226120434728
 20
56.78401957773202
 30
0.0
 10
60.81198233954089
 20
56.59136009066356
 30
0.0
 10
60.68155116862232
 20
56.481568147741
 30
0.0
 10
60.624204742312
 20
56.43316718113726
 30
0.0
  0
SPLINE
  5
93
330
1F
100
AcDbEntity
  8
PREDEFINITO
100
AcDbSpline
210
0.0
220
0.0
230
1.0
 70
     8
 71
     3
 72
    11
 73
     7
 74
     0
 42
0.0000000001
 43
0.0000000001
 40
0.1630077993634451
 40
0.1630077993634451
 40
0.1630077993634451
 40
0.1630077993634451
 40
0.5423473354254424
 40
0.5423473354254424
 40
0.5423473354254424
 40
0.8669545664225538
 40
0.8669545664225538
 40
0.8669545664225538
 40
0.8669545664225538
 10
55.06293070804821
 20
55.41673989447089
 30
0.0
 10
56.00337266207492
 20
55.48912534393656
 30
0.0
 10
56.94381539820232
 20
55.56149954438418
 30
0.0
 10
57.88425853102519
 20
55.63386803650267
 30
0.0
 10
58.68901156160297
 20
55.69579497426007
 30
0.0
 10
59.4937648823281
 20
55.75771773751867
 30
0.0
 10
60.29851824346829
 20
55.8196399192005
 30
0.0
  0
SPLINE
  5
94
330
1F
100
AcDbEntity
  8
PREDEFINITO
 62
     7
100
AcDbSpline
210
0.0
220
0.0
230
1.0
 70
     8
 71
     3
 72
    29
 73
    25
 74
     0
 42
0.0000000001
 43
0.0000000001
 40
0.0
 40
0.0
 40
0.0
 40
0.0
 40
0.0105830497498056
 40
0.0225582655244323
 40
0.0361052979841163
 40
0.0542612134898937
 40
0.074912920576982
 40
0.1028342748889926
 40
0.1343997899800256
 40
0.1695720711408753
 40
0.2111830512489457
 40
0.2567573947530475
 40
0.3061279296976263
 40
0.3590993927025698
 40
0.4154356716763472
 40
0.4748083027890253
 40
0.5368812899285165
 40
0.6012127028870051
 40
0.6673048298054985
 40
0.7346431027290218
 40
0.8014101499439515
 40
0.8682428306972676
 40
0.9346087103704308
 40
1.0
 40
1.0
 40
1.0
 40
1.0
 10
67.21507280596454
 20
3.143757665564835
 30
0.0000000000000003
 10
67.16041863965732
 20
3.143416742722515
 30
0.0000000000000004
 10
67.04622477922355
 20
3.152928784115026
 30
0.0000000000000004
 10
66.86974430231938
 20
3.211913278573696
 30
0.0000000000000004
 10
66.6710539720484
 20
3.308313885676815
 30
0.0000000000000004
 10
66.44986272370654
 20
3.452808162648055
 30
0.0000000000000004
 10
66.18919039943096
 20
3.664174573078845
 30
0.0000000000000004
 10
65.90028173615757
 20
3.946067504417426
 30
0.0000000000000004
 10
65.58518030001129
 20
4.305058038905955
 30
0.0000000000000004
 10
65.250504423104
 20
4.739463196840285
 30
0.0000000000000004
 10
64.89996072408739
 20
5.252708484070325
 30
0.0000000000000004
 10
64.5374177550974
 20
5.847303179994155
 30
0.0000000000000003
 10
64.1737785900283
 20
6.511808273463556
 30
0.0000000000000003
 10
63.81360195649897
 20
7.244122477153896
 30
0.0000000000000003
 10
63.46178426393656
 20
8.041217006085905
 30
0.0000000000000003
 10
63.12362325087726
 20
8.899241389148916
 30
0.0000000000000002
 10
62.80499991472281
 20
9.813142909270987
 30
0.0000000000000002
 10
62.51163039812069
 20
10.77645644991795
 30
0.0000000000000002
 10
62.2495924116901
 20
11.78149707845342
 30
0.0000000000000001
 10
62.0264543514363
 20
12.81296096015626
 30
0.0000000000000001
 10
61.84627318519118
 20
13.86028114358176
 30
0.0
 10
61.71375253131897
 20
14.91240514271005
 30
0.0
 10
61.63115722636449
 20
15.96490273673301
 30
-0.0000000000000001
 10
61.61260786565633
 20
16.66518374191241
 30
-0.0000000000000001
 10
61.61199376020035
 20
17.01347198689486
 30
-0.0000000000000002
  0
SPLINE
  5
95
330
1F
100
AcDbEntity
  8
PREDEFINITO
 62
     7
100
AcDbSpline
210
0.0
220
0.0
230
1.0
 70
     8
 71
     3
 72
    29
 73
    25
 74
     0
 42
0.0000000001
 43
0.0000000001
 40
-1.0
 40
-1.0
 40
-1.0
 40
-1.0
 40
-0.9346087103704308
 40
-0.8682428306972676
 40
-0.8014101499439515
 40
-0.7346431027290218
 40
-0.6673048298054985
 40
-0.6012127028870051
 40
-0.5368812899285165
 40
-0.4748083027890253
 40
-0.4154356716763472
 40
-0.3590993927025698
 40
-0.3061279296976263
 40
-0.2567573947530475
 40
-0.2111830512489457
 40
-0.1695720711408753
 40
-0.1343997899800256
 40
-0.1028342748889926
 40
-0.074912920576982
 40
-0.0542612134898937
 40
-0.0361052979841163
 40
-0.0225582655244323
 40
-0.0105830497498056
 40
0.0
 40
0.0
 40
0.0
 40
0.0
 10
61.61199376020035
 20
17.01347198689486
 30
-0.0000000000000002
 10
61.61260786565633
 20
17.36176023187731
 30
-0.0000000000000001
 10
61.63115722636449
 20
18.06204123705672
 30
-0.0000000000000001
 10
61.71375253131897
 20
19.11453883107968
 30
0.0
 10
61.84627318519118
 20
20.16666283020798
 30
0.0
 10
62.0264543514363
 20
21.21398301363346
 30
0.0000000000000001
 10
62.2495924116901
 20
22.24544689533631
 30
0.0000000000000001
 10
62.51163039812069
 20
23.25048752387178
 30
0.0000000000000002
 10
62.80499991472281
 20
24.21380106451874
 30
0.0000000000000002
 10
63.12362325087726
 20
25.12770258464082
 30
0.0000000000000002
 10
63.46178426393656
 20
25.98572696770382
 30
0.0000000000000003
 10
63.81360195649897
 20
26.78282149663583
 30
0.0000000000000003
 10
64.1737785900283
 20
27.51513570032618
 30
0.0000000000000003
 10
64.5374177550974
 20
28.17964079379556
 30
0.0000000000000003
 10
64.89996072408739
 20
28.77423548971941
 30
0.0000000000000004
 10
65.250504423104
 20
29.28748077694944
 30
0.0000000000000004
 10
65.58518030001129
 20
29.72188593488377
 30
0.0000000000000004
 10
65.90028173615757
 20
30.0808764693723
 30
0.0000000000000004
 10
66.18919039943096
 20
30.36276940071088
 30
0.0000000000000004
 10
66.44986272370654
 20
30.57413581114167
 30
0.0000000000000004
 10
66.6710539720484
 20
30.71863008811291
 30
0.0000000000000004
 10
66.86974430231938
 20
30.81503069521603
 30
0.0000000000000004
 10
67.04622477922355
 20
30.8740151896747
 30
0.0000000000000004
 10
67.16041863965732
 20
30.88352723106721
 30
0.0000000000000004
 10
67.21507280596454
 20
30.8831863082249
 30
0.0000000000000003
  0
LINE
  5
96
330
1F
100
AcDbEntity
  8
PREDEFINITO
 62
     7
100
AcDbLine
 10
70.1339679365938
 20
23.81347198689486
 30
0.0
 11
70.1339679365938
 21
10.21347198689487
 31
0.0
  0
SPLINE
  5
97
330
1F
100
AcDbEntity
  8
PREDEFINITO
100
AcDbSpline
210
0.0
220
0.0
230
1.0
 70
     8
 71
     3
 72
     8
 73
     4
 74
     0
 42
0.0000000001
 43
0.0000000001
 40
0.0
 40
0.0
 40
0.0
 40
0.0
 40
1.0
 40
1.0
 40
1.0
 40
1.0
 10
66.83749322156028
 20
1.777624059550726
 30
0.0000000000000005
 10
66.87986019057816
 20
1.772642225200861
 30
0.0000000000000005
 10
66.92091240572493
 20
1.770228613063116
 30
0.0000000000000005
 10
66.96059576621128
 20
1.770228613063501
 30
0.0000000000000004
  0
SPLINE
  5
98
330
1F
100
AcDbEntity
  8
PREDEFINITO
100
AcDbSpline
210
0.0
220
0.0
230
1.0
 70
     8
 71
     3
 72
    14
 73
    10
 74
     0
 42
0.0000000001
 43
0.0000000001
 40
0.0
 40
0.0
 40
0.0
 40
0.0
 40
0.2499999999999836
 40
0.2499999999999836
 40
0.4999999999999891
 40
0.4999999999999891
 40
0.7499999999999944
 40
0.7499999999999944
 40
1.0
 40
1.0
 40
1.0
 40
1.0
 10
66.96059576621128
 20
1.770228613063501
 30
0.0000000000000004
 10
67.30655106747672
 20
1.770228545423641
 30
0.0000000000000004
 10
67.74000958245948
 20
1.837901896071448
 30
0.0000000000000004
 10
68.6618674714379
 20
2.272156401144988
 30
0.0000000000000003
 10
69.14459859107818
 20
2.639425786125219
 30
0.0000000000000003
 10
70.0110629043926
 20
3.795570417969926
 30
0.0000000000000001
 10
70.39331396524402
 20
4.579330927451675
 30
0.0000000000000001
 10
71.00158492512115
 20
6.699399244209646
 30
-0.0000000000000001
 10
71.229595731321
 20
8.027726567405217
 30
-0.0000000000000002
 10
71.38281641305373
 20
9.794919165916225
 30
-0.0000000000000002
  0
POLYLINE
  5
99
330
1F
100
AcDbEntity
  8
PREDEFINITO
100
AcDb2dPolyline
 66
     1
 10
0.0
 20
0.0
 30
-0.0000000000000002
  0
VERTEX
  5
9B
330
99
100
AcDbEntity
  8
PREDEFINITO
100
AcDbVertex
100
AcDb2dVertex
 10
71.38281641305373
 20
9.794919165916225
 30
-0.0000000000000002
  0
VERTEX
  5
9C
330
99
100
AcDbEntity
  8
PREDEFINITO
100
AcDbVertex
100
AcDb2dVertex
 10
71.38281641305376
 20
9.863472023665578
 30
0.0
  0
SEQEND
  5
9A
330
99
100
AcDbEntity
  8
PREDEFINITO
  0
LINE
  5
9D
330
1F
100
AcDbEntity
  8
PREDEFINITO
 62
     7
370
     0
100
AcDbLine
 10
71.34134902922169
 20
10.53547483791115
 30
0.0
 11
71.84160853391585
 21
10.53547483791114
 31
0.0
  0
SPLINE
  5
9E
330
1F
100
AcDbEntity
  8
PREDEFINITO
 62
     7
100
AcDbSpline
210
0.0
220
0.0
230
1.0
 70
     8
 71
     3
 72
     8
 73
     4
 74
     0
 42
0.0000000001
 43
0.0000000001
 40
0.0
 40
0.0
 40
0.0
 40
0.0
 40
1.0
 40
1.0
 40
1.0
 40
1.0
 10
69.86847679087116
 20
27.97425728393801
 30
0.0
 10
69.86661767198187
 20
27.98189851929827
 30
0.0
 10
69.86475249495702
 20
27.98953843565862
 30
0.0
 10
69.86288062926452
 20
27.99717852486013
 30
0.0
  0
SPLINE
  5
9F
330
1F
100
AcDbEntity
  8
PREDEFINITO
 62
     7
100
AcDbSpline
210
0.0
220
0.0
230
1.0
 70
     8
 71
     3
 72
    17
 73
    13
 74
     0
 42
0.0000000001
 43
0.0000000001
 40
0.0
 40
0.0
 40
0.0
 40
0.0
 40
0.0281895529187846
 40
0.195209933840545
 40
0.312055536130726
 40
0.4301624271418813
 40
0.5466630060404774
 40
0.6595543461150629
 40
0.7451871503316156
 40
0.8288436283625062
 40
0.912639341009934
 40
1.0
 40
1.0
 40
1.0
 40
1.0
 10
69.67652011934085
 20
28.54302879307301
 30
0.0000000000000001
 10
69.6625202227239
 20
28.57430096375069
 30
0.0000000000000001
 10
69.56464072191083
 20
28.79042933514121
 30
0.0000000000000001
 10
69.39791474349629
 20
29.13116888887966
 30
0.0000000000000001
 10
69.15486901866781
 20
29.55650618333782
 30
0.0000000000000001
 10
68.91633683711846
 20
29.91451046038974
 30
0.0000000000000002
 10
68.6472858076382
 20
30.24882729692878
 30
0.0000000000000002
 10
68.36590125487787
 20
30.52482593518102
 30
0.0000000000000003
 10
68.07894403530419
 20
30.73688639554973
 30
0.0000000000000003
 10
67.79470977170452
 20
30.88693958654003
 30
0.0000000000000003
 10
67.48747440646177
 20
30.98276006912892
 30
0.0000000000000003
 10
67.28284888333933
 20
31.00367294439949
 30
0.0000000000000004
 10
67.17747179979749
 20
31.00349966327645
 30
0.0000000000000004
  0
SPLINE
  5
A0
330
1F
100
AcDbEntity
  8
PREDEFINITO
 62
     7
100
AcDbSpline
210
0.0
220
0.0
230
1.0
 70
     8
 71
     2
 72
     6
 73
     3
 74
     0
 42
0.0000000001
 43
0.0000000001
 40
0.0
 40
0.0
 40
0.0
 40
1.0
 40
1.0
 40
1.0
 10
69.94673826370901
 20
27.60244349799568
 30
0.0
 10
69.94525937582931
 20
27.60266274339948
 30
0.0
 10
69.94407392654615
 20
27.6029376517194
 30
0.0
  0
LINE
  5
A1
330
1F
100
AcDbEntity
  8
PREDEFINITO
 62
     7
370
     0
100
AcDbLine
 10
71.34134902922169
 20
23.49146913587858
 30
0.0
 11
71.84160853391585
 21
23.49146913587859
 31
0.0
  0
LINE
  5
A2
330
1F
100
AcDbEntity
  8
PREDEFINITO
 62
     7
100
AcDbLine
 10
71.8406766865239
 20
10.11009472366558
 30
0.0
 11
73.1306034365938
 21
10.11009472366558
 31
0.0
  0
LINE
  5
A3
330
1F
100
AcDbEntity
  8
PREDEFINITO
 62
     7
100
AcDbLine
 10
73.1306034365938
 20
10.11009472366558
 30
0.0
 11
73.1306034365938
 21
17.01347198689487
 31
0.0
  0
LINE
  5
A4
330
1F
100
AcDbEntity
  8
PREDEFINITO
 62
     7
100
AcDbLine
 10
73.1306034365938
 20
17.01347198689487
 30
0.0
 11
73.1306034365938
 21
23.91684925012415
 31
0.0
  0
LINE
  5
A5
330
1F
100
AcDbEntity
  8
PREDEFINITO
 62
     7
100
AcDbLine
 10
73.1306034365938
 20
23.91684925012415
 30
0.0
 11
71.8406766865239
 21
23.91684925012415
 31
0.0
  0
LINE
  5
A6
330
1F
100
AcDbEntity
  8
PREDEFINITO
 62
     7
100
AcDbLine
 10
71.34041134721635
 20
10.11009472366558
 30
0.0
 11
70.1339679365938
 21
10.11009472366559
 31
0.0
  0
LINE
  5
A7
330
1F
100
AcDbEntity
  8
PREDEFINITO
 62
     7
100
AcDbLine
 10
70.1339679365938
 20
10.11009472366559
 30
0.0
 11
70.1339679365938
 21
17.01347198689487
 31
0.0
  0
LINE
  5
A8
330
1F
100
AcDbEntity
  8
PREDEFINITO
 62
     7
100
AcDbLine
 10
70.1339679365938
 20
17.01347198689487
 30
0.0
 11
70.1339679365938
 21
23.91684925012414
 31
0.0
  0
LINE
  5
A9
330
1F
100
AcDbEntity
  8
PREDEFINITO
 62
     7
100
AcDbLine
 10
70.1339679365938
 20
23.91684925012414
 30
0.0
 11
71.34041134721635
 21
23.91684925012415
 31
0.0
  0
POLYLINE
  5
AB
330
1F
100
AcDbEntity
  8
DEFAULT
100
AcDb2dPolyline
 66
     1
 10
0.0
 20
0.0
 30
0.0
  0
VERTEX
  5
AD
330
AB
100
AcDbEntity
  8
DEFAULT
100
AcDbVertex
100
AcDb2dVertex
 10
55.06293072811847
 20
21.6492240732489
 30
0.0
  0
VERTEX
  5
AE
330
AB
100
AcDbEntity
  8
DEFAULT
100
AcDbVertex
100
AcDb2dVertex
 10
55.06293072779765
 20
12.38426630275778
 30
0.0
  0
SEQEND
  5
AC
330
AB
100
AcDbEntity
  8
DEFAULT
  0
SPLINE
  5
AF
330
1F
100
AcDbEntity
  8
LINEE VISIBILI 2D
100
AcDbSpline
210
0.0
220
0.0
230
1.0
 70
    12
 71
     2
 72
     6
 73
     3
 74
     0
 42
0.0000000001
 43
0.0000000001
 40
0.0
 40
0.0
 40
0.0
 40
0.4134209827924085
 40
0.4134209827924085
 40
0.4134209827924085
 10
56.58286529102125
 20
12.32022233695115
 30
0.0
 41
1.0
 10
56.37659174675066
 20
12.33386579479005
 30
0.0
 41
0.999900109086644
 10
56.1700152401405
 20
12.34168057216012
 30
0.0
 41
1.0
  0
SPLINE
  5
B0
330
1F
100
AcDbEntity
  8
LINEE VISIBILI 2D
100
AcDbSpline
210
0.0
220
0.0
230
1.0
 70
    12
 71
     2
 72
     6
 73
     3
 74
     0
 42
0.0000000001
 43
0.0000000001
 40
0.0
 40
0.0
 40
0.0
 40
1.107801423482129
 40
1.107801423482129
 40
1.107801423482129
 10
56.1700152401405
 20
12.34168057216012
 30
0.0
 41
1.0
 10
55.61647684537776
 20
12.36171182656866
 30
0.0
 41
0.9999999825447945
 10
55.06293072779765
 20
12.38426630275778
 30
0.0
 41
1.0
  0
SPLINE
  5
B1
330
1F
100
AcDbEntity
  8
LINEE VISIBILI 2D
100
AcDbSpline
210
0.0
220
0.0
230
1.0
 70
    24
 71
     2
 72
     6
 73
     3
 74
     0
 42
0.0000000001
 43
0.0000000001
 40
0.0
 40
0.0
 40
0.0
 40
0.0320804095430019
 40
0.0320804095430019
 40
0.0320804095430019
 10
55.06293072779765
 20
12.38426630275778
 30
0.0
 10
55.06293071443291
 20
12.40350011320978
 30
0.0
 10
55.06293070106817
 20
12.42273392366179
 30
0.0
  0
SPLINE
  5
B2
330
1F
100
AcDbEntity
  8
LINEE VISIBILI 2D
100
AcDbSpline
210
0.0
220
0.0
230
1.0
 70
    24
 71
     2
 72
     6
 73
     3
 74
     0
 42
0.0000000001
 43
0.0000000001
 40
0.0
 40
0.0
 40
0.0
 40
0.3207957983160394
 40
0.3207957983160394
 40
0.3207957983160394
 10
55.06293070106817
 20
12.42273392366179
 30
0.0
 10
55.06293070357815
 20
12.58584923398901
 30
0.0
 10
55.06293070608812
 20
12.74896454431623
 30
0.0
  0
SPLINE
  5
B3
330
1F
100
AcDbEntity
  8
LINEE VISIBILI 2D
100
AcDbSpline
210
0.0
220
0.0
230
1.0
 70
    24
 71
     2
 72
     6
 73
     3
 74
     0
 42
0.0000000001
 43
0.0000000001
 40
0.0
 40
0.0
 40
0.0
 40
8.529266524583996
 40
8.529266524583996
 40
8.529266524583996
 10
55.06293070608812
 20
12.74896454431623
 30
0.0
 10
55.06293070608812
 20
17.01538259072768
 30
0.0
 10
55.06293070608811
 20
21.28180063713914
 30
0.0
  0
SPLINE
  5
B4
330
1F
100
AcDbEntity
  8
LINEE VISIBILI 2D
100
AcDbSpline
210
0.0
220
0.0
230
1.0
 70
    24
 71
     2
 72
     6
 73
     3
 74
     0
 42
0.0000000001
 43
0.0000000001
 40
0.0
 40
0.0
 40
0.0
 40
0.3207960205026161
 40
0.3207960205026161
 40
0.3207960205026161
 10
55.06293070608811
 20
21.28180063713914
 30
0.0
 10
55.06293070357813
 20
21.44491600301268
 30
0.0
 10
55.06293070106814
 20
21.60803136888621
 30
0.0
  0
SPLINE
  5
B5
330
1F
100
AcDbEntity
  8
LINEE VISIBILI 2D
100
AcDbSpline
210
0.0
220
0.0
230
1.0
 70
    24
 71
     2
 72
     6
 73
     3
 74
     0
 42
0.0000000001
 43
0.0000000001
 40
0.0
 40
0.0
 40
0.0
 40
0.0375305731078096
 40
0.0375305731078096
 40
0.0375305731078096
 10
55.06293070106814
 20
21.60803136888621
 30
0.0
 10
55.0629307145933
 20
21.62862772106756
 30
0.0
 10
55.06293072811846
 20
21.6492240732489
 30
0.0
  0
SPLINE
  5
B6
330
1F
100
AcDbEntity
  8
LINEE VISIBILI 2D
100
AcDbSpline
210
0.0
220
0.0
230
1.0
 70
    12
 71
     2
 72
     6
 73
     3
 74
     0
 42
0.0000000001
 43
0.0000000001
 40
0.0
 40
0.0
 40
0.0
 40
1.107801423481908
 40
1.107801423481908
 40
1.107801423481908
 10
55.06293072811846
 20
21.6492240732489
 30
0.0
 41
1.0
 10
55.61647684537777
 20
21.66905346765531
 30
0.0
 41
0.9999999825447946
 10
56.17001524014039
 20
21.68908472206382
 30
0.0
 41
1.0
  0
SPLINE
  5
B7
330
1F
100
AcDbEntity
  8
LINEE VISIBILI 2D
100
AcDbSpline
210
0.0
220
0.0
230
1.0
 70
    12
 71
     2
 72
     6
 73
     3
 74
     0
 42
0.0000000001
 43
0.0000000001
 40
0.0
 40
0.0
 40
0.0
 40
0.4134212191212203
 40
0.4134212191212203
 40
0.4134212191212203
 10
56.17001524014039
 20
21.68908472206382
 30
0.0
 41
1.0
 10
56.37659175654986
 20
21.69690179955046
 30
0.0
 41
0.999900265040457
 10
56.58286554680147
 20
21.71054300308228
 30
0.0
 41
1.0
  0
SPLINE
  5
B8
330
1F
100
AcDbEntity
  8
DEFAULT
100
AcDbSpline
210
0.0
220
0.0
230
1.0
 70
    24
 71
     2
 72
     6
 73
     3
 74
     0
 42
0.0000000001
 43
0.0000000001
 40
-1.0
 40
-1.0
 40
-1.0
 40
0.0
 40
0.0
 40
0.0
 10
69.95583945732788
 20
27.52120226962204
 30
0.0
 10
69.9389176230784
 20
27.61702775061728
 30
0.0
 10
69.92199578882891
 20
27.71285323161253
 30
0.0
  0
SPLINE
  5
B9
330
1F
100
AcDbEntity
  8
DEFAULT
100
AcDbSpline
210
0.0
220
0.0
230
1.0
 70
    12
 71
     2
 72
     6
 73
     3
 74
     0
 42
0.0000000001
 43
0.0000000001
 40
0.0
 40
0.0
 40
0.0
 40
0.2694725072947776
 40
0.2694725072947776
 40
0.2694725072947776
 10
69.92199578882891
 20
27.71285323161253
 30
0.0
 41
1.0
 10
69.89855762719941
 20
27.84557957077169
 30
0.0
 41
0.9995140270899326
 10
69.86689427775723
 20
27.97658743629613
 30
0.0
 41
1.0
  0
SPLINE
  5
BA
330
1F
100
AcDbEntity
  8
DEFAULT
100
AcDbSpline
210
0.0
220
0.0
230
1.0
 70
    24
 71
     2
 72
     6
 73
     3
 74
     0
 42
0.0000000001
 43
0.0000000001
 40
-1.0
 40
-1.0
 40
-1.0
 40
0.0
 40
0.0
 40
0.0
 10
69.86689427775723
 20
27.97658743629613
 30
0.0
 10
69.86561484569327
 20
27.9817678561854
 30
0.0
 10
69.86433541362932
 20
27.98694827607467
 30
0.0
  0
SPLINE
  5
BB
330
1F
100
AcDbEntity
  8
DEFAULT
100
AcDbSpline
210
0.0
220
0.0
230
1.0
 70
    12
 71
     2
 72
     6
 73
     3
 74
     0
 42
0.0000000001
 43
0.0000000001
 40
0.0
 40
0.0
 40
0.0
 40
1.06217760102914
 40
1.06217760102914
 40
1.06217760102914
 10
69.86433541362932
 20
27.98694827607467
 30
0.0
 41
1.0
 10
69.74298777535854
 20
28.50989797570577
 30
0.0
 41
0.983996254839641
 10
69.4459607124031
 20
28.95708536543206
 30
0.0
 41
1.0
  0
SPLINE
  5
BC
330
1F
100
AcDbEntity
  8
DEFAULT
100
AcDbSpline
210
0.0
220
0.0
230
1.0
 70
    24
 71
     2
 72
     6
 73
     3
 74
     0
 42
0.0000000001
 43
0.0000000001
 40
-1.0
 40
-1.0
 40
-1.0
 40
0.0
 40
0.0
 40
0.0
 10
69.4459607124031
 20
28.95708536543206
 30
0.0
 10
69.44159878751383
 20
28.96363421859861
 30
0.0
 10
69.43723686262454
 20
28.97018307176516
 30
0.0
  0
SPLINE
  5
BD
330
1F
100
AcDbEntity
  8
DEFAULT
100
AcDbSpline
210
0.0
220
0.0
230
1.0
 70
     8
 71
     3
 72
    12
 73
     8
 74
     0
 42
0.0000000001
 43
0.0000000001
 40
0.0
 40
0.0
 40
0.0
 40
0.0
 40
0.44725031252395
 40
0.8427558342682998
 40
1.531842432421644
 40
2.140193685750927
 40
2.698974123989311
 40
2.698974123989311
 40
2.698974123989311
 40
2.698974123989311
 10
69.43723686262454
 20
28.97018307176516
 30
0.0
 10
69.35256370383051
 20
29.09288090256376
 30
0.0
 10
69.18626094870636
 20
29.31948761012882
 30
0.0
 10
68.85726812097094
 20
29.71031349231618
 30
0.0
 10
68.4468382432252
 20
30.10064144688938
 30
0.0
 10
67.90584641372006
 20
30.41406578412984
 30
0.0
 10
67.51999962092738
 20
30.49558454200463
 30
0.0
 10
67.33386213794616
 20
30.50258204454816
 30
0.0
  0
SPLINE
  5
BE
330
1F
100
AcDbEntity
  8
DEFAULT
100
AcDbSpline
210
0.0
220
0.0
230
1.0
 70
     8
 71
     3
 72
    14
 73
    10
 74
     0
 42
0.0000000001
 43
0.0000000001
 40
0.0
 40
0.0
 40
0.0
 40
0.0
 40
0.3977758416434294
 40
0.9475187279829035
 40
2.345887037752949
 40
4.115295468690657
 40
6.204467403791316
 40
10.73517148139219
 40
15.14995412525861
 40
15.14995412525861
 40
15.14995412525861
 40
15.14995412525861
 10
67.33386213794616
 20
30.50258204454816
 30
0.0
 10
67.20001016980505
 20
30.50525072292641
 30
0.0
 10
66.89382032033107
 20
30.41315459298929
 30
0.0
 10
66.2282563549641
 20
29.98981453313987
 30
0.0
 10
65.40015122869265
 20
29.05469844902387
 30
0.0
 10
64.47664276424045
 20
27.56254528395875
 30
0.0
 10
63.31903726552488
 20
25.01065254390456
 30
0.0
 10
62.29735142677393
 20
21.46279306827235
 30
0.0
 10
61.96481640882045
 20
18.48806927511388
 30
0.0
 10
61.96568196634067
 20
17.01538265585336
 30
0.0
  0
SPLINE
  5
BF
330
1F
100
AcDbEntity
  8
DEFAULT
100
AcDbSpline
210
0.0
220
0.0
230
1.0
 70
     8
 71
     3
 72
    15
 73
    11
 74
     0
 42
0.0000000001
 43
0.0000000001
 40
0.0
 40
0.0
 40
0.0
 40
0.0
 40
2.117523860985757
 40
4.414702130383451
 40
8.945487409836963
 40
10.98861705983052
 40
12.8040511074081
 40
14.19681961309927
 40
14.75193124726725
 40
15.14999201163696
 40
15.14999201163696
 40
15.14999201163696
 40
15.14999201163696
 10
61.96568196634067
 20
17.01538265585336
 30
0.0
 10
61.96567747011447
 20
16.3096447888321
 30
0.0
 10
62.04310472147868
 20
14.83784523314258
 30
0.0
 10
62.4935277263743
 20
11.88761704720976
 30
0.0
 10
63.3146343944175
 20
9.034596495860674
 30
0.0
 10
64.469850682032
 20
6.482301329798661
 30
0.0
 10
65.38888173708436
 20
4.988938932215524
 30
0.0
 10
66.2268763969086
 20
4.042193878485956
 30
0.0
 10
66.89195820552017
 20
3.618268702846589
 30
0.0
 10
67.1998348937672
 20
3.525311628713412
 30
0.0
 10
67.3338621379505
 20
3.528183267158781
 30
0.0
  0
SPLINE
  5
C0
330
1F
100
AcDbEntity
  8
DEFAULT
100
AcDbSpline
210
0.0
220
0.0
230
1.0
 70
     8
 71
     3
 72
    12
 73
     8
 74
     0
 42
0.0000000001
 43
0.0000000001
 40
0.0
 40
0.0
 40
0.0
 40
0.0
 40
0.287226901527754
 40
0.5611216635255287
 40
1.149449921202481
 40
1.850770280785992
 40
2.698973617006989
 40
2.698973617006989
 40
2.698973617006989
 40
2.698973617006989
 10
67.3338621379505
 20
3.528183267158781
 30
0.0
 10
67.42959199002281
 20
3.532168779856112
 30
0.0
 10
67.61571317470568
 20
3.554825800247281
 30
0.0
 10
67.98463592776311
 20
3.664135218835972
 30
0.0
 10
68.44103641612746
 20
3.925664789763675
 30
0.0
 10
68.9610004233269
 20
4.417821116475389
 30
0.0
 10
69.27631924705237
 20
4.828065910371286
 30
0.0
 10
69.43723686262446
 20
5.060582239941457
 30
0.0
  0
POLYLINE
  5
C1
330
1F
100
AcDbEntity
  8
DEFAULT
100
AcDb2dPolyline
 66
     1
 10
0.0
 20
0.0
 30
0.0
  0
VERTEX
  5
C3
330
C1
100
AcDbEntity
  8
DEFAULT
100
AcDbVertex
100
AcDb2dVertex
 10
69.43723686262446
 20
5.060582239941457
 30
0.0
  0
VERTEX
  5
C4
330
C1
100
AcDbEntity
  8
DEFAULT
100
AcDbVertex
100
AcDb2dVertex
 10
69.44593550153293
 20
5.073639130391526
 30
0.0
  0
SEQEND
  5
C2
330
C1
100
AcDbEntity
  8
DEFAULT
  0
SPLINE
  5
C5
330
1F
100
AcDbEntity
  8
DEFAULT
100
AcDbSpline
210
0.0
220
0.0
230
1.0
 70
    12
 71
     2
 72
     6
 73
     3
 74
     0
 42
0.0000000001
 43
0.0000000001
 40
0.0
 40
0.0
 40
0.0
 40
1.062226112448784
 40
1.062226112448784
 40
1.062226112448784
 10
69.44593550153293
 20
5.073639130391526
 30
0.0
 41
1.0
 10
69.74298512211595
 20
5.520841947159257
 30
0.0
 41
0.9839940294943647
 10
69.86433541362929
 20
6.043817035632056
 30
0.0
 41
1.0
  0
POLYLINE
  5
C6
330
1F
100
AcDbEntity
  8
DEFAULT
100
AcDb2dPolyline
 66
     1
 10
0.0
 20
0.0
 30
0.0
  0
VERTEX
  5
C8
330
C6
100
AcDbEntity
  8
DEFAULT
100
AcDbVertex
100
AcDb2dVertex
 10
69.86433541362929
 20
6.043817035632056
 30
0.0
  0
VERTEX
  5
C9
330
C6
100
AcDbEntity
  8
DEFAULT
100
AcDbVertex
100
AcDb2dVertex
 10
69.86689427775762
 20
6.054177875412544
 30
0.0
  0
SEQEND
  5
C7
330
C6
100
AcDbEntity
  8
DEFAULT
  0
SPLINE
  5
CA
330
1F
100
AcDbEntity
  8
DEFAULT
100
AcDbSpline
210
0.0
220
0.0
230
1.0
 70
    12
 71
     2
 72
     6
 73
     3
 74
     0
 42
0.0000000001
 43
0.0000000001
 40
0.0
 40
0.0
 40
0.0
 40
0.214655037422986
 40
0.214655037422986
 40
0.214655037422986
 10
69.86689427775762
 20
6.054177875412544
 30
0.0
 41
1.0
 10
69.89217742691591
 20
6.158509181219065
 30
0.0
 41
0.9996705133793807
 10
69.91207299753479
 20
6.264000532866499
 30
0.0
 41
1.0
  0
POLYLINE
  5
CB
330
1F
100
AcDbEntity
  8
DEFAULT
100
AcDb2dPolyline
 66
     1
 10
0.0
 20
0.0
 30
0.0
  0
VERTEX
  5
CD
330
CB
100
AcDbEntity
  8
DEFAULT
100
AcDbVertex
100
AcDb2dVertex
 10
69.91207299753479
 20
6.264000532866499
 30
0.0
  0
VERTEX
  5
CE
330
CB
100
AcDbEntity
  8
DEFAULT
100
AcDbVertex
100
AcDb2dVertex
 10
69.9691242628861
 20
6.586628818651335
 30
0.0
  0
SEQEND
  5
CC
330
CB
100
AcDbEntity
  8
DEFAULT
  0
SPLINE
  5
CF
330
1F
100
AcDbEntity
  8
LINEE VISIBILI 2D
100
AcDbSpline
210
0.0
220
0.0
230
1.0
 70
    12
 71
     2
 72
     6
 73
     3
 74
     0
 42
0.0000000001
 43
0.0000000001
 40
0.0
 40
0.0
 40
0.0
 40
0.1911447642789938
 40
0.1911447642789938
 40
0.1911447642789938
 10
61.88662327423818
 20
12.17313264891568
 30
0.0
 41
1.0
 10
61.87277084199962
 20
12.2677089951008
 30
0.0
 41
0.9997951973931124
 10
61.85510253095565
 20
12.36164730422708
 30
0.0
 41
1.0
  0
SPLINE
  5
D0
330
1F
100
AcDbEntity
  8
LINEE VISIBILI 2D
100
AcDbSpline
210
0.0
220
0.0
230
1.0
 70
    12
 71
     2
 72
     8
 73
     5
 74
     0
 42
0.0000000001
 43
0.0000000001
 40
-9.36004382568307
 40
-9.36004382568307
 40
-9.36004382568307
 40
-4.709024346868741
 40
-4.709024346868741
 40
0.0
 40
0.0
 40
0.0
 10
61.85510253095565
 20
12.36164730422708
 30
0.0
 41
1.0
 10
61.42942823867767
 20
14.65442457249565
 30
0.0
 41
0.9958576631620666
 10
61.42601091242283
 20
16.98637965930087
 30
0.0
 41
1.0
 10
61.42407567043963
 20
19.34758513697426
 30
0.0
 41
0.9957528709547848
 10
61.85510201270206
 20
21.66911724858337
 30
0.0
 41
1.0
  0
SPLINE
  5
D1
330
1F
100
AcDbEntity
  8
LINEE VISIBILI 2D
100
AcDbSpline
210
0.0
220
0.0
230
1.0
 70
    12
 71
     2
 72
     6
 73
     3
 74
     0
 42
0.0000000001
 43
0.0000000001
 40
0.0
 40
0.0
 40
0.0
 40
0.1911455780933598
 40
0.1911455780933598
 40
0.1911455780933598
 10
61.85510201270206
 20
21.66911724858337
 30
0.0
 41
1.0
 10
61.87277062299371
 20
21.76305591293951
 30
0.0
 41
0.9997952372429082
 10
61.88662371233788
 20
21.85763257161531
 30
0.0
 41
1.0
  0
POLYLINE
  5
D2
330
1F
100
AcDbEntity
  8
DEFAULT
100
AcDb2dPolyline
 66
     1
 10
0.0
 20
0.0
 30
0.0
  0
VERTEX
  5
D4
330
D2
100
AcDbEntity
  8
DEFAULT
100
AcDbVertex
100
AcDb2dVertex
 10
70.27624434659624
 20
10.11009472366559
 30
0.0
  0
VERTEX
  5
D5
330
D2
100
AcDbEntity
  8
DEFAULT
100
AcDbVertex
100
AcDb2dVertex
 10
70.27624434659624
 20
9.811795889857521
 30
0.0
  0
SEQEND
  5
D3
330
D2
100
AcDbEntity
  8
DEFAULT
  0
POLYLINE
  5
D6
330
1F
100
AcDbEntity
  8
DEFAULT
100
AcDb2dPolyline
 66
     1
 10
0.0
 20
0.0
 30
0.0
  0
VERTEX
  5
D8
330
D6
100
AcDbEntity
  8
DEFAULT
100
AcDbVertex
100
AcDb2dVertex
 10
71.38281641305375
 20
9.829195594790901
 30
0.0
  0
VERTEX
  5
D9
330
D6
100
AcDbEntity
  8
DEFAULT
100
AcDbVertex
100
AcDb2dVertex
 10
71.38322383590781
 20
10.00230813550142
 30
0.0
  0
SEQEND
  5
D7
330
D6
100
AcDbEntity
  8
DEFAULT
  0
POLYLINE
  5
DA
330
1F
100
AcDbEntity
  8
DEFAULT
100
AcDb2dPolyline
 66
     1
 10
0.0
 20
0.0
 30
0.0
  0
VERTEX
  5
DC
330
DA
100
AcDbEntity
  8
DEFAULT
100
AcDbVertex
100
AcDb2dVertex
 10
70.27624434659624
 20
23.91684925012414
 30
0.0
  0
VERTEX
  5
DD
330
DA
100
AcDbEntity
  8
DEFAULT
100
AcDbVertex
100
AcDb2dVertex
 10
70.27624434659624
 20
24.21896756380918
 30
0.0
  0
SEQEND
  5
DB
330
DA
100
AcDbEntity
  8
DEFAULT
  0
SPLINE
  5
DE
330
1F
100
AcDbEntity
  8
PREDEFINITO
 62
     7
100
AcDbSpline
210
0.0
220
0.0
230
1.0
 70
     8
 71
     3
 72
    14
 73
    10
 74
     0
 42
0.0000000001
 43
0.0000000001
 40
0.165837952041845
 40
0.165837952041845
 40
0.165837952041845
 40
0.165837952041845
 40
0.5423473354254424
 40
0.5423473354254424
 40
0.5423473354254424
 40
0.9250434901267635
 40
0.9250434901267635
 40
0.9250434901267635
 40
1.0
 40
1.0
 40
1.0
 40
1.0
 10
55.06293070029928
 20
58.84752636307612
 30
0.0
 10
55.99635627539308
 20
58.77568112873677
 30
0.0
 10
56.92978261812834
 20
58.70384693546657
 30
0.0
 10
57.86320935166188
 20
58.63201836566657
 30
0.0
 10
58.81197407677391
 20
58.55900951469494
 30
0.0
 10
59.76073920516941
 20
58.48600646596955
 30
0.0
 10
60.70950432762314
 20
58.41300333192808
 30
0.0
 10
60.89533353284273
 20
58.3987046250549
 30
0.0
 10
61.08116273780712
 20
58.3844059145099
 30
0.0
 10
61.26699193940848
 20
58.37010715557658
 30
0.0
  0
POLYLINE
  5
DF
330
1F
100
AcDbEntity
  8
PREDEFINITO
 62
     7
100
AcDb2dPolyline
 66
     1
 10
0.0
 20
0.0
 30
0.0
  0
VERTEX
  5
E1
330
DF
100
AcDbEntity
  8
PREDEFINITO
 62
     7
100
AcDbVertex
100
AcDb2dVertex
 10
61.26699193940848
 20
58.37010715557658
 30
0.0
  0
VERTEX
  5
E2
330
DF
100
AcDbEntity
  8
PREDEFINITO
 62
     7
100
AcDbVertex
100
AcDb2dVertex
 10
61.28166509795662
 20
58.37088559848432
 30
0.0
  0
SEQEND
  5
E0
330
DF
100
AcDbEntity
  8
PREDEFINITO
  0
SPLINE
  5
E3
330
1F
100
AcDbEntity
  8
PREDEFINITO
 62
     7
100
AcDbSpline
210
0.0
220
0.0
230
1.0
 70
     8
 71
     3
 72
    22
 73
    18
 74
     0
 42
0.0000000001
 43
0.0000000001
 40
0.0
 40
0.0
 40
0.0
 40
0.0
 40
0.0190088022421125
 40
0.0190088022421125
 40
0.1825073352017604
 40
0.1825073352017604
 40
0.346005868161407
 40
0.346005868161407
 40
0.5095044011210562
 40
0.5095044011210562
 40
0.6730029340807043
 40
0.6730029340807043
 40
0.8365014670403521
 40
0.8365014670403521
 40
0.9182507335201746
 40
0.9182507335201746
 40
1.0
 40
1.0
 40
1.0
 40
1.0
 10
61.28166509795662
 20
58.37088559848432
 30
0.0
 10
61.3108227835823
 20
58.3866235929809
 30
0.0
 10
61.33430797663127
 20
58.40062114671986
 30
0.0
 10
61.56552834648224
 20
58.53849342634176
 30
0.0
 10
61.81726339540913
 20
58.68905673229835
 30
0.0
 10
62.38422834903943
 20
59.02990707653234
 30
0.0
 10
62.69971347728702
 20
59.22034240142065
 30
0.0
 10
63.36519441422854
 20
59.62463016080402
 30
0.0
 10
63.71519454849715
 20
59.83847993974091
 30
0.0
 10
64.41783878285585
 20
60.27165659126517
 30
0.0
 10
64.77031690211737
 20
60.49087809387464
 30
0.0
 10
65.44578447738488
 20
60.9168885111618
 30
0.0
 10
65.76859118374986
 20
61.1235524678215
 30
0.0
 10
66.2099597146892
 20
61.41314858193462
 30
0.0
 10
66.35002250121781
 20
61.50633791575846
 30
0.0
 10
66.61317660066234
 20
61.68460736676772
 30
0.0
 10
66.73633185326653
 20
61.7697356119449
 30
0.0
 10
66.85001994749132
 20
61.85044955121975
 30
0.0
  0
SPLINE
  5
E4
330
1F
100
AcDbEntity
  8
PREDEFINITO
 62
     7
100
AcDbSpline
210
0.0
220
0.0
230
1.0
 70
     8
 71
     3
 72
     8
 73
     4
 74
     0
 42
0.0000000001
 43
0.0000000001
 40
0.0
 40
0.0
 40
0.0
 40
0.0
 40
1.0
 40
1.0
 40
1.0
 40
1.0
 10
66.85001994749132
 20
61.85044955121975
 30
0.0
 10
66.89238691650255
 20
61.88052838214199
 30
0.0
 10
66.93343913166328
 20
61.90999417523693
 30
0.0
 10
66.97312249214221
 20
61.93882582429694
 30
0.0
  0
SPLINE
  5
E5
330
1F
100
AcDbEntity
  8
PREDEFINITO
 62
     7
100
AcDbSpline
210
0.0
220
0.0
230
1.0
 70
     8
 71
     3
 72
    10
 73
     6
 74
     0
 42
0.0000000001
 43
0.0000000001
 40
0.0
 40
0.0
 40
0.0
 40
0.0
 40
0.262264914707677
 40
0.262264914707677
 40
0.5176291687563221
 40
0.5176291687563221
 40
0.5176291687563221
 40
0.5176291687563221
 10
66.97312249214221
 20
61.93882582429694
 30
0.0
 10
67.19024422442277
 20
62.09657399647313
 30
0.0
 10
67.44105964526844
 20
62.24620838683747
 30
0.0
 10
67.97661188563386
 20
62.5031048810343
 30
0.0
 10
68.26065888616925
 20
62.61046251010335
 30
0.0
 10
68.5464852929492
 20
62.69422760459637
 30
0.0
  0
SPLINE
  5
E6
330
1F
100
AcDbEntity
  8
LINEE VISIBILI 2D
100
AcDbSpline
210
0.0
220
0.0
230
1.0
 70
     8
 71
     3
 72
    18
 73
    14
 74
     0
 42
0.0000000001
 43
0.0000000001
 40
0.0
 40
0.0
 40
0.0
 40
0.0
 40
4.056239071141187
 40
7.857572257069405
 40
11.13499187557152
 40
12.33564734638001
 40
13.24931328667881
 40
14.19819184652757
 40
15.35095941453414
 40
16.68837281370409
 40
18.31176203898277
 40
22.02064197700453
 40
25.8634546155103
 40
25.8634546155103
 40
25.8634546155103
 40
25.8634546155103
 10
60.96057589309761
 20
12.041083217928
 30
0.0
 10
61.24185077577675
 20
10.71907143594893
 30
0.0
 10
61.96639130789293
 20
8.193601783339602
 30
0.0
 10
63.51166820481201
 20
4.808556720037209
 30
0.0
 10
65.10505813259532
 20
2.532051343209759
 30
0.0
 10
66.45292007288315
 20
1.327115771299014
 30
0.0
 10
67.40878263813774
 20
0.9098484606130244
 30
0.0
 10
68.43781789400843
 20
0.990091174623988
 30
0.0
 10
69.49965786684383
 20
1.433678796488176
 30
0.0
 10
70.63384785304005
 20
2.217016053926948
 30
0.0
 10
72.23294815780302
 20
3.770423709908482
 30
0.0
 10
73.99707932317752
 20
6.290921985414672
 30
0.0
 10
75.04454560832228
 20
8.588305628801487
 30
0.0
 10
75.47459744557548
 20
9.795497377501974
 30
-0.0000000000000002
  0
SPLINE
  5
E7
330
1F
100
AcDbEntity
  8
LINEE VISIBILI 2D
100
AcDbSpline
210
0.0
220
0.0
230
1.0
 70
     8
 71
     3
 72
    11
 73
     7
 74
     0
 42
0.0000000001
 43
0.0000000001
 40
107.6956897521552
 40
107.6956897521552
 40
107.6956897521552
 40
107.6956897521552
 40
128.2508685272089
 40
148.7753065083849
 40
164.9963832010012
 40
181.2174550216849
 40
181.2174550216849
 40
181.2174550216849
 40
181.2174550216849
 10
75.47459744557548
 20
9.795497377501974
 30
-0.0000000000000002
 10
75.6944941639567
 20
10.45110511501546
 30
-0.0000000000000003
 10
76.07305807544796
 20
11.75567594438149
 30
0.0000000000000002
 10
76.45181536770069
 20
13.63508124436938
 30
0.0
 10
76.65101961834925
 20
15.39090373360347
 30
0.0
 10
76.67452703564645
 20
16.47261595078484
 30
0.0
 10
76.68628074252995
 20
17.01347198689486
 30
0.0
  0
SPLINE
  5
E8
330
1F
100
AcDbEntity
  8
LINEE VISIBILI 2D
100
AcDbSpline
210
0.0
220
0.0
230
1.0
 70
     8
 71
     3
 72
    11
 73
     7
 74
     0
 42
0.0000000001
 43
0.0000000001
 40
-181.2174550216851
 40
-181.2174550216851
 40
-181.2174550216851
 40
-181.2174550216851
 40
-164.9884651218973
 40
-148.7594703477989
 40
-128.2250136622306
 40
-107.5874778635362
 40
-107.5874778635362
 40
-107.5874778635362
 40
-107.5874778635362
 10
76.68628074252995
 20
17.01347198689486
 30
0.0
 10
76.67452703564645
 20
17.55432802300488
 30
0.0
 10
76.65101961834925
 20
18.63604024018625
 30
0.0
 10
76.45181536770069
 20
20.39186272942035
 30
0.0
 10
76.07258025195557
 20
22.27363900423131
 30
0.0000000000000002
 10
75.69316151054954
 20
23.58043004715071
 30
-0.0000000000000003
 10
75.4727912320715
 20
24.23853584272091
 30
-0.0000000000000002
  0
SPLINE
  5
E9
330
1F
100
AcDbEntity
  8
LINEE VISIBILI 2D
100
AcDbSpline
210
0.0
220
0.0
230
1.0
 70
    12
 71
     2
 72
     6
 73
     3
 74
     0
 42
0.0000000001
 43
0.0000000001
 40
-0.0001450743196436
 40
-0.0001450743196436
 40
-0.0001450743196436
 40
0.0
 40
0.0
 40
0.0
 10
75.47279123207149
 20
24.23853584272091
 30
-0.0000000000000002
 41
0.9999999999998835
 10
75.47401516477346
 20
24.23509737749246
 30
0.0
 41
0.9999999999999417
 10
75.47408770192901
 20
24.23509740230135
 30
0.0
 41
1.0
  0
SPLINE
  5
EA
330
1F
100
AcDbEntity
  8
LINEE VISIBILI 2D
100
AcDbSpline
210
0.0
220
0.0
230
1.0
 70
     8
 71
     3
 72
    18
 73
    14
 74
     0
 42
0.0000000001
 43
0.0000000001
 40
-25.8634546155103
 40
-25.8634546155103
 40
-25.8634546155103
 40
-25.8634546155103
 40
-22.02064197700453
 40
-18.31176203898277
 40
-16.68837281370409
 40
-15.35095941453414
 40
-14.19819184652757
 40
-13.24931328667881
 40
-12.33564734638001
 40
-11.13499187557152
 40
-7.857572257069405
 40
-4.056239071141187
 40
0.0
 40
0.0
 40
0.0
 40
0.0
 10
75.47408770192901
 20
24.23509740230135
 30
0.0
 10
75.04454560832228
 20
25.44245968290524
 30
0.0
 10
73.99707932317752
 20
27.73984332629205
 30
0.0
 10
72.23294815780302
 20
30.26034160179824
 30
0.0
 10
70.63384785304005
 20
31.81374925777978
 30
0.0
 10
69.49965786684383
 20
32.59708651521855
 30
0.0
 10
68.43781789400843
 20
33.04067413708273
 30
0.0
 10
67.40878263813774
 20
33.1209168510937
 30
0.0
 10
66.45292007288315
 20
32.70364954040771
 30
0.0
 10
65.10505813259532
 20
31.49871396849696
 30
0.0
 10
63.51166820481201
 20
29.22220859166951
 30
0.0
 10
61.96639130789293
 20
25.83716352836712
 30
0.0
 10
61.24185077577675
 20
23.31169387575779
 30
0.0
 10
60.96057589309761
 20
21.98968209377873
 30
0.0
  0
SPLINE
  5
EB
330
1F
100
AcDbEntity
  8
DEFAULT
100
AcDbSpline
210
0.0
220
0.0
230
1.0
 70
     8
 71
     3
 72
    17
 73
    13
 74
     0
 42
0.0000000001
 43
0.0000000001
 40
-1.0
 40
-1.0
 40
-1.0
 40
-1.0
 40
-0.912639341009934
 40
-0.8288436283625062
 40
-0.7451871503316156
 40
-0.6595543461150629
 40
-0.5466630060404774
 40
-0.4301624271418813
 40
-0.312055536130726
 40
-0.195209933840545
 40
-0.0281895529187846
 40
0.0
 40
0.0
 40
0.0
 40
0.0
 10
67.17747179979749
 20
3.023444310513286
 30
0.0000000000000004
 10
67.28284888333933
 20
3.023271029390245
 30
0.0000000000000004
 10
67.48747440646177
 20
3.044183904660815
 30
0.0000000000000003
 10
67.79470977170452
 20
3.140004387249696
 30
0.0000000000000003
 10
68.07894403530419
 20
3.290057578240006
 30
0.0000000000000003
 10
68.36590125487787
 20
3.502118038608716
 30
0.0000000000000003
 10
68.6472858076382
 20
3.778116676860946
 30
0.0000000000000002
 10
68.91633683711846
 20
4.112433513399996
 30
0.0000000000000002
 10
69.15486901866781
 20
4.470437790451916
 30
0.0000000000000001
 10
69.39791474349629
 20
4.895775084910076
 30
0.0000000000000001
 10
69.56464072191083
 20
5.236514638648526
 30
0.0000000000000001
 10
69.6625202227239
 20
5.452643010039035
 30
0.0000000000000001
 10
69.67652011934085
 20
5.483915180716725
 30
0.0
  0
POLYLINE
  5
EC
330
1F
100
AcDbEntity
  8
DEFAULT
100
AcDb2dPolyline
 66
     1
 10
0.0
 20
0.0
 30
0.0
  0
VERTEX
  5
EE
330
EC
100
AcDbEntity
  8
DEFAULT
100
AcDbVertex
100
AcDb2dVertex
 10
69.67652011934085
 20
5.483915180716725
 30
0.0
  0
VERTEX
  5
EF
330
EC
100
AcDbEntity
  8
DEFAULT
100
AcDbVertex
100
AcDb2dVertex
 10
69.71480038083887
 20
5.577984208052827
 30
0.0
  0
SEQEND
  5
ED
330
EC
100
AcDbEntity
  8
DEFAULT
  0
SPLINE
  5
F0
330
1F
100
AcDbEntity
  8
DEFAULT
100
AcDbSpline
210
0.0
220
0.0
230
1.0
 70
    12
 71
     2
 72
     6
 73
     3
 74
     0
 42
0.0000000001
 43
0.0000000001
 40
-0.0904557588305269
 40
-0.0904557588305269
 40
-0.0904557588305269
 40
0.0
 40
0.0
 40
0.0
 10
60.87230133932581
 20
57.27105644088102
 30
0.0
 41
1.0
 10
60.90623904901153
 20
57.30095294589035
 30
0.0
 41
0.9999970396682953
 10
60.94003086654502
 20
57.331014253551
 30
0.0
 41
1.0
  0
SPLINE
  5
F1
330
1F
100
AcDbEntity
  8
DEFAULT
100
AcDbSpline
210
0.0
220
0.0
230
1.0
 70
     8
 71
     3
 72
    14
 73
    10
 74
     0
 42
0.0000000001
 43
0.0000000001
 40
-13.39283194149771
 40
-13.39283194149771
 40
-13.39283194149771
 40
-13.39283194149771
 40
-9.231276826966031
 40
-7.30902750702745
 40
-5.91080602550793
 40
-5.254520108445594
 40
-2.837847483149238
 40
-1.512931425996137
 40
0.0
 40
0.0
 40
0.0
 40
0.0
 10
60.94003086654502
 20
57.331014253551
 30
0.0
 10
61.98124249985558
 20
58.24609214498761
 30
0.0
 10
63.55718434653002
 20
59.53129971320876
 30
0.0
 10
65.66333529196966
 20
60.87006259997788
 30
0.0
 10
66.80622178496701
 20
61.54092820659017
 30
0.0
 10
68.12040192285124
 20
62.24745461735601
 30
0.0
 10
69.53858469790762
 20
62.67010869770654
 30
0.0
 10
71.27053335803132
 20
62.91729080467761
 30
0.0
 10
72.22008203330518
 20
62.94937092430256
 30
0.0
 10
72.72305236299222
 20
62.95685454870962
 30
0.0
  0
POLYLINE
  5
F2
330
1F
100
AcDbEntity
  8
DEFAULT
100
AcDb2dPolyline
 66
     1
 10
0.0
 20
0.0
 30
0.0
  0
VERTEX
  5
F4
330
F2
100
AcDbEntity
  8
DEFAULT
100
AcDbVertex
100
AcDb2dVertex
 10
72.72305236299222
 20
62.95685454870962
 30
0.0
  0
VERTEX
  5
F5
330
F2
100
AcDbEntity
  8
DEFAULT
100
AcDbVertex
100
AcDb2dVertex
 10
73.02331104749625
 20
62.96269144746505
 30
0.0
  0
SEQEND
  5
F3
330
F2
100
AcDbEntity
  8
DEFAULT
  0
POLYLINE
  5
F6
330
1F
100
AcDbEntity
  8
PREDEFINITO
 62
     7
100
AcDb2dPolyline
 66
     1
 10
0.0
 20
0.0
 30
0.0
  0
VERTEX
  5
F8
330
F6
100
AcDbEntity
  8
PREDEFINITO
 62
     7
100
AcDbVertex
100
AcDb2dVertex
 10
67.33386213794616
 20
30.50258204454816
 30
0.0
  0
VERTEX
  5
F9
330
F6
100
AcDbEntity
  8
PREDEFINITO
 62
     7
100
AcDbVertex
100
AcDb2dVertex
 10
67.08951369477967
 20
31.29221897458908
 30
0.0000000000000002
  0
SEQEND
  5
F7
330
F6
100
AcDbEntity
  8
PREDEFINITO
  0
SPLINE
  5
FA
330
1F
100
AcDbEntity
  8
PREDEFINITO
 62
     7
100
AcDbSpline
210
0.0
220
0.0
230
1.0
 70
     8
 71
     3
 72
     8
 73
     4
 74
     0
 42
0.0000000001
 43
0.0000000001
 40
-1.0
 40
-1.0
 40
-1.0
 40
-1.0
 40
0.0
 40
0.0
 40
0.0
 40
0.0
 10
67.08951369477967
 20
31.29221897458908
 30
0.0000000000000002
 10
67.08892497085131
 20
31.29116943755457
 30
0.0000000000000004
 10
67.08826190381143
 20
31.29111977846294
 30
0.0000000000000004
 10
67.08759879590711
 20
31.2910697133001
 30
0.0000000000000004
  0
SPLINE
  5
FB
330
1F
100
AcDbEntity
  8
PREDEFINITO
 62
     7
100
AcDbSpline
210
-7.890900674194851E-10
220
-2.466109248052041E-10
230
1.0
 70
     8
 71
     3
 72
    11
 73
     7
 74
     0
 42
0.0000000001
 43
0.0000000001
 40
0.0
 40
0.0
 40
0.0
 40
0.0
 40
0.0610849468197585
 40
0.5305424733183902
 40
0.7652712365677012
 40
1.0
 40
1.0
 40
1.0
 40
1.0
 10
67.08759879590711
 20
31.2910697133001
 30
0.0000000000000004
 10
67.08545672216054
 20
31.29792378563462
 30
0.0000000000000004
 10
67.06685219911024
 20
31.35745337861072
 30
0.0000000000000004
 10
67.04001644688113
 20
31.44332074554112
 30
0.0000000000000004
 10
67.00709153016102
 20
31.54867184138059
 30
0.0000000000000004
 10
66.99062907179724
 20
31.60134738931009
 30
0.0000000000000004
 10
66.9823978424996
 20
31.62768516325433
 30
0.0000000000000004
  0
SPLINE
  5
FC
330
1F
100
AcDbEntity
  8
PREDEFINITO
 62
     7
100
AcDbSpline
210
0.0
220
0.0
230
1.0
 70
    12
 71
     2
 72
     6
 73
     3
 74
     0
 42
0.0000000001
 43
0.0000000001
 40
-1.0
 40
-1.0
 40
-1.0
 40
0.0
 40
0.0
 40
0.0
 10
66.9823978424996
 20
31.62768516325433
 30
0.0000000000000004
 41
1.0
 10
66.82595572874442
 20
31.90872100177194
 30
0.0000000000000004
 41
0.8868199277566329
 10
66.83749322156025
 20
32.24931991423825
 30
0.0000000000000005
 41
1.0
  0
SPLINE
  5
FD
330
1F
100
AcDbEntity
  8
PREDEFINITO
 62
     7
100
AcDbSpline
210
0.0
220
0.0
230
1.0
 70
     8
 71
     3
 72
    19
 73
    15
 74
     0
 42
0.0000000001
 43
0.0000000001
 40
-1.0
 40
-1.0
 40
-1.0
 40
-1.0
 40
-0.9859132072702101
 40
-0.9707605806080586
 40
-0.9544265507648274
 40
-0.9368004358601488
 40
-0.9077544064744129
 40
-0.8753776186523603
 40
-0.8394968185864307
 40
-0.800013003461779
 40
-0.6426976809862084
 40
-0.4496527378017073
 40
-0.333752592396625
 40
0.0
 40
0.0
 40
0.0
 40
0.0
 10
66.83749322156025
 20
32.24931991423825
 30
0.0000000000000005
 10
66.78948443425612
 20
32.2418742049737
 30
0.0000000000000005
 10
66.68983442211989
 20
32.2264194297078
 30
0.0000000000000005
 10
66.53655691171541
 20
32.17920789220734
 30
0.0000000000000005
 10
66.37473429655869
 20
32.11258252337639
 30
0.0000000000000005
 10
66.17276544523612
 20
32.0065182901488
 30
0.0000000000000005
 10
65.92937287151874
 20
31.84568373435685
 30
0.0000000000000005
 10
65.64584290212723
 20
31.61443469054339
 30
0.0000000000000005
 10
65.34989724707488
 20
31.32842903169175
 30
0.0000000000000005
 10
64.7490821635799
 20
30.65683829661254
 30
0.0000000000000005
 10
63.88268845332802
 20
29.36155850503819
 30
0.0000000000000005
 10
63.04897777667888
 20
27.6598343468644
 30
0.0000000000000004
 10
62.06939576349727
 20
25.21157818375614
 30
0.0000000000000003
 10
61.61367718829989
 20
23.39426137064958
 30
0.0000000000000002
 10
61.27774725052937
 20
22.00746942463525
 30
0.0000000000000002
  0
SPLINE
  5
FE
330
1F
100
AcDbEntity
  8
LINEE VISIBILI 2D
100
AcDbSpline
210
0.0
220
0.0
230
1.0
 70
    12
 71
     2
 72
     6
 73
     3
 74
     0
 42
0.0000000001
 43
0.0000000001
 40
1.045417027320191
 40
1.045417027320191
 40
1.045417027320191
 40
4.092772662410583
 40
4.092772662410583
 40
4.092772662410583
 10
74.42840798474734
 20
24.2347548653574
 30
0.0
 41
0.9999999993750909
 10
72.90396434451421
 20
24.23427750428636
 30
0.0
 41
0.9999999987767507
 10
71.37728810747562
 20
24.23392770676558
 30
0.0
 41
1.0
  0
SPLINE
  5
FF
330
1F
100
AcDbEntity
  8
LINEE VISIBILI 2D
100
AcDbSpline
210
0.0
220
0.0
230
1.0
 70
    12
 71
     2
 72
     6
 73
     3
 74
     0
 42
0.0000000001
 43
0.0000000001
 40
-1.250347860968569
 40
-1.250347860968569
 40
-1.250347860968569
 40
0.0
 40
0.0
 40
0.0
 10
71.37728810747562
 20
24.23392770676558
 30
0.0
 41
1.0
 10
70.7479273327794
 20
24.24415361593498
 30
0.0
 41
0.9994162771432854
 10
70.12335472469998
 20
24.21165864479008
 30
0.0
 41
1.0
  0
SPLINE
  5
100
330
1F
100
AcDbEntity
  8
LINEE VISIBILI 2D
100
AcDbSpline
210
0.0
220
0.0
230
1.0
 70
    12
 71
     2
 72
     6
 73
     3
 74
     0
 42
0.0000000001
 43
0.0000000001
 40
0.0
 40
0.0
 40
0.0
 40
1.796089393536515
 40
1.796089393536515
 40
1.796089393536515
 10
70.12335472469998
 20
24.21165864479008
 30
0.0
 41
1.0
 10
70.10331843566915
 20
25.10949805538033
 30
0.0
 41
0.999969514538015
 10
70.06924716098986
 20
26.00732784940653
 30
0.0
 41
1.0
  0
SPLINE
  5
101
330
1F
100
AcDbEntity
  8
LINEE VISIBILI 2D
100
AcDbSpline
210
0.0
220
0.0
230
1.0
 70
    12
 71
     3
 72
    10
 73
     6
 74
     0
 42
0.0000000001
 43
0.0000000001
 40
0.000157535132796
 40
0.000157535132796
 40
0.000157535132796
 40
0.000157535132796
 40
0.5049330190552208
 40
0.5049330190552208
 40
0.999999999999995
 40
0.999999999999995
 40
0.999999999999995
 40
0.999999999999995
 10
70.06924716098986
 20
26.00732784940653
 30
0.0
 41
1.0
 10
70.03375293351566
 20
26.88936758508139
 30
0.0
 41
1.0
 10
69.98346707540647
 20
27.52129725961023
 30
0.0
 41
1.0
 10
69.74856544204606
 20
28.67473007900696
 30
0.0
 41
1.0
 10
69.58824725901819
 20
29.11937940070755
 30
0.0
 41
1.0
 10
69.34616012730221
 20
29.56079481033228
 30
0.0
 41
1.0
  0
SPLINE
  5
102
330
1F
100
AcDbEntity
  8
LINEE VISIBILI 2D
100
AcDbSpline
210
0.0
220
0.0
230
1.0
 70
    12
 71
     2
 72
     6
 73
     3
 74
     0
 42
0.0000000001
 43
0.0000000001
 40
-2.216750742121878
 40
-2.216750742121878
 40
-2.216750742121878
 40
0.0
 40
0.0
 40
0.0
 10
69.34616012730221
 20
29.56079481033228
 30
0.0
 41
1.0
 10
68.80158445775848
 20
30.56519131110959
 30
0.0
 41
0.9557564398149104
 10
67.78649146769884
 20
31.08955875114043
 30
0.0
 41
1.0
  0
SPLINE
  5
103
330
1F
100
AcDbEntity
  8
LINEE VISIBILI 2D
100
AcDbSpline
210
0.0
220
0.0
230
1.0
 70
    12
 71
     3
 72
    10
 73
     6
 74
     0
 42
0.0000000001
 43
0.0000000001
 40
0.8879763331046506
 40
0.8879763331046506
 40
0.8879763331046506
 40
0.8879763331046506
 40
0.9439200889187636
 40
0.9439200889187636
 40
0.9993114154750999
 40
0.9993114154750999
 40
0.9993114154750999
 40
0.9993114154750999
 10
67.78649146769884
 20
31.08955875114043
 30
0.0
 41
1.0
 10
67.57359638989944
 20
31.19611074315212
 30
0.0
 41
1.0
 10
67.46779628965167
 20
31.22913301076775
 30
0.0
 41
1.0
 10
67.25544862627122
 20
31.28634253306747
 30
0.0
 41
1.0
 10
67.15747430670352
 20
31.29816610840638
 30
0.0
 41
1.0
 10
67.08831977834701
 20
31.29314354901367
 30
0.0
 41
1.0
  0
SPLINE
  5
104
330
1F
100
AcDbEntity
  8
LINEE VISIBILI 2D
100
AcDbSpline
210
0.0
220
0.0
230
1.0
 70
    12
 71
     3
 72
    12
 73
     8
 74
     0
 42
0.0000000001
 43
0.0000000001
 40
-0.9995701533634515
 40
-0.9995701533634515
 40
-0.9995701533634515
 40
-0.9995701533634515
 40
-0.8345997106651584
 40
-0.8345997106651584
 40
-0.6604700066507798
 40
-0.6604700066507798
 40
-0.310070067926547
 40
-0.310070067926547
 40
-0.310070067926547
 40
-0.310070067926547
 10
67.08831977834701
 20
31.29314354901367
 30
0.0
 41
1.0
 10
66.91219793766429
 20
31.27951566516688
 30
0.0
 41
1.0
 10
66.63000792567955
 20
31.18147498300219
 30
0.0
 41
1.0
 10
66.01571940118568
 20
30.76542054813936
 30
0.0
 41
1.0
 10
65.68205295630035
 20
30.45075245352915
 30
0.0
 41
1.0
 10
64.54133366189423
 20
29.05721608225968
 30
0.0
 41
1.0
 10
63.60106672836899
 20
27.47147871514296
 30
0.0
 41
1.0
 10
62.82886442270292
 20
25.26273035593304
 30
0.0
 41
1.0
  0
SPLINE
  5
105
330
1F
100
AcDbEntity
  8
LINEE VISIBILI 2D
100
AcDbSpline
210
0.0
220
0.0
230
1.0
 70
    12
 71
     2
 72
     6
 73
     3
 74
     0
 42
0.0000000001
 43
0.0000000001
 40
0.0
 40
0.0
 40
0.0
 40
3.534560757219552
 40
3.534560757219552
 40
3.534560757219552
 10
62.82886442270292
 20
25.26273035593304
 30
0.0
 41
1.0
 10
62.24859832275222
 20
23.59019530551793
 30
0.0
 41
0.997414735477172
 10
61.91408000330016
 20
21.85175355050568
 30
0.0
 41
1.0
  0
SPLINE
  5
106
330
1F
100
AcDbEntity
  8
LINEE VISIBILI 2D
100
AcDbSpline
210
0.0
220
0.0
230
1.0
 70
    12
 71
     2
 72
     6
 73
     3
 74
     0
 42
0.0000000001
 43
0.0000000001
 40
0.0
 40
0.0
 40
0.0
 40
0.281093088789776
 40
0.281093088789776
 40
0.281093088789776
 10
61.91408000330016
 20
21.85175355050568
 30
0.0
 41
1.0
 10
61.7765728987499
 20
21.88124981795876
 30
0.0
 41
0.9990556573286021
 10
61.63702423305999
 20
21.89869698104142
 30
0.0
 41
1.0
  0
SPLINE
  5
107
330
1F
100
AcDbEntity
  8
LINEE VISIBILI 2D
100
AcDbSpline
210
0.0
220
0.0
230
1.0
 70
    12
 71
     3
 72
    10
 73
     6
 74
     0
 42
0.0000000001
 43
0.0000000001
 40
-0.999999999999986
 40
-0.999999999999986
 40
-0.999999999999986
 40
-0.999999999999986
 40
-0.4995607526248337
 40
-0.4995607526248337
 40
0.0
 40
0.0
 40
0.0
 40
0.0
 10
61.63702423305999
 20
21.89869698104142
 30
0.0
 41
1.0
 10
61.56140695129545
 20
21.90855113404151
 30
0.0
 41
1.0
 10
61.48459461196295
 20
21.94595480836373
 30
0.0
 41
1.0
 10
61.35855297519204
 20
22.01628732398632
 30
0.0
 41
1.0
 10
61.31115055840553
 20
22.04863036083927
 30
0.0
 41
1.0
 10
61.28207184531864
 20
22.0483250760832
 30
0.0
 41
1.0
  0
POLYLINE
  5
108
330
1F
100
AcDbEntity
  8
LINEE VISIBILI 2D
100
AcDb2dPolyline
 66
     1
 10
0.0
 20
0.0
 30
0.0
  0
VERTEX
  5
10A
330
108
100
AcDbEntity
  8
LINEE VISIBILI 2D
100
AcDbVertex
100
AcDb2dVertex
 10
61.28207184531864
 20
22.0483250760832
 30
0.0
  0
VERTEX
  5
10B
330
108
100
AcDbEntity
  8
LINEE VISIBILI 2D
100
AcDbVertex
100
AcDb2dVertex
 10
61.2720943598638
 20
22.04749724091821
 30
0.0
  0
SEQEND
  5
109
330
108
100
AcDbEntity
  8
LINEE VISIBILI 2D
  0
SPLINE
  5
10C
330
1F
100
AcDbEntity
  8
LINEE VISIBILI 2D
100
AcDbSpline
210
0.0
220
0.0
230
1.0
 70
    12
 71
     2
 72
     6
 73
     3
 74
     0
 42
0.0000000001
 43
0.0000000001
 40
0.0
 40
0.0
 40
0.0
 40
0.2010428253522642
 40
0.2010428253522642
 40
0.2010428253522642
 10
61.2720943598638
 20
22.04749724091821
 30
0.0
 41
1.0
 10
61.17508516845916
 20
22.02114156518503
 30
0.0
 41
0.9999368811245696
 10
61.07750951287586
 20
21.99695242490106
 30
0.0
 41
1.0
  0
SPLINE
  5
10D
330
1F
100
AcDbEntity
  8
LINEE VISIBILI 2D
100
AcDbSpline
210
0.0
220
0.0
230
1.0
 70
    12
 71
     2
 72
     6
 73
     3
 74
     0
 42
0.0000000001
 43
0.0000000001
 40
0.2997165006344916
 40
0.2997165006344916
 40
0.2997165006344916
 40
4.773183251765278
 40
4.773183251765278
 40
4.773183251765278
 10
61.07750951287586
 20
21.99695242490106
 30
0.0
 41
0.9999998895208381
 10
58.84511896514081
 20
21.85761718921312
 30
0.0
 41
0.9999991202731847
 10
56.61309232341884
 20
21.71256892453318
 30
0.0
 41
1.0
  0
SPLINE
  5
10E
330
1F
100
AcDbEntity
  8
LINEE VISIBILI 2D
100
AcDbSpline
210
0.0
220
0.0
230
1.0
 70
    12
 71
     2
 72
     6
 73
     3
 74
     0
 42
0.0000000001
 43
0.0000000001
 40
0.0
 40
0.0
 40
0.0
 40
4.473466684040638
 40
4.473466684040638
 40
4.473466684040638
 10
56.61309232341884
 20
21.71256892453318
 30
0.0
 41
0.9999999999999944
 10
58.84511891198633
 20
21.85761716229232
 30
0.0
 41
0.9999991202856233
 10
61.07750941863371
 20
21.99695240397719
 30
0.0
 41
0.9999998895359931
  0
SPLINE
  5
10F
330
1F
100
AcDbEntity
  8
LINEE VISIBILI 2D
100
AcDbSpline
210
0.0
220
0.0
230
1.0
 70
    12
 71
     2
 72
     6
 73
     3
 74
     0
 42
0.0000000001
 43
0.0000000001
 40
0.0
 40
0.0
 40
0.0
 40
0.2010429222921434
 40
0.2010429222921434
 40
0.2010429222921434
 10
61.07750941863372
 20
21.99695240397719
 30
0.0
 41
1.0
 10
61.17508512167343
 20
22.02114155247889
 30
0.0
 41
0.9999368810673074
 10
61.2720943598638
 20
22.04749724090065
 30
0.0
 41
1.0
  0
LINE
  5
110
330
1F
100
AcDbEntity
  8
LINEE VISIBILI 2D
100
AcDbLine
 10
61.2720943598638
 20
22.04749724090065
 30
0.0
 11
61.2822768173624
 21
22.04832614808765
 31
0.0
  0
SPLINE
  5
111
330
1F
100
AcDbEntity
  8
LINEE VISIBILI 2D
100
AcDbSpline
210
0.0
220
0.0
230
1.0
 70
    12
 71
     3
 72
    10
 73
     6
 74
     0
 42
0.0000000001
 43
0.0000000001
 40
0.0
 40
0.0
 40
0.0
 40
0.0
 40
0.498798675220725
 40
0.498798675220725
 40
0.999999999999986
 40
0.999999999999986
 40
0.999999999999986
 40
0.999999999999986
 10
61.2822768173624
 20
22.04832614808765
 30
0.0
 41
1.0
 10
61.31136286540918
 20
22.04847853163811
 30
0.0
 41
1.0
 10
61.35866624141916
 20
22.01622770048263
 30
0.0
 41
1.0
 10
61.48454097976484
 20
21.94598114196532
 30
0.0
 41
1.0
 10
61.56138056091434
 20
21.9085545734939
 30
0.0
 41
1.0
 10
61.63702423305999
 20
21.89869698102387
 30
0.0
 41
1.0
  0
SPLINE
  5
112
330
1F
100
AcDbEntity
  8
LINEE VISIBILI 2D
100
AcDbSpline
210
0.0
220
0.0
230
1.0
 70
    12
 71
     2
 72
     6
 73
     3
 74
     0
 42
0.0000000001
 43
0.0000000001
 40
0.0
 40
0.0
 40
0.0
 40
0.2810930887897747
 40
0.2810930887897747
 40
0.2810930887897747
 10
61.63702423305999
 20
21.89869698102387
 30
0.0
 41
1.0
 10
61.77657289874988
 20
21.88124981794121
 30
0.0
 41
0.9990556573286027
 10
61.91408000330017
 20
21.85175355048814
 30
0.0
 41
1.0
  0
SPLINE
  5
113
330
1F
100
AcDbEntity
  8
LINEE VISIBILI 2D
100
AcDbSpline
210
0.0
220
0.0
230
1.0
 70
    12
 71
     2
 72
     6
 73
     3
 74
     0
 42
0.0000000001
 43
0.0000000001
 40
0.0
 40
0.0
 40
0.0
 40
3.534560757219557
 40
3.534560757219557
 40
3.534560757219557
 10
61.91408000330017
 20
21.85175355048814
 30
0.0
 41
1.0
 10
62.2485983227522
 20
23.59019530550039
 30
0.0
 41
0.997414735477172
 10
62.82886442270292
 20
25.2627303559155
 30
0.0
 41
1.0
  0
SPLINE
  5
114
330
1F
100
AcDbEntity
  8
LINEE VISIBILI 2D
100
AcDbSpline
210
0.0
220
0.0
230
1.0
 70
    12
 71
     3
 72
    12
 73
     8
 74
     0
 42
0.0000000001
 43
0.0000000001
 40
0.310070067926547
 40
0.310070067926547
 40
0.310070067926547
 40
0.310070067926547
 40
0.6604467516319689
 40
0.6604467516319689
 40
0.8346056240520514
 40
0.8346056240520514
 40
0.9995701533634515
 40
0.9995701533634515
 40
0.9995701533634515
 40
0.9995701533634515
 10
62.82886442270292
 20
25.2627303559155
 30
0.0
 41
1.0
 10
63.601015479623
 20
27.47133212713566
 30
0.0
 41
1.0
 10
64.54121148838082
 20
29.05701134436741
 30
0.0
 41
1.0
 10
65.68197511719008
 20
30.45068493520779
 30
0.0
 41
1.0
 10
66.01570032876678
 20
30.76541398065453
 30
0.0
 41
1.0
 10
66.63002780632407
 20
31.18148243248215
 30
0.0
 41
1.0
 10
66.91220417112693
 20
31.27951614763122
 30
0.0
 41
1.0
 10
67.08831977834195
 20
31.29314354901229
 30
0.0
 41
1.0
  0
SPLINE
  5
115
330
1F
100
AcDbEntity
  8
LINEE VISIBILI 2D
100
AcDbSpline
210
0.0
220
0.0
230
1.0
 70
    12
 71
     3
 72
    10
 73
     6
 74
     0
 42
0.0000000001
 43
0.0000000001
 40
-0.9993114154751024
 40
-0.9993114154751024
 40
-0.9993114154751024
 40
-0.9993114154751024
 40
-0.9439241831947379
 40
-0.9439241831947379
 40
-0.8879763331043169
 40
-0.8879763331043169
 40
-0.8879763331043169
 40
-0.8879763331043169
 10
67.08831977834195
 20
31.29314354901229
 30
0.0
 41
1.0
 10
67.15746935935123
 20
31.29816574951796
 30
0.0
 41
1.0
 10
67.25543659587576
 20
31.28634392537426
 30
0.0
 41
1.0
 10
67.46777704873928
 20
31.22914006166854
 30
0.0
 41
1.0
 10
67.57358080905097
 20
31.19611854120332
 30
0.0
 41
1.0
 10
67.78649146769989
 20
31.08955875112233
 30
0.0
 41
1.0
  0
SPLINE
  5
116
330
1F
100
AcDbEntity
  8
LINEE VISIBILI 2D
100
AcDbSpline
210
0.0
220
0.0
230
1.0
 70
    12
 71
     2
 72
     6
 73
     3
 74
     0
 42
0.0000000001
 43
0.0000000001
 40
-2.216750740159089
 40
-2.216750740159089
 40
-2.216750740159089
 40
0.0
 40
0.0
 40
0.0
 10
67.78649146769989
 20
31.08955875112233
 30
0.0
 41
1.0
 10
68.80158445036302
 20
30.56519130354615
 30
0.0
 41
0.9557564424148194
 10
69.34616012730221
 20
29.56079481031469
 30
0.0
 41
1.0
  0
SPLINE
  5
117
330
1F
100
AcDbEntity
  8
LINEE VISIBILI 2D
100
AcDbSpline
210
0.0
220
0.0
230
1.0
 70
    12
 71
     2
 72
     6
 73
     3
 74
     0
 42
0.0000000001
 43
0.0000000001
 40
-1.948204773676982
 40
-1.948204773676982
 40
-1.948204773676982
 40
0.0
 40
0.0
 40
0.0
 10
69.34616012730221
 20
29.56079481031469
 30
0.0
 41
1.0
 10
69.811457037592
 20
28.69233749052807
 30
0.0
 41
0.9831130014433137
 10
69.93310250723597
 20
27.71462500174044
 30
0.0
 41
1.0
  0
SPLINE
  5
118
330
1F
100
AcDbEntity
  8
LINEE VISIBILI 2D
100
AcDbSpline
210
0.0
220
0.0
230
1.0
 70
     8
 71
     2
 72
     6
 73
     3
 74
     0
 42
0.0000000001
 43
0.0000000001
 40
0.0
 40
0.0
 40
0.0
 40
1.0
 40
1.0
 40
1.0
 10
69.93310250723597
 20
27.71462500174044
 30
0.0
 10
70.0220150402689
 20
27.0
 30
0.0
 10
70.06926376711733
 20
26.0069150931089
 30
0.0
  0
SPLINE
  5
119
330
1F
100
AcDbEntity
  8
LINEE VISIBILI 2D
100
AcDbSpline
210
0.0
220
0.0
230
1.0
 70
    12
 71
     2
 72
     6
 73
     3
 74
     0
 42
0.0000000001
 43
0.0000000001
 40
0.0
 40
0.0
 40
0.0
 40
1.796089393523266
 40
1.796089393523266
 40
1.796089393523266
 10
70.06926376711733
 20
26.0069150931089
 30
0.0
 41
1.0
 10
70.10331843566892
 20
25.10949805536941
 30
0.0
 41
0.9999695145380162
 10
70.12335472469987
 20
24.21165864478579
 30
0.0
 41
1.0
  0
SPLINE
  5
11A
330
1F
100
AcDbEntity
  8
LINEE VISIBILI 2D
100
AcDbSpline
210
0.0
220
0.0
230
1.0
 70
    12
 71
     2
 72
     6
 73
     3
 74
     0
 42
0.0000000001
 43
0.0000000001
 40
-1.250787560383384
 40
-1.250787560383384
 40
-1.250787560383384
 40
0.0
 40
0.0
 40
0.0
 10
70.12335472469987
 20
24.21165864478579
 30
0.0
 41
1.0
 10
70.74814734575432
 20
24.24415521855189
 30
0.0
 41
0.9994166033514731
 10
71.3775080161616
 20
24.23392776960754
 30
0.0
 41
1.0
  0
SPLINE
  5
11B
330
1F
100
AcDbEntity
  8
LINEE VISIBILI 2D
100
AcDbSpline
210
0.0
220
0.0
230
1.0
 70
    12
 71
     2
 72
     6
 73
     3
 74
     0
 42
0.0000000001
 43
0.0000000001
 40
0.0
 40
0.0
 40
0.0
 40
3.047324070867714
 40
3.047324070867714
 40
3.047324070867714
 10
71.3775080161616
 20
24.23392776960754
 30
0.0
 41
1.0
 10
72.90400470432292
 20
24.2342775166988
 30
0.0
 41
0.9999999987767632
 10
74.42840837992688
 20
24.23349286681407
 30
0.0
 41
0.9999999993750783
  0
POLYLINE
  5
11C
330
1F
100
AcDbEntity
  8
LINEE VISIBILI 2D
100
AcDb2dPolyline
 66
     1
 10
0.0
 20
0.0
 30
0.0
  0
VERTEX
  5
11E
330
11C
100
AcDbEntity
  8
LINEE VISIBILI 2D
100
AcDbVertex
100
AcDb2dVertex
 10
74.42840837992688
 20
24.23349286681407
 30
0.0
  0
VERTEX
  5
11F
330
11C
100
AcDbEntity
  8
LINEE VISIBILI 2D
100
AcDbVertex
100
AcDb2dVertex
 10
74.42097703659377
 20
9.79601277249887
 30
0.0
  0
SEQEND
  5
11D
330
11C
100
AcDbEntity
  8
LINEE VISIBILI 2D
  0
SPLINE
  5
120
330
1F
100
AcDbEntity
  8
LINEE VISIBILI 2D
100
AcDbSpline
210
0.0
220
0.0
230
1.0
 70
    12
 71
     2
 72
     6
 73
     3
 74
     0
 42
0.0000000001
 43
0.0000000001
 40
1.052844229196023
 40
1.052844229196023
 40
1.052844229196023
 40
4.092772662410583
 40
4.092772662410583
 40
4.092772662410583
 10
74.42097703659377
 20
9.79601277249887
 30
0.0
 41
0.9999999993721851
 10
72.90024343564004
 20
9.796488659968313
 30
0.0
 41
0.9999999987797321
 10
71.37728810747562
 20
9.796837604941143
 30
0.0
 41
1.0
  0
SPLINE
  5
121
330
1F
100
AcDbEntity
  8
LINEE VISIBILI 2D
100
AcDbSpline
210
0.0
220
0.0
230
1.0
 70
    12
 71
     2
 72
     6
 73
     3
 74
     0
 42
0.0000000001
 43
0.0000000001
 40
-1.250347860968569
 40
-1.250347860968569
 40
-1.250347860968569
 40
0.0
 40
0.0
 40
0.0
 10
71.37728810747562
 20
9.796837604941143
 30
0.0
 41
1.0
 10
70.7479273327794
 20
9.786611695771734
 30
0.0
 41
0.9994162771432854
 10
70.12335472469998
 20
9.819106666916642
 30
0.0
 41
1.0
  0
SPLINE
  5
122
330
1F
100
AcDbEntity
  8
LINEE VISIBILI 2D
100
AcDbSpline
210
0.0
220
0.0
230
1.0
 70
    12
 71
     2
 72
     6
 73
     3
 74
     0
 42
0.0000000001
 43
0.0000000001
 40
0.0
 40
0.0
 40
0.0
 40
1.796089393536515
 40
1.796089393536515
 40
1.796089393536515
 10
70.12335472469998
 20
9.819106666916642
 30
0.0
 41
1.0
 10
70.10331843566915
 20
8.92126725632639
 30
0.0
 41
0.999969514538015
 10
70.06924716098986
 20
8.023437462300194
 30
0.0
 41
1.0
  0
SPLINE
  5
123
330
1F
100
AcDbEntity
  8
LINEE VISIBILI 2D
100
AcDbSpline
210
0.0
220
0.0
230
1.0
 70
    12
 71
     3
 72
    10
 73
     6
 74
     0
 42
0.0000000001
 43
0.0000000001
 40
0.000157535132796
 40
0.000157535132796
 40
0.000157535132796
 40
0.000157535132796
 40
0.5049330190552208
 40
0.5049330190552208
 40
0.999999999999995
 40
0.999999999999995
 40
0.999999999999995
 40
0.999999999999995
 10
70.06924716098986
 20
8.023437462300194
 30
0.0
 41
1.0
 10
70.03375293351566
 20
7.141397726625331
 30
0.0
 41
1.0
 10
69.98346707540647
 20
6.509468052096493
 30
0.0
 41
1.0
 10
69.74856544204606
 20
5.356035232699764
 30
0.0
 41
1.0
 10
69.58824725901819
 20
4.911385910999169
 30
0.0
 41
1.0
 10
69.34616012730221
 20
4.469970501374449
 30
0.0
 41
1.0
  0
SPLINE
  5
124
330
1F
100
AcDbEntity
  8
LINEE VISIBILI 2D
100
AcDbSpline
210
0.0
220
0.0
230
1.0
 70
    12
 71
     2
 72
     6
 73
     3
 74
     0
 42
0.0000000001
 43
0.0000000001
 40
-2.216750742121878
 40
-2.216750742121878
 40
-2.216750742121878
 40
0.0
 40
0.0
 40
0.0
 10
69.34616012730221
 20
4.469970501374449
 30
0.0
 41
1.0
 10
68.80158445775848
 20
3.465574000597139
 30
0.0
 41
0.9557564398149104
 10
67.78649146769884
 20
2.94120656056629
 30
0.0
 41
1.0
  0
SPLINE
  5
125
330
1F
100
AcDbEntity
  8
LINEE VISIBILI 2D
100
AcDbSpline
210
0.0
220
0.0
230
1.0
 70
    12
 71
     3
 72
    10
 73
     6
 74
     0
 42
0.0000000001
 43
0.0000000001
 40
0.8879763331046506
 40
0.8879763331046506
 40
0.8879763331046506
 40
0.8879763331046506
 40
0.9439200889187636
 40
0.9439200889187636
 40
0.9993114154750999
 40
0.9993114154750999
 40
0.9993114154750999
 40
0.9993114154750999
 10
67.78649146769884
 20
2.94120656056629
 30
0.0
 41
1.0
 10
67.57359638989944
 20
2.834654568554605
 30
0.0
 41
1.0
 10
67.46779628965167
 20
2.801632300938977
 30
0.0
 41
1.0
 10
67.25544862627122
 20
2.744422778639255
 30
0.0
 41
1.0
 10
67.15747430670352
 20
2.732599203300342
 30
0.0
 41
1.0
 10
67.08831977834701
 20
2.737621762693049
 30
0.0
 41
1.0
  0
SPLINE
  5
126
330
1F
100
AcDbEntity
  8
LINEE VISIBILI 2D
100
AcDbSpline
210
0.0
220
0.0
230
1.0
 70
    12
 71
     3
 72
    12
 73
     8
 74
     0
 42
0.0000000001
 43
0.0000000001
 40
-0.9995701533634515
 40
-0.9995701533634515
 40
-0.9995701533634515
 40
-0.9995701533634515
 40
-0.8345997106651584
 40
-0.8345997106651584
 40
-0.6604700066507798
 40
-0.6604700066507798
 40
-0.310070067926547
 40
-0.310070067926547
 40
-0.310070067926547
 40
-0.310070067926547
 10
67.08831977834701
 20
2.737621762693049
 30
0.0
 41
1.0
 10
66.91219793766429
 20
2.751249646539843
 30
0.0
 41
1.0
 10
66.63000792567955
 20
2.84929032870453
 30
0.0
 41
1.0
 10
66.01571940118568
 20
3.265344763567366
 30
0.0
 41
1.0
 10
65.68205295630035
 20
3.580012858177572
 30
0.0
 41
1.0
 10
64.54133366189423
 20
4.973549229447048
 30
0.0
 41
1.0
 10
63.60106672836899
 20
6.559286596563762
 30
0.0
 41
1.0
 10
62.82886442270292
 20
8.768034955773683
 30
0.0
 41
1.0
  0
SPLINE
  5
127
330
1F
100
AcDbEntity
  8
LINEE VISIBILI 2D
100
AcDbSpline
210
0.0
220
0.0
230
1.0
 70
    12
 71
     2
 72
     6
 73
     3
 74
     0
 42
0.0000000001
 43
0.0000000001
 40
0.0
 40
0.0
 40
0.0
 40
3.534560757219552
 40
3.534560757219552
 40
3.534560757219552
 10
62.82886442270292
 20
8.768034955773683
 30
0.0
 41
1.0
 10
62.24859832275222
 20
10.44057000618879
 30
0.0
 41
0.997414735477172
 10
61.91408000330016
 20
12.17901176120105
 30
0.0
 41
1.0
  0
SPLINE
  5
128
330
1F
100
AcDbEntity
  8
LINEE VISIBILI 2D
100
AcDbSpline
210
0.0
220
0.0
230
1.0
 70
    12
 71
     2
 72
     6
 73
     3
 74
     0
 42
0.0000000001
 43
0.0000000001
 40
0.0
 40
0.0
 40
0.0
 40
0.281093088789776
 40
0.281093088789776
 40
0.281093088789776
 10
61.91408000330016
 20
12.17901176120105
 30
0.0
 41
1.0
 10
61.7765728987499
 20
12.14951549374796
 30
0.0
 41
0.9990556573286021
 10
61.63702423305999
 20
12.13206833066531
 30
0.0
 41
1.0
  0
SPLINE
  5
129
330
1F
100
AcDbEntity
  8
LINEE VISIBILI 2D
100
AcDbSpline
210
0.0
220
0.0
230
1.0
 70
    12
 71
     3
 72
    10
 73
     6
 74
     0
 42
0.0000000001
 43
0.0000000001
 40
-0.999999999999986
 40
-0.999999999999986
 40
-0.999999999999986
 40
-0.999999999999986
 40
-0.4995607526248337
 40
-0.4995607526248337
 40
0.0
 40
0.0
 40
0.0
 40
0.0
 10
61.63702423305999
 20
12.13206833066531
 30
0.0
 41
1.0
 10
61.56140695129545
 20
12.12221417766521
 30
0.0
 41
1.0
 10
61.48459461196295
 20
12.084810503343
 30
0.0
 41
1.0
 10
61.35855297519204
 20
12.01447798772041
 30
0.0
 41
1.0
 10
61.31115055840553
 20
11.98213495086745
 30
0.0
 41
1.0
 10
61.28207184531864
 20
11.98244023562352
 30
0.0
 41
1.0
  0
POLYLINE
  5
12A
330
1F
100
AcDbEntity
  8
LINEE VISIBILI 2D
100
AcDb2dPolyline
 66
     1
 10
0.0
 20
0.0
 30
0.0
  0
VERTEX
  5
12C
330
12A
100
AcDbEntity
  8
LINEE VISIBILI 2D
100
AcDbVertex
100
AcDb2dVertex
 10
61.28207184531864
 20
11.98244023562352
 30
0.0
  0
VERTEX
  5
12D
330
12A
100
AcDbEntity
  8
LINEE VISIBILI 2D
100
AcDbVertex
100
AcDb2dVertex
 10
61.2720943598638
 20
11.98326807078851
 30
0.0
  0
SEQEND
  5
12B
330
12A
100
AcDbEntity
  8
LINEE VISIBILI 2D
  0
SPLINE
  5
12E
330
1F
100
AcDbEntity
  8
LINEE VISIBILI 2D
100
AcDbSpline
210
0.0
220
0.0
230
1.0
 70
    12
 71
     2
 72
     6
 73
     3
 74
     0
 42
0.0000000001
 43
0.0000000001
 40
0.0
 40
0.0
 40
0.0
 40
0.2010428253522642
 40
0.2010428253522642
 40
0.2010428253522642
 10
61.2720943598638
 20
11.98326807078851
 30
0.0
 41
1.0
 10
61.17508516845916
 20
12.0096237465217
 30
0.0
 41
0.9999368811245696
 10
61.07750951287586
 20
12.03381288680566
 30
0.0
 41
1.0
  0
SPLINE
  5
12F
330
1F
100
AcDbEntity
  8
LINEE VISIBILI 2D
100
AcDbSpline
210
0.0
220
0.0
230
1.0
 70
    12
 71
     2
 72
     6
 73
     3
 74
     0
 42
0.0000000001
 43
0.0000000001
 40
0.2997165006344916
 40
0.2997165006344916
 40
0.2997165006344916
 40
4.773183251765278
 40
4.773183251765278
 40
4.773183251765278
 10
61.07750951287586
 20
12.03381288680566
 30
0.0
 41
0.9999998895208381
 10
58.84511896514081
 20
12.1731481224936
 30
0.0
 41
0.9999991202731847
 10
56.61309233697752
 20
12.31819637755216
 30
0.0
 41
1.0
  0
SPLINE
  5
130
330
1F
100
AcDbEntity
  8
DEFAULT
100
AcDbSpline
210
0.0
220
0.0
230
1.0
 70
     8
 71
     3
 72
     8
 73
     4
 74
     0
 42
0.0000000001
 43
0.0000000001
 40
0.0
 40
0.0
 40
0.0
 40
0.0
 40
1.0
 40
1.0
 40
1.0
 40
1.0
 10
66.83749322156028
 20
32.24931991423899
 30
0.0000000000000005
 10
66.87986019057816
 20
32.25430174858887
 30
0.0000000000000005
 10
66.92091240572493
 20
32.25671536072662
 30
0.0000000000000005
 10
66.96059576621128
 20
32.25671536072623
 30
0.0000000000000004
  0
SPLINE
  5
131
330
1F
100
AcDbEntity
  8
DEFAULT
100
AcDbSpline
210
0.0
220
0.0
230
1.0
 70
     8
 71
     3
 72
    14
 73
    10
 74
     0
 42
0.0000000001
 43
0.0000000001
 40
0.0
 40
0.0
 40
0.0
 40
0.0
 40
0.2499999999999866
 40
0.2499999999999866
 40
0.4999999999999911
 40
0.4999999999999911
 40
0.7499999999999956
 40
0.7499999999999956
 40
1.0
 40
1.0
 40
1.0
 40
1.0
 10
66.96059576621128
 20
32.25671536072623
 30
0.0000000000000004
 10
67.30655106747672
 20
32.25671542836609
 30
0.0000000000000004
 10
67.74000958245945
 20
32.18904207771828
 30
0.0000000000000004
 10
68.6618674714379
 20
31.75478757264475
 30
0.0000000000000003
 10
69.14459859107818
 20
31.38751818766451
 30
0.0000000000000003
 10
70.0110629043926
 20
30.2313735558198
 30
0.0000000000000001
 10
70.39331396524402
 20
29.44761304633805
 30
0.0000000000000001
 10
71.00158492512115
 20
27.32754472958008
 30
-0.0000000000000001
 10
71.229595731321
 20
25.99921740638451
 30
-0.0000000000000002
 10
71.38281641305373
 20
24.2320248078735
 30
-0.0000000000000002
  0
POLYLINE
  5
132
330
1F
100
AcDbEntity
  8
DEFAULT
100
AcDb2dPolyline
 66
     1
 10
0.0
 20
0.0
 30
-0.0000000000000002
  0
VERTEX
  5
134
330
132
100
AcDbEntity
  8
DEFAULT
100
AcDbVertex
100
AcDb2dVertex
 10
71.38281641305373
 20
24.2320248078735
 30
-0.0000000000000002
  0
VERTEX
  5
135
330
132
100
AcDbEntity
  8
DEFAULT
100
AcDbVertex
100
AcDb2dVertex
 10
71.38876014301728
 20
24.16347195012414
 30
0.0
  0
SEQEND
  5
133
330
132
100
AcDbEntity
  8
DEFAULT
  0
POLYLINE
  5
136
330
1F
100
AcDbEntity
  8
DEFAULT
100
AcDb2dPolyline
 66
     1
 10
0.0
 20
0.0
 30
0.0
  0
VERTEX
  5
138
330
136
100
AcDbEntity
  8
DEFAULT
100
AcDbVertex
100
AcDb2dVertex
 10
71.38876014301728
 20
24.16347195012414
 30
0.0
  0
VERTEX
  5
139
330
136
100
AcDbEntity
  8
DEFAULT
100
AcDbVertex
100
AcDb2dVertex
 10
71.38876014301728
 20
24.0246488680667
 30
0.0
  0
SEQEND
  5
137
330
136
100
AcDbEntity
  8
DEFAULT
  0
SPLINE
  5
13A
330
1F
100
AcDbEntity
  8
DEFAULT
100
AcDbSpline
210
0.0
220
0.0
230
1.0
 70
     8
 71
     3
 72
    19
 73
    15
 74
     0
 42
0.0000000001
 43
0.0000000001
 40
0.0
 40
0.0
 40
0.0
 40
0.0
 40
0.333752592396625
 40
0.4496527378017073
 40
0.6426976809862084
 40
0.800013003461779
 40
0.8394968185864307
 40
0.8753776186523603
 40
0.9077544064744129
 40
0.9368004358601488
 40
0.9544265507648274
 40
0.9707605806080586
 40
0.9859132072702101
 40
1.0
 40
1.0
 40
1.0
 40
1.0
 10
61.27774725052937
 20
12.01947454915447
 30
0.0000000000000002
 10
61.61367718829989
 20
10.63268260314015
 30
0.0000000000000002
 10
62.06939576349727
 20
8.815365790033585
 30
0.0000000000000003
 10
63.04897777667888
 20
6.367109626925325
 30
0.0000000000000004
 10
63.88268845332802
 20
4.665385468751536
 30
0.0000000000000005
 10
64.7490821635799
 20
3.370105677177175
 30
0.0000000000000005
 10
65.34989724707488
 20
2.698514942097975
 30
0.0000000000000005
 10
65.64584290212723
 20
2.41250928324634
 30
0.0000000000000005
 10
65.92937287151874
 20
2.181260239432879
 30
0.0000000000000005
 10
66.17276544523612
 20
2.020425683640918
 30
0.0000000000000005
 10
66.37473429655869
 20
1.914361450413339
 30
0.0000000000000005
 10
66.53655691171541
 20
1.847736081582383
 30
0.0000000000000005
 10
66.68983442211989
 20
1.800524544081936
 30
0.0000000000000005
 10
66.78948443425612
 20
1.785069768816022
 30
0.0000000000000005
 10
66.83749322156025
 20
1.777624059551474
 30
0.0000000000000005
  0
SPLINE
  5
13B
330
1F
100
AcDbEntity
  8
DEFAULT
100
AcDbSpline
210
0.0
220
0.0
230
1.0
 70
    12
 71
     2
 72
     6
 73
     3
 74
     0
 42
0.0000000001
 43
0.0000000001
 40
0.0
 40
0.0
 40
0.0
 40
1.0
 40
1.0
 40
1.0
 10
66.83749322156025
 20
1.777624059551474
 30
0.0000000000000005
 41
1.0
 10
66.82595572874442
 20
2.11822297201778
 30
0.0000000000000004
 41
0.8868199277566329
 10
66.9823978424996
 20
2.399258810535395
 30
0.0000000000000004
 41
1.0
  0
SPLINE
  5
13C
330
1F
100
AcDbEntity
  8
DEFAULT
100
AcDbSpline
210
-7.890888373737471E-10
220
2.466105403843961E-10
230
1.0
 70
     8
 71
     3
 72
    11
 73
     7
 74
     0
 42
0.0000000001
 43
0.0000000001
 40
-1.0
 40
-1.0
 40
-1.0
 40
-1.0
 40
-0.7652712365677012
 40
-0.5305424733183902
 40
-0.0610849468197585
 40
0.0
 40
0.0
 40
0.0
 40
0.0
 10
66.9823978424996
 20
2.399258810535395
 30
0.0000000000000004
 10
66.99062907179724
 20
2.42559658447964
 30
0.0000000000000004
 10
67.00709153016102
 20
2.478272132409144
 30
0.0000000000000004
 10
67.04001644688113
 20
2.583623228248615
 30
0.0000000000000004
 10
67.06685219911024
 20
2.669490595179014
 30
0.0000000000000004
 10
67.08545672216054
 20
2.729020188155105
 30
0.0000000000000004
 10
67.08759879590711
 20
2.735874260489621
 30
0.0000000000000004
  0
SPLINE
  5
13D
330
1F
100
AcDbEntity
  8
DEFAULT
100
AcDbSpline
210
0.0
220
0.0
230
1.0
 70
     8
 71
     3
 72
     8
 73
     4
 74
     0
 42
0.0000000001
 43
0.0000000001
 40
0.0
 40
0.0
 40
0.0
 40
0.0
 40
1.0
 40
1.0
 40
1.0
 40
1.0
 10
67.08759879590711
 20
2.735874260489621
 30
0.0000000000000004
 10
67.08833966882595
 20
2.735818324007667
 30
0.0000000000000004
 10
67.08908049073372
 20
2.735762894424475
 30
0.0000000000000004
 10
67.0898213745295
 20
2.735709486390344
 30
0.0000000000000002
  0
POLYLINE
  5
13E
330
1F
100
AcDbEntity
  8
DEFAULT
100
AcDb2dPolyline
 66
     1
 10
0.0
 20
0.0
 30
0.0000000000000002
  0
VERTEX
  5
140
330
13E
100
AcDbEntity
  8
DEFAULT
100
AcDbVertex
100
AcDb2dVertex
 10
67.0898213745295
 20
2.735709486390344
 30
0.0000000000000002
  0
VERTEX
  5
141
330
13E
100
AcDbEntity
  8
DEFAULT
100
AcDbVertex
100
AcDb2dVertex
 10
67.33594319867375
 20
3.52827111016861
 30
0.0
  0
SEQEND
  5
13F
330
13E
100
AcDbEntity
  8
DEFAULT
  0
LINE
  5
142
330
1F
100
AcDbEntity
  8
PREDEFINITO
 62
     7
100
AcDbLine
 10
72.80749683659381
 20
25.93841645012414
 30
0.0
 11
72.67749683659382
 21
25.86336095012414
 31
0.0
  0
LINE
  5
143
330
1F
100
AcDbEntity
  8
PREDEFINITO
 62
     7
100
AcDbLine
 10
72.67749683659382
 20
25.86336095012414
 30
0.0
 11
72.5474968365938
 21
25.93841645012414
 31
0.0
  0
LINE
  5
144
330
1F
100
AcDbEntity
  8
PREDEFINITO
 62
     7
100
AcDbLine
 10
72.5474968365938
 20
25.93841645012414
 30
0.0
 11
72.5474968365938
 21
26.08852755012413
 31
0.0
  0
LINE
  5
145
330
1F
100
AcDbEntity
  8
PREDEFINITO
 62
     7
100
AcDbLine
 10
72.5474968365938
 20
26.08852755012413
 30
0.0
 11
72.67749683659382
 21
26.16358305012414
 31
0.0
  0
LINE
  5
146
330
1F
100
AcDbEntity
  8
PREDEFINITO
 62
     7
100
AcDbLine
 10
72.67749683659382
 20
26.16358305012414
 30
0.0
 11
72.80749683659381
 21
26.08852755012413
 31
0.0
  0
LINE
  5
147
330
1F
100
AcDbEntity
  8
PREDEFINITO
 62
     7
100
AcDbLine
 10
72.80749683659381
 20
26.08852755012413
 30
0.0
 11
72.80749683659381
 21
25.93841645012414
 31
0.0
  0
CIRCLE
  5
148
330
1F
100
AcDbEntity
  8
PREDEFINITO
 62
     7
100
AcDbCircle
 10
72.67749683659382
 20
26.01347195012414
 30
0.0
 40
0.3799999999999999
  0
SPLINE
  5
149
330
1F
100
AcDbEntity
  8
PREDEFINITO
 62
     7
100
AcDbSpline
210
0.0
220
0.0
230
1.0
 70
    11
 71
     3
 72
    22
 73
    18
 74
     0
 42
0.0000000001
 43
0.0000000001
 40
0.0
 40
0.0
 40
0.0
 40
0.0
 40
0.125
 40
0.125
 40
0.25
 40
0.25
 40
0.375
 40
0.375
 40
0.5
 40
0.5
 40
0.625
 40
0.625
 40
0.75
 40
0.75
 40
0.875
 40
0.875
 40
1.0
 40
1.0
 40
1.0
 40
1.0
 10
72.68888135715416
 20
25.55966337273749
 30
-0.0000000000000003
 10
72.8068140186577
 20
25.56352695778952
 30
-0.0000000000000003
 10
72.92055208280858
 20
25.61585358917016
 30
-0.0000000000000003
 10
73.07952645703146
 20
25.78648517421742
 30
-0.0000000000000003
 10
73.12374837144897
 20
25.90416762357336
 30
-0.0000000000000003
 10
73.11508655109769
 20
26.13843735890957
 30
-0.0000000000000003
 10
73.0623936236501
 20
26.25268685008898
 30
-0.0000000000000003
 10
72.89251425019431
 20
26.4111743315785
 30
-0.0000000000000003
 10
72.77419873460919
 20
26.4555674260178
 30
-0.0000000000000003
 10
72.5411445320802
 20
26.4475282784113
 30
-0.0000000000000003
 10
72.42656325206973
 20
26.39582594747897
 30
-0.0000000000000003
 10
72.26667579813305
 20
26.22410216651297
 30
-0.0000000000000003
 10
72.22316087335152
 20
26.10621239100337
 30
-0.0000000000000003
 10
72.2312747312519
 20
25.87413214836473
 30
-0.0000000000000003
 10
72.28362127725073
 20
25.75912527876734
 30
-0.0000000000000003
 10
72.45410234761765
 20
25.60019890688469
 30
-0.0000000000000003
 10
72.57094869565061
 20
25.55579978768546
 30
-0.0000000000000003
 10
72.68888135715416
 20
25.55966337273749
 30
-0.0000000000000003
  0
SPLINE
  5
14A
330
1F
100
AcDbEntity
  8
PREDEFINITO
 62
     7
100
AcDbSpline
210
0.0
220
0.0
230
1.0
 70
    11
 71
     3
 72
    22
 73
    18
 74
     0
 42
0.0000000001
 43
0.0000000001
 40
0.0
 40
0.0
 40
0.0
 40
0.0
 40
0.125
 40
0.125
 40
0.25
 40
0.25
 40
0.375
 40
0.375
 40
0.5
 40
0.5
 40
0.625
 40
0.625
 40
0.75
 40
0.75
 40
0.875
 40
0.875
 40
1.0
 40
1.0
 40
1.0
 40
1.0
 10
72.68888135715416
 20
8.467280601052236
 30
-0.0000000000000003
 10
72.8068140186577
 20
8.463417016000205
 30
-0.0000000000000003
 10
72.92055208280858
 20
8.411090384619566
 30
-0.0000000000000003
 10
73.07952645703146
 20
8.240458799572316
 30
-0.0000000000000003
 10
73.12374837144897
 20
8.122776350216366
 30
-0.0000000000000003
 10
73.11508655109769
 20
7.888506614880146
 30
-0.0000000000000003
 10
73.0623936236501
 20
7.774257123700757
 30
-0.0000000000000003
 10
72.89251425019431
 20
7.615769642211216
 30
-0.0000000000000003
 10
72.77419873460919
 20
7.571376547771916
 30
-0.0000000000000003
 10
72.5411445320802
 20
7.579415695378437
 30
-0.0000000000000003
 10
72.42656325206973
 20
7.631118026310757
 30
-0.0000000000000003
 10
72.26667579813305
 20
7.802841807276756
 30
-0.0000000000000003
 10
72.22316087335152
 20
7.920731582786347
 30
-0.0000000000000003
 10
72.2312747312519
 20
8.152811825424997
 30
-0.0000000000000003
 10
72.28362127725073
 20
8.267818695022386
 30
-0.0000000000000003
 10
72.45410234761765
 20
8.426745066905035
 30
-0.0000000000000003
 10
72.57094869565061
 20
8.471144186104267
 30
-0.0000000000000003
 10
72.68888135715416
 20
8.467280601052236
 30
-0.0000000000000003
  0
LINE
  5
14B
330
1F
100
AcDbEntity
  8
PREDEFINITO
 62
     7
100
AcDbLine
 10
71.34102017849709
 20
24.02453651137366
 30
0.0
 11
71.84186447280406
 21
24.02571525562287
 31
0.0
  0
LINE
  5
14C
330
1F
100
AcDbEntity
  8
PREDEFINITO
 62
     7
100
AcDbLine
 10
71.84186447280406
 20
24.02571525562287
 30
0.0
 11
71.84186447280406
 21
23.24270244186656
 31
0.0
  0
LINE
  5
14D
330
1F
100
AcDbEntity
  8
PREDEFINITO
 62
     7
100
AcDbLine
 10
71.84186447280406
 20
23.24270244186656
 30
0.0
 11
71.34102017849709
 21
23.24270244186656
 31
0.0
  0
LINE
  5
14E
330
1F
100
AcDbEntity
  8
PREDEFINITO
 62
     7
100
AcDbLine
 10
71.34102017849709
 20
23.24270244186656
 30
0.0
 11
71.34102017849709
 21
24.02453651137366
 31
0.0
  0
CIRCLE
  5
14F
330
1F
100
AcDbEntity
  8
PREDEFINITO
 62
     7
100
AcDbCircle
 10
72.67749683659382
 20
8.013472023665587
 30
0.0
 40
0.3799999999999999
  0
LINE
  5
150
330
1F
100
AcDbEntity
  8
PREDEFINITO
 62
     7
100
AcDbLine
 10
71.34102017849709
 20
10.00240746241606
 30
0.0
 11
71.84186447280406
 21
10.00122871816686
 31
0.0
  0
LINE
  5
151
330
1F
100
AcDbEntity
  8
PREDEFINITO
 62
     7
100
AcDbLine
 10
71.84186447280406
 20
10.00122871816686
 30
0.0
 11
71.84186447280406
 21
10.78424153192316
 31
0.0
  0
LINE
  5
152
330
1F
100
AcDbEntity
  8
PREDEFINITO
 62
     7
100
AcDbLine
 10
71.84186447280406
 20
10.78424153192316
 30
0.0
 11
71.34102017849709
 21
10.78424153192316
 31
0.0
  0
LINE
  5
153
330
1F
100
AcDbEntity
  8
PREDEFINITO
 62
     7
100
AcDbLine
 10
71.34102017849709
 20
10.78424153192316
 30
0.0
 11
71.34102017849709
 21
10.00240746241606
 31
0.0
  0
LINE
  5
154
330
1F
100
AcDbEntity
  8
PREDEFINITO
 62
     7
100
AcDbLine
 10
72.67749683659382
 20
8.163583023665584
 30
0.0
 11
72.5474968365938
 21
8.088527523665586
 31
0.0
  0
LINE
  5
155
330
1F
100
AcDbEntity
  8
PREDEFINITO
 62
     7
100
AcDbLine
 10
72.5474968365938
 20
8.088527523665586
 30
0.0
 11
72.5474968365938
 21
7.938416423665585
 31
0.0
  0
LINE
  5
156
330
1F
100
AcDbEntity
  8
PREDEFINITO
 62
     7
100
AcDbLine
 10
72.5474968365938
 20
7.938416423665585
 30
0.0
 11
72.67749683659382
 21
7.863360923665585
 31
0.0
  0
LINE
  5
157
330
1F
100
AcDbEntity
  8
PREDEFINITO
 62
     7
100
AcDbLine
 10
72.67749683659382
 20
7.863360923665585
 30
0.0
 11
72.80749683659381
 21
7.938416423665585
 31
0.0
  0
LINE
  5
158
330
1F
100
AcDbEntity
  8
PREDEFINITO
 62
     7
100
AcDbLine
 10
72.80749683659381
 20
7.938416423665585
 30
0.0
 11
72.80749683659381
 21
8.088527523665586
 31
0.0
  0
LINE
  5
159
330
1F
100
AcDbEntity
  8
PREDEFINITO
 62
     7
100
AcDbLine
 10
72.80749683659381
 20
8.088527523665586
 30
0.0
 11
72.67749683659382
 21
8.163583023665584
 31
0.0
  0
SPLINE
  5
15A
330
1F
100
AcDbEntity
  8
LINEE VISIBILI 2D
100
AcDbSpline
210
0.0
220
0.0
230
1.0
 70
    12
 71
     2
 72
     6
 73
     3
 74
     0
 42
0.0000000001
 43
0.0000000001
 40
0.0
 40
0.0
 40
0.0
 40
4.279439907540555
 40
4.279439907540555
 40
4.279439907540555
 10
21.27589537549627
 20
55.47172751023814
 30
0.0
 41
1.0
 10
19.15925966675355
 20
55.13075956966708
 30
0.0
 41
0.9970619180084274
 10
17.01538012386079
 20
55.11710799144307
 30
0.0
 41
0.9999999999999254
  0
SPLINE
  5
15B
330
1F
100
AcDbEntity
  8
LINEE VISIBILI 2D
100
AcDbSpline
210
0.0
220
0.0
230
1.0
 70
    12
 71
     2
 72
     6
 73
     3
 74
     0
 42
0.0000000001
 43
0.0000000001
 40
0.0
 40
0.0
 40
0.0
 40
4.279446868978488
 40
4.279446868978488
 40
4.279446868978488
 10
17.01538012386079
 20
55.11710799144307
 30
0.0
 41
0.999999999999925
 10
14.87149208806325
 20
55.13067265421567
 30
0.0
 41
0.9970588137126302
 10
12.75486233884033
 20
55.47172751023814
 30
0.0
 41
1.0
  0
SPLINE
  5
15C
330
1F
100
AcDbEntity
  8
LINEE VISIBILI 2D
100
AcDbSpline
210
0.0
220
0.0
230
1.0
 70
     8
 71
     3
 72
    23
 73
    19
 74
     0
 42
0.0000000001
 43
0.0000000001
 40
0.0
 40
0.0
 40
0.0
 40
0.0
 40
5.757243443108744
 40
8.572019445589236
 40
11.02506385746596
 40
12.85458213872731
 40
13.56030873203833
 40
14.11188151962711
 40
14.61199448540997
 40
15.05485621159041
 40
15.28671040955057
 40
15.51070391634786
 40
16.04929848173821
 40
17.45947917033803
 40
19.67739887804397
 40
22.00653635793369
 40
28.86952615656305
 40
32.26630405984609
 40
32.26630405984609
 40
32.26630405984609
 40
32.26630405984609
 10
12.75486233884033
 20
55.47172751023814
 30
0.0
 10
10.85921780623573
 20
55.77052504531862
 30
0.0
 10
8.072817015867589
 20
56.44481744905536
 30
0.0
 10
4.630460400980195
 20
57.74108355329977
 30
0.0
 10
2.505719380021644
 20
58.78959600162986
 30
0.0
 10
1.12070224380585
 20
59.72019567690992
 30
0.0
 10
0.3933998274275424
 20
60.4554817247202
 30
0.0
 10
0.078554641392647
 20
60.95507861632873
 30
0.0
 10
-0.037170446931963
 20
61.44945507471503
 30
0.0
 10
0.0534655547858093
 20
61.84303738855127
 30
0.0
 10
0.219779192838306
 20
62.09361455260167
 30
0.0
 10
0.4590003059222055
 20
62.32654626102566
 30
0.0
 10
1.105143399325958
 20
62.67069308536813
 30
0.0
 10
2.483994859519161
 20
62.91974432953578
 30
0.0
 10
4.467110750051771
 20
62.99042158817416
 30
0.0
 10
8.271117772388743
 20
62.91200028757547
 30
0.0
 10
12.46304459770304
 20
62.71725649155294
 30
0.0
 10
15.88319973717364
 20
62.6766675998797
 30
0.0
 10
17.01537885756196
 20
62.67494964580128
 30
0.0
  0
SPLINE
  5
15D
330
1F
100
AcDbEntity
  8
LINEE VISIBILI 2D
100
AcDbSpline
210
0.0
220
0.0
230
1.0
 70
     8
 71
     3
 72
    22
 73
    18
 74
     0
 42
0.0000000001
 43
0.0000000001
 40
0.0
 40
0.0
 40
0.0
 40
0.0
 40
3.802715685169995
 40
9.488747178231284
 40
11.03415998722412
 40
13.65415624942367
 40
14.97001390789099
 40
15.92577408112747
 40
16.6432715651309
 40
17.20563958906021
 40
17.99843611484
 40
18.56179557711904
 40
19.00304297539096
 40
20.44707148197154
 40
22.35260157073022
 40
27.15985222617473
 40
32.26633576023894
 40
32.26633576023894
 40
32.26633576023894
 40
32.26633576023894
 10
17.01537885721354
 20
62.67494964580129
 30
0.0
 10
18.28293961590756
 20
62.67537611436832
 30
0.0
 10
21.44582324635385
 20
62.72231884936123
 30
0.0
 10
25.12088289861645
 20
62.87642417075612
 30
0.0
 10
28.40313153339382
 20
62.97363585333613
 30
0.0
 10
30.23102674541723
 20
62.98158407273991
 30
0.0
 10
31.85871982278746
 20
62.86367402446726
 30
0.0
 10
32.83882568521096
 20
62.67044992538137
 30
0.0
 10
33.53302851925728
 20
62.38218384677383
 30
0.0
 10
34.03665689643882
 20
61.87304900986405
 30
0.0
 10
34.066458691091
 20
61.17882270803614
 30
0.0
 10
33.76855939406704
 20
60.65398941065358
 30
0.0
 10
33.25167498397626
 20
60.01924042357068
 30
0.0
 10
32.24546590173671
 20
59.2404436410816
 30
0.0
 10
29.87354666576397
 20
57.90365480223685
 30
0.0
 10
26.18132142202064
 20
56.49201188846035
 30
0.0
 10
22.95825965676812
 20
55.73498759073679
 30
0.0
 10
21.27589537549627
 20
55.47172751023814
 30
0.0
  0
ENDSEC
  0
SECTION
  2
OBJECTS
  0
DICTIONARY
  5
C
330
0
100
AcDbDictionary
281
     1
  3
ACAD_GROUP
350
D
  3
ACAD_LAYOUT
350
1A
  3
ACAD_MLEADERSTYLE
350
15F
  3
ACAD_MLINESTYLE
350
17
  3
ACAD_PLOTSETTINGS
350
19
  3
ACAD_PLOTSTYLENAME
350
E
  3
ACAD_SCALELIST
350
3B
  3
ACAD_TABLESTYLE
350
15E
  3
ACAD_VISUALSTYLE
350
2A
  0
DICTIONARY
  5
D
102
{ACAD_REACTORS
330
C
102
}
330
C
100
AcDbDictionary
281
     1
  0
DICTIONARY
  5
1A
102
{ACAD_REACTORS
330
C
102
}
330
C
100
AcDbDictionary
281
     1
  3
Layout1
350
1E
  3
Layout2
350
26
  3
Model
350
22
  0
DICTIONARY
  5
15F
102
{ACAD_REACTORS
330
C
102
}
330
C
100
AcDbDictionary
281
     1
  0
DICTIONARY
  5
17
102
{ACAD_REACTORS
330
C
102
}
330
C
100
AcDbDictionary
281
     1
  3
Standard
350
18
  0
DICTIONARY
  5
19
102
{ACAD_REACTORS
330
C
102
}
330
C
100
AcDbDictionary
281
     1
  0
ACDBDICTIONARYWDFLT
  5
E
102
{ACAD_REACTORS
330
C
102
}
330
C
100
AcDbDictionary
281
     1
  3
Normal
350
F
100
AcDbDictionaryWithDefault
340
F
  0
DICTIONARY
  5
3B
102
{ACAD_REACTORS
330
C
102
}
330
C
100
AcDbDictionary
281
     1
  3
A0
350
3C
  3
A1
350
3D
  3
A2
350
3E
  3
A3
350
3F
  3
A4
350
40
  3
A5
350
41
  3
A6
350
42
  3
A7
350
43
  3
A8
350
44
  3
A9
350
45
  3
B0
350
46
  3
B1
350
47
  3
B2
350
48
  3
B3
350
49
  3
B4
350
4A
  3
B5
350
4B
  3
B6
350
4C
  3
B7
350
4D
  3
B8
350
4E
  3
B9
350
4F
  3
C0
350
50
  3
C1
350
51
  3
C2
350
52
  3
C3
350
53
  3
C4
350
54
  3
C5
350
55
  3
C6
350
56
  3
C7
350
57
  3
C8
350
58
  3
C9
350
59
  3
D0
350
5A
  3
D1
350
5B
  3
D2
350
5C
  0
DICTIONARY
  5
15E
102
{ACAD_REACTORS
330
C
102
}
330
C
100
AcDbDictionary
281
     1
  0
DICTIONARY
  5
2A
102
{ACAD_REACTORS
330
C
102
}
330
C
100
AcDbDictionary
281
     1
  3
2dWireframe
350
2F
  3
3D Hidden
350
31
  3
3dWireframe
350
30
  3
Basic
350
32
  3
Brighten
350
36
  3
ColorChange
350
3A
  3
Conceptual
350
34
  3
Dim
350
35
  3
Facepattern
350
39
  3
Flat
350
2B
  3
FlatWithEdges
350
2C
  3
Gouraud
350
2D
  3
GouraudWithEdges
350
2E
  3
Linepattern
350
38
  3
Realistic
350
33
  3
Thicken
350
37
  0
LAYOUT
  5
1E
102
{ACAD_REACTORS
330
1A
102
}
330
1A
100
AcDbPlotSettings
  1

  2
none_device
  4

  6

 40
0.0
 41
0.0
 42
0.0
 43
0.0
 44
0.0
 45
0.0
 46
0.0
 47
0.0
 48
0.0
 49
0.0
140
0.0
141
0.0
142
1.0
143
1.0
 70
   688
 72
     0
 73
     0
 74
     5
  7

 75
    16
 76
     0
 77
     2
 78
   300
147
1.0
148
0.0
149
0.0
100
AcDbLayout
  1
Layout1
 70
     1
 71
     1
 10
0.0
 20
0.0
 11
12.0
 21
9.0
 12
0.0
 22
0.0
 32
0.0
 14
1.000000000000000E+20
 24
1.000000000000000E+20
 34
1.000000000000000E+20
 15
-1.000000000000000E+20
 25
-1.000000000000000E+20
 35
-1.000000000000000E+20
146
0.0
 13
0.0
 23
0.0
 33
0.0
 16
1.0
 26
0.0
 36
0.0
 17
0.0
 27
1.0
 37
0.0
 76
     0
330
1B
  0
LAYOUT
  5
26
102
{ACAD_REACTORS
330
1A
102
}
330
1A
100
AcDbPlotSettings
  1

  2
none_device
  4

  6

 40
0.0
 41
0.0
 42
0.0
 43
0.0
 44
0.0
 45
0.0
 46
0.0
 47
0.0
 48
0.0
 49
0.0
140
0.0
141
0.0
142
1.0
143
1.0
 70
   688
 72
     0
 73
     0
 74
     5
  7

 75
    16
 76
     0
 77
     2
 78
   300
147
1.0
148
0.0
149
0.0
100
AcDbLayout
  1
Layout2
 70
     1
 71
     2
 10
0.0
 20
0.0
 11
0.0
 21
0.0
 12
0.0
 22
0.0
 32
0.0
 14
0.0
 24
0.0
 34
0.0
 15
0.0
 25
0.0
 35
0.0
146
0.0
 13
0.0
 23
0.0
 33
0.0
 16
1.0
 26
0.0
 36
0.0
 17
0.0
 27
1.0
 37
0.0
 76
     0
330
23
  0
LAYOUT
  5
22
102
{ACAD_REACTORS
330
1A
102
}
330
1A
100
AcDbPlotSettings
  1

  2
none_device
  4

  6

 40
0.0
 41
0.0
 42
0.0
 43
0.0
 44
0.0
 45
0.0
 46
0.0
 47
0.0
 48
0.0
 49
0.0
140
0.0
141
0.0
142
1.0
143
1.0
 70
  1712
 72
     0
 73
     0
 74
     0
  7

 75
     0
 76
     0
 77
     2
 78
   300
147
1.0
148
0.0
149
0.0
100
AcDbLayout
  1
Model
 70
     1
 71
     0
 10
0.0
 20
0.0
 11
12.0
 21
9.0
 12
0.0
 22
0.0
 32
0.0
 14
-0.0006030235165634
 24
0.9621098654404406
 34
-0.0000000000000003
 15
77.28530241461753
 25
62.97047130154053
 35
0.0000000000000005
146
0.0
 13
0.0
 23
0.0
 33
0.0
 16
1.0
 26
0.0
 36
0.0
 17
0.0
 27
1.0
 37
0.0
 76
     0
330
1F
331
29
  0
MLINESTYLE
  5
18
102
{ACAD_REACTORS
330
17
102
}
330
17
100
AcDbMlineStyle
  2
Standard
 70
     0
  3

 62
   256
 51
90.0
 52
90.0
 71
     2
 49
0.5
 62
   256
  6
BYLAYER
 49
-0.5
 62
   256
  6
BYLAYER
  0
ACDBPLACEHOLDER
  5
F
102
{ACAD_REACTORS
330
E
102
}
330
E
  0
SCALE
  5
3C
102
{ACAD_REACTORS
330
3B
102
}
330
3B
100
AcDbScale
 70
     0
300
1:1
140
1.0
141
1.0
290
     1
  0
SCALE
  5
3D
102
{ACAD_REACTORS
330
3B
102
}
330
3B
100
AcDbScale
 70
     0
300
1:2
140
1.0
141
2.0
290
     0
  0
SCALE
  5
3E
102
{ACAD_REACTORS
330
3B
102
}
330
3B
100
AcDbScale
 70
     0
300
1:4
140
1.0
141
4.0
290
     0
  0
SCALE
  5
3F
102
{ACAD_REACTORS
330
3B
102
}
330
3B
100
AcDbScale
 70
     0
300
1:5
140
1.0
141
5.0
290
     0
  0
SCALE
  5
40
102
{ACAD_REACTORS
330
3B
102
}
330
3B
100
AcDbScale
 70
     0
300
1:8
140
1.0
141
8.0
290
     0
  0
SCALE
  5
41
102
{ACAD_REACTORS
330
3B
102
}
330
3B
100
AcDbScale
 70
     0
300
1:10
140
1.0
141
10.0
290
     0
  0
SCALE
  5
42
102
{ACAD_REACTORS
330
3B
102
}
330
3B
100
AcDbScale
 70
     0
300
1:16
140
1.0
141
16.0
290
     0
  0
SCALE
  5
43
102
{ACAD_REACTORS
330
3B
102
}
330
3B
100
AcDbScale
 70
     0
300
1:20
140
1.0
141
20.0
290
     0
  0
SCALE
  5
44
102
{ACAD_REACTORS
330
3B
102
}
330
3B
100
AcDbScale
 70
     0
300
1:30
140
1.0
141
30.0
290
     0
  0
SCALE
  5
45
102
{ACAD_REACTORS
330
3B
102
}
330
3B
100
AcDbScale
 70
     0
300
1:40
140
1.0
141
40.0
290
     0
  0
SCALE
  5
46
102
{ACAD_REACTORS
330
3B
102
}
330
3B
100
AcDbScale
 70
     0
300
1:50
140
1.0
141
50.0
290
     0
  0
SCALE
  5
47
102
{ACAD_REACTORS
330
3B
102
}
330
3B
100
AcDbScale
 70
     0
300
1:100
140
1.0
141
100.0
290
     0
  0
SCALE
  5
48
102
{ACAD_REACTORS
330
3B
102
}
330
3B
100
AcDbScale
 70
     0
300
2:1
140
2.0
141
1.0
290
     0
  0
SCALE
  5
49
102
{ACAD_REACTORS
330
3B
102
}
330
3B
100
AcDbScale
 70
     0
300
4:1
140
4.0
141
1.0
290
     0
  0
SCALE
  5
4A
102
{ACAD_REACTORS
330
3B
102
}
330
3B
100
AcDbScale
 70
     0
300
8:1
140
8.0
141
1.0
290
     0
  0
SCALE
  5
4B
102
{ACAD_REACTORS
330
3B
102
}
330
3B
100
AcDbScale
 70
     0
300
10:1
140
10.0
141
1.0
290
     0
  0
SCALE
  5
4C
102
{ACAD_REACTORS
330
3B
102
}
330
3B
100
AcDbScale
 70
     0
300
100:1
140
100.0
141
1.0
290
     0
  0
SCALE
  5
4D
102
{ACAD_REACTORS
330
3B
102
}
330
3B
100
AcDbScale
 70
     0
300
1/128" = 1'-0"
140
0.0078125
141
12.0
290
     0
  0
SCALE
  5
4E
102
{ACAD_REACTORS
330
3B
102
}
330
3B
100
AcDbScale
 70
     0
300
1/64" = 1'-0"
140
0.015625
141
12.0
290
     0
  0
SCALE
  5
4F
102
{ACAD_REACTORS
330
3B
102
}
330
3B
100
AcDbScale
 70
     0
300
1/32" = 1'-0"
140
0.03125
141
12.0
290
     0
  0
SCALE
  5
50
102
{ACAD_REACTORS
330
3B
102
}
330
3B
100
AcDbScale
 70
     0
300
1/16" = 1'-0"
140
0.0625
141
12.0
290
     0
  0
SCALE
  5
51
102
{ACAD_REACTORS
330
3B
102
}
330
3B
100
AcDbScale
 70
     0
300
3/32" = 1'-0"
140
0.09375
141
12.0
290
     0
  0
SCALE
  5
52
102
{ACAD_REACTORS
330
3B
102
}
330
3B
100
AcDbScale
 70
     0
300
1/8" = 1'-0"
140
0.125
141
12.0
290
     0
  0
SCALE
  5
53
102
{ACAD_REACTORS
330
3B
102
}
330
3B
100
AcDbScale
 70
     0
300
3/16" = 1'-0"
140
0.1875
141
12.0
290
     0
  0
SCALE
  5
54
102
{ACAD_REACTORS
330
3B
102
}
330
3B
100
AcDbScale
 70
     0
300
1/4" = 1'-0"
140
0.25
141
12.0
290
     0
  0
SCALE
  5
55
102
{ACAD_REACTORS
330
3B
102
}
330
3B
100
AcDbScale
 70
     0
300
3/8" = 1'-0"
140
0.375
141
12.0
290
     0
  0
SCALE
  5
56
102
{ACAD_REACTORS
330
3B
102
}
330
3B
100
AcDbScale
 70
     0
300
1/2" = 1'-0"
140
0.5
141
12.0
290
     0
  0
SCALE
  5
57
102
{ACAD_REACTORS
330
3B
102
}
330
3B
100
AcDbScale
 70
     0
300
3/4" = 1'-0"
140
0.75
141
12.0
290
     0
  0
SCALE
  5
58
102
{ACAD_REACTORS
330
3B
102
}
330
3B
100
AcDbScale
 70
     0
300
1" = 1'-0"
140
1.0
141
12.0
290
     0
  0
SCALE
  5
59
102
{ACAD_REACTORS
330
3B
102
}
330
3B
100
AcDbScale
 70
     0
300
1-1/2" = 1'-0"
140
1.5
141
12.0
290
     0
  0
SCALE
  5
5A
102
{ACAD_REACTORS
330
3B
102
}
330
3B
100
AcDbScale
 70
     0
300
3" = 1'-0"
140
3.0
141
12.0
290
     0
  0
SCALE
  5
5B
102
{ACAD_REACTORS
330
3B
102
}
330
3B
100
AcDbScale
 70
     0
300
6" = 1'-0"
140
6.0
141
12.0
290
     0
  0
SCALE
  5
5C
102
{ACAD_REACTORS
330
3B
102
}
330
3B
100
AcDbScale
 70
     0
300
1'-0" = 1'-0"
140
12.0
141
12.0
290
     0
  0
VISUALSTYLE
  5
2F
102
{ACAD_REACTORS
330
2A
102
}
330
2A
100
AcDbVisualStyle
  2
2dWireframe
 70
     4
 71
     0
 72
     2
 73
     0
 90
        0
 40
-0.6
 41
-30.0
 62
     5
 63
     7
421
 16777215
 74
     1
 91
        4
 64
     7
 65
   257
 75
     1
175
     1
 42
1.0
 92
        0
 66
   257
 43
1.0
 76
     1
 77
     6
 78
     2
 67
     7
 79
     5
170
     0
171
     0
290
     0
174
     0
 93
        1
 44
0.0
173
     0
291
     0
 45
0.0
1001
ACAD
1000
AcDbSavedByObjectVersion
1070
     0
  0
VISUALSTYLE
  5
31
102
{ACAD_REACTORS
330
2A
102
}
330
2A
100
AcDbVisualStyle
  2
3D Hidden
 70
     6
 71
     1
 72
     2
 73
     2
 90
        0
 40
-0.6
 41
-30.0
 62
     5
 63
     7
421
 16777215
 74
     2
 91
        2
 64
     7
 65
   257
 75
     2
175
     1
 42
40.0
 92
        0
 66
   257
 43
1.0
 76
     1
 77
     6
 78
     2
 67
     7
 79
     3
170
     0
171
     0
290
     0
174
     0
 93
        1
 44
0.0
173
     0
291
     0
 45
0.0
1001
ACAD
1000
AcDbSavedByObjectVersion
1070
     0
  0
VISUALSTYLE
  5
30
102
{ACAD_REACTORS
330
2A
102
}
330
2A
100
AcDbVisualStyle
  2
3dWireframe
 70
     5
 71
     0
 72
     2
 73
     0
 90
        0
 40
-0.6
 41
-30.0
 62
     5
 63
     7
421
 16777215
 74
     1
 91
        4
 64
     7
 65
   257
 75
     1
175
     1
 42
1.0
 92
        0
 66
   257
 43
1.0
 76
     1
 77
     6
 78
     2
 67
     7
 79
     5
170
     0
171
     0
290
     0
174
     0
 93
        1
 44
0.0
173
     0
291
     0
 45
0.0
1001
ACAD
1000
AcDbSavedByObjectVersion
1070
     0
  0
VISUALSTYLE
  5
32
102
{ACAD_REACTORS
330
2A
102
}
330
2A
100
AcDbVisualStyle
  2
Basic
 70
     7
 71
     1
 72
     0
 73
     1
 90
        0
 40
-0.6
 41
-30.0
 62
     5
 63
     7
421
 16777215
 74
     0
 91
        4
 64
     7
 65
   257
 75
     1
175
     1
 42
1.0
 92
        8
 66
     7
 43
1.0
 76
     1
 77
     6
 78
     2
 67
     7
 79
     5
170
     0
171
     0
290
     0
174
     0
 93
        1
 44
0.0
173
     0
291
     1
 45
0.0
1001
ACAD
1000
AcDbSavedByObjectVersion
1070
     0
  0
VISUALSTYLE
  5
36
102
{ACAD_REACTORS
330
2A
102
}
330
2A
100
AcDbVisualStyle
  2
Brighten
 70
    12
 71
     2
 72
     2
 73
     0
 90
        0
 40
-0.6
 41
-30.0
 62
     5
 63
     7
421
 16777215
 74
     1
 91
        4
 64
     7
 65
   257
 75
     1
175
     1
 42
1.0
 92
        8
 66
     7
 43
1.0
 76
     1
 77
     6
 78
     2
 67
     7
 79
     5
170
     0
171
     0
290
     0
174
     0
 93
        1
 44
50.0
173
     0
291
     1
 45
0.0
1001
ACAD
1000
AcDbSavedByObjectVersion
1070
     0
  0
VISUALSTYLE
  5
3A
102
{ACAD_REACTORS
330
2A
102
}
330
2A
100
AcDbVisualStyle
  2
ColorChange
 70
    16
 71
     2
 72
     2
 73
     3
 90
        0
 40
-0.6
 41
-30.0
 62
     5
 63
     8
421
  8421504
 74
     1
 91
        4
 64
     7
 65
   257
 75
     1
175
     1
 42
1.0
 92
        8
 66
     8
424
  8421504
 43
1.0
 76
     1
 77
     6
 78
     2
 67
     7
 79
     5
170
     0
171
     0
290
     0
174
     0
 93
        1
 44
0.0
173
     0
291
     1
 45
0.0
1001
ACAD
1000
AcDbSavedByObjectVersion
1070
     0
  0
VISUALSTYLE
  5
34
102
{ACAD_REACTORS
330
2A
102
}
330
2A
100
AcDbVisualStyle
  2
Conceptual
 70
     9
 71
     3
 72
     2
 73
     0
 90
        0
 40
-0.6
 41
-30.0
 62
     5
 63
     7
421
 16777215
 74
     2
 91
        2
 64
     7
 65
   257
 75
     1
175
     1
 42
40.0
 92
        8
 66
     7
 43
1.0
 76
     1
 77
     6
 78
     2
 67
     7
 79
     3
170
     0
171
     0
290
     0
174
     0
 93
        1
 44
0.0
173
     0
291
     0
 45
0.0
1001
ACAD
1000
AcDbSavedByObjectVersion
1070
     0
  0
VISUALSTYLE
  5
35
102
{ACAD_REACTORS
330
2A
102
}
330
2A
100
AcDbVisualStyle
  2
Dim
 70
    11
 71
     2
 72
     2
 73
     0
 90
        0
 40
-0.6
 41
-30.0
 62
     5
 63
     7
421
 16777215
 74
     1
 91
        4
 64
     7
 65
   257
 75
     1
175
     1
 42
1.0
 92
        8
 66
     7
 43
1.0
 76
     1
 77
     6
 78
     2
 67
     7
 79
     5
170
     0
171
     0
290
     0
174
     0
 93
        1
 44
-50.0
173
     0
291
     1
 45
0.0
1001
ACAD
1000
AcDbSavedByObjectVersion
1070
     0
  0
VISUALSTYLE
  5
39
102
{ACAD_REACTORS
330
2A
102
}
330
2A
100
AcDbVisualStyle
  2
Facepattern
 70
    15
 71
     2
 72
     2
 73
     0
 90
        0
 40
-0.6
 41
-30.0
 62
     5
 63
     7
421
 16777215
 74
     1
 91
        4
 64
     7
 65
   257
 75
     1
175
     1
 42
1.0
 92
        8
 66
     7
 43
1.0
 76
     1
 77
     6
 78
     2
 67
     7
 79
     5
170
     0
171
     0
290
     0
174
     0
 93
        1
 44
0.0
173
     0
291
     1
 45
0.0
1001
ACAD
1000
AcDbSavedByObjectVersion
1070
     0
  0
VISUALSTYLE
  5
2B
102
{ACAD_REACTORS
330
2A
102
}
330
2A
100
AcDbVisualStyle
  2
Flat
 70
     0
 71
     2
 72
     1
 73
     1
 90
        2
 40
-0.6
 41
30.0
 62
     5
 63
     7
421
 16777215
 74
     0
 91
        4
 64
     7
 65
   257
 75
     1
175
     1
 42
1.0
 92
        8
 66
     7
 43
1.0
 76
     1
 77
     6
 78
     2
 67
     7
 79
     5
170
     0
171
     0
290
     0
174
     0
 93
       13
 44
0.0
173
     0
291
     1
 45
0.0
1001
ACAD
1000
AcDbSavedByObjectVersion
1070
     0
  0
VISUALSTYLE
  5
2C
102
{ACAD_REACTORS
330
2A
102
}
330
2A
100
AcDbVisualStyle
  2
FlatWithEdges
 70
     1
 71
     2
 72
     1
 73
     1
 90
        2
 40
-0.6
 41
30.0
 62
     5
 63
     7
421
 16777215
 74
     1
 91
        4
 64
     7
 65
   257
 75
     1
175
     1
 42
1.0
 92
        0
 66
   257
 43
1.0
 76
     1
 77
     6
 78
     2
 67
     7
 79
     5
170
     0
171
     0
290
     0
174
     0
 93
       13
 44
0.0
173
     0
291
     1
 45
0.0
1001
ACAD
1000
AcDbSavedByObjectVersion
1070
     0
  0
VISUALSTYLE
  5
2D
102
{ACAD_REACTORS
330
2A
102
}
330
2A
100
AcDbVisualStyle
  2
Gouraud
 70
     2
 71
     2
 72
     2
 73
     1
 90
        2
 40
-0.6
 41
30.0
 62
     5
 63
     7
421
 16777215
 74
     0
 91
        4
 64
     7
 65
   257
 75
     1
175
     1
 42
1.0
 92
        0
 66
     7
 43
1.0
 76
     1
 77
     6
 78
     2
 67
     7
 79
     5
170
     0
171
     0
290
     0
174
     0
 93
       13
 44
0.0
173
     0
291
     1
 45
0.0
1001
ACAD
1000
AcDbSavedByObjectVersion
1070
     0
  0
VISUALSTYLE
  5
2E
102
{ACAD_REACTORS
330
2A
102
}
330
2A
100
AcDbVisualStyle
  2
GouraudWithEdges
 70
     3
 71
     2
 72
     2
 73
     1
 90
        2
 40
-0.6
 41
30.0
 62
     5
 63
     7
421
 16777215
 74
     1
 91
        4
 64
     7
 65
   257
 75
     1
175
     1
 42
1.0
 92
        0
 66
   257
 43
1.0
 76
     1
 77
     6
 78
     2
 67
     7
 79
     5
170
     0
171
     0
290
     0
174
     0
 93
       13
 44
0.0
173
     0
291
     1
 45
0.0
1001
ACAD
1000
AcDbSavedByObjectVersion
1070
     0
  0
VISUALSTYLE
  5
38
102
{ACAD_REACTORS
330
2A
102
}
330
2A
100
AcDbVisualStyle
  2
Linepattern
 70
    14
 71
     2
 72
     2
 73
     0
 90
        0
 40
-0.6
 41
-30.0
 62
     5
 63
     7
421
 16777215
 74
     1
 91
        4
 64
     7
 65
   257
 75
     7
175
     7
 42
1.0
 92
        8
 66
     7
 43
1.0
 76
     1
 77
     6
 78
     2
 67
     7
 79
     5
170
     0
171
     0
290
     0
174
     0
 93
        1
 44
0.0
173
     0
291
     1
 45
0.0
1001
ACAD
1000
AcDbSavedByObjectVersion
1070
     0
  0
VISUALSTYLE
  5
33
102
{ACAD_REACTORS
330
2A
102
}
330
2A
100
AcDbVisualStyle
  2
Realistic
 70
     8
 71
     2
 72
     2
 73
     0
 90
        0
 40
-0.6
 41
-30.0
 62
     5
 63
     7
421
 16777215
 74
     1
 91
        0
 64
     7
 65
   257
 75
     1
175
     1
 42
1.0
 92
        8
 66
     8
424
  7895160
 43
1.0
 76
     1
 77
     6
 78
     2
 67
     7
 79
     5
170
     0
171
     0
290
     0
174
     0
 93
       13
 44
0.0
173
     0
291
     0
 45
0.0
1001
ACAD
1000
AcDbSavedByObjectVersion
1070
     0
  0
VISUALSTYLE
  5
37
102
{ACAD_REACTORS
330
2A
102
}
330
2A
100
AcDbVisualStyle
  2
Thicken
 70
    13
 71
     2
 72
     2
 73
     0
 90
        0
 40
-0.6
 41
-30.0
 62
     5
 63
     7
421
 16777215
 74
     1
 91
        4
 64
     7
 65
   257
 75
     1
175
     1
 42
1.0
 92
       12
 66
     7
 43
1.0
 76
     1
 77
     6
 78
     2
 67
     7
 79
     5
170
     0
171
     0
290
     0
174
     0
 93
        1
 44
0.0
173
     0
291
     1
 45
0.0
1001
ACAD
1000
AcDbSavedByObjectVersion
1070
     0
  0
ENDSEC
  0
EOF
