  0
SECTION
  2
HEADER
  9
$ACADVER
  1
AC1009
  9
$INSBASE
 10
0.0
 20
0.0
 30
0.0
  9
$EXTMIN
 10
-101.1855339059327
 20
-1488.8067771173121
 30
0.0
  9
$EXTMAX
 10
726.79585672040685
 20
1190.424999999999
 30
0.0
  9
$LIMMIN
 10
0.0
 20
0.0
  9
$LIMMAX
 10
0.0
 20
0.0
  9
$ORTHOMODE
 70
     0
  9
$REGENMODE
 70
     1
  9
$FILLMODE
 70
     1
  9
$QTEXTMODE
 70
     0
  9
$MIRRTEXT
 70
     1
  9
$DRAGMODE
 70
     2
  9
$LTSCALE
 40
1.0
  9
$OSMODE
 70
    37
  9
$ATTMODE
 70
     1
  9
$TEXTSIZE
 40
0.0
  9
$TRACEWID
 40
0.05
  9
$TEXTSTYLE
  7
STANDARD
  9
$CLAYER
  8
0
  9
$CELTYPE
  6
CONTINUOUS
  9
$CECOLOR
 62
   256
  9
$DIMSCALE
 40
1.0
  9
$DIMASZ
 40
6.0
  9
$DIMEXO
 40
1.0
  9
$DIMDLI
 40
0.38
  9
$DIMRND
 40
0.0
  9
$DIMDLE
 40
1.0
  9
$DIMEXE
 40
0.18
  9
$DIMTP
 40
0.0
  9
$DIMTM
 40
0.0
  9
$DIMTXT
 40
3.5
  9
$DIMCEN
 40
0.09
  9
$DIMTSZ
 40
0.0
  9
$DIMTOL
 70
     0
  9
$DIMLIM
 70
     0
  9
$DIMTIH
 70
     1
  9
$DIMTOH
 70
     1
  9
$DIMSE1
 70
     0
  9
$DIMSE2
 70
     0
  9
$DIMTAD
 70
     1
  9
$DIMZIN
 70
     0
  9
$DIMBLK
  1

  9
$DIMASO
 70
     1
  9
$DIMSHO
 70
     1
  9
$DIMPOST
  1

  9
$DIMAPOST
  1

  9
$DIMALT
 70
     0
  9
$DIMALTD
 70
     2
  9
$DIMALTF
 40
0.0394
  9
$DIMLFAC
 40
1.0
  9
$DIMTOFL
 70
     0
  9
$DIMTVP
 40
0.0
  9
$DIMTIX
 70
     0
  9
$DIMSOXD
 70
     0
  9
$DIMSAH
 70
     0
  9
$DIMBLK1
  1

  9
$DIMBLK2
  1

  9
$DIMSTYLE
  2
STANDARD
  9
$DIMCLRD
 70
     0
  9
$DIMCLRE
 70
     0
  9
$DIMCLRT
 70
     0
  9
$DIMTFAC
 40
1.0
  9
$DIMGAP
 40
1.0
  9
$LUNITS
 70
     2
  9
$LUPREC
 70
     2
  9
$SKETCHINC
 40
0.1
  9
$FILLETRAD
 40
0.0
  9
$AUNITS
 70
     0
  9
$AUPREC
 70
     2
  9
$MENU
  1
acad
  9
$ELEVATION
 40
0.0
  9
$PELEVATION
 40
0.0
  9
$THICKNESS
 40
0.0
  9
$LIMCHECK
 70
     0
  9
$BLIPMODE
 70
     0
  9
$CHAMFERA
 40
0.0
  9
$CHAMFERB
 40
0.0
  9
$SKPOLY
 70
     0
  9
$TDCREATE
 40
2444972.041666667
  9
$TDUPDATE
 40
2453768.8509425581
  9
$TDINDWG
 40
0.0002951389
  9
$TDUSRTIMER
 40
0.0002951389
  9
$USRTIMER
 70
     1
  9
$ANGBASE
 50
0.0
  9
$ANGDIR
 70
     0
  9
$PDMODE
 70
     0
  9
$PDSIZE
 40
-1.0
  9
$PLINEWID
 40
0.0
  9
$COORDS
 70
     2
  9
$SPLFRAME
 70
     0
  9
$SPLINETYPE
 70
     6
  9
$SPLINESEGS
 70
     8
  9
$ATTDIA
 70
     0
  9
$ATTREQ
 70
     1
  9
$HANDLING
 70
     1
  9
$HANDSEED
  5
80
  9
$SURFTAB1
 70
     6
  9
$SURFTAB2
 70
     6
  9
$SURFTYPE
 70
     6
  9
$SURFU
 70
     6
  9
$SURFV
 70
     6
  9
$UCSNAME
  2

  9
$UCSORG
 10
0.0
 20
0.0
 30
0.0
  9
$UCSXDIR
 10
1.0
 20
0.0
 30
0.0
  9
$UCSYDIR
 10
0.0
 20
1.0
 30
0.0
  9
$PUCSNAME
  2

  9
$PUCSORG
 10
0.0
 20
0.0
 30
0.0
  9
$PUCSXDIR
 10
1.0
 20
0.0
 30
0.0
  9
$PUCSYDIR
 10
0.0
 20
1.0
 30
0.0
  9
$USERI1
 70
     0
  9
$USERI2
 70
     0
  9
$USERI3
 70
     0
  9
$USERI4
 70
     0
  9
$USERI5
 70
     0
  9
$USERR1
 40
0.0
  9
$USERR2
 40
0.0
  9
$USERR3
 40
0.0
  9
$USERR4
 40
0.0
  9
$USERR5
 40
0.0
  9
$WORLDVIEW
 70
     1
  9
$SHADEDGE
 70
     3
  9
$SHADEDIF
 70
    70
  9
$TILEMODE
 70
     1
  9
$MAXACTVP
 70
    16
  9
$PLIMCHECK
 70
     0
  9
$PEXTMIN
 10
1.0000000000000000E+020
 20
1.0000000000000000E+020
 30
1.0000000000000000E+020
  9
$PEXTMAX
 10
-1.0000000000000000E+020
 20
-1.0000000000000000E+020
 30
-1.0000000000000000E+020
  9
$PLIMMIN
 10
0.0
 20
0.0
  9
$PLIMMAX
 10
12.0
 20
9.0
  9
$UNITMODE
 70
     0
  9
$VISRETAIN
 70
     0
  9
$PLINEGEN
 70
     1
  9
$PSLTSCALE
 70
     1
  0
ENDSEC
  0
SECTION
  2
TABLES
  0
TABLE
  2
VPORT
 70
     2
  0
VPORT
  2
*ACTIVE
 70
     0
 10
0.0
 20
0.0
 11
1.0
 21
1.0
 12
457.57635405610313
 22
-149.1908885586563
 13
0.0
 23
0.0
 14
1.0
 24
1.0
 15
0.0
 25
0.0
 16
0.0
 26
0.0
 36
1.0
 17
0.0
 27
0.0
 37
0.0
 40
2701.1926933231912
 41
1.5695708712613781
 42
50.0
 43
0.0
 44
0.0
 50
0.0
 51
0.0
 71
     0
 72
  2000
 73
     1
 74
     1
 75
     0
 76
     0
 77
     0
 78
     0
  0
ENDTAB
  0
TABLE
  2
LTYPE
 70
     6
  0
LTYPE
  2
CONTINUOUS
 70
     0
  3
Solid line
 72
    65
 73
     0
 40
0.0
  0
LTYPE
  2
HIDDEN
 70
     0
  3
Hidden __ __ __ __ __ __ __ __ __ __ __ __ __ __
 72
    65
 73
     2
 40
1.905
 49
1.27
 49
-0.635
  0
LTYPE
  2
PHANTOM
 70
     0
  3
Phantom ______  __  __  ______  __  __  ______
 72
    65
 73
     6
 40
12.699999999999999
 49
6.3499999999999988
 49
-1.27
 49
1.27
 49
-1.27
 49
1.27
 49
-1.27
  0
LTYPE
  2
CENTER
 70
     0
  3
Center ____ _ ____ _ ____ _ ____ _ ____ _ ____
 72
    65
 73
     4
 40
10.16
 49
6.3499999999999988
 49
-1.27
 49
1.27
 49
-1.27
  0
LTYPE
  2
CENTERX2
 70
     0
  3
Center (2x) ________  __  ________  __  _____
 72
    65
 73
     4
 40
20.32
 49
12.699999999999999
 49
-2.54
 49
2.54
 49
-2.54
  0
LTYPE
  2
DOT2
 70
     0
  3
Dot (.5x) ........................................
 72
    65
 73
     2
 40
0.635
 49
0.0
 49
-0.635
  0
ENDTAB
  0
TABLE
  2
LAYER
 70
     2
  0
LAYER
  2
0
 70
     0
 62
     7
  6
CONTINUOUS
  0
LAYER
  2
DEFPOINTS
 70
     0
 62
     7
  6
CONTINUOUS
  0
ENDTAB
  0
TABLE
  2
STYLE
 70
     1
  0
STYLE
  2
STANDARD
 70
     0
 40
0.0
 41
1.0
 50
0.0
 71
     0
 42
0.0
  3
Century Gothic
  4

  0
ENDTAB
  0
TABLE
  2
VIEW
 70
     0
  0
ENDTAB
  0
TABLE
  2
UCS
 70
     0
  0
ENDTAB
  0
TABLE
  2
APPID
 70
     2
  0
APPID
  2
ACAD
 70
     0
  0
APPID
  2
DCO15
 70
     0
  0
ENDTAB
  0
TABLE
  2
DIMSTYLE
 70
     1
  0
DIMSTYLE
  2
STANDARD
 70
     0
  3

  4

  5

  6

  7

 40
1.0
 41
0.18
 42
0.0625
 43
0.38
 44
0.18
 45
0.0
 46
0.0
 47
0.0
 48
0.0
140
0.18
141
0.09
142
0.0
143
25.399999999999999
144
1.0
145
0.0
146
1.0
147
0.09
 71
     0
 72
     0
 73
     1
 74
     1
 75
     0
 76
     0
 77
     0
 78
     0
170
     0
171
     2
172
     0
173
     0
174
     0
175
     0
176
     0
177
     0
178
     0
  0
ENDTAB
  0
ENDSEC
  0
SECTION
  2
BLOCKS
  0
BLOCK
  8
0
  2
$MODEL_SPACE
 70
     0
 10
0.0
 20
0.0
 30
0.0
  3
$MODEL_SPACE
  1

  0
ENDBLK
  5
E
  8
0
  0
BLOCK
 67
     1
  8
0
  2
$PAPER_SPACE
 70
     0
 10
0.0
 20
0.0
 30
0.0
  3
$PAPER_SPACE
  1

  0
ENDBLK
  5
10
 67
     1
  8
0
  0
ENDSEC
  0
SECTION
  2
ENTITIES
  0
ARC
  5
27
  8
0
  6
CONTINUOUS
 62
     7
 10
234.84999999999999
 20
-803.57499999999936
 30
0.0
 40
5.0
 50
0.0
 51
90.0
  0
ARC
  5
28
  8
0
  6
CONTINUOUS
 62
     7
 10
-95.150000000000006
 20
-803.57499999999936
 30
0.0
 40
5.0000000000000142
 50
90.0
 51
180.0000000000004
  0
LINE
  5
29
  8
0
  6
CONTINUOUS
 62
     7
 10
239.84999999999999
 20
-854.57499999999936
 30
0.0
 11
239.84999999999999
 21
-803.57499999999936
 31
0.0
  0
LINE
  5
2A
  8
0
  6
CONTINUOUS
 62
     7
 10
-100.15000000000001
 20
-803.57499999999936
 30
0.0
 11
-100.15000000000001
 21
-854.57499999999936
 31
0.0
  0
LINE
  5
2B
  8
0
  6
CONTINUOUS
 62
     7
 10
238.34999999999999
 20
-859.57499999999948
 30
0.0
 11
238.34999999999999
 21
-854.57499999999936
 31
0.0
  0
LINE
  5
2C
  8
0
  6
CONTINUOUS
 62
     7
 10
-98.650000000000006
 20
-854.57499999999936
 30
0.0
 11
-98.650000000000006
 21
-859.57499999999948
 31
0.0
  0
LINE
  5
2D
  8
0
  6
CONTINUOUS
 62
     7
 10
47.350000000000442
 20
-859.57499999999948
 30
0.0
 11
47.350000000000442
 21
-866.57499999999925
 31
0.0
  0
LINE
  5
2E
  8
0
  6
CONTINUOUS
 62
     7
 10
92.350000000000449
 20
-866.57499999999925
 30
0.0
 11
92.350000000000449
 21
-859.57499999999948
 31
0.0
  0
LINE
  5
2F
  8
0
  6
CONTINUOUS
 62
     7
 10
-85.650000000000006
 20
-859.57499999999948
 30
0.0
 11
-85.650000000000006
 21
-866.57499999999925
 31
0.0
  0
LINE
  5
30
  8
0
  6
CONTINUOUS
 62
     7
 10
-40.65000000000002
 20
-866.57499999999925
 30
0.0
 11
-40.65000000000002
 21
-859.57499999999948
 31
0.0
  0
LINE
  5
31
  8
0
  6
CONTINUOUS
 62
     7
 10
180.34999999999999
 20
-859.57499999999948
 30
0.0
 11
180.34999999999999
 21
-866.57499999999925
 31
0.0
  0
LINE
  5
32
  8
0
  6
CONTINUOUS
 62
     7
 10
225.34999999999999
 20
-866.57499999999925
 30
0.0
 11
225.34999999999999
 21
-859.57499999999948
 31
0.0
  0
LINE
  5
33
  8
0
  6
CONTINUOUS
 62
     7
 10
144.84999999999991
 20
-797.57499999999925
 30
0.0
 11
144.84999999999991
 21
1115.424999999999
 31
0.0
  0
LINE
  5
34
  8
0
  6
CONTINUOUS
 62
     7
 10
-5.149999999999987
 20
1115.424999999999
 30
0.0
 11
-5.149999999999987
 21
-797.57499999999925
 31
0.0
  0
ARC
  5
35
  8
0
  6
CONTINUOUS
 62
     7
 10
69.849999999999994
 20
1115.424999999999
 30
0.0
 40
75.000000000000369
 50
0.0
 51
180.0000000000004
  0
LINE
  5
36
  8
0
  6
CONTINUOUS
 62
     7
 10
234.8499999999998
 20
-798.57499999999948
 30
0.0
 11
-95.149999999999594
 21
-798.57499999999948
 31
0.0
  0
LINE
  5
37
  8
0
  6
CONTINUOUS
 62
     7
 10
239.84999999999999
 20
-854.57499999999936
 30
0.0
 11
-100.15000000000001
 21
-854.57499999999936
 31
0.0
  0
LINE
  5
38
  8
0
  6
CONTINUOUS
 62
     7
 10
238.34999999999999
 20
-859.57499999999948
 30
0.0
 11
-98.650000000000006
 21
-859.57499999999948
 31
0.0
  0
LINE
  5
39
  8
0
  6
CONTINUOUS
 62
     7
 10
92.350000000000449
 20
-866.57499999999925
 30
0.0
 11
47.350000000000442
 21
-866.57499999999925
 31
0.0
  0
LINE
  5
3A
  8
0
  6
CONTINUOUS
 62
     7
 10
-40.65000000000002
 20
-866.57499999999925
 30
0.0
 11
-85.650000000000006
 21
-866.57499999999925
 31
0.0
  0
LINE
  5
3B
  8
0
  6
CONTINUOUS
 62
     7
 10
225.34999999999999
 20
-866.57499999999925
 30
0.0
 11
180.34999999999999
 21
-866.57499999999925
 31
0.0
  0
LINE
  5
3C
  8
0
  6
CONTINUOUS
 62
     7
 10
144.84999999999991
 20
-797.57499999999925
 30
0.0
 11
-5.149999999999987
 21
-797.57499999999925
 31
0.0
  0
LINE
  5
3D
  8
0
  6
PHANTOM
 62
     7
 10
239.84999999999999
 20
-803.57499999999936
 30
0.0
 11
-100.15000000000001
 21
-803.57499999999936
 31
0.0
  0
LINE
  5
3E
  8
0
  6
PHANTOM
 62
     7
 10
144.84999999999991
 20
1115.424999999999
 30
0.0
 11
-5.149999999999987
 21
1115.424999999999
 31
0.0
  0
CIRCLE
  5
3F
  8
0
  6
CONTINUOUS
 62
     7
 10
69.849999999999994
 20
-1318.8067771173121
 30
0.0
 40
169.99999999999969
  0
CIRCLE
  5
40
  8
0
  6
CONTINUOUS
 62
     7
 10
69.849999999999994
 20
-1318.8067771173189
 30
0.0
 40
75.0
  0
CIRCLE
  5
41
  8
0
  6
PHANTOM
 62
     7
 10
69.849999999999994
 20
-1318.8067771173121
 30
0.0
 40
165.0
  0
ARC
  5
42
  8
0
  6
CONTINUOUS
 62
     7
 10
720.76032281447408
 20
-803.57499999999936
 30
0.0
 40
5.0
 50
0.0
 51
90.0
  0
ARC
  5
43
  8
0
  6
CONTINUOUS
 62
     7
 10
390.76032281447402
 20
-803.57499999999936
 30
0.0
 40
5.0
 50
90.0
 51
180.0000000000004
  0
LINE
  5
44
  8
0
  6
CONTINUOUS
 62
     7
 10
725.76032281447397
 20
-854.57499999999936
 30
0.0
 11
725.76032281447397
 21
-803.57499999999936
 31
0.0
  0
LINE
  5
45
  8
0
  6
CONTINUOUS
 62
     7
 10
385.76032281447402
 20
-803.57499999999936
 30
0.0
 11
385.76032281447402
 21
-854.57499999999936
 31
0.0
  0
LINE
  5
46
  8
0
  6
CONTINUOUS
 62
     7
 10
724.26032281447408
 20
-859.57499999999948
 30
0.0
 11
724.26032281447408
 21
-854.57499999999936
 31
0.0
  0
LINE
  5
47
  8
0
  6
CONTINUOUS
 62
     7
 10
387.26032281447408
 20
-854.57499999999936
 30
0.0
 11
387.26032281447408
 21
-859.57499999999948
 31
0.0
  0
LINE
  5
48
  8
0
  6
CONTINUOUS
 62
     7
 10
533.26032281447453
 20
-859.57499999999948
 30
0.0
 11
533.26032281447453
 21
-866.57499999999925
 31
0.0
  0
LINE
  5
49
  8
0
  6
CONTINUOUS
 62
     7
 10
578.26032281447453
 20
-866.57499999999925
 30
0.0
 11
578.26032281447453
 21
-859.57499999999948
 31
0.0
  0
LINE
  5
4A
  8
0
  6
CONTINUOUS
 62
     7
 10
400.26032281447408
 20
-859.57499999999948
 30
0.0
 11
400.26032281447408
 21
-866.57499999999925
 31
0.0
  0
LINE
  5
4B
  8
0
  6
CONTINUOUS
 62
     7
 10
445.26032281447402
 20
-866.57499999999925
 30
0.0
 11
445.26032281447402
 21
-859.57499999999948
 31
0.0
  0
LINE
  5
4C
  8
0
  6
CONTINUOUS
 62
     7
 10
666.26032281447408
 20
-859.57499999999948
 30
0.0
 11
666.26032281447408
 21
-866.57499999999925
 31
0.0
  0
LINE
  5
4D
  8
0
  6
CONTINUOUS
 62
     7
 10
711.26032281447408
 20
-866.57499999999925
 30
0.0
 11
711.26032281447408
 21
-859.57499999999948
 31
0.0
  0
LINE
  5
4E
  8
0
  6
CONTINUOUS
 62
     7
 10
630.76032281447397
 20
-797.57499999999925
 30
0.0
 11
630.76032281447397
 21
1115.424999999999
 31
0.0
  0
LINE
  5
4F
  8
0
  6
CONTINUOUS
 62
     7
 10
480.76032281447408
 20
1115.424999999999
 30
0.0
 11
480.76032281447402
 21
-797.57499999999925
 31
0.0
  0
ARC
  5
50
  8
0
  6
CONTINUOUS
 62
     7
 10
555.76032281447397
 20
1115.424999999999
 30
0.0
 40
75.000000000000384
 50
0.0
 51
180.0000000000004
  0
LINE
  5
51
  8
0
  6
CONTINUOUS
 62
     7
 10
720.76032281259472
 20
-798.57499999999948
 30
0.0
 11
390.76032281447402
 21
-798.57499999999948
 31
0.0
  0
LINE
  5
52
  8
0
  6
CONTINUOUS
 62
     7
 10
725.76032281447397
 20
-854.57499999999936
 30
0.0
 11
385.76032281447402
 21
-854.57499999999936
 31
0.0
  0
LINE
  5
53
  8
0
  6
CONTINUOUS
 62
     7
 10
724.26032281447408
 20
-859.57499999999948
 30
0.0
 11
387.26032281447408
 21
-859.57499999999948
 31
0.0
  0
LINE
  5
54
  8
0
  6
CONTINUOUS
 62
     7
 10
578.26032281447453
 20
-866.57499999999925
 30
0.0
 11
533.26032281447453
 21
-866.57499999999925
 31
0.0
  0
LINE
  5
55
  8
0
  6
CONTINUOUS
 62
     7
 10
445.26032281447402
 20
-866.57499999999925
 30
0.0
 11
400.26032281447408
 21
-866.57499999999925
 31
0.0
  0
LINE
  5
56
  8
0
  6
CONTINUOUS
 62
     7
 10
711.26032281447408
 20
-866.57499999999925
 30
0.0
 11
666.26032281447408
 21
-866.57499999999925
 31
0.0
  0
LINE
  5
57
  8
0
  6
CONTINUOUS
 62
     7
 10
630.76032281447397
 20
-797.57499999999925
 30
0.0
 11
480.76032281447402
 21
-797.57499999999925
 31
0.0
  0
LINE
  5
58
  8
0
  6
PHANTOM
 62
     7
 10
725.76032281447397
 20
-803.57499999999936
 30
0.0
 11
385.76032281447402
 21
-803.57499999999936
 31
0.0
  0
LINE
  5
59
  8
0
  6
PHANTOM
 62
     7
 10
630.76032281447397
 20
1115.424999999999
 30
0.0
 11
480.76032281447408
 21
1115.424999999999
 31
0.0
  0
ENDSEC
  0
EOF
