  0
SECTION
  2
HEADER
  9
$ACADVER
  1
AC1015
  9
$ACADMAINTVER
 70
    20
  9
$DWGCODEPAGE
  3
ANSI_1252
  9
$INSBASE
 10
0.0
 20
0.0
 30
0.0
  9
$EXTMIN
 10
-462.39220007801
 20
-525.0978663829352
 30
0.0
  9
$EXTMAX
 10
257.218849083571
 20
380.5506419019401
 30
0.0
  9
$LIMMIN
 10
0.0
 20
0.0
  9
$LIMMAX
 10
0.0
 20
0.0
  9
$ORTHOMODE
 70
     0
  9
$REGENMODE
 70
     1
  9
$FILLMODE
 70
     1
  9
$QTEXTMODE
 70
     0
  9
$MIRRTEXT
 70
     1
  9
$LTSCALE
 40
1.0
  9
$ATTMODE
 70
     1
  9
$TEXTSIZE
 40
0.0
  9
$TRACEWID
 40
0.05
  9
$TEXTSTYLE
  7
STANDARD
  9
$CLAYER
  8
0
  9
$CELTYPE
  6
CONTINUOUS
  9
$CECOLOR
 62
   256
  9
$CELTSCALE
 40
1.0
  9
$DISPSILH
 70
     0
  9
$DIMSCALE
 40
1.0
  9
$DIMASZ
 40
6.0
  9
$DIMEXO
 40
1.0
  9
$DIMDLI
 40
0.38
  9
$DIMRND
 40
0.0
  9
$DIMDLE
 40
1.0
  9
$DIMEXE
 40
0.18
  9
$DIMTP
 40
0.0
  9
$DIMTM
 40
0.0
  9
$DIMTXT
 40
3.5
  9
$DIMCEN
 40
0.09
  9
$DIMTSZ
 40
0.0
  9
$DIMTOL
 70
     0
  9
$DIMLIM
 70
     0
  9
$DIMTIH
 70
     1
  9
$DIMTOH
 70
     1
  9
$DIMSE1
 70
     0
  9
$DIMSE2
 70
     0
  9
$DIMTAD
 70
     1
  9
$DIMZIN
 70
     0
  9
$DIMBLK
  1

  9
$DIMASO
 70
     1
  9
$DIMSHO
 70
     1
  9
$DIMPOST
  1

  9
$DIMAPOST
  1

  9
$DIMALT
 70
     0
  9
$DIMALTD
 70
     2
  9
$DIMALTF
 40
0.0394
  9
$DIMLFAC
 40
1.0
  9
$DIMTOFL
 70
     0
  9
$DIMTVP
 40
0.0
  9
$DIMTIX
 70
     0
  9
$DIMSOXD
 70
     0
  9
$DIMSAH
 70
     0
  9
$DIMBLK1
  1

  9
$DIMBLK2
  1

  9
$DIMSTYLE
  2
STANDARD
  9
$DIMCLRD
 70
     0
  9
$DIMCLRE
 70
     0
  9
$DIMCLRT
 70
     0
  9
$DIMTFAC
 40
1.0
  9
$DIMGAP
 40
1.0
  9
$DIMJUST
 70
     0
  9
$DIMSD1
 70
     0
  9
$DIMSD2
 70
     0
  9
$DIMTOLJ
 70
     1
  9
$DIMTZIN
 70
     0
  9
$DIMALTZ
 70
     0
  9
$DIMALTTZ
 70
     0
  9
$DIMUPT
 70
     0
  9
$DIMDEC
 70
     4
  9
$DIMTDEC
 70
     4
  9
$DIMALTU
 70
     2
  9
$DIMALTTD
 70
     2
  9
$DIMTXSTY
  7
STANDARD
  9
$DIMAUNIT
 70
     0
  9
$DIMADEC
 70
     0
  9
$DIMALTRND
 40
0.0
  9
$DIMAZIN
 70
     0
  9
$DIMDSEP
 70
    46
  9
$DIMATFIT
 70
     3
  9
$DIMFRAC
 70
     0
  9
$DIMLDRBLK
  1

  9
$DIMLUNIT
 70
     2
  9
$DIMLWD
 70
    -2
  9
$DIMLWE
 70
    -2
  9
$DIMTMOVE
 70
     0
  9
$LUNITS
 70
     2
  9
$LUPREC
 70
     2
  9
$SKETCHINC
 40
0.1
  9
$FILLETRAD
 40
0.0
  9
$AUNITS
 70
     0
  9
$AUPREC
 70
     2
  9
$MENU
  1
acad
  9
$ELEVATION
 40
0.0
  9
$PELEVATION
 40
0.0
  9
$THICKNESS
 40
0.0
  9
$LIMCHECK
 70
     0
  9
$CHAMFERA
 40
0.0
  9
$CHAMFERB
 40
0.0
  9
$CHAMFERC
 40
0.0
  9
$CHAMFERD
 40
0.0
  9
$SKPOLY
 70
     0
  9
$TDCREATE
 40
2444972.041666667
  9
$TDUCREATE
 40
2444972.000000000
  9
$TDUPDATE
 40
2453768.892004664
  9
$TDUUPDATE
 40
2453768.850337997
  9
$TDINDWG
 40
0.0007141551
  9
$TDUSRTIMER
 40
0.0007141551
  9
$USRTIMER
 70
     1
  9
$ANGBASE
 50
0.0
  9
$ANGDIR
 70
     0
  9
$PDMODE
 70
     0
  9
$PDSIZE
 40
-1.0
  9
$PLINEWID
 40
0.0
  9
$SPLFRAME
 70
     0
  9
$SPLINETYPE
 70
     6
  9
$SPLINESEGS
 70
     8
  9
$HANDSEED
  5
330
  9
$SURFTAB1
 70
     6
  9
$SURFTAB2
 70
     6
  9
$SURFTYPE
 70
     6
  9
$SURFU
 70
     6
  9
$SURFV
 70
     6
  9
$UCSBASE
  2

  9
$UCSNAME
  2

  9
$UCSORG
 10
0.0
 20
0.0
 30
0.0
  9
$UCSXDIR
 10
1.0
 20
0.0
 30
0.0
  9
$UCSYDIR
 10
0.0
 20
1.0
 30
0.0
  9
$UCSORTHOREF
  2

  9
$UCSORTHOVIEW
 70
     1
  9
$UCSORGTOP
 10
0.0
 20
0.0
 30
0.0
  9
$UCSORGBOTTOM
 10
0.0
 20
0.0
 30
0.0
  9
$UCSORGLEFT
 10
0.0
 20
0.0
 30
0.0
  9
$UCSORGRIGHT
 10
0.0
 20
0.0
 30
0.0
  9
$UCSORGFRONT
 10
0.0
 20
0.0
 30
0.0
  9
$UCSORGBACK
 10
0.0
 20
0.0
 30
0.0
  9
$PUCSBASE
  2

  9
$PUCSNAME
  2

  9
$PUCSORG
 10
0.0
 20
0.0
 30
0.0
  9
$PUCSXDIR
 10
1.0
 20
0.0
 30
0.0
  9
$PUCSYDIR
 10
0.0
 20
1.0
 30
0.0
  9
$PUCSORTHOREF
  2

  9
$PUCSORTHOVIEW
 70
     0
  9
$PUCSORGTOP
 10
0.0
 20
0.0
 30
0.0
  9
$PUCSORGBOTTOM
 10
0.0
 20
0.0
 30
0.0
  9
$PUCSORGLEFT
 10
0.0
 20
0.0
 30
0.0
  9
$PUCSORGRIGHT
 10
0.0
 20
0.0
 30
0.0
  9
$PUCSORGFRONT
 10
0.0
 20
0.0
 30
0.0
  9
$PUCSORGBACK
 10
0.0
 20
0.0
 30
0.0
  9
$USERI1
 70
     0
  9
$USERI2
 70
     0
  9
$USERI3
 70
     0
  9
$USERI4
 70
     0
  9
$USERI5
 70
     0
  9
$USERR1
 40
0.0
  9
$USERR2
 40
0.0
  9
$USERR3
 40
0.0
  9
$USERR4
 40
0.0
  9
$USERR5
 40
0.0
  9
$WORLDVIEW
 70
     1
  9
$SHADEDGE
 70
     3
  9
$SHADEDIF
 70
    70
  9
$TILEMODE
 70
     1
  9
$MAXACTVP
 70
    16
  9
$PINSBASE
 10
0.0
 20
0.0
 30
0.0
  9
$PLIMCHECK
 70
     0
  9
$PEXTMIN
 10
1.000000000000000E+20
 20
1.000000000000000E+20
 30
1.000000000000000E+20
  9
$PEXTMAX
 10
-1.000000000000000E+20
 20
-1.000000000000000E+20
 30
-1.000000000000000E+20
  9
$PLIMMIN
 10
0.0
 20
0.0
  9
$PLIMMAX
 10
12.0
 20
9.0
  9
$UNITMODE
 70
     0
  9
$VISRETAIN
 70
     0
  9
$PLINEGEN
 70
     1
  9
$PSLTSCALE
 70
     1
  9
$TREEDEPTH
 70
  3020
  9
$CMLSTYLE
  2
STANDARD
  9
$CMLJUST
 70
     0
  9
$CMLSCALE
 40
1.0
  9
$PROXYGRAPHICS
 70
     0
  9
$MEASUREMENT
 70
     0
  9
$CELWEIGHT
370
    -1
  9
$ENDCAPS
280
     0
  9
$JOINSTYLE
280
     0
  9
$LWDISPLAY
290
     0
  9
$INSUNITS
 70
     0
  9
$HYPERLINKBASE
  1

  9
$STYLESHEET
  1

  9
$XEDIT
290
     1
  9
$CEPSNTYPE
380
     0
  9
$PSTYLEMODE
290
     1
  9
$FINGERPRINTGUID
  2
{209DA3AE-DB18-4D63-BDA7-E1F8F5A131CE}
  9
$VERSIONGUID
  2
{1EF435D6-31E2-4BA5-8787-6F5F37A9D42D}
  9
$EXTNAMES
290
     1
  9
$PSVPSCALE
 40
0.0
  9
$OLESTARTUP
290
     0
  0
ENDSEC
  0
SECTION
  2
CLASSES
  0
CLASS
  1
IMAGE
  2
AcDbRasterImage
  3
ISM
 90
    32895
280
     0
281
     1
  0
CLASS
  1
DICTIONARYVAR
  2
AcDbDictionaryVar
  3
ObjectDBX Classes
 90
        0
280
     0
281
     0
  0
CLASS
  1
RASTERVARIABLES
  2
AcDbRasterVariables
  3
ISM
 90
    32768
280
     0
281
     0
  0
CLASS
  1
IMAGEDEF
  2
AcDbRasterImageDef
  3
ISM
 90
    32768
280
     0
281
     0
  0
CLASS
  1
IMAGEDEF_REACTOR
  2
AcDbRasterImageDefReactor
  3
ISM
 90
    32769
280
     0
281
     0
  0
CLASS
  1
IDBUFFER
  2
AcDbIdBuffer
  3
ObjectDBX Classes
 90
    32768
280
     0
281
     0
  0
CLASS
  1
SPATIAL_FILTER
  2
AcDbSpatialFilter
  3
ObjectDBX Classes
 90
    32768
280
     0
281
     0
  0
CLASS
  1
SORTENTSTABLE
  2
AcDbSortentsTable
  3
ObjectDBX Classes
 90
    32768
280
     0
281
     0
  0
CLASS
  1
LAYER_INDEX
  2
AcDbLayerIndex
  3
ObjectDBX Classes
 90
    32768
280
     0
281
     0
  0
CLASS
  1
SPATIAL_INDEX
  2
AcDbSpatialIndex
  3
ObjectDBX Classes
 90
    32768
280
     0
281
     0
  0
CLASS
  1
OBJECT_PTR
  2
CAseDLPNTableRecord
  3
ASE-LPNTableRecord
 90
    32769
280
     0
281
     0
  0
CLASS
  1
LAYOUT
  2
AcDbLayout
  3
ObjectDBX Classes
 90
        0
280
     0
281
     0
  0
CLASS
  1
PLOTSETTINGS
  2
AcDbPlotSettings
  3
ObjectDBX Classes
 90
    32768
280
     0
281
     0
  0
CLASS
  1
ACDBDICTIONARYWDFLT
  2
AcDbDictionaryWithDefault
  3
ObjectDBX Classes
 90
        0
280
     0
281
     0
  0
CLASS
  1
ACDBPLACEHOLDER
  2
AcDbPlaceHolder
  3
ObjectDBX Classes
 90
        0
280
     0
281
     0
  0
CLASS
  1
VBA_PROJECT
  2
AcDbVbaProject
  3
acad
 90
    32768
280
     0
281
     0
  0
CLASS
  1
WIPEOUT
  2
AcDbWipeout
  3
"WipeOut|Product Desc: Object Enabler for WipeOut entity^I^I^I^I^I^I|Company: Autodesk, Inc.^I^I^I^I^I^I|WEB Address: www.autodesk.com"
 90
    32895
280
     0
281
     1
  0
CLASS
  1
WIPEOUTVARIABLES
  2
AcDbWipeoutVariables
  3
"WipeOut|Product Desc:     WipeOut Dbx Application|Company:          Autodesk, Inc.|WEB Address:      www.autodesk.com"
 90
    32768
280
     0
281
     0
  0
CLASS
  1
RTEXT
  2
RText
  3
RText|AutoCAD Express Tool|expresstools@autodesk.com
 90
    32768
280
     0
281
     1
  0
CLASS
  1
ARCALIGNEDTEXT
  2
AcDbArcAlignedText
  3
ATEXT|AutoCAD Express Tool|expresstools@autodesk.com
 90
    32768
280
     0
281
     1
  0
ENDSEC
  0
SECTION
  2
TABLES
  0
TABLE
  2
VPORT
  5
7
330
0
100
AcDbSymbolTable
 70
     2
  0
VPORT
  5
328
330
7
100
AcDbSymbolTableRecord
100
AcDbViewportTableRecord
  2
*Active
 70
     0
 10
0.0
 20
0.0
 11
1.0
 21
1.0
 12
-58.88042596757919
 22
-65.72486403703123
 13
0.0
 23
0.0
 14
1.0
 24
1.0
 15
0.0
 25
0.0
 16
0.0
 26
0.0
 36
1.0
 17
0.0
 27
0.0
 37
0.0
 40
897.9925727329248
 41
1.569570871261378
 42
50.0
 43
0.0
 44
0.0
 50
0.0
 51
0.0
 71
     0
 72
  2000
 73
     1
 74
     1
 75
     0
 76
     0
 77
     0
 78
     0
281
     0
 65
     1
110
0.0
120
0.0
130
0.0
111
1.0
121
0.0
131
0.0
112
0.0
122
1.0
132
0.0
 79
     1
146
0.0
  0
ENDTAB
  0
TABLE
  2
LTYPE
  5
4
330
0
100
AcDbSymbolTable
 70
     6
  0
LTYPE
  5
11
330
4
100
AcDbSymbolTableRecord
100
AcDbLinetypeTableRecord
  2
BYBLOCK
 70
     0
  3

 72
    65
 73
     0
 40
0.0
  0
LTYPE
  5
12
330
4
100
AcDbSymbolTableRecord
100
AcDbLinetypeTableRecord
  2
BYLAYER
 70
     0
  3

 72
    65
 73
     0
 40
0.0
  0
LTYPE
  5
13
330
4
100
AcDbSymbolTableRecord
100
AcDbLinetypeTableRecord
  2
CONTINUOUS
 70
     0
  3
Solid line
 72
    65
 73
     0
 40
0.0
  0
LTYPE
  5
1E
330
4
100
AcDbSymbolTableRecord
100
AcDbLinetypeTableRecord
  2
HIDDEN
 70
     0
  3
Hidden __ __ __ __ __ __ __ __ __ __ __ __ __ __
 72
    65
 73
     2
 40
1.905
 49
1.27
 74
     0
 49
-0.635
 74
     0
  0
LTYPE
  5
1F
330
4
100
AcDbSymbolTableRecord
100
AcDbLinetypeTableRecord
  2
PHANTOM
 70
     0
  3
Phantom ______  __  __  ______  __  __  ______
 72
    65
 73
     6
 40
12.7
 49
6.349999999999999
 74
     0
 49
-1.27
 74
     0
 49
1.27
 74
     0
 49
-1.27
 74
     0
 49
1.27
 74
     0
 49
-1.27
 74
     0
  0
LTYPE
  5
20
330
4
100
AcDbSymbolTableRecord
100
AcDbLinetypeTableRecord
  2
CENTER
 70
     0
  3
Center ____ _ ____ _ ____ _ ____ _ ____ _ ____
 72
    65
 73
     4
 40
10.16
 49
6.349999999999999
 74
     0
 49
-1.27
 74
     0
 49
1.27
 74
     0
 49
-1.27
 74
     0
  0
LTYPE
  5
21
330
4
100
AcDbSymbolTableRecord
100
AcDbLinetypeTableRecord
  2
CENTERX2
 70
     0
  3
Center (2x) ________  __  ________  __  _____
 72
    65
 73
     4
 40
20.32
 49
12.7
 74
     0
 49
-2.54
 74
     0
 49
2.54
 74
     0
 49
-2.54
 74
     0
  0
LTYPE
  5
22
330
4
100
AcDbSymbolTableRecord
100
AcDbLinetypeTableRecord
  2
DOT2
 70
     0
  3
Dot (.5x) ........................................
 72
    65
 73
     2
 40
0.635
 49
0.0
 74
     0
 49
-0.635
 74
     0
  0
ENDTAB
  0
TABLE
  2
LAYER
  5
2
330
0
100
AcDbSymbolTable
 70
     2
  0
LAYER
  5
14
330
2
100
AcDbSymbolTableRecord
100
AcDbLayerTableRecord
  2
0
 70
     0
 62
     7
  6
CONTINUOUS
370
    -3
390
30D
  0
LAYER
  5
26
330
2
100
AcDbSymbolTableRecord
100
AcDbLayerTableRecord
  2
DEFPOINTS
 70
     0
 62
     7
  6
CONTINUOUS
290
     0
370
    -3
390
30D
  0
ENDTAB
  0
TABLE
  2
STYLE
  5
3
330
0
100
AcDbSymbolTable
 70
     1
  0
STYLE
  5
17
330
3
100
AcDbSymbolTableRecord
100
AcDbTextStyleTableRecord
  2
STANDARD
 70
     0
 40
0.0
 41
1.0
 50
0.0
 71
     0
 42
0.0
  3
Century Gothic
  4

  0
ENDTAB
  0
TABLE
  2
VIEW
  5
5
330
0
100
AcDbSymbolTable
 70
     0
  0
ENDTAB
  0
TABLE
  2
UCS
  5
6
330
0
100
AcDbSymbolTable
 70
     0
  0
ENDTAB
  0
TABLE
  2
APPID
  5
8
330
0
100
AcDbSymbolTable
 70
     2
  0
APPID
  5
16
330
8
100
AcDbSymbolTableRecord
100
AcDbRegAppTableRecord
  2
ACAD
 70
     0
  0
APPID
  5
318
330
8
100
AcDbSymbolTableRecord
100
AcDbRegAppTableRecord
  2
DCO15
 70
     0
  0
ENDTAB
  0
TABLE
  2
DIMSTYLE
  5
9
330
0
100
AcDbSymbolTable
 70
     1
100
AcDbDimStyleTable
 71
     0
  0
DIMSTYLE
105
18
330
9
100
AcDbSymbolTableRecord
100
AcDbDimStyleTableRecord
  2
STANDARD
 70
     0
289
     0
340
17
  0
ENDTAB
  0
TABLE
  2
BLOCK_RECORD
  5
1
330
0
100
AcDbSymbolTable
 70
     0
  0
BLOCK_RECORD
  5
A
330
1
100
AcDbSymbolTableRecord
100
AcDbBlockTableRecord
  2
*MODEL_SPACE
340
312
  0
BLOCK_RECORD
  5
B
330
1
100
AcDbSymbolTableRecord
100
AcDbBlockTableRecord
  2
*PAPER_SPACE
340
313
  0
ENDTAB
  0
ENDSEC
  0
SECTION
  2
BLOCKS
  0
BLOCK
  5
D
330
A
100
AcDbEntity
  8
0
100
AcDbBlockBegin
  2
*MODEL_SPACE
 70
     0
 10
0.0
 20
0.0
 30
0.0
  3
*MODEL_SPACE
  1

  0
ENDBLK
  5
E
330
A
100
AcDbEntity
  8
0
100
AcDbBlockEnd
  0
BLOCK
  5
F
330
B
100
AcDbEntity
 67
     1
  8
0
100
AcDbBlockBegin
  2
*PAPER_SPACE
 70
     0
 10
0.0
 20
0.0
 30
0.0
  3
*PAPER_SPACE
  1

  0
ENDBLK
  5
10
330
B
100
AcDbEntity
 67
     1
  8
0
100
AcDbBlockEnd
  0
ENDSEC
  0
SECTION
  2
ENTITIES
  0
LWPOLYLINE
  5
27
330
A
100
AcDbEntity
  8
0
  6
Continuous
 62
     7
100
AcDbPolyline
 90
        9
 70
   128
 43
0.0
 10
117.2145150758269
 20
191.056335165274
 10
117.2324383955547
 20
191.1938433648609
 10
117.0506442470737
 20
192.0671818562559
 10
116.6564052873619
 20
192.7650314884481
 10
116.1078442937406
 20
193.3334308459391
 10
115.3654076066279
 20
193.8351179400507
 10
114.2877429478106
 20
194.3170662419746
 10
112.8663662341264
 20
194.7324709108929
 10
112.7340437293022
 20
194.7574563159758
  0
LWPOLYLINE
  5
32
330
A
100
AcDbEntity
  8
0
  6
Continuous
 62
     7
100
AcDbPolyline
 90
        8
 70
   128
 43
0.0
 10
101.7340437293022
 20
194.7579818795279
 10
101.6099451311039
 20
194.7343940825231
 10
100.2797244181728
 20
194.3525654525256
 10
99.07956228035379
 20
193.8222360041673
 10
98.25912015152102
 20
193.2462717529979
 10
97.70426822317558
 20
192.6144970957628
 10
97.34436261837007
 20
191.8547670552085
 10
97.24877120111722
 20
191.103526402566
  0
LINE
  5
3C
330
A
100
AcDbEntity
  8
0
  6
Continuous
 62
     7
100
AcDbLine
 10
97.23404376456532
 20
191.1025637080294
 30
0.0
 11
97.23404372930222
 21
189.755908910537
 31
0.0
  0
LINE
  5
3D
330
A
100
AcDbEntity
  8
0
  6
Continuous
 62
     7
100
AcDbLine
 10
117.2340437293022
 20
189.755908910537
 30
0.0
 11
117.2340437293022
 21
191.1023320179657
 31
0.0
  0
ARC
  5
3E
330
A
100
AcDbEntity
  8
0
  6
Continuous
 62
     7
100
AcDbCircle
 10
107.234043729302
 20
231.6074882600186
 30
0.0
 40
5.500000000000014
100
AcDbArc
 50
0.0
 51
180.0000000000004
  0
LINE
  5
3F
330
A
100
AcDbEntity
  8
0
  6
Continuous
 62
     7
100
AcDbLine
 10
101.7340437293019
 20
231.6074882600186
 30
0.0
 11
101.7340437293022
 21
193.0779426459077
 31
0.0
  0
LINE
  5
40
330
A
100
AcDbEntity
  8
0
  6
Continuous
 62
     7
100
AcDbLine
 10
112.7340437293022
 20
193.0739455914227
 30
0.0
 11
112.734043729302
 21
231.6074882600186
 31
0.0
  0
ARC
  5
41
330
A
100
AcDbEntity
  8
0
  6
Continuous
 62
     7
100
AcDbCircle
 10
-83.53404372930269
 20
239.6739888057938
 30
0.0
 40
1.0
100
AcDbArc
 50
180.0000000000004
 51
320.4115930898226
  0
ARC
  5
42
330
A
100
AcDbEntity
  8
0
  6
Continuous
 62
     7
100
AcDbCircle
 10
-83.53404372930269
 20
378.5984287002918
 30
0.0
 40
1.0
100
AcDbArc
 50
39.58840691017826
 51
180.0000000000004
  0
ARC
  5
43
330
A
100
AcDbEntity
  8
0
  6
Continuous
 62
     7
100
AcDbCircle
 10
-167.5340437293027
 20
309.1362087530428
 30
0.0
 40
110.0
100
AcDbArc
 50
320.411593089824
 51
348.0115865013951
  0
ARC
  5
44
330
A
100
AcDbEntity
  8
0
  6
Continuous
 62
     7
100
AcDbCircle
 10
-167.5340437293027
 20
309.1362087530428
 30
0.0
 40
110.0
100
AcDbArc
 50
12.87764130666818
 51
39.58840691017684
  0
LINE
  5
45
330
A
100
AcDbEntity
  8
0
  6
Continuous
 62
     7
100
AcDbLine
 10
-92.53404372930265
 20
254.1362087530428
 30
0.0
 11
-84.53404372930265
 21
254.1362087530428
 31
0.0
  0
LINE
  5
46
330
A
100
AcDbEntity
  8
0
  6
Continuous
 62
     7
100
AcDbLine
 10
-84.53404372930265
 20
364.1362087530428
 30
0.0
 11
-92.53404372930265
 21
364.1362087530428
 31
0.0
  0
LINE
  5
47
330
A
100
AcDbEntity
  8
0
  6
Continuous
 62
     7
100
AcDbLine
 10
50.82151861912234
 20
181.919941352279
 30
0.0
 11
41.78928564896325
 21
180.327296828582
 31
0.0
  0
LINE
  5
48
330
A
100
AcDbEntity
  8
0
  6
Continuous
 62
     7
100
AcDbLine
 10
-19.6816320601029
 20
92.5373639856811
 30
0.0
 11
-18.08898753640598
 21
83.50513101552195
 31
0.0
  0
LINE
  5
49
330
A
100
AcDbEntity
  8
0
  6
Continuous
 62
     7
100
AcDbLine
 10
-18.08898753640598
 20
83.50513101552195
 30
0.0
 11
-17.10418012190796
 21
83.67878111298713
 31
0.0
  0
LINE
  5
4A
330
A
100
AcDbEntity
  8
0
  6
Continuous
 62
     7
100
AcDbLine
 10
50.99516871658755
 20
180.935133937781
 30
0.0
 11
50.82151861912234
 21
181.919941352279
 31
0.0
  0
ARC
  5
4B
330
A
100
AcDbEntity
  8
0
  6
Continuous
 62
     7
100
AcDbCircle
 10
42.13658584389357
 20
178.357681999586
 30
0.0
 40
1.999999999999934
100
AcDbArc
 50
100.0001116932255
 51
145.0001116932278
  0
ARC
  5
4C
330
A
100
AcDbEntity
  8
0
  6
Continuous
 62
     7
100
AcDbCircle
 10
-17.71201723110685
 20
92.88466418061156
 30
0.0
 40
1.999999999999967
100
AcDbArc
 50
145.0001116932263
 51
190.0001116932313
  0
LINE
  5
4D
330
A
100
AcDbEntity
  8
0
  6
Continuous
 62
     7
100
AcDbLine
 10
16.88330121585518
 20
145.7790075557475
 30
0.0
 11
8.937347914540733
 21
150.122027948669
 31
0.0
  0
LINE
  5
4E
330
A
100
AcDbEntity
  8
0
  6
Continuous
 62
     7
100
AcDbLine
 10
-2.534148875119587
 20
133.738964700155
 30
0.0
 11
4.264654747228771
 21
127.757637982382
 31
0.0
  0
LINE
  5
4F
330
A
100
AcDbEntity
  8
0
  6
Continuous
 62
     7
100
AcDbLine
 10
7.503410815833236
 20
148.0741450426047
 30
0.0
 11
-10.31358953138842
 21
157.4977589262008
 31
0.0
  0
LINE
  5
50
330
A
100
AcDbEntity
  8
0
  6
Continuous
 62
     7
100
AcDbLine
 10
-16.04933792621864
 20
149.3062273019437
 30
0.0
 11
-1.100211776412035
 21
135.7868476062191
 31
0.0
  0
ARC
  5
51
330
A
100
AcDbEntity
  8
0
  6
Continuous
 62
     7
100
AcDbCircle
 10
107.234043729302
 20
69.10748826001864
 30
0.0
 40
125.0
100
AcDbArc
 50
272.7512545888802
 51
0.0
  0
ARC
  5
52
330
A
100
AcDbEntity
  8
0
  6
Continuous
 62
     7
100
AcDbCircle
 10
107.234043729302
 20
69.10748826001864
 30
0.0
 40
125.0
100
AcDbArc
 50
173.2899676172992
 51
267.2487454111214
  0
ARC
  5
53
330
A
100
AcDbEntity
  8
0
  6
Continuous
 62
     7
100
AcDbCircle
 10
107.234043729302
 20
69.10748826001864
 30
0.0
 40
125.0
100
AcDbArc
 50
0.0
 51
86.18560157006902
  0
ARC
  5
54
330
A
100
AcDbEntity
  8
0
  6
Continuous
 62
     7
100
AcDbCircle
 10
107.234043729302
 20
69.10748826001864
 30
0.0
 40
125.0
100
AcDbArc
 50
93.85821502477586
 51
116.7218939339189
  0
ARC
  5
55
330
A
100
AcDbEntity
  8
0
  6
Continuous
 62
     7
100
AcDbCircle
 10
26.30002779901208
 20
209.7876404891284
 30
0.0
 40
66.33407152831472
100
AcDbArc
 50
180.0000000000004
 51
235.0001116932289
  0
ARC
  5
56
330
A
100
AcDbEntity
  8
0
  6
Continuous
 62
     7
100
AcDbCircle
 10
26.30002779901208
 20
209.7876404891284
 30
0.0
 40
71.33407152831472
100
AcDbArc
 50
180.0000000000004
 51
235.0001116932288
  0
LINE
  5
57
330
A
100
AcDbEntity
  8
0
  6
Continuous
 62
     7
100
AcDbLine
 10
-45.03404372930264
 20
280.3075601460687
 30
0.0
 11
-45.03404372930264
 21
209.7876404891284
 31
0.0
  0
LINE
  5
58
330
A
100
AcDbEntity
  8
0
  6
Continuous
 62
     7
100
AcDbLine
 10
-40.03404372930264
 20
209.7876404891284
 30
0.0
 11
-40.03404372930264
 21
278.3006923063993
 31
0.0
  0
LWPOLYLINE
  5
59
330
A
100
AcDbEntity
  8
0
  6
Continuous
 62
     7
100
AcDbPolyline
 90
        9
 70
   128
 43
0.0
 10
111.0220090186681
 20
191.9586526691213
 10
109.492102515981
 20
191.6742559155332
 10
107.7070057667166
 20
191.5456905430307
 10
105.8711562316423
 20
191.5875254110951
 10
104.1897747491441
 20
191.7945011346867
 10
102.8489591922228
 20
192.1435423064475
 10
101.9983896131642
 20
192.5963351677514
 10
101.735936295773
 20
193.1029678939791
 10
101.7415405795824
 20
193.1108128874161
  0
LWPOLYLINE
  5
64
330
A
100
AcDbEntity
  8
0
  6
Continuous
 62
     7
100
AcDbPolyline
 90
        4
 70
   128
 43
0.0
 10
112.6914279437354
 20
193.1072078595751
 10
112.5504769986399
 20
192.6726455106854
 10
111.7791159402429
 20
192.205185884039
 10
111.0220090186671
 20
191.9586526691218
  0
LINE
  5
6A
330
A
100
AcDbEntity
  8
0
  6
Continuous
 62
     7
100
AcDbLine
 10
-84.53404372930268
 20
239.6739888057938
 30
0.0
 11
-84.53404372930268
 21
378.5984287002918
 31
0.0
  0
LINE
  5
6B
330
A
100
AcDbEntity
  8
0
  6
Continuous
 62
     7
100
AcDbLine
 10
-92.53404372930265
 20
254.1362087530428
 30
0.0
 11
-92.53404372930265
 21
364.1362087530428
 31
0.0
  0
LINE
  5
6C
330
A
100
AcDbEntity
  8
0
  6
Continuous
 62
     7
100
AcDbLine
 10
50.82151861912234
 20
181.919941352279
 30
0.0
 11
-18.08898753640598
 21
83.50513101552195
 31
0.0
  0
LINE
  5
6D
330
A
100
AcDbEntity
  8
0
  6
Continuous
 62
     7
100
AcDbLine
 10
50.99516871658755
 20
180.935133937781
 30
0.0
 11
-17.10418012190796
 21
83.67878111298713
 31
0.0
  0
LINE
  5
6E
330
A
100
AcDbEntity
  8
0
  6
Continuous
 62
     7
100
AcDbLine
 10
-19.35032355595822
 20
94.03181385957751
 30
0.0
 11
40.49827951904222
 21
179.504831678552
 31
0.0
  0
LINE
  5
6F
330
A
100
AcDbEntity
  8
0
  6
Continuous
 62
     7
100
AcDbLine
 10
8.937347914540733
 20
150.122027948669
 30
0.0
 11
-2.534148875119587
 21
133.738964700155
 31
0.0
  0
LINE
  5
70
330
A
100
AcDbEntity
  8
0
  6
Continuous
 62
     7
100
AcDbLine
 10
-10.31358953138842
 20
157.4977589262008
 30
0.0
 11
-16.04933792621864
 21
149.3062273019437
 31
0.0
  0
LINE
  5
71
330
A
100
AcDbEntity
  8
0
  6
Continuous
 62
     7
100
AcDbLine
 10
107.234043729302
 20
-55.74842870029204
 30
0.0
 11
101.2340437293019
 21
-55.74842870029204
 31
0.0
  0
LINE
  5
72
330
A
100
AcDbEntity
  8
0
  6
Continuous
 62
     7
100
AcDbLine
 10
113.2340437293021
 20
-55.74842870029204
 30
0.0
 11
107.234043729302
 21
-55.74842870029204
 31
0.0
  0
LINE
  5
73
330
A
100
AcDbEntity
  8
0
  6
Continuous
 62
     7
100
AcDbLine
 10
121.0116596714955
 20
234.0601815010323
 30
0.0
 11
116.7782663198463
 21
236.3855096653288
 31
0.0
  0
LINE
  5
74
330
A
100
AcDbEntity
  8
0
  6
Continuous
 62
     7
100
AcDbLine
 10
-60.00171808830959
 20
286.3151890072158
 30
0.0
 11
101.7340437293018
 21
221.3987292239778
 31
0.0
  0
LINE
  5
75
330
A
100
AcDbEntity
  8
0
  6
Continuous
 62
     7
100
AcDbLine
 10
112.7340437293022
 20
216.983619976705
 30
0.0
 11
112.8993716565839
 21
216.9172617166529
 31
0.0
  0
ARC
  5
76
330
A
100
AcDbEntity
  8
0
  6
Continuous
 62
     7
100
AcDbCircle
 10
116.4380201374893
 20
225.7336082915435
 30
0.0
 40
9.500000000000023
100
AcDbArc
 50
248.1307781422881
 51
61.22078546532434
  0
ARC
  5
77
330
A
100
AcDbEntity
  8
0
  6
Continuous
 62
     7
100
AcDbCircle
 10
116.2968305794246
 20
235.5090282748563
 30
0.0
 40
0.999999999999995
100
AcDbArc
 50
61.22078546532387
 51
190.9057104670847
  0
ARC
  5
78
330
A
100
AcDbEntity
  8
0
  6
Continuous
 62
     7
100
AcDbCircle
 10
107.4593718272979
 20
233.8062884813293
 30
0.0
 40
8.0
100
AcDbArc
 50
311.249098674304
 51
10.90571046708429
  0
ARC
  5
79
330
A
100
AcDbEntity
  8
0
  6
Continuous
 62
     7
100
AcDbCircle
 10
107.4593718272979
 20
233.8062884813293
 30
0.0
 40
8.000000000000012
100
AcDbArc
 50
111.5358604635643
 51
224.3021921005617
  0
ARC
  5
7A
330
A
100
AcDbEntity
  8
0
  6
Continuous
 62
     7
100
AcDbCircle
 10
104.1556204389916
 20
242.1779804706624
 30
0.0
 40
0.9999999999999925
100
AcDbArc
 50
291.5358604635666
 51
61.2207854653238
  0
LINE
  5
7B
330
A
100
AcDbEntity
  8
0
  6
Continuous
 62
     7
100
AcDbLine
 10
104.6370561794133
 20
243.0544618611349
 30
0.0
 11
-60.3861055758127
 21
333.6987686655578
 31
0.0
  0
LWPOLYLINE
  5
7C
330
A
100
AcDbEntity
  8
0
  6
PHANTOM
 62
     7
100
AcDbPolyline
 90
       10
 70
   128
 43
0.0
 10
107.2340437293022
 20
188.3434562783208
 10
105.3415312856981
 20
188.3933127570265
 10
103.5174191726989
 20
188.5410802501034
 10
101.8276355547462
 20
188.7814180553472
 10
100.3332536144811
 20
189.1056397382824
 10
99.08828420879887
 20
189.5020270825363
 10
98.13772377575705
 20
189.9562536167105
 10
97.5159280460668
 20
190.4519024103843
 10
97.24537033747212
 20
190.9710594247538
 10
97.23404376456532
 20
191.1025637080294
  0
LWPOLYLINE
  5
88
330
A
100
AcDbEntity
  8
0
  6
PHANTOM
 62
     7
100
AcDbPolyline
 90
       10
 70
   128
 43
0.0
 10
117.2339035641943
 20
191.0877248651087
 10
117.2227171211323
 20
190.9710594247538
 10
116.9521594125376
 20
190.4519024103842
 10
116.3303636828473
 20
189.9562536167105
 10
115.3798032498055
 20
189.5020270825363
 10
114.1348338441232
 20
189.1056397382824
 10
112.6404519038581
 20
188.7814180553472
 10
110.9506682859054
 20
188.5410802501033
 10
109.1265561729062
 20
188.3933127570265
 10
107.2340437293022
 20
188.3434562783208
  0
LWPOLYLINE
  5
94
330
A
100
AcDbEntity
  8
0
  6
PHANTOM
 62
     7
100
AcDbPolyline
 90
       13
 70
   128
 43
0.0
 10
107.2340437293022
 20
190.8176112498349
 10
108.9538072509904
 20
190.8692120351612
 10
110.5931565417844
 20
191.0216015957683
 10
112.0754374508523
 20
191.267654365171
 10
113.3313401703233
 20
191.5958651893402
 10
114.3021400848704
 20
191.9908872949177
 10
114.942443669456
 20
192.4342498872823
 10
115.2223110401112
 20
192.9052218243772
 10
115.1286559096344
 20
193.3817809818716
 10
114.6658574878365
 20
193.8416439832184
 10
113.8555557145572
 20
194.2633081455756
 10
112.7356394001295
 20
194.6270569213577
 10
112.7340437293022
 20
194.627473810636
  0
LWPOLYLINE
  5
A3
330
A
100
AcDbEntity
  8
0
  6
PHANTOM
 62
     7
100
AcDbPolyline
 90
       13
 70
   128
 43
0.0
 10
101.7340437293021
 20
194.627473810636
 10
101.7324480584747
 20
194.6270569213577
 10
100.612531744047
 20
194.2633081455756
 10
99.80222997076783
 20
193.8416439832183
 10
99.33943154896999
 20
193.3817809818716
 10
99.24577641849323
 20
192.9052218243772
 10
99.52564378914846
 20
192.4342498872823
 10
100.165947373734
 20
191.9908872949177
 10
101.1367472882812
 20
191.5958651893401
 10
102.3926500077522
 20
191.267654365171
 10
103.8749309168202
 20
191.0216015957683
 10
105.5142802076141
 20
190.8692120351612
 10
107.2340437293022
 20
190.8176112498349
  0
LINE
  5
B2
330
A
100
AcDbEntity
  8
0
  6
PHANTOM
 62
     7
100
AcDbLine
 10
-82.76340152746783
 20
379.2356967732023
 30
0.0
 11
-82.76340152746783
 21
239.0367207328833
 31
0.0
  0
LINE
  5
B3
330
A
100
AcDbEntity
  8
0
  6
PHANTOM
 62
     7
100
AcDbLine
 10
41.78928564896325
 20
180.327296828582
 30
0.0
 11
-19.6816320601029
 21
92.5373639856811
 31
0.0
  0
LINE
  5
B4
330
A
100
AcDbEntity
  8
0
  6
PHANTOM
 62
     7
100
AcDbLine
 10
-42.53404372930264
 20
209.7876404891284
 30
0.0
 11
-40.03404372930264
 21
209.7876404891284
 31
0.0
  0
LINE
  5
B5
330
A
100
AcDbEntity
  8
0
  6
PHANTOM
 62
     7
100
AcDbLine
 10
-45.03404372930264
 20
209.7876404891284
 30
0.0
 11
-42.53404372930264
 21
209.7876404891284
 31
0.0
  0
LINE
  5
B6
330
A
100
AcDbEntity
  8
0
  6
Continuous
 62
     7
100
AcDbLine
 10
-362.3748427876036
 20
188.3434562783208
 30
0.0
 11
-362.0628456135325
 21
187.256460833344
 31
0.0
  0
LINE
  5
B7
330
A
100
AcDbEntity
  8
0
  6
Continuous
 62
     7
100
AcDbLine
 10
-342.6899601188753
 20
192.2547935976843
 30
0.0
 11
-343.1510445517505
 21
193.8612077576107
 31
0.0
  0
ARC
  5
B8
330
A
100
AcDbEntity
  8
0
  6
Continuous
 62
     7
100
AcDbCircle
 10
-345.0734243753357
 20
193.3094326096817
 30
0.0
 40
2.000000000000036
100
AcDbArc
 50
16.01491475121862
 51
106.0149147512186
  0
ARC
  5
B9
330
A
100
AcDbEntity
  8
0
  6
Continuous
 62
     7
100
AcDbCircle
 10
-360.4524629640184
 20
188.8952314262497
 30
0.0
 40
2.000000000000005
100
AcDbArc
 50
106.0149147512154
 51
196.014914751228
  0
ARC
  5
BA
330
A
100
AcDbEntity
  8
0
  6
Continuous
 62
     7
100
AcDbCircle
 10
-282.044304960884
 20
188.8952314262485
 30
0.0
 40
1.999999999999997
100
AcDbArc
 50
343.9850852487861
 51
73.98508524878107
  0
ARC
  5
BB
330
A
100
AcDbEntity
  8
0
  6
Continuous
 62
     7
100
AcDbCircle
 10
-297.4233435495665
 20
193.3094326096808
 30
0.0
 40
1.999999999999942
100
AcDbArc
 50
73.98508524878064
 51
163.9850852487849
  0
LINE
  5
BC
330
A
100
AcDbEntity
  8
0
  6
Continuous
 62
     7
100
AcDbLine
 10
-299.3457233731518
 20
193.8612077576097
 30
0.0
 11
-299.8068078060267
 21
192.2547935976843
 31
0.0
  0
LINE
  5
BD
330
A
100
AcDbEntity
  8
0
  6
Continuous
 62
     7
100
AcDbLine
 10
-280.4339223113695
 20
187.2564608333441
 30
0.0
 11
-280.1219251372986
 21
188.3434562783196
 31
0.0
  0
ARC
  5
BE
330
A
100
AcDbEntity
  8
0
  6
Continuous
 62
     7
100
AcDbCircle
 10
-321.2483839624509
 20
199.1074882600186
 30
0.0
 40
26.99999999999997
100
AcDbArc
 50
98.51962425414306
 51
189.6359000824354
  0
ARC
  5
BF
330
A
100
AcDbEntity
  8
0
  6
Continuous
 62
     7
100
AcDbCircle
 10
-321.2483839624509
 20
199.1074882600186
 30
0.0
 40
26.99999999999993
100
AcDbArc
 50
350.3444244701902
 51
81.48037574585693
  0
ARC
  5
C0
330
A
100
AcDbEntity
  8
0
  6
Continuous
 62
     7
100
AcDbCircle
 10
-321.2483839624509
 20
199.1074882600186
 30
0.0
 40
37.99999999999994
100
AcDbArc
 50
348.5185963773718
 51
0.0
  0
ARC
  5
C1
330
A
100
AcDbEntity
  8
0
  6
Continuous
 62
     7
100
AcDbCircle
 10
-321.2483839624509
 20
199.1074882600186
 30
0.0
 40
37.99999999999998
100
AcDbArc
 50
0.0
 51
191.479775495443
  0
ARC
  5
C2
330
A
100
AcDbEntity
  8
0
  6
Continuous
 62
     7
100
AcDbCircle
 10
-321.2483839624503
 20
309.1362087530428
 30
0.0
 40
70.46221994724908
100
AcDbArc
 50
180.0000000000004
 51
266.7456831250336
  0
ARC
  5
C3
330
A
100
AcDbEntity
  8
0
  6
Continuous
 62
     7
100
AcDbCircle
 10
-321.2483839624503
 20
309.1362087530428
 30
0.0
 40
70.46221994724908
100
AcDbArc
 50
273.2543168749681
 51
180.0000000000004
  0
ARC
  5
C4
330
A
100
AcDbEntity
  8
0
  6
Continuous
 62
     7
100
AcDbCircle
 10
-321.2483839624509
 20
69.10748826001864
 30
0.0
 40
125.0
100
AcDbArc
 50
272.7512545888802
 51
70.94257188398737
  0
ARC
  5
C5
330
A
100
AcDbEntity
  8
0
  6
Continuous
 62
     7
100
AcDbCircle
 10
-321.2483839624509
 20
69.10748826001864
 30
0.0
 40
125.0
100
AcDbArc
 50
80.12305984188964
 51
99.87694015811042
  0
ARC
  5
C6
330
A
100
AcDbEntity
  8
0
  6
Continuous
 62
     7
100
AcDbCircle
 10
-321.2483839624509
 20
69.10748826001864
 30
0.0
 40
125.0
100
AcDbArc
 50
109.0574281160127
 51
267.2487454111214
  0
LINE
  5
C7
330
A
100
AcDbEntity
  8
0
  6
Continuous
 62
     7
100
AcDbLine
 10
-325.248383962451
 20
216.2336082915435
 30
0.0
 11
-317.248383962451
 21
216.2336082915435
 31
0.0
  0
LINE
  5
C8
330
A
100
AcDbEntity
  8
0
  6
Continuous
 62
     7
100
AcDbLine
 10
-317.248383962451
 20
236.5090282748564
 30
0.0
 11
-325.248383962451
 21
236.5090282748564
 31
0.0
  0
LINE
  5
C9
330
A
100
AcDbEntity
  8
0
  6
Continuous
 62
     7
100
AcDbLine
 10
-318.7483839624504
 20
194.0824857595185
 30
0.0
 11
-318.7483839624504
 21
209.7876404891284
 31
0.0
  0
LINE
  5
CA
330
A
100
AcDbEntity
  8
0
  6
Continuous
 62
     7
100
AcDbLine
 10
-323.7483839624504
 20
209.7876404891284
 30
0.0
 11
-323.7483839624504
 21
194.0824857595185
 31
0.0
  0
LINE
  5
CB
330
A
100
AcDbEntity
  8
0
  6
Continuous
 62
     7
100
AcDbLine
 10
-323.7483839624504
 20
216.2336082915435
 30
0.0
 11
-323.7483839624504
 21
209.7876404891284
 31
0.0
  0
LINE
  5
CC
330
A
100
AcDbEntity
  8
0
  6
Continuous
 62
     7
100
AcDbLine
 10
-318.7483839624504
 20
209.7876404891284
 30
0.0
 11
-318.7483839624504
 21
216.2336082915435
 31
0.0
  0
LINE
  5
CD
330
A
100
AcDbEntity
  8
0
  6
Continuous
 62
     7
100
AcDbLine
 10
-361.0042381119473
 20
190.8176112498349
 30
0.0
 11
-345.6252004494932
 21
195.2318121674142
 31
0.0
  0
LINE
  5
CE
330
A
100
AcDbEntity
  8
0
  6
Continuous
 62
     7
100
AcDbLine
 10
-296.8715684016374
 20
195.231812433266
 30
0.0
 11
-281.4925307391833
 21
190.8176115156865
 31
0.0
  0
LINE
  5
CF
330
A
100
AcDbEntity
  8
0
  6
Continuous
 62
     7
100
AcDbLine
 10
-315.2483839624509
 20
-55.74842870029204
 30
0.0
 11
-327.2483839624511
 21
-55.74842870029204
 31
0.0
  0
LINE
  5
D0
330
A
100
AcDbEntity
  8
0
  6
Continuous
 62
     7
100
AcDbLine
 10
-325.248383962451
 20
216.2336082915435
 30
0.0
 11
-325.248383962451
 21
234.0601815010323
 31
0.0
  0
LINE
  5
D1
330
A
100
AcDbEntity
  8
0
  6
Continuous
 62
     7
100
AcDbLine
 10
-317.248383962451
 20
216.2336082915435
 30
0.0
 11
-317.248383962451
 21
234.0601815010323
 31
0.0
  0
LINE
  5
D2
330
A
100
AcDbEntity
  8
0
  6
Continuous
 62
     7
100
AcDbLine
 10
-325.248383962451
 20
234.0601815010323
 30
0.0
 11
-325.248383962451
 21
236.3855096653288
 31
0.0
  0
LINE
  5
D3
330
A
100
AcDbEntity
  8
0
  6
Continuous
 62
     7
100
AcDbLine
 10
-317.248383962451
 20
234.0601815010323
 30
0.0
 11
-317.248383962451
 21
236.3855096653288
 31
0.0
  0
LINE
  5
D4
330
A
100
AcDbEntity
  8
0
  6
Continuous
 62
     7
100
AcDbLine
 10
-325.248383962451
 20
236.3855096653288
 30
0.0
 11
-325.248383962451
 21
236.5090282748564
 31
0.0
  0
LINE
  5
D5
330
A
100
AcDbEntity
  8
0
  6
Continuous
 62
     7
100
AcDbLine
 10
-317.248383962451
 20
236.3855096653288
 30
0.0
 11
-317.248383962451
 21
236.5090282748564
 31
0.0
  0
LINE
  5
D6
330
A
100
AcDbEntity
  8
0
  6
Continuous
 62
     7
100
AcDbLine
 10
-325.2483839624509
 20
236.8963755154009
 30
0.0
 11
-325.2483839624509
 21
241.2477924718476
 31
0.0
  0
LINE
  5
D7
330
A
100
AcDbEntity
  8
0
  6
Continuous
 62
     7
100
AcDbLine
 10
-317.2483839624509
 20
236.8963755154009
 30
0.0
 11
-317.2483839624509
 21
241.2477924718476
 31
0.0
  0
LINE
  5
D8
330
A
100
AcDbEntity
  8
0
  6
Continuous
 62
     7
100
AcDbLine
 10
-325.2483839624509
 20
241.2477924718476
 30
0.0
 11
-325.2483839624509
 21
243.0544618611349
 31
0.0
  0
LINE
  5
D9
330
A
100
AcDbEntity
  8
0
  6
Continuous
 62
     7
100
AcDbLine
 10
-317.2483839624509
 20
241.2477924718476
 30
0.0
 11
-317.2483839624509
 21
243.0544618611349
 31
0.0
  0
LINE
  5
DA
330
A
100
AcDbEntity
  8
0
  6
Continuous
 62
     7
100
AcDbLine
 10
-325.2483839624509
 20
243.0544618611349
 30
0.0
 11
-325.2483839624503
 21
333.6987686655578
 31
0.0
  0
LINE
  5
DB
330
A
100
AcDbEntity
  8
0
  6
Continuous
 62
     7
100
AcDbLine
 10
-317.2483839624509
 20
243.0544618611349
 30
0.0
 11
-317.2483839624504
 21
333.6987686655578
 31
0.0
  0
LINE
  5
DC
330
A
100
AcDbEntity
  8
0
  6
PHANTOM
 62
     7
100
AcDbLine
 10
-343.1510445517505
 20
193.8612077576107
 30
0.0
 11
-362.3748427876036
 21
188.3434562783208
 31
0.0
  0
LINE
  5
DD
330
A
100
AcDbEntity
  8
0
  6
PHANTOM
 62
     7
100
AcDbLine
 10
-280.1219251372986
 20
188.3434562783196
 30
0.0
 11
-299.3457233731518
 21
193.8612077576097
 31
0.0
  0
ARC
  5
DE
330
A
100
AcDbEntity
  8
0
  6
PHANTOM
 62
     7
100
AcDbCircle
 10
-321.2483839624503
 20
309.1362087530428
 30
0.0
 40
70.09948802015959
100
AcDbArc
 50
0.0
 51
266.7288252904366
  0
ARC
  5
DF
330
A
100
AcDbEntity
  8
0
  6
PHANTOM
 62
     7
100
AcDbCircle
 10
-321.2483839624503
 20
309.1362087530428
 30
0.0
 40
70.09948802015959
100
AcDbArc
 50
273.271174709565
 51
0.0
  0
LINE
  5
E0
330
A
100
AcDbEntity
  8
0
  6
PHANTOM
 62
     7
100
AcDbLine
 10
-317.248383962451
 20
234.0601815010323
 30
0.0
 11
-325.248383962451
 21
234.0601815010323
 31
0.0
  0
LINE
  5
E1
330
A
100
AcDbEntity
  8
0
  6
PHANTOM
 62
     7
100
AcDbLine
 10
-317.248383962451
 20
236.3855096653288
 30
0.0
 11
-325.248383962451
 21
236.3855096653288
 31
0.0
  0
LINE
  5
E2
330
A
100
AcDbEntity
  8
0
  6
PHANTOM
 62
     7
100
AcDbLine
 10
-317.2483839624509
 20
241.2477924718476
 30
0.0
 11
-325.2483839624509
 21
241.2477924718476
 31
0.0
  0
LINE
  5
E3
330
A
100
AcDbEntity
  8
0
  6
PHANTOM
 62
     7
100
AcDbLine
 10
-317.2483839624509
 20
243.0544618611349
 30
0.0
 11
-325.2483839624509
 21
243.0544618611349
 31
0.0
  0
LINE
  5
E4
330
A
100
AcDbEntity
  8
0
  6
PHANTOM
 62
     7
100
AcDbLine
 10
-323.7483839624504
 20
209.7876404891284
 30
0.0
 11
-318.7483839624504
 21
209.7876404891284
 31
0.0
  0
ARC
  5
E5
330
A
100
AcDbEntity
  8
0
  6
Continuous
 62
     7
100
AcDbCircle
 10
-288.748383962451
 20
-386.0481491419089
 30
0.0
 40
5.500000000000056
100
AcDbArc
 50
270.0000000000008
 51
90.0000000000006
  0
ARC
  5
E6
330
A
100
AcDbEntity
  8
0
  6
Continuous
 62
     7
100
AcDbCircle
 10
-353.7483839624509
 20
-386.0481491419091
 30
0.0
 40
5.500000000000056
100
AcDbArc
 50
90.0
 51
270.0000000000014
  0
LINE
  5
E7
330
A
100
AcDbEntity
  8
0
  6
Continuous
 62
     7
100
AcDbLine
 10
-288.748383962451
 20
-380.5481491419088
 30
0.0
 11
-317.2483839624509
 21
-380.5481491419091
 31
0.0
  0
LINE
  5
E8
330
A
100
AcDbEntity
  8
0
  6
Continuous
 62
     7
100
AcDbLine
 10
-325.2483839624509
 20
-380.5481491419091
 30
0.0
 11
-353.7483839624509
 21
-380.5481491419091
 31
0.0
  0
LINE
  5
E9
330
A
100
AcDbEntity
  8
0
  6
Continuous
 62
     7
100
AcDbLine
 10
-353.7483839624508
 20
-391.548149141909
 30
0.0
 11
-288.748383962451
 21
-391.5481491419088
 31
0.0
  0
LWPOLYLINE
  5
EA
330
A
100
AcDbEntity
  8
0
  6
Continuous
 62
     7
100
AcDbPolyline
 90
       10
 70
   128
 43
0.0
 10
-353.3043823987648
 20
-376.0852023597154
 10
-354.7386182787213
 20
-376.2581758081615
 10
-356.384914217378
 20
-376.7729018244756
 10
-357.9160036262893
 20
-377.5792565682439
 10
-359.2846332941003
 20
-378.6519029599746
 10
-360.4483657345956
 20
-379.957643073954
 10
-361.3707020525253
 20
-381.456170895368
 10
-362.0222159956924
 20
-383.1010330182755
 10
-362.3816072379386
 20
-384.8408646867229
 10
-362.4524629640184
 20
-386.0481491419091
  0
LWPOLYLINE
  5
F6
330
A
100
AcDbEntity
  8
0
  6
Continuous
 62
     7
100
AcDbPolyline
 90
       11
 70
   128
 43
0.0
 10
-362.4524629640184
 20
-386.0481491419091
 10
-362.4009167035908
 20
-387.0783881226096
 10
-362.0708723862872
 20
-388.8271875326692
 10
-361.444164251346
 20
-390.4903643718279
 10
-360.5405000759139
 20
-392.0127716585678
 10
-359.3887009314807
 20
-393.3452151573174
 10
-358.0259612562445
 20
-394.444718008326
 10
-356.4965210403106
 20
-395.2761494198916
 10
-354.8499485380816
 20
-395.8134930089119
 10
-353.1391894039773
 20
-396.0406093184949
 10
-351.9397769879998
 20
-395.9784635977347
  0
LWPOLYLINE
  5
103
330
A
100
AcDbEntity
  8
0
  6
Continuous
 62
     7
100
AcDbPolyline
 90
       20
 70
   128
 43
0.0
 10
-288.9106575735482
 20
-395.9784635977345
 10
-288.3894856522384
 20
-395.9514598713613
 10
-286.7131883936996
 20
-395.5499332945377
 10
-285.1335212172231
 20
-394.8494958650235
 10
-283.6992474204128
 20
-393.8723916667493
 10
-282.4547242270903
 20
-392.6489761598044
 10
-281.4387918793242
 20
-391.2170112107016
 10
-280.6836362960374
 20
-389.6207935854681
 10
-280.213692221725
 20
-387.9100239470233
 10
-280.0446994893614
 20
-386.1384003601105
 10
-280.1830070312606
 20
-384.3619902499229
 10
-280.6251308084741
 20
-382.6375769026411
 10
-281.35761308305
 20
-381.0206759082566
 10
-282.3573780399349
 20
-379.5634514216974
 10
-283.5923644947804
 20
-378.3129895050568
 10
-285.0225801765789
 20
-377.309524655652
 10
-286.6015864598359
 20
-376.584922022752
 10
-288.2783258012261
 20
-376.1615850069623
 10
-289.999103563428
 20
-376.0518966475803
 10
-290.2752629843131
 20
-376.0852023597152
  0
LINE
  5
119
330
A
100
AcDbEntity
  8
0
  6
Continuous
 62
     7
100
AcDbLine
 10
-352.7629436696769
 20
-396.048149141909
 30
0.0
 11
-352.3764837203154
 21
-396.048149141909
 31
0.0
  0
LINE
  5
11A
330
A
100
AcDbEntity
  8
0
  6
Continuous
 62
     7
100
AcDbLine
 10
-352.3764837203156
 20
-376.0481491419091
 30
0.0
 11
-352.7629436696772
 21
-376.0481491419091
 31
0.0
  0
LINE
  5
11B
330
A
100
AcDbEntity
  8
0
  6
Continuous
 62
     7
100
AcDbLine
 10
-289.7338242552251
 20
-376.0481491419088
 30
0.0
 11
-290.1202842045864
 21
-376.0481491419088
 31
0.0
  0
LINE
  5
11C
330
A
100
AcDbEntity
  8
0
  6
Continuous
 62
     7
100
AcDbLine
 10
-290.1202842045865
 20
-396.0481491419088
 30
0.0
 11
-289.7338242552253
 21
-396.0481491419088
 31
0.0
  0
ARC
  5
11D
330
A
100
AcDbEntity
  8
0
  6
Continuous
 62
     7
100
AcDbCircle
 10
-390.7106039096994
 20
-195.2800616833042
 30
0.0
 40
1.0
100
AcDbArc
 50
90.0
 51
230.411593089827
  0
ARC
  5
11E
330
A
100
AcDbEntity
  8
0
  6
Continuous
 62
     7
100
AcDbCircle
 10
-251.7861640152013
 20
-195.2800616833052
 30
0.0
 40
1.0
100
AcDbArc
 50
309.5884069101767
 51
90.0
  0
ARC
  5
11F
330
A
100
AcDbEntity
  8
0
  6
Continuous
 62
     7
100
AcDbCircle
 10
-321.2483839624497
 20
-111.2800616833047
 30
0.0
 40
110.0
100
AcDbArc
 50
230.4115930898236
 51
267.9160576653922
  0
ARC
  5
120
330
A
100
AcDbEntity
  8
0
  6
Continuous
 62
     7
100
AcDbCircle
 10
-321.2483839624497
 20
-111.2800616833047
 30
0.0
 40
109.9999999999999
100
AcDbArc
 50
272.0839423346088
 51
309.5884069101773
  0
LINE
  5
121
330
A
100
AcDbEntity
  8
0
  6
Continuous
 62
     7
100
AcDbLine
 10
-376.2483839624502
 20
-186.2800616833043
 30
0.0
 11
-376.2483839624503
 21
-194.2800616833043
 31
0.0
  0
LINE
  5
122
330
A
100
AcDbEntity
  8
0
  6
Continuous
 62
     7
100
AcDbLine
 10
-266.2483839624503
 20
-194.2800616833051
 30
0.0
 11
-266.2483839624503
 21
-186.2800616833051
 31
0.0
  0
LINE
  5
123
330
A
100
AcDbEntity
  8
0
  6
Continuous
 62
     7
100
AcDbLine
 10
-278.3611133598083
 20
-271.0546431170559
 30
0.0
 11
-282.9912294433502
 21
-268.3468215191134
 31
0.0
  0
LINE
  5
124
330
A
100
AcDbEntity
  8
0
  6
Continuous
 62
     7
100
AcDbLine
 10
-359.5055384815526
 20
-268.3468215191137
 30
0.0
 11
-364.1356545650944
 21
-271.0546431170562
 31
0.0
  0
LINE
  5
125
330
A
100
AcDbEntity
  8
0
  6
Continuous
 62
     7
100
AcDbLine
 10
-364.1356545650949
 20
-319.3060987908736
 30
0.0
 11
-363.6308211906543
 21
-319.6013394911082
 31
0.0
  0
LINE
  5
126
330
A
100
AcDbEntity
  8
0
  6
Continuous
 62
     7
100
AcDbLine
 10
-278.865946734248
 20
-319.6013394911079
 30
0.0
 11
-278.3611133598075
 21
-319.3060987908733
 31
0.0
  0
LINE
  5
127
330
A
100
AcDbEntity
  8
0
  6
Continuous
 62
     7
100
AcDbLine
 10
-313.7771669192809
 20
-281.6391864073273
 30
0.0
 11
-316.2675726003377
 21
-265.3816293338099
 31
0.0
  0
LINE
  5
128
330
A
100
AcDbEntity
  8
0
  6
Continuous
 62
     7
100
AcDbLine
 10
-326.2291953245651
 20
-265.3816293338099
 30
0.0
 11
-328.7196010056218
 21
-281.6391864073273
 31
0.0
  0
LINE
  5
129
330
A
100
AcDbEntity
  8
0
  6
Continuous
 62
     7
100
AcDbLine
 10
-310.2817255530771
 20
-288.8972147986061
 30
0.0
 11
-311.2786944993839
 21
-281.5694607545513
 31
0.0
  0
LINE
  5
12A
330
A
100
AcDbEntity
  8
0
  6
Continuous
 62
     7
100
AcDbLine
 10
-331.2180734255187
 20
-281.5694607545514
 30
0.0
 11
-332.2150423718255
 21
-288.8972147986061
 31
0.0
  0
ARC
  5
12B
330
A
100
AcDbEntity
  8
0
  6
Continuous
 62
     7
100
AcDbCircle
 10
-321.2483839624509
 20
-386.0481491419085
 30
0.0
 40
125.0
100
AcDbArc
 50
270.000000000001
 51
75.17034666674158
  0
ARC
  5
12C
330
A
100
AcDbEntity
  8
0
  6
Continuous
 62
     7
100
AcDbCircle
 10
-321.2483839624509
 20
-386.0481491419085
 30
0.0
 40
125.0
100
AcDbArc
 50
104.8296533332588
 51
270.000000000001
  0
LINE
  5
12D
330
A
100
AcDbEntity
  8
0
  6
Continuous
 62
     7
100
AcDbLine
 10
-325.2483839624509
 20
-383.9697258515987
 30
0.0
 11
-317.2483839624509
 21
-383.9697258515988
 31
0.0
  0
LINE
  5
12E
330
A
100
AcDbEntity
  8
0
  6
Continuous
 62
     7
100
AcDbLine
 10
-317.248383962451
 20
-394.1109359920318
 30
0.0
 11
-325.248383962451
 21
-394.1109359920316
 31
0.0
  0
LINE
  5
12F
330
A
100
AcDbEntity
  8
0
  6
Continuous
 62
     7
100
AcDbLine
 10
-325.248383962451
 20
-404.7521255500964
 30
0.0
 11
-317.248383962451
 21
-404.7521255500964
 31
0.0
  0
LWPOLYLINE
  5
130
330
A
100
AcDbEntity
  8
0
  6
Continuous
 62
     7
100
AcDbPolyline
 90
        3
 70
   128
 43
0.0
 10
-353.2948211401412
 20
-376.0634708653896
 10
-353.2202962444125
 20
-376.059475750079
 10
-352.7629436696772
 20
-376.0481491419091
  0
LINE
  5
135
330
A
100
AcDbEntity
  8
0
  6
Continuous
 62
     7
100
AcDbLine
 10
-351.9493111959113
 20
-396.0122579226384
 30
0.0
 11
-352.7629436696769
 21
-396.048149141909
 31
0.0
  0
LWPOLYLINE
  5
136
330
A
100
AcDbEntity
  8
0
  6
Continuous
 62
     7
100
AcDbPolyline
 90
        3
 70
   128
 43
0.0
 10
-290.2657017256895
 20
-376.0634708653894
 10
-290.1911768299607
 20
-376.0594757500788
 10
-289.7338242552251
 20
-376.0481491419088
  0
LINE
  5
13B
330
A
100
AcDbEntity
  8
0
  6
Continuous
 62
     7
100
AcDbLine
 10
-288.9201917814595
 20
-396.0122579226382
 30
0.0
 11
-289.7338242552253
 21
-396.0481491419088
 31
0.0
  0
LINE
  5
13C
330
A
100
AcDbEntity
  8
0
  6
Continuous
 62
     7
100
AcDbLine
 10
-251.7861640152013
 20
-194.2800616833052
 30
0.0
 11
-390.7106039096994
 21
-194.2800616833041
 31
0.0
  0
LINE
  5
13D
330
A
100
AcDbEntity
  8
0
  6
Continuous
 62
     7
100
AcDbLine
 10
-376.2483839624502
 20
-186.2800616833043
 30
0.0
 11
-266.2483839624503
 21
-186.2800616833051
 31
0.0
  0
LWPOLYLINE
  5
13E
330
A
100
AcDbEntity
  8
0
  6
Continuous
 62
     7
100
AcDbPolyline
 90
       14
 70
   128
 43
0.0
 10
-317.2483839624505
 20
-259.2182238649517
 10
-316.8806449016145
 20
-259.2347430563453
 10
-312.5419724236012
 20
-259.5408715798643
 10
-308.2612396779222
 20
-260.0488216882443
 10
-304.0669342347288
 20
-260.7552130573199
 10
-299.9869685047336
 20
-261.6553447690763
 10
-296.048493986723
 20
-262.7432265954831
 10
-292.2777205788116
 20
-264.0116188624734
 10
-288.6997421558954
 20
-265.4520806287803
 10
-285.3383695740539
 20
-267.0550258590086
 10
-282.2159722132318
 20
-268.8097872171184
 10
-279.3533291127062
 20
-270.7046870557867
 10
-276.7694906900081
 20
-272.7271151292236
 10
-275.8086582713684
 20
-273.5773178454601
  0
LWPOLYLINE
  5
14E
330
A
100
AcDbEntity
  8
0
  6
Continuous
 62
     7
100
AcDbPolyline
 90
       14
 70
   128
 43
0.0
 10
-366.3962225348573
 20
-273.3124798296624
 10
-365.7272772348941
 20
-272.7271151292236
 10
-363.1434388121959
 20
-270.7046870557867
 10
-360.2807957116703
 20
-268.8097872171184
 10
-357.1583983508483
 20
-267.0550258590085
 10
-353.7970257690067
 20
-265.4520806287803
 10
-350.2190473460905
 20
-264.0116188624734
 10
-346.4482739381791
 20
-262.7432265954831
 10
-342.5097994201684
 20
-261.6553447690764
 10
-338.4298336901732
 20
-260.7552130573199
 10
-334.2355282469798
 20
-260.0488216882443
 10
-329.9547955013008
 20
-259.5408715798643
 10
-325.6161230232875
 20
-259.2347430563453
 10
-325.2483839624505
 20
-259.2182238649516
  0
LWPOLYLINE
  5
15E
330
A
100
AcDbEntity
  8
0
  6
Continuous
 62
     7
100
AcDbPolyline
 90
       32
 70
   128
 43
0.0
 10
-278.3611133598083
 20
-271.0546431170559
 10
-276.4021347618324
 20
-272.2564055756195
 10
-273.474291961892
 20
-274.2927209969376
 10
-270.8268065303435
 20
-276.4516134538125
 10
-268.4752149644254
 20
-278.7204137068612
 10
-266.4333173385159
 20
-281.0858075340501
 10
-264.7130963198086
 20
-283.533913863844
 10
-263.3246468492572
 20
-286.0503662348527
 10
-262.2761169004476
 20
-288.6203971039399
 10
-261.5736596640489
 20
-291.2289245080381
 10
-261.2213974384442
 20
-293.8606405711045
 10
-261.2213974384442
 20
-296.5001013368253
 10
-261.5736596640489
 20
-299.1318173998917
 10
-262.2761169004476
 20
-301.7403448039898
 10
-263.3246468492572
 20
-304.310375673077
 10
-264.7130963198087
 20
-306.8268280440858
 10
-266.433317338516
 20
-309.2749343738796
 10
-268.4752149644255
 20
-311.6403282010686
 10
-270.8268065303435
 20
-313.9091284541173
 10
-273.4742919618921
 20
-316.0680209109922
 10
-276.4021347618325
 20
-318.1043363323103
 10
-279.5931531844091
 20
-320.0061248094741
 10
-283.0286210646658
 20
-321.7622258914868
 10
-286.688377711027
 20
-323.3623340789162
 10
-290.5509462162541
 20
-324.7970593006634
 10
-294.5936594924754
 20
-326.0579820186337
 10
-298.7927932906717
 20
-327.1377026369344
 10
-303.1237054240031
 20
-328.029884925645
 10
-307.5609803779597
 20
-328.7292932043349
 10
-312.0785784587068
 20
-329.2318230671171
 10
-316.6499886043628
 20
-329.5345254689346
 10
-317.2483839624508
 20
-329.5591530020391
  0
LWPOLYLINE
  5
180
330
A
100
AcDbEntity
  8
0
  6
Continuous
 62
     7
100
AcDbPolyline
 90
       32
 70
   128
 43
0.0
 10
-325.2483839624507
 20
-329.5591530020391
 10
-325.8467793205404
 20
-329.5345254689346
 10
-330.4181894661963
 20
-329.231823067117
 10
-334.9357875469435
 20
-328.7292932043348
 10
-339.3730625009001
 20
-328.029884925645
 10
-343.7039746342315
 20
-327.1377026369343
 10
-347.9031084324276
 20
-326.0579820186337
 10
-351.9458217086489
 20
-324.7970593006634
 10
-355.808390213876
 20
-323.3623340789162
 10
-359.4681468602372
 20
-321.7622258914868
 10
-362.9036147404938
 20
-320.0061248094741
 10
-366.0946331630704
 20
-318.1043363323102
 10
-369.0224759630107
 20
-316.0680209109921
 10
-371.6699613945592
 20
-313.9091284541172
 10
-374.0215529604772
 20
-311.6403282010685
 10
-376.0634505863868
 20
-309.2749343738796
 10
-377.783671605094
 20
-306.8268280440857
 10
-379.1721210756453
 20
-304.310375673077
 10
-380.220651024455
 20
-301.7403448039897
 10
-380.9231082608536
 20
-299.1318173998916
 10
-381.2753704864583
 20
-296.5001013368252
 10
-381.2753704864583
 20
-293.8606405711044
 10
-380.9231082608535
 20
-291.228924508038
 10
-380.2206510244548
 20
-288.6203971039399
 10
-379.1721210756451
 20
-286.0503662348526
 10
-377.7836716050936
 20
-283.5339138638439
 10
-376.0634505863864
 20
-281.0858075340501
 10
-374.0215529604768
 20
-278.7204137068611
 10
-371.6699613945587
 20
-276.4516134538124
 10
-369.0224759630101
 20
-274.2927209969376
 10
-366.0946331630697
 20
-272.2564055756194
 10
-364.1356545650944
 20
-271.0546431170562
  0
LWPOLYLINE
  5
1A2
330
A
100
AcDbEntity
  8
0
  6
Continuous
 62
     7
100
AcDbPolyline
 90
       11
 70
   128
 43
0.0
 10
-278.865946734248
 20
-319.6013394911079
 10
-281.3553355161234
 20
-320.9748822494314
 10
-284.8819890702294
 20
-322.6722127704205
 10
-288.6273544022479
 20
-324.207687669807
 10
-292.5689064443758
 20
-325.5720724208753
 10
-296.6829402388514
 20
-326.7571614531929
 10
-300.9447135023592
 20
-327.7558275018765
 10
-305.3285954290337
 20
-328.562064471802
 10
-309.8082208371407
 20
-329.1710235589669
 10
-314.3566487323834
 20
-329.5790424117682
 10
-317.2483839624508
 20
-329.7318901613274
  0
LWPOLYLINE
  5
1AF
330
A
100
AcDbEntity
  8
0
  6
Continuous
 62
     7
100
AcDbPolyline
 90
       11
 70
   128
 43
0.0
 10
-325.2483839624507
 20
-329.7318901613274
 10
-328.1401191925196
 20
-329.5790424117682
 10
-332.6885470877624
 20
-329.171023558967
 10
-337.1681724958694
 20
-328.562064471802
 10
-341.5520544225438
 20
-327.7558275018765
 10
-345.8138276860517
 20
-326.7571614531928
 10
-349.9278614805272
 20
-325.5720724208753
 10
-353.8694135226551
 20
-324.207687669807
 10
-357.6147788546736
 20
-322.6722127704205
 10
-361.1414324087795
 20
-320.9748822494313
 10
-363.6308211906543
 20
-319.6013394911082
  0
LWPOLYLINE
  5
1BC
330
A
100
AcDbEntity
  8
0
  6
Continuous
 62
     7
100
AcDbPolyline
 90
        9
 70
   128
 43
0.0
 10
-310.2817255530771
 20
-288.8972147986061
 10
-310.2594602304967
 20
-289.6711501106828
 10
-310.5241769284512
 20
-290.7920398928804
 10
-311.1335784643852
 20
-291.8678053580295
 10
-312.068078171517
 20
-292.8638705189375
 10
-313.29764046035
 20
-293.7482210217676
 10
-314.7827461872341
 20
-294.4924331137129
 10
-316.4756628321581
 20
-295.0725872057983
 10
-317.2483839624506
 20
-295.2654765349243
  0
LWPOLYLINE
  5
1C7
330
A
100
AcDbEntity
  8
0
  6
Continuous
 62
     7
100
AcDbPolyline
 90
        9
 70
   128
 43
0.0
 10
-325.2483839624507
 20
-295.2654765349246
 10
-326.0211050927445
 20
-295.0725872057983
 10
-327.7140217376685
 20
-294.4924331137129
 10
-329.1991274645527
 20
-293.7482210217676
 10
-330.4286897533857
 20
-292.8638705189375
 10
-331.3631894605173
 20
-291.8678053580295
 10
-331.9725909964514
 20
-290.7920398928804
 10
-332.2373076944058
 20
-289.6711501106827
 10
-332.2150423718255
 20
-288.8972147986061
  0
LWPOLYLINE
  5
1D2
330
A
100
AcDbEntity
  8
0
  6
Continuous
 62
     7
100
AcDbPolyline
 90
        7
 70
   128
 43
0.0
 10
-317.2483839624505
 20
-263.9119171653549
 10
-316.8089578704394
 20
-264.3132330329613
 10
-316.3529635240397
 20
-265.0491554336607
 10
-316.2600401164986
 20
-265.8283523402611
 10
-316.5370793518572
 20
-266.5930342827888
 10
-317.1635344973992
 20
-267.2864882997536
 10
-317.2483839624505
 20
-267.3533662022517
  0
LWPOLYLINE
  5
1DB
330
A
100
AcDbEntity
  8
0
  6
Continuous
 62
     7
100
AcDbPolyline
 90
        7
 70
   128
 43
0.0
 10
-325.2483839624505
 20
-267.353366202253
 10
-325.3332334275036
 20
-267.2864882997536
 10
-325.9596885730455
 20
-266.5930342827888
 10
-326.2367278084041
 20
-265.8283523402611
 10
-326.143804400863
 20
-265.0491554336607
 10
-325.6878100544633
 20
-264.3132330329613
 10
-325.2483839624505
 20
-263.9119171653535
  0
LWPOLYLINE
  5
1E4
330
A
100
AcDbEntity
  8
0
  6
Continuous
 62
     7
100
AcDbPolyline
 90
        7
 70
   128
 43
0.0
 10
-313.7771669192809
 20
-281.6391864073273
 10
-313.7593833585679
 20
-281.7828095638049
 10
-313.8471850433898
 20
-282.7116605525973
 10
-314.2810585638254
 20
-283.6079694300847
 10
-315.0407164762746
 20
-284.4298257893312
 10
-316.0906380210507
 20
-285.1388005404064
 10
-317.2483839624506
 20
-285.6546293453327
  0
LWPOLYLINE
  5
1ED
330
A
100
AcDbEntity
  8
0
  6
Continuous
 62
     7
100
AcDbPolyline
 90
        7
 70
   128
 43
0.0
 10
-325.2483839624506
 20
-285.6546293453332
 10
-326.406129903852
 20
-285.1388005404065
 10
-327.456051448628
 20
-284.4298257893312
 10
-328.2157093610773
 20
-283.6079694300847
 10
-328.6495828815128
 20
-282.7116605525973
 10
-328.7373845663347
 20
-281.7828095638049
 10
-328.7196010056218
 20
-281.6391864073273
  0
LWPOLYLINE
  5
1F6
330
A
100
AcDbEntity
  8
0
  6
Continuous
 62
     7
100
AcDbPolyline
 90
       13
 70
   128
 43
0.0
 10
-314.3560942086011
 20
-277.8599051765094
 10
-314.3475938476302
 20
-277.8645485849722
 10
-313.102624441948
 20
-278.6886444443342
 10
-312.1520640089062
 20
-279.6329889383034
 10
-311.5302682792159
 20
-280.6634509964023
 10
-311.2597105706212
 20
-281.7427870350084
 10
-311.350169543642
 20
-282.8319870375038
 10
-311.7983757753047
 20
-283.8916844779157
 10
-312.588129924607
 20
-284.8835791297324
 10
-313.6908882189088
 20
-285.7718213358814
 10
-315.0667941002453
 20
-286.5243077087396
 10
-316.6661187451773
 20
-287.113841430208
 10
-317.2483839624506
 20
-287.2726051696233
  0
LWPOLYLINE
  5
205
330
A
100
AcDbEntity
  8
0
  6
Continuous
 62
     7
100
AcDbPolyline
 90
       13
 70
   128
 43
0.0
 10
-325.2483839624506
 20
-287.2726051696237
 10
-325.8306491797254
 20
-287.113841430208
 10
-327.4299738246574
 20
-286.5243077087396
 10
-328.8058797059939
 20
-285.7718213358814
 10
-329.9086380002957
 20
-284.8835791297324
 10
-330.698392149598
 20
-283.8916844779157
 10
-331.1465983812606
 20
-282.8319870375038
 10
-331.2370573542813
 20
-281.7427870350084
 10
-330.9664996456867
 20
-280.6634509964023
 10
-330.3447039159964
 20
-279.6329889383034
 10
-329.3941434829546
 20
-278.6886444443342
 10
-328.1491740772723
 20
-277.8645485849722
 10
-328.1406737163016
 20
-277.8599051765094
  0
LINE
  5
214
330
A
100
AcDbEntity
  8
0
  6
Continuous
 62
     7
100
AcDbLine
 10
-325.2483839624509
 20
-383.4511615920204
 30
0.0
 11
-325.2483839624503
 21
-218.4279998367947
 31
0.0
  0
LINE
  5
215
330
A
100
AcDbEntity
  8
0
  6
Continuous
 62
     7
100
AcDbLine
 10
-317.2483839624509
 20
-383.4511615920206
 30
0.0
 11
-317.2483839624504
 21
-218.4279998367948
 31
0.0
  0
LINE
  5
216
330
A
100
AcDbEntity
  8
0
  6
Continuous
 62
     7
100
AcDbLine
 10
-325.2483839624509
 20
-383.9697258515987
 30
0.0
 11
-325.2483839624509
 21
-383.4511615920204
 31
0.0
  0
LINE
  5
217
330
A
100
AcDbEntity
  8
0
  6
Continuous
 62
     7
100
AcDbLine
 10
-317.2483839624509
 20
-383.9697258515988
 30
0.0
 11
-317.2483839624509
 21
-383.4511615920206
 31
0.0
  0
LINE
  5
218
330
A
100
AcDbEntity
  8
0
  6
Continuous
 62
     7
100
AcDbLine
 10
-325.248383962451
 20
-394.1109359920316
 30
0.0
 11
-325.248383962451
 21
-391.548149141909
 31
0.0
  0
LINE
  5
219
330
A
100
AcDbEntity
  8
0
  6
Continuous
 62
     7
100
AcDbLine
 10
-317.248383962451
 20
-394.1109359920318
 30
0.0
 11
-317.248383962451
 21
-391.548149141909
 31
0.0
  0
LINE
  5
21A
330
A
100
AcDbEntity
  8
0
  6
Continuous
 62
     7
100
AcDbLine
 10
-325.248383962451
 20
-395.5923717324534
 30
0.0
 11
-325.248383962451
 21
-394.1109359920316
 31
0.0
  0
LINE
  5
21B
330
A
100
AcDbEntity
  8
0
  6
Continuous
 62
     7
100
AcDbLine
 10
-317.248383962451
 20
-395.5923717324535
 30
0.0
 11
-317.248383962451
 21
-394.1109359920318
 31
0.0
  0
LINE
  5
21C
330
A
100
AcDbEntity
  8
0
  6
Continuous
 62
     7
100
AcDbLine
 10
-325.248383962451
 20
-399.8257650841026
 30
0.0
 11
-325.248383962451
 21
-395.5923717324534
 31
0.0
  0
LINE
  5
21D
330
A
100
AcDbEntity
  8
0
  6
Continuous
 62
     7
100
AcDbLine
 10
-317.248383962451
 20
-399.8257650841026
 30
0.0
 11
-317.248383962451
 21
-395.5923717324535
 31
0.0
  0
LINE
  5
21E
330
A
100
AcDbEntity
  8
0
  6
Continuous
 62
     7
100
AcDbLine
 10
-325.248383962451
 20
-404.7521255500964
 30
0.0
 11
-325.248383962451
 21
-399.8257650841026
 31
0.0
  0
LINE
  5
21F
330
A
100
AcDbEntity
  8
0
  6
Continuous
 62
     7
100
AcDbLine
 10
-317.248383962451
 20
-404.7521255500964
 30
0.0
 11
-317.248383962451
 21
-399.8257650841026
 31
0.0
  0
LWPOLYLINE
  5
220
330
A
100
AcDbEntity
  8
0
  6
PHANTOM
 62
     7
100
AcDbPolyline
 90
        7
 70
   128
 43
0.0
 10
-352.7629436696772
 20
-376.0481491419091
 10
-351.3950278012102
 20
-376.1499347230998
 10
-349.6191994015642
 20
-376.5981409547624
 10
-347.9569941107137
 20
-377.3878951040647
 10
-346.4684883587036
 20
-378.4906533983666
 10
-345.2074806216753
 20
-379.866559279703
 10
-344.7354252644907
 20
-380.5481491419091
  0
LWPOLYLINE
  5
229
330
A
100
AcDbEntity
  8
0
  6
PHANTOM
 62
     7
100
AcDbPolyline
 90
        7
 70
   128
 43
0.0
 10
-344.7354252644907
 20
-391.548149141909
 10
-345.2074806216754
 20
-392.2297390041152
 10
-346.4684883587036
 20
-393.6056448854517
 10
-347.9569941107138
 20
-394.7084031797535
 10
-349.6191994015644
 20
-395.4981573290557
 10
-351.3950278012103
 20
-395.9463635607184
 10
-351.9493111959113
 20
-396.0122579226384
  0
LWPOLYLINE
  5
232
330
A
100
AcDbEntity
  8
0
  6
PHANTOM
 62
     7
100
AcDbPolyline
 90
       13
 70
   128
 43
0.0
 10
-361.0042381119473
 20
-386.0481491419091
 10
-360.8244614239891
 20
-387.7679126635973
 10
-360.2935375182357
 20
-389.4072619543912
 10
-359.4362918064409
 20
-390.8895428634592
 10
-358.2928081453277
 20
-392.1454455829302
 10
-356.9165545599993
 20
-393.1162454974773
 10
-355.3718831385095
 20
-393.7565490820629
 10
-353.7310209997481
 20
-394.036416452718
 10
-352.0706930336364
 20
-393.9427613222413
 10
-350.4685343305478
 20
-393.4799629004434
 10
-348.9994600507671
 20
-392.6696611271641
 10
-347.7321624748583
 20
-391.5497448127364
 10
-347.7307100362327
 20
-391.548149141909
  0
LWPOLYLINE
  5
241
330
A
100
AcDbEntity
  8
0
  6
PHANTOM
 62
     7
100
AcDbPolyline
 90
       13
 70
   128
 43
0.0
 10
-347.7307100362327
 20
-380.5481491419091
 10
-347.7321624748584
 20
-380.5465534710816
 10
-348.9994600507673
 20
-379.4266371566539
 10
-350.468534330548
 20
-378.6163353833747
 10
-352.0706930336366
 20
-378.1535369615768
 10
-353.7310209997483
 20
-378.0598818311001
 10
-355.3718831385097
 20
-378.3397492017553
 10
-356.9165545599995
 20
-378.9800527863409
 10
-358.2928081453279
 20
-379.950852700888
 10
-359.4362918064409
 20
-381.206755420359
 10
-360.2935375182358
 20
-382.6890363294271
 10
-360.8244614239891
 20
-384.328385620221
 10
-361.0042381119473
 20
-386.0481491419091
  0
LWPOLYLINE
  5
250
330
A
100
AcDbEntity
  8
0
  6
PHANTOM
 62
     7
100
AcDbPolyline
 90
        6
 70
   128
 43
0.0
 10
-297.7613426604115
 20
-380.5481491419088
 10
-296.6902828177008
 20
-379.1473590270878
 10
-295.3092727526798
 20
-377.9023896214054
 10
-293.7267514522715
 20
-376.9518291883636
 10
-291.9999153594916
 20
-376.3300334586734
 10
-290.2657017256895
 20
-376.0634708653894
  0
LWPOLYLINE
  5
258
330
A
100
AcDbEntity
  8
0
  6
PHANTOM
 62
     7
100
AcDbPolyline
 90
        7
 70
   128
 43
0.0
 10
-289.7338242552253
 20
-396.0481491419088
 10
-290.1911768299608
 20
-396.0368225337388
 10
-291.9999153594917
 20
-395.7662648251442
 10
-293.7267514522716
 20
-395.144469095454
 10
-295.3092727526799
 20
-394.1939086624121
 10
-296.6902828177008
 20
-392.9489392567298
 10
-297.7613426604115
 20
-391.5481491419088
  0
LWPOLYLINE
  5
261
330
A
100
AcDbEntity
  8
0
  6
PHANTOM
 62
     7
100
AcDbPolyline
 90
       24
 70
   128
 43
0.0
 10
-294.7660578886694
 20
-391.5481491419088
 10
-294.1601384350179
 20
-392.1454455829299
 10
-292.7838848496894
 20
-393.1162454974771
 10
-291.2392134281997
 20
-393.7565490820627
 10
-289.5983512894383
 20
-394.0364164527178
 10
-287.9380233233265
 20
-393.942761322241
 10
-286.3358646202379
 20
-393.4799629004431
 10
-284.8667903404573
 20
-392.669661127164
 10
-283.5994927645484
 20
-391.5497448127362
 10
-282.5932293186607
 20
-390.172579999325
 10
-281.8950517631423
 20
-388.6025613829966
 10
-281.5376061045207
 20
-386.9131012893003
 10
-281.5376061045207
 20
-385.1831969945172
 10
-281.8950517631424
 20
-383.4937369008209
 10
-282.5932293186607
 20
-381.9237182844926
 10
-283.5994927645485
 20
-380.5465534710813
 10
-284.8667903404575
 20
-379.4266371566537
 10
-286.3358646202381
 20
-378.6163353833745
 10
-287.9380233233267
 20
-378.1535369615766
 10
-289.5983512894384
 20
-378.0598818310999
 10
-291.2392134281999
 20
-378.3397492017551
 10
-292.7838848496896
 20
-378.9800527863407
 10
-294.160138435018
 20
-379.9508527008878
 10
-294.7660578886695
 20
-380.5481491419088
  0
LINE
  5
27B
330
A
100
AcDbEntity
  8
0
  6
PHANTOM
 62
     7
100
AcDbLine
 10
-251.1488959422907
 20
-196.05070388514
 30
0.0
 11
-391.3478719826098
 21
-196.050703885139
 31
0.0
  0
LWPOLYLINE
  5
27C
330
A
100
AcDbEntity
  8
0
  6
PHANTOM
 62
     7
100
AcDbPolyline
 90
       27
 70
   128
 43
0.0
 10
-275.8086582713684
 20
-273.5773178454601
 10
-274.4816519635373
 20
-274.8636125122778
 10
-272.5050381225516
 20
-277.099961167362
 10
-270.8528032060445
 20
-279.4212785631483
 10
-269.5359425647857
 20
-281.8121167153582
 10
-268.5632196890761
 20
-284.2565649905492
 10
-267.9411078891655
 20
-286.7383559887555
 10
-267.6737472164413
 20
-289.2409738003507
 10
-267.7629169120688
 20
-291.7477639167016
 10
-268.2080235664357
 20
-294.242044063175
 10
-269.0061050681947
 20
-296.7072152169235
 10
-270.1518503166255
 20
-299.1268720706435
 10
-271.6376345661347
 20
-301.4849122071887
 10
-273.453570167679
 20
-303.7656432584998
 10
-275.5875723694382
 20
-305.9538873357242
 10
-278.0254397388453
 20
-308.0350820355629
 10
-280.7509486707767
 20
-309.9953773506617
 10
-283.7459613529676
 20
-311.8217278391242
 10
-286.9905464701606
 20
-313.5019794397766
 10
-290.4631118437193
 20
-315.0249503554384
 10
-294.1405481240158
 20
-316.3805054659384
 10
-297.9983825793389
 20
-317.5596237756672
 10
-302.0109419578866
 20
-318.5544584468141
 10
-306.15152333902
 20
-319.3583890187791
 10
-310.3925718367958
 20
-319.9660654662447
 10
-314.7058639731848
 20
-320.3734438027129
 10
-317.2483839624507
 20
-320.5176405491223
  0
LWPOLYLINE
  5
299
330
A
100
AcDbEntity
  8
0
  6
PHANTOM
 62
     7
100
AcDbPolyline
 90
       27
 70
   128
 43
0.0
 10
-325.2483839624507
 20
-320.5176405491223
 10
-327.7909039517183
 20
-320.3734438027129
 10
-332.1041960881073
 20
-319.9660654662447
 10
-336.345244585883
 20
-319.3583890187791
 10
-340.4858259670164
 20
-318.5544584468141
 10
-344.498385345564
 20
-317.5596237756671
 10
-348.3562198008872
 20
-316.3805054659384
 10
-352.0336560811838
 20
-315.0249503554384
 10
-355.5062214547425
 20
-313.5019794397766
 10
-358.7508065719352
 20
-311.8217278391242
 10
-361.7458192541262
 20
-309.9953773506616
 10
-364.4713281860575
 20
-308.0350820355629
 10
-366.9091955554646
 20
-305.9538873357241
 10
-369.0431977572238
 20
-303.7656432584997
 10
-370.859133358768
 20
-301.4849122071887
 10
-372.3449176082772
 20
-299.1268720706434
 10
-373.490662856708
 20
-296.7072152169235
 10
-374.2887443584669
 20
-294.242044063175
 10
-374.7338510128337
 20
-291.7477639167015
 10
-374.8230207084612
 20
-289.2409738003506
 10
-374.5556600357369
 20
-286.7383559887554
 10
-373.9335482358263
 20
-284.2565649905491
 10
-372.9608253601166
 20
-281.8121167153581
 10
-371.6439647188578
 20
-279.4212785631482
 10
-369.9917298023506
 20
-277.099961167362
 10
-368.0151159613649
 20
-274.8636125122778
 10
-366.3962225348573
 20
-273.3124798296624
  0
LWPOLYLINE
  5
2B6
330
A
100
AcDbEntity
  8
0
  6
PHANTOM
 62
     7
100
AcDbPolyline
 90
       39
 70
   128
 43
0.0
 10
-317.2483839624505
 20
-259.551863577231
 10
-316.9400896221508
 20
-259.5659885178203
 10
-312.6612253007475
 20
-259.8719103262038
 10
-308.441019980268
 20
-260.3794575256472
 10
-304.308301942283
 20
-261.0851630541321
 10
-300.2913018415128
 20
-261.9842062273229
 10
-296.4174598618305
 20
-263.0704456687291
 10
-292.7132382719813
 20
-264.3364612615335
 10
-289.203940661455
 20
-265.7736048355144
 10
-285.9135390913124
 20
-267.3720592428169
 10
-282.8645103407012
 20
-269.1209054190279
 10
-280.0776823676624
 20
-271.0081969714569
 10
-277.5720920330581
 20
-273.0210417851127
 10
-275.364855059509
 20
-275.1456900889201
 10
-273.4710491136533
 20
-277.3676283805989
 10
-271.903610810395
 20
-279.6716785686014
 10
-270.6732473427071
 20
-282.0421016538672
 10
-269.7883633406457
 20
-284.4627052431467
 10
-269.2550034592059
 20
-286.9169541594652
 10
-269.0768110871974
 20
-289.3880833941487
 10
-269.2550034592059
 20
-291.8592126288322
 10
-269.7883633406458
 20
-294.3134615451507
 10
-270.6732473427071
 20
-296.7340651344302
 10
-271.903610810395
 20
-299.104488219696
 10
-273.4710491136533
 20
-301.4085384076984
 10
-275.3648550595091
 20
-303.6304766993774
 10
-277.5720920330582
 20
-305.7551250031847
 10
-280.0776823676624
 20
-307.7679698168404
 10
-282.8645103407013
 20
-309.6552613692696
 10
-285.9135390913126
 20
-311.4041075454805
 10
-289.203940661455
 20
-313.0025619527831
 10
-292.7132382719814
 20
-314.4397055267639
 10
-296.4174598618307
 20
-315.7057211195684
 10
-300.291301841513
 20
-316.7919605609746
 10
-304.3083019422831
 20
-317.6910037341655
 10
-308.4410199802682
 20
-318.3967092626504
 10
-312.6612253007477
 20
-318.9042564620938
 10
-316.940089622151
 20
-319.2101782704774
 10
-317.2483839624507
 20
-319.2243032110665
  0
LWPOLYLINE
  5
2DF
330
A
100
AcDbEntity
  8
0
  6
PHANTOM
 62
     7
100
AcDbPolyline
 90
       39
 70
   128
 43
0.0
 10
-325.2483839624507
 20
-319.2243032110666
 10
-325.5566783027521
 20
-319.2101782704773
 10
-329.8355426241554
 20
-318.9042564620938
 10
-334.055747944635
 20
-318.3967092626503
 10
-338.18846598262
 20
-317.6910037341654
 10
-342.2054660833901
 20
-316.7919605609745
 10
-346.0793080630724
 20
-315.7057211195683
 10
-349.7835296529216
 20
-314.4397055267639
 10
-353.292827263448
 20
-313.0025619527831
 10
-356.5832288335904
 20
-311.4041075454805
 10
-359.6322575842016
 20
-309.6552613692695
 10
-362.4190855572404
 20
-307.7679698168404
 10
-364.9246758918447
 20
-305.7551250031846
 10
-367.1319128653937
 20
-303.6304766993773
 10
-369.0257188112495
 20
-301.4085384076984
 10
-370.5931571145077
 20
-299.1044882196959
 10
-371.8235205821957
 20
-296.7340651344301
 10
-372.7084045842569
 20
-294.3134615451506
 10
-373.2417644656968
 20
-291.8592126288321
 10
-373.4199568377052
 20
-289.3880833941486
 10
-373.2417644656967
 20
-286.9169541594651
 10
-372.7084045842568
 20
-284.4627052431466
 10
-371.8235205821955
 20
-282.0421016538671
 10
-370.5931571145074
 20
-279.6716785686013
 10
-369.0257188112491
 20
-277.3676283805989
 10
-367.1319128653933
 20
-275.14569008892
 10
-364.9246758918442
 20
-273.0210417851127
 10
-362.4190855572399
 20
-271.0081969714569
 10
-359.632257584201
 20
-269.1209054190278
 10
-356.5832288335897
 20
-267.3720592428168
 10
-353.2928272634472
 20
-265.7736048355143
 10
-349.7835296529209
 20
-264.3364612615335
 10
-346.0793080630716
 20
-263.0704456687291
 10
-342.2054660833892
 20
-261.9842062273229
 10
-338.1884659826191
 20
-261.085163054132
 10
-334.055747944634
 20
-260.3794575256471
 10
-329.8355426241545
 20
-259.8719103262037
 10
-325.5566783027512
 20
-259.5659885178202
 10
-325.2483839624505
 20
-259.5518635772309
  0
LINE
  5
308
330
A
100
AcDbEntity
  8
0
  6
PHANTOM
 62
     7
100
AcDbLine
 10
-317.2483839624509
 20
-383.4511615920206
 30
0.0
 11
-325.2483839624509
 21
-383.4511615920204
 31
0.0
  0
LINE
  5
309
330
A
100
AcDbEntity
  8
0
  6
PHANTOM
 62
     7
100
AcDbLine
 10
-317.248383962451
 20
-395.5923717324535
 30
0.0
 11
-325.248383962451
 21
-395.5923717324534
 31
0.0
  0
LINE
  5
30A
330
A
100
AcDbEntity
  8
0
  6
PHANTOM
 62
     7
100
AcDbLine
 10
-317.248383962451
 20
-399.8257650841026
 30
0.0
 11
-325.248383962451
 21
-399.8257650841026
 31
0.0
  0
ENDSEC
  0
SECTION
  2
OBJECTS
  0
DICTIONARY
  5
19
330
0
100
AcDbDictionary
281
     1
  3
ACAD_COLOR
350
30F
  3
ACAD_GROUP
350
1A
  3
ACAD_LAYOUT
350
310
  3
ACAD_MATERIAL
350
30E
  3
ACAD_MLINESTYLE
350
1B
  3
ACAD_PLOTSETTINGS
350
311
  3
ACAD_PLOTSTYLENAME
350
30C
  3
ACDBHEADERROUNDTRIPXREC
350
329
  3
AcDbVariableDictionary
350
322
  3
ASE_INDEX_DICTIONARY
350
317
  0
DICTIONARY
  5
30F
102
{ACAD_REACTORS
330
19
102
}
330
19
100
AcDbDictionary
281
     1
  0
DICTIONARY
  5
1A
102
{ACAD_REACTORS
330
19
102
}
330
19
100
AcDbDictionary
281
     1
  0
DICTIONARY
  5
310
102
{ACAD_REACTORS
330
19
102
}
330
19
100
AcDbDictionary
281
     1
  3
Layout1
350
313
  3
Model
350
312
  0
DICTIONARY
  5
30E
102
{ACAD_REACTORS
330
19
102
}
330
19
100
AcDbDictionary
281
     1
  0
DICTIONARY
  5
1B
102
{ACAD_REACTORS
330
19
102
}
330
19
100
AcDbDictionary
281
     1
  3
STANDARD
350
1C
  0
DICTIONARY
  5
311
102
{ACAD_REACTORS
330
19
102
}
330
19
100
AcDbDictionary
281
     1
  0
ACDBDICTIONARYWDFLT
  5
30C
102
{ACAD_REACTORS
330
19
102
}
330
19
100
AcDbDictionary
281
     1
  3
Normal
350
30D
100
AcDbDictionaryWithDefault
340
30D
  0
DICTIONARY
  5
329
102
{ACAD_REACTORS
330
19
102
}
330
19
100
AcDbDictionary
281
     1
  3
COLORDICT
350
32B
  3
MATERIALDICT
350
32A
  0
DICTIONARY
  5
322
102
{ACAD_REACTORS
330
19
102
}
330
19
100
AcDbDictionary
281
     1
  3
DIMASSOC
350
323
  3
PROJECTNAME
350
324
  0
DICTIONARY
  5
317
102
{ACAD_REACTORS
330
19
102
}
330
19
100
AcDbDictionary
281
     1
  3
ASEBlockHierarchyIndexRecord
350
319
1001
DCO15
1040
1522042176.14
  0
LAYOUT
  5
313
102
{ACAD_XDICTIONARY
360
32E
102
}
102
{ACAD_REACTORS
330
310
102
}
330
310
100
AcDbPlotSettings
  1

  2
ProgeSOFT PDF Wizard
  4

  6

 40
0.0
 41
0.0
 42
0.0
 43
0.0
 44
0.0
 45
0.0
 46
0.0
 47
0.0
 48
0.0
 49
0.0
140
0.0
141
0.0
142
1.0
143
1.0
 70
   688
 72
     0
 73
     0
 74
     5
  7

 75
    16
147
1.0
148
0.0
149
0.0
100
AcDbLayout
  1
Layout1
 70
     1
 71
     1
 10
0.0
 20
0.0
 11
12.0
 21
9.0
 12
0.0
 22
0.0
 32
0.0
 14
1.000000000000000E+20
 24
1.000000000000000E+20
 34
1.000000000000000E+20
 15
-1.000000000000000E+20
 25
-1.000000000000000E+20
 35
-1.000000000000000E+20
146
0.0
 13
0.0
 23
0.0
 33
0.0
 16
1.0
 26
0.0
 36
0.0
 17
0.0
 27
1.0
 37
0.0
 76
     0
330
B
  0
LAYOUT
  5
312
102
{ACAD_XDICTIONARY
360
32C
102
}
102
{ACAD_REACTORS
330
310
102
}
330
310
100
AcDbPlotSettings
  1

  2
ProgeSOFT PDF Wizard
  4

  6

 40
0.0
 41
0.0
 42
0.0
 43
0.0
 44
0.0
 45
0.0
 46
0.0
 47
0.0
 48
0.0
 49
0.0
140
0.0
141
0.0
142
1.0
143
1.0
 70
  1712
 72
     0
 73
     0
 74
     0
  7

 75
     0
147
1.0
148
0.0
149
0.0
100
AcDbLayout
  1
Model
 70
     1
 71
     0
 10
0.0
 20
0.0
 11
12.0
 21
9.0
 12
0.0
 22
0.0
 32
0.0
 14
0.0
 24
0.0
 34
0.0
 15
0.0
 25
0.0
 35
0.0
146
0.0
 13
0.0
 23
0.0
 33
0.0
 16
1.0
 26
0.0
 36
0.0
 17
0.0
 27
1.0
 37
0.0
 76
     0
330
A
  0
MLINESTYLE
  5
1C
102
{ACAD_REACTORS
330
1B
102
}
330
1B
100
AcDbMlineStyle
  2
STANDARD
 70
     0
  3

 62
     0
 51
90.0
 52
90.0
 71
     2
 49
0.5
 62
   256
  6
BYLAYER
 49
-0.5
 62
   256
  6
BYLAYER
  0
ACDBPLACEHOLDER
  5
30D
102
{ACAD_REACTORS
330
30C
102
}
330
30C
  0
XRECORD
  5
32B
102
{ACAD_REACTORS
330
329
102
}
330
329
100
AcDbXrecord
280
     1
340
30F
  0
XRECORD
  5
32A
102
{ACAD_REACTORS
330
329
102
}
330
329
100
AcDbXrecord
280
     1
340
30E
  0
DICTIONARYVAR
  5
323
102
{ACAD_REACTORS
330
322
102
}
330
322
100
DictionaryVariables
280
     0
  1
1
  0
DICTIONARYVAR
  5
324
102
{ACAD_REACTORS
330
322
102
}
330
322
100
DictionaryVariables
280
     0
  1

  0
XRECORD
  5
319
102
{ACAD_REACTORS
330
317
102
}
330
317
100
AcDbXrecord
280
     1
  0
DICTIONARY
  5
32E
330
313
100
AcDbDictionary
280
     1
281
     1
  3
ACAD_XREC_ROUNDTRIP
360
32F
  0
DICTIONARY
  5
32C
330
312
100
AcDbDictionary
280
     1
281
     1
  3
ACAD_XREC_ROUNDTRIP
360
32D
  0
XRECORD
  5
32F
102
{ACAD_REACTORS
330
32E
102
}
330
32E
100
AcDbXrecord
280
     1
102
SHADEPLOT
 70
     0
102
SHADEPLOTRESLEVEL
 70
     2
102
SHADEPLOTCUSTOMDPI
 70
   300
  0
XRECORD
  5
32D
102
{ACAD_REACTORS
330
32C
102
}
330
32C
100
AcDbXrecord
280
     1
102
SHADEPLOT
 70
     0
102
SHADEPLOTRESLEVEL
 70
     2
102
SHADEPLOTCUSTOMDPI
 70
   300
  0
ENDSEC
  0
EOF
