  0
SECTION
  2
HEADER
  9
$ACADVER
  1
AC1018
  9
$ACADMAINTVER
 70
    39
  9
$DWGCODEPAGE
  3
ANSI_1252
  9
$INSBASE
 10
0.0
 20
0.0
 30
0.0
  9
$EXTMIN
 10
-0.0471871086674294
 20
-0.0003109295068784
 30
0.0
  9
$EXTMAX
 10
462.9070452471804
 20
316.7821127176285
 30
0.0
  9
$LIMMIN
 10
0.0
 20
0.0
  9
$LIMMAX
 10
12.0
 20
9.0
  9
$ORTHOMODE
 70
     1
  9
$REGENMODE
 70
     1
  9
$FILLMODE
 70
     1
  9
$QTEXTMODE
 70
     0
  9
$MIRRTEXT
 70
     1
  9
$LTSCALE
 40
1.0
  9
$ATTMODE
 70
     1
  9
$TEXTSIZE
 40
0.2
  9
$TRACEWID
 40
0.05
  9
$TEXTSTYLE
  7
Standard
  9
$CLAYER
  8
0
  9
$CELTYPE
  6
ByLayer
  9
$CECOLOR
 62
   256
  9
$CELTSCALE
 40
1.0
  9
$DISPSILH
 70
     0
  9
$DIMSCALE
 40
1.0
  9
$DIMASZ
 40
0.18
  9
$DIMEXO
 40
0.0625
  9
$DIMDLI
 40
0.38
  9
$DIMRND
 40
0.0
  9
$DIMDLE
 40
0.0
  9
$DIMEXE
 40
0.18
  9
$DIMTP
 40
0.0
  9
$DIMTM
 40
0.0
  9
$DIMTXT
 40
0.18
  9
$DIMCEN
 40
0.09
  9
$DIMTSZ
 40
0.0
  9
$DIMTOL
 70
     0
  9
$DIMLIM
 70
     0
  9
$DIMTIH
 70
     1
  9
$DIMTOH
 70
     1
  9
$DIMSE1
 70
     0
  9
$DIMSE2
 70
     0
  9
$DIMTAD
 70
     0
  9
$DIMZIN
 70
     0
  9
$DIMBLK
  1

  9
$DIMASO
 70
     1
  9
$DIMSHO
 70
     1
  9
$DIMPOST
  1

  9
$DIMAPOST
  1

  9
$DIMALT
 70
     0
  9
$DIMALTD
 70
     2
  9
$DIMALTF
 40
25.4
  9
$DIMLFAC
 40
1.0
  9
$DIMTOFL
 70
     0
  9
$DIMTVP
 40
0.0
  9
$DIMTIX
 70
     0
  9
$DIMSOXD
 70
     0
  9
$DIMSAH
 70
     0
  9
$DIMBLK1
  1

  9
$DIMBLK2
  1

  9
$DIMSTYLE
  2
Standard
  9
$DIMCLRD
 70
     0
  9
$DIMCLRE
 70
     0
  9
$DIMCLRT
 70
     0
  9
$DIMTFAC
 40
1.0
  9
$DIMGAP
 40
0.09
  9
$DIMJUST
 70
     0
  9
$DIMSD1
 70
     0
  9
$DIMSD2
 70
     0
  9
$DIMTOLJ
 70
     1
  9
$DIMTZIN
 70
     0
  9
$DIMALTZ
 70
     0
  9
$DIMALTTZ
 70
     0
  9
$DIMUPT
 70
     0
  9
$DIMDEC
 70
     4
  9
$DIMTDEC
 70
     4
  9
$DIMALTU
 70
     2
  9
$DIMALTTD
 70
     2
  9
$DIMTXSTY
  7
Standard
  9
$DIMAUNIT
 70
     0
  9
$DIMADEC
 70
     0
  9
$DIMALTRND
 40
0.0
  9
$DIMAZIN
 70
     0
  9
$DIMDSEP
 70
    46
  9
$DIMATFIT
 70
     3
  9
$DIMFRAC
 70
     0
  9
$DIMLDRBLK
  1

  9
$DIMLUNIT
 70
     2
  9
$DIMLWD
 70
    -2
  9
$DIMLWE
 70
    -2
  9
$DIMTMOVE
 70
     0
  9
$LUNITS
 70
     2
  9
$LUPREC
 70
     2
  9
$SKETCHINC
 40
0.1
  9
$FILLETRAD
 40
0.5
  9
$AUNITS
 70
     0
  9
$AUPREC
 70
     0
  9
$MENU
  1
.
  9
$ELEVATION
 40
0.0
  9
$PELEVATION
 40
0.0
  9
$THICKNESS
 40
0.0
  9
$LIMCHECK
 70
     0
  9
$CHAMFERA
 40
0.5
  9
$CHAMFERB
 40
0.5
  9
$CHAMFERC
 40
1.0
  9
$CHAMFERD
 40
0.0
  9
$SKPOLY
 70
     0
  9
$TDCREATE
 40
2454981.704078333
  9
$TDUCREATE
 40
2454981.620745000
  9
$TDUPDATE
 40
2454986.478597303
  9
$TDUUPDATE
 40
2454986.395263970
  9
$TDINDWG
 40
0.0043295833
  9
$TDUSRTIMER
 40
0.0043295833
  9
$USRTIMER
 70
     1
  9
$ANGBASE
 50
0.0
  9
$ANGDIR
 70
     0
  9
$PDMODE
 70
     0
  9
$PDSIZE
 40
0.0
  9
$PLINEWID
 40
0.0
  9
$SPLFRAME
 70
     0
  9
$SPLINETYPE
 70
     6
  9
$SPLINESEGS
 70
     8
  9
$HANDSEED
  5
961
  9
$SURFTAB1
 70
     6
  9
$SURFTAB2
 70
     6
  9
$SURFTYPE
 70
     6
  9
$SURFU
 70
     6
  9
$SURFV
 70
     6
  9
$UCSBASE
  2

  9
$UCSNAME
  2

  9
$UCSORG
 10
0.0
 20
0.0
 30
0.0
  9
$UCSXDIR
 10
1.0
 20
0.0
 30
0.0
  9
$UCSYDIR
 10
0.0
 20
1.0
 30
0.0
  9
$UCSORTHOREF
  2

  9
$UCSORTHOVIEW
 70
     0
  9
$UCSORGTOP
 10
0.0
 20
0.0
 30
0.0
  9
$UCSORGBOTTOM
 10
0.0
 20
0.0
 30
0.0
  9
$UCSORGLEFT
 10
0.0
 20
0.0
 30
0.0
  9
$UCSORGRIGHT
 10
0.0
 20
0.0
 30
0.0
  9
$UCSORGFRONT
 10
0.0
 20
0.0
 30
0.0
  9
$UCSORGBACK
 10
0.0
 20
0.0
 30
0.0
  9
$PUCSBASE
  2

  9
$PUCSNAME
  2

  9
$PUCSORG
 10
0.0
 20
0.0
 30
0.0
  9
$PUCSXDIR
 10
1.0
 20
0.0
 30
0.0
  9
$PUCSYDIR
 10
0.0
 20
1.0
 30
0.0
  9
$PUCSORTHOREF
  2

  9
$PUCSORTHOVIEW
 70
     0
  9
$PUCSORGTOP
 10
0.0
 20
0.0
 30
0.0
  9
$PUCSORGBOTTOM
 10
0.0
 20
0.0
 30
0.0
  9
$PUCSORGLEFT
 10
0.0
 20
0.0
 30
0.0
  9
$PUCSORGRIGHT
 10
0.0
 20
0.0
 30
0.0
  9
$PUCSORGFRONT
 10
0.0
 20
0.0
 30
0.0
  9
$PUCSORGBACK
 10
0.0
 20
0.0
 30
0.0
  9
$USERI1
 70
     0
  9
$USERI2
 70
     0
  9
$USERI3
 70
     0
  9
$USERI4
 70
     0
  9
$USERI5
 70
     0
  9
$USERR1
 40
0.0
  9
$USERR2
 40
0.0
  9
$USERR3
 40
0.0
  9
$USERR4
 40
0.0
  9
$USERR5
 40
0.0
  9
$WORLDVIEW
 70
     1
  9
$SHADEDGE
 70
     3
  9
$SHADEDIF
 70
    70
  9
$TILEMODE
 70
     1
  9
$MAXACTVP
 70
    64
  9
$PINSBASE
 10
0.0
 20
0.0
 30
0.0
  9
$PLIMCHECK
 70
     0
  9
$PEXTMIN
 10
1.000000000000000E+20
 20
1.000000000000000E+20
 30
1.000000000000000E+20
  9
$PEXTMAX
 10
-1.000000000000000E+20
 20
-1.000000000000000E+20
 30
-1.000000000000000E+20
  9
$PLIMMIN
 10
0.0
 20
0.0
  9
$PLIMMAX
 10
12.0
 20
9.0
  9
$UNITMODE
 70
     0
  9
$VISRETAIN
 70
     1
  9
$PLINEGEN
 70
     0
  9
$PSLTSCALE
 70
     1
  9
$TREEDEPTH
 70
  3020
  9
$CMLSTYLE
  2
Standard
  9
$CMLJUST
 70
     0
  9
$CMLSCALE
 40
1.0
  9
$PROXYGRAPHICS
 70
     1
  9
$MEASUREMENT
 70
     0
  9
$CELWEIGHT
370
    -1
  9
$ENDCAPS
280
     0
  9
$JOINSTYLE
280
     0
  9
$LWDISPLAY
290
     0
  9
$INSUNITS
 70
     4
  9
$HYPERLINKBASE
  1

  9
$STYLESHEET
  1

  9
$XEDIT
290
     1
  9
$CEPSNTYPE
380
     0
  9
$PSTYLEMODE
290
     1
  9
$FINGERPRINTGUID
  2
{9E0C1E63-D911-4D31-AD0F-113B6F89F02B}
  9
$VERSIONGUID
  2
{4C4A5769-FE92-4B0A-AB27-7E007F608010}
  9
$EXTNAMES
290
     1
  9
$PSVPSCALE
 40
0.0
  9
$OLESTARTUP
290
     0
  9
$SORTENTS
280
   127
  9
$INDEXCTL
280
     0
  9
$HIDETEXT
280
     1
  9
$XCLIPFRAME
290
     0
  9
$HALOGAP
280
     0
  9
$OBSCOLOR
 70
   257
  9
$OBSLTYPE
280
     0
  9
$INTERSECTIONDISPLAY
280
     0
  9
$INTERSECTIONCOLOR
 70
   257
  9
$DIMASSOC
280
     2
  9
$PROJECTNAME
  1

  0
ENDSEC
  0
SECTION
  2
CLASSES
  0
CLASS
  1
ACDBDICTIONARYWDFLT
  2
AcDbDictionaryWithDefault
  3
ObjectDBX Classes
 90
        0
 91
        1
280
     0
281
     0
  0
CLASS
  1
TABLESTYLE
  2
AcDbTableStyle
  3
ObjectDBX Classes
 90
     2047
 91
        1
280
     0
281
     0
  0
CLASS
  1
SORTENTSTABLE
  2
AcDbSortentsTable
  3
ObjectDBX Classes
 90
        0
 91
        1
280
     0
281
     0
  0
CLASS
  1
DICTIONARYVAR
  2
AcDbDictionaryVar
  3
ObjectDBX Classes
 90
        0
 91
        1
280
     0
281
     0
  0
ENDSEC
  0
SECTION
  2
TABLES
  0
TABLE
  2
VPORT
  5
8
330
0
100
AcDbSymbolTable
 70
     3
  0
VPORT
  5
960
330
8
100
AcDbSymbolTableRecord
100
AcDbViewportTableRecord
  2
*Active
 70
     0
 10
0.0
 20
0.0
 11
1.0
 21
1.0
 12
-43.51819302000478
 22
-45.62546798016336
 13
0.0
 23
0.0
 14
0.5
 24
0.5
 15
0.5
 25
0.5
 16
0.0
 26
0.0
 36
1.0
 17
231.3948563304391
 27
158.3909008940608
 37
0.0
 40
584.2296133305343
 41
1.489236790606653
 42
50.0
 43
0.0
 44
0.0
 50
0.0
 51
0.0
 71
     0
 72
   100
 73
     1
 74
     3
 75
     0
 76
     0
 77
     0
 78
     0
281
     0
 65
     1
110
0.0
120
0.0
130
0.0
111
1.0
121
0.0
131
0.0
112
0.0
122
1.0
132
0.0
 79
     0
146
0.0
  0
ENDTAB
  0
TABLE
  2
LTYPE
  5
5
330
0
100
AcDbSymbolTable
 70
     2
  0
LTYPE
  5
14
330
5
100
AcDbSymbolTableRecord
100
AcDbLinetypeTableRecord
  2
ByBlock
 70
     0
  3

 72
    65
 73
     0
 40
0.0
  0
LTYPE
  5
15
330
5
100
AcDbSymbolTableRecord
100
AcDbLinetypeTableRecord
  2
ByLayer
 70
     0
  3

 72
    65
 73
     0
 40
0.0
  0
LTYPE
  5
16
330
5
100
AcDbSymbolTableRecord
100
AcDbLinetypeTableRecord
  2
Continuous
 70
     0
  3
Solid line
 72
    65
 73
     0
 40
0.0
  0
LTYPE
  5
8AF
330
5
100
AcDbSymbolTableRecord
100
AcDbLinetypeTableRecord
  2
PHANTOM
 70
     0
  3
Phantom ______  __  __  ______  __  __  ______
 72
    65
 73
     6
 40
12.7
 49
6.349999999999999
 74
     0
 49
-1.27
 74
     0
 49
1.27
 74
     0
 49
-1.27
 74
     0
 49
1.27
 74
     0
 49
-1.27
 74
     0
  0
ENDTAB
  0
TABLE
  2
LAYER
  5
2
330
0
100
AcDbSymbolTable
 70
     2
  0
LAYER
  5
10
330
2
100
AcDbSymbolTableRecord
100
AcDbLayerTableRecord
  2
0
 70
     0
 62
     7
  6
Continuous
370
    -3
390
F
  0
LAYER
  5
2A
330
2
100
AcDbSymbolTableRecord
100
AcDbLayerTableRecord
  2
LINEE VISIBILI 2D
 70
     0
 62
     7
  6
Continuous
370
    -3
390
F
  0
ENDTAB
  0
TABLE
  2
STYLE
  5
3
330
0
100
AcDbSymbolTable
 70
     1
  0
STYLE
  5
11
330
3
100
AcDbSymbolTableRecord
100
AcDbTextStyleTableRecord
  2
Standard
 70
     0
 40
0.0
 41
1.0
 50
0.0
 71
     0
 42
0.2
  3
txt
  4

  0
ENDTAB
  0
TABLE
  2
VIEW
  5
6
330
0
100
AcDbSymbolTable
 70
     0
  0
ENDTAB
  0
TABLE
  2
UCS
  5
7
330
0
100
AcDbSymbolTable
 70
     0
  0
ENDTAB
  0
TABLE
  2
APPID
  5
9
330
0
100
AcDbSymbolTable
 70
     1
  0
APPID
  5
12
330
9
100
AcDbSymbolTableRecord
100
AcDbRegAppTableRecord
  2
ACAD
 70
     0
  0
ENDTAB
  0
TABLE
  2
DIMSTYLE
  5
A
330
0
100
AcDbSymbolTable
 70
     1
100
AcDbDimStyleTable
 71
     0
  0
DIMSTYLE
105
27
330
A
100
AcDbSymbolTableRecord
100
AcDbDimStyleTableRecord
  2
Standard
 70
     0
340
11
  0
ENDTAB
  0
TABLE
  2
BLOCK_RECORD
  5
1
330
0
100
AcDbSymbolTable
 70
     1
  0
BLOCK_RECORD
  5
1F
102
{ACAD_XDICTIONARY
360
843
102
}
330
1
100
AcDbSymbolTableRecord
100
AcDbBlockTableRecord
  2
*Model_Space
340
22
  0
BLOCK_RECORD
  5
1B
330
1
100
AcDbSymbolTableRecord
100
AcDbBlockTableRecord
  2
*Paper_Space
340
1E
  0
BLOCK_RECORD
  5
23
330
1
100
AcDbSymbolTableRecord
100
AcDbBlockTableRecord
  2
*Paper_Space0
340
26
  0
ENDTAB
  0
ENDSEC
  0
SECTION
  2
BLOCKS
  0
BLOCK
  5
20
330
1F
100
AcDbEntity
  8
0
100
AcDbBlockBegin
  2
*Model_Space
 70
     0
 10
0.0
 20
0.0
 30
0.0
  3
*Model_Space
  1

  0
ENDBLK
  5
21
330
1F
100
AcDbEntity
  8
0
100
AcDbBlockEnd
  0
BLOCK
  5
1C
330
1B
100
AcDbEntity
 67
     1
  8
0
100
AcDbBlockBegin
  2
*Paper_Space
 70
     0
 10
0.0
 20
0.0
 30
0.0
  3
*Paper_Space
  1

  0
ENDBLK
  5
1D
330
1B
100
AcDbEntity
 67
     1
  8
0
100
AcDbBlockEnd
  0
BLOCK
  5
24
330
23
100
AcDbEntity
  8
0
100
AcDbBlockBegin
  2
*Paper_Space0
 70
     0
 10
0.0
 20
0.0
 30
0.0
  3
*Paper_Space0
  1

  0
ENDBLK
  5
25
330
23
100
AcDbEntity
  8
0
100
AcDbBlockEnd
  0
ENDSEC
  0
SECTION
  2
ENTITIES
  0
LINE
  5
2B
330
1F
100
AcDbEntity
  8
LINEE VISIBILI 2D
100
AcDbLine
 10
20.79995797318389
 20
316.7821005040334
 30
0.0
 11
20.79995797318389
 21
312.8821005040335
 31
0.0
  0
LINE
  5
2C
330
1F
100
AcDbEntity
  8
LINEE VISIBILI 2D
100
AcDbLine
 10
19.19995797318392
 20
312.8821005040335
 30
0.0
 11
19.19995797318392
 21
316.7821005040334
 31
0.0
  0
LINE
  5
2D
330
1F
100
AcDbEntity
  8
LINEE VISIBILI 2D
100
AcDbLine
 10
27.49642081373004
 20
316.7783893853235
 30
0.0
 11
25.59995797318391
 21
314.7821127110645
 31
0.0
  0
LINE
  5
2E
330
1F
100
AcDbEntity
  8
LINEE VISIBILI 2D
100
AcDbLine
 10
14.39995797318391
 20
314.7821127110645
 30
0.0
 11
12.50349513263776
 21
316.7783893853235
 31
0.0
  0
LINE
  5
95
330
1F
100
AcDbEntity
  8
LINEE VISIBILI 2D
100
AcDbLine
 10
20.01995797318392
 20
312.8821005040336
 30
0.0
 11
20.01995797318392
 21
216.4434356636091
 31
0.0
  0
LINE
  5
96
330
1F
100
AcDbEntity
  8
LINEE VISIBILI 2D
100
AcDbLine
 10
19.9799579731839
 20
216.4436061513607
 30
0.0
 11
19.9799579731839
 21
312.8821005040334
 31
0.0
  0
POLYLINE
  5
BB
330
1F
100
AcDbEntity
  8
LINEE VISIBILI 2D
100
AcDb2dPolyline
 66
     1
 10
0.0
 20
0.0
 30
0.0
  0
VERTEX
  5
BD
330
BB
100
AcDbEntity
  8
LINEE VISIBILI 2D
100
AcDbVertex
100
AcDb2dVertex
 10
29.05490562843566
 20
215.6617608154072
 30
0.0
  0
VERTEX
  5
BE
330
BB
100
AcDbEntity
  8
LINEE VISIBILI 2D
100
AcDbVertex
100
AcDb2dVertex
 10
29.39435926531164
 20
215.5834574361565
 30
0.0
  0
VERTEX
  5
BF
330
BB
100
AcDbEntity
  8
LINEE VISIBILI 2D
100
AcDbVertex
100
AcDb2dVertex
 10
29.73216650184525
 20
215.4984524221327
 30
0.0
  0
VERTEX
  5
C0
330
BB
100
AcDbEntity
  8
LINEE VISIBILI 2D
100
AcDbVertex
100
AcDb2dVertex
 10
30.03531498516065
 20
215.416137266426
 30
0.0
  0
VERTEX
  5
C1
330
BB
100
AcDbEntity
  8
LINEE VISIBILI 2D
100
AcDbVertex
100
AcDb2dVertex
 10
30.33665235326459
 20
215.3273991513409
 30
0.0
  0
VERTEX
  5
C2
330
BB
100
AcDbEntity
  8
LINEE VISIBILI 2D
100
AcDbVertex
100
AcDb2dVertex
 10
30.58889900269496
 20
215.2465895471858
 30
0.0
  0
VERTEX
  5
C3
330
BB
100
AcDbEntity
  8
LINEE VISIBILI 2D
100
AcDbVertex
100
AcDb2dVertex
 10
30.83894020663228
 20
215.1593299993018
 30
0.0
  0
VERTEX
  5
C4
330
BB
100
AcDbEntity
  8
LINEE VISIBILI 2D
100
AcDbVertex
100
AcDb2dVertex
 10
31.086232533652
 20
215.0646742498505
 30
0.0
  0
VERTEX
  5
C5
330
BB
100
AcDbEntity
  8
LINEE VISIBILI 2D
100
AcDbVertex
100
AcDb2dVertex
 10
31.20867804599758
 20
215.0142770939625
 30
0.0
  0
VERTEX
  5
C6
330
BB
100
AcDbEntity
  8
LINEE VISIBILI 2D
100
AcDbVertex
100
AcDb2dVertex
 10
31.42481138702045
 20
214.9188015968522
 30
0.0
  0
VERTEX
  5
C7
330
BB
100
AcDbEntity
  8
LINEE VISIBILI 2D
100
AcDbVertex
100
AcDb2dVertex
 10
31.51861306034533
 20
214.8742660725515
 30
0.0
  0
VERTEX
  5
C8
330
BB
100
AcDbEntity
  8
LINEE VISIBILI 2D
100
AcDbVertex
100
AcDb2dVertex
 10
31.6114494910118
 20
214.8278349180331
 30
0.0
  0
VERTEX
  5
C9
330
BB
100
AcDbEntity
  8
LINEE VISIBILI 2D
100
AcDbVertex
100
AcDb2dVertex
 10
31.70313259772747
 20
214.7792735832386
 30
0.0
  0
VERTEX
  5
CA
330
BB
100
AcDbEntity
  8
LINEE VISIBILI 2D
100
AcDbVertex
100
AcDb2dVertex
 10
31.79347429919995
 20
214.7283475181098
 30
0.0
  0
VERTEX
  5
CB
330
BB
100
AcDbEntity
  8
LINEE VISIBILI 2D
100
AcDbVertex
100
AcDb2dVertex
 10
31.88228651413682
 20
214.6748221725886
 30
0.0
  0
VERTEX
  5
CC
330
BB
100
AcDbEntity
  8
LINEE VISIBILI 2D
100
AcDbVertex
100
AcDb2dVertex
 10
31.96938116124571
 20
214.6184629966165
 30
0.0
  0
VERTEX
  5
CD
330
BB
100
AcDbEntity
  8
LINEE VISIBILI 2D
100
AcDbVertex
100
AcDb2dVertex
 10
32.01222562146078
 20
214.5891474253182
 30
0.0
  0
VERTEX
  5
CE
330
BB
100
AcDbEntity
  8
LINEE VISIBILI 2D
100
AcDbVertex
100
AcDb2dVertex
 10
32.0545701592342
 20
214.5590354401354
 30
0.0
  0
VERTEX
  5
CF
330
BB
100
AcDbEntity
  8
LINEE VISIBILI 2D
100
AcDbVertex
100
AcDb2dVertex
 10
32.11355095570158
 20
214.5149663090795
 30
0.0
  0
VERTEX
  5
D0
330
BB
100
AcDbEntity
  8
LINEE VISIBILI 2D
100
AcDbVertex
100
AcDb2dVertex
 10
32.14251482529991
 20
214.4922381195908
 30
0.0
  0
VERTEX
  5
D1
330
BB
100
AcDbEntity
  8
LINEE VISIBILI 2D
100
AcDbVertex
100
AcDb2dVertex
 10
32.17105663218961
 20
214.4690085032309
 30
0.0
  0
VERTEX
  5
D2
330
BB
100
AcDbEntity
  8
LINEE VISIBILI 2D
100
AcDbVertex
100
AcDb2dVertex
 10
32.19912309365684
 20
214.4452482018265
 30
0.0
  0
VERTEX
  5
D3
330
BB
100
AcDbEntity
  8
LINEE VISIBILI 2D
100
AcDbVertex
100
AcDb2dVertex
 10
32.22666092698779
 20
214.4209279572043
 30
0.0
  0
VERTEX
  5
D4
330
BB
100
AcDbEntity
  8
LINEE VISIBILI 2D
100
AcDbVertex
100
AcDb2dVertex
 10
32.25361684946867
 20
214.3960185111913
 30
0.0
  0
VERTEX
  5
D5
330
BB
100
AcDbEntity
  8
LINEE VISIBILI 2D
100
AcDbVertex
100
AcDb2dVertex
 10
32.27993757838566
 20
214.3704906056143
 30
0.0
  0
VERTEX
  5
D6
330
BB
100
AcDbEntity
  8
LINEE VISIBILI 2D
100
AcDbVertex
100
AcDb2dVertex
 10
32.30556983102495
 20
214.3443149822999
 30
0.0
  0
VERTEX
  5
D7
330
BB
100
AcDbEntity
  8
LINEE VISIBILI 2D
100
AcDbVertex
100
AcDb2dVertex
 10
32.33046032467273
 20
214.3174623830752
 30
0.0
  0
VERTEX
  5
D8
330
BB
100
AcDbEntity
  8
LINEE VISIBILI 2D
100
AcDbVertex
100
AcDb2dVertex
 10
32.35455577661518
 20
214.2899035497669
 30
0.0
  0
VERTEX
  5
D9
330
BB
100
AcDbEntity
  8
LINEE VISIBILI 2D
100
AcDbVertex
100
AcDb2dVertex
 10
32.37780290413851
 20
214.2616092242017
 30
0.0
  0
VERTEX
  5
DA
330
BB
100
AcDbEntity
  8
LINEE VISIBILI 2D
100
AcDbVertex
100
AcDb2dVertex
 10
32.4001484245289
 20
214.2325501482066
 30
0.0
  0
VERTEX
  5
DB
330
BB
100
AcDbEntity
  8
LINEE VISIBILI 2D
100
AcDbVertex
100
AcDb2dVertex
 10
32.42153905507251
 20
214.2026970636084
 30
0.0
  0
VERTEX
  5
DC
330
BB
100
AcDbEntity
  8
LINEE VISIBILI 2D
100
AcDbVertex
100
AcDb2dVertex
 10
32.43185963580373
 20
214.187463624904
 30
0.0
  0
VERTEX
  5
DD
330
BB
100
AcDbEntity
  8
LINEE VISIBILI 2D
100
AcDbVertex
100
AcDb2dVertex
 10
32.44192151305558
 20
214.1720207122338
 30
0.0
  0
VERTEX
  5
DE
330
BB
100
AcDbEntity
  8
LINEE VISIBILI 2D
100
AcDbVertex
100
AcDb2dVertex
 10
32.45171802648883
 20
214.1563646683263
 30
0.0
  0
VERTEX
  5
DF
330
BB
100
AcDbEntity
  8
LINEE VISIBILI 2D
100
AcDbVertex
100
AcDb2dVertex
 10
32.46124251576427
 20
214.1404918359098
 30
0.0
  0
SEQEND
  5
BC
330
BB
100
AcDbEntity
  8
LINEE VISIBILI 2D
  0
ARC
  5
E0
330
1F
100
AcDbEntity
  8
LINEE VISIBILI 2D
100
AcDbCircle
 10
19.76314511618675
 20
160.8822609980227
 30
0.0
 40
55.56176817797748
100
AcDbArc
 50
80.37319476878748
 51
98.374868844597
  0
LINE
  5
E1
330
1F
100
AcDbEntity
  8
LINEE VISIBILI 2D
100
AcDbLine
 10
32.46130351915599
 20
214.1403131187344
 30
0.0
 11
39.78971221161958
 21
201.5052825405732
 31
0.0
  0
LINE
  5
E2
330
1F
100
AcDbEntity
  8
LINEE VISIBILI 2D
100
AcDbLine
 10
0.2100284600128361
 20
201.5054275230632
 30
0.0
 11
7.655445100320625
 21
214.3157735780754
 31
0.0
  0
POLYLINE
  5
102
330
1F
100
AcDbEntity
  8
LINEE VISIBILI 2D
100
AcDb2dPolyline
 66
     1
 10
0.0
 20
0.0
 30
0.0
  0
VERTEX
  5
104
330
102
100
AcDbEntity
  8
LINEE VISIBILI 2D
100
AcDbVertex
100
AcDb2dVertex
 10
7.655445100320625
 20
214.3157735780754
 30
0.0
  0
VERTEX
  5
105
330
102
100
AcDbEntity
  8
LINEE VISIBILI 2D
100
AcDbVertex
100
AcDb2dVertex
 10
7.684755673802555
 20
214.3501791862203
 30
0.0
  0
VERTEX
  5
106
330
102
100
AcDbEntity
  8
LINEE VISIBILI 2D
100
AcDbVertex
100
AcDb2dVertex
 10
7.715183902405262
 20
214.3835406557104
 30
0.0
  0
VERTEX
  5
107
330
102
100
AcDbEntity
  8
LINEE VISIBILI 2D
100
AcDbVertex
100
AcDb2dVertex
 10
7.746648241099932
 20
214.415902935574
 30
0.0
  0
VERTEX
  5
108
330
102
100
AcDbEntity
  8
LINEE VISIBILI 2D
100
AcDbVertex
100
AcDb2dVertex
 10
7.779067144857755
 20
214.4473109748394
 30
0.0
  0
VERTEX
  5
109
330
102
100
AcDbEntity
  8
LINEE VISIBILI 2D
100
AcDbVertex
100
AcDb2dVertex
 10
7.81235906864992
 20
214.477809722535
 30
0.0
  0
VERTEX
  5
10A
330
102
100
AcDbEntity
  8
LINEE VISIBILI 2D
100
AcDbVertex
100
AcDb2dVertex
 10
7.846442467447616
 20
214.5074441276889
 30
0.0
  0
VERTEX
  5
10B
330
102
100
AcDbEntity
  8
LINEE VISIBILI 2D
100
AcDbVertex
100
AcDb2dVertex
 10
7.881235796222032
 20
214.5362591393294
 30
0.0
  0
VERTEX
  5
10C
330
102
100
AcDbEntity
  8
LINEE VISIBILI 2D
100
AcDbVertex
100
AcDb2dVertex
 10
7.916657509944355
 20
214.564299706485
 30
0.0
  0
VERTEX
  5
10D
330
102
100
AcDbEntity
  8
LINEE VISIBILI 2D
100
AcDbVertex
100
AcDb2dVertex
 10
7.961243910059308
 20
214.5979827536049
 30
0.0
  0
VERTEX
  5
10E
330
102
100
AcDbEntity
  8
LINEE VISIBILI 2D
100
AcDbVertex
100
AcDb2dVertex
 10
8.00660251780668
 20
214.6306104252056
 30
0.0
  0
VERTEX
  5
10F
330
102
100
AcDbEntity
  8
LINEE VISIBILI 2D
100
AcDbVertex
100
AcDb2dVertex
 10
8.052668518135536
 20
214.6622439508717
 30
0.0
  0
VERTEX
  5
110
330
102
100
AcDbEntity
  8
LINEE VISIBILI 2D
100
AcDbVertex
100
AcDb2dVertex
 10
8.099377095994942
 20
214.6929445601877
 30
0.0
  0
VERTEX
  5
111
330
102
100
AcDbEntity
  8
LINEE VISIBILI 2D
100
AcDbVertex
100
AcDb2dVertex
 10
8.194462724101637
 20
214.7517919481085
 30
0.0
  0
VERTEX
  5
112
330
102
100
AcDbEntity
  8
LINEE VISIBILI 2D
100
AcDbVertex
100
AcDb2dVertex
 10
8.291340881719261
 20
214.8076424256452
 30
0.0
  0
VERTEX
  5
113
330
102
100
AcDbEntity
  8
LINEE VISIBILI 2D
100
AcDbVertex
100
AcDb2dVertex
 10
8.416549177118744
 20
214.875037871069
 30
0.0
  0
VERTEX
  5
114
330
102
100
AcDbEntity
  8
LINEE VISIBILI 2D
100
AcDbVertex
100
AcDb2dVertex
 10
8.543628662966099
 20
214.9386665550725
 30
0.0
  0
VERTEX
  5
115
330
102
100
AcDbEntity
  8
LINEE VISIBILI 2D
100
AcDbVertex
100
AcDb2dVertex
 10
8.672387228697164
 20
214.9988220072504
 30
0.0
  0
VERTEX
  5
116
330
102
100
AcDbEntity
  8
LINEE VISIBILI 2D
100
AcDbVertex
100
AcDb2dVertex
 10
8.802632763747771
 20
215.055797757198
 30
0.0
  0
VERTEX
  5
117
330
102
100
AcDbEntity
  8
LINEE VISIBILI 2D
100
AcDbVertex
100
AcDb2dVertex
 10
8.934173157553756
 20
215.1098873345102
 30
0.0
  0
VERTEX
  5
118
330
102
100
AcDbEntity
  8
LINEE VISIBILI 2D
100
AcDbVertex
100
AcDb2dVertex
 10
9.066816299550952
 20
215.1613842687821
 30
0.0
  0
VERTEX
  5
119
330
102
100
AcDbEntity
  8
LINEE VISIBILI 2D
100
AcDbVertex
100
AcDb2dVertex
 10
9.334642385862316
 20
215.2577743265851
 30
0.0
  0
VERTEX
  5
11A
330
102
100
AcDbEntity
  8
LINEE VISIBILI 2D
100
AcDbVertex
100
AcDb2dVertex
 10
9.696375998016725
 20
215.3756809086527
 30
0.0
  0
VERTEX
  5
11B
330
102
100
AcDbEntity
  8
LINEE VISIBILI 2D
100
AcDbVertex
100
AcDb2dVertex
 10
10.06133871695791
 20
215.4826718900615
 30
0.0
  0
VERTEX
  5
11C
330
102
100
AcDbEntity
  8
LINEE VISIBILI 2D
100
AcDbVertex
100
AcDb2dVertex
 10
10.42899339934171
 20
215.5800805730245
 30
0.0
  0
VERTEX
  5
11D
330
102
100
AcDbEntity
  8
LINEE VISIBILI 2D
100
AcDbVertex
100
AcDb2dVertex
 10
10.79880290182396
 20
215.6692402597546
 30
0.0
  0
VERTEX
  5
11E
330
102
100
AcDbEntity
  8
LINEE VISIBILI 2D
100
AcDbVertex
100
AcDb2dVertex
 10
11.2337929166509
 20
215.7647038760782
 30
0.0
  0
VERTEX
  5
11F
330
102
100
AcDbEntity
  8
LINEE VISIBILI 2D
100
AcDbVertex
100
AcDb2dVertex
 10
11.67062366990094
 20
215.8515358677599
 30
0.0
  0
VERTEX
  5
120
330
102
100
AcDbEntity
  8
LINEE VISIBILI 2D
100
AcDbVertex
100
AcDb2dVertex
 10
11.67062366990094
 20
215.8515358677599
 30
0.0
  0
SEQEND
  5
103
330
102
100
AcDbEntity
  8
LINEE VISIBILI 2D
  0
LINE
  5
124
330
1F
100
AcDbEntity
  8
LINEE VISIBILI 2D
100
AcDbLine
 10
20.79995797318389
 20
312.8821005040335
 30
0.0
 11
19.99995797318391
 21
312.8821005040335
 31
0.0
  0
LINE
  5
125
330
1F
100
AcDbEntity
  8
LINEE VISIBILI 2D
100
AcDbLine
 10
19.99995797318391
 20
312.8821005040335
 30
0.0
 11
19.19995797318392
 21
312.8821005040335
 31
0.0
  0
LINE
  5
126
330
1F
100
AcDbEntity
  8
LINEE VISIBILI 2D
100
AcDbLine
 10
19.19995797318392
 20
316.7821005040334
 30
0.0
 11
19.99995797318391
 21
316.7821005040334
 31
0.0
  0
LINE
  5
127
330
1F
100
AcDbEntity
  8
LINEE VISIBILI 2D
100
AcDbLine
 10
19.99995797318391
 20
316.7821005040334
 30
0.0
 11
20.79995797318389
 21
316.7821005040334
 31
0.0
  0
LINE
  5
128
330
1F
100
AcDbEntity
  8
LINEE VISIBILI 2D
100
AcDbLine
 10
20.79995797239796
 20
316.7821127110644
 30
0.0
 11
27.49250152347644
 21
316.7821127110646
 31
0.0
  0
LINE
  5
129
330
1F
100
AcDbEntity
  8
LINEE VISIBILI 2D
100
AcDbLine
 10
25.59439049073566
 20
314.7821127176285
 30
0.0
 11
20.79995797412073
 21
314.7821127110644
 31
0.0
  0
LINE
  5
12A
330
1F
100
AcDbEntity
  8
LINEE VISIBILI 2D
100
AcDbLine
 10
12.50741442289139
 20
316.7821127176285
 30
0.0
 11
19.19995797396986
 21
316.7821127110645
 31
0.0
  0
LINE
  5
12B
330
1F
100
AcDbEntity
  8
LINEE VISIBILI 2D
100
AcDbLine
 10
19.19995797224713
 20
314.7821127110645
 30
0.0
 11
14.40552545563216
 21
314.7821127110645
 31
0.0
  0
POLYLINE
  5
12C
330
1F
100
AcDbEntity
  8
LINEE VISIBILI 2D
100
AcDb2dPolyline
 66
     1
 10
0.0
 20
0.0
 30
0.0
  0
VERTEX
  5
12E
330
12C
100
AcDbEntity
  8
LINEE VISIBILI 2D
100
AcDbVertex
100
AcDb2dVertex
 10
40.00000000000011
 20
200.7819566869941
 30
0.0
  0
VERTEX
  5
12F
330
12C
100
AcDbEntity
  8
LINEE VISIBILI 2D
100
AcDbVertex
100
AcDb2dVertex
 10
39.99960329190706
 20
200.7505585451302
 30
0.0
  0
VERTEX
  5
130
330
12C
100
AcDbEntity
  8
LINEE VISIBILI 2D
100
AcDbVertex
100
AcDb2dVertex
 10
39.99839546716759
 20
200.7191867029056
 30
0.0
  0
VERTEX
  5
131
330
12C
100
AcDbEntity
  8
LINEE VISIBILI 2D
100
AcDbVertex
100
AcDb2dVertex
 10
39.99638926340298
 20
200.6878569949282
 30
0.0
  0
VERTEX
  5
132
330
12C
100
AcDbEntity
  8
LINEE VISIBILI 2D
100
AcDbVertex
100
AcDb2dVertex
 10
39.99359741823459
 20
200.6565852558062
 30
0.0
  0
VERTEX
  5
133
330
12C
100
AcDbEntity
  8
LINEE VISIBILI 2D
100
AcDbVertex
100
AcDb2dVertex
 10
39.99003266928371
 20
200.6253873201476
 30
0.0
  0
VERTEX
  5
134
330
12C
100
AcDbEntity
  8
LINEE VISIBILI 2D
100
AcDbVertex
100
AcDb2dVertex
 10
39.98570775417165
 20
200.5942790225605
 30
0.0
  0
VERTEX
  5
135
330
12C
100
AcDbEntity
  8
LINEE VISIBILI 2D
100
AcDbVertex
100
AcDb2dVertex
 10
39.98063541051975
 20
200.5632761976529
 30
0.0
  0
VERTEX
  5
136
330
12C
100
AcDbEntity
  8
LINEE VISIBILI 2D
100
AcDbVertex
100
AcDb2dVertex
 10
39.97482837594931
 20
200.5323946800328
 30
0.0
  0
VERTEX
  5
137
330
12C
100
AcDbEntity
  8
LINEE VISIBILI 2D
100
AcDbVertex
100
AcDb2dVertex
 10
39.96829938808165
 20
200.5016503043083
 30
0.0
  0
VERTEX
  5
138
330
12C
100
AcDbEntity
  8
LINEE VISIBILI 2D
100
AcDbVertex
100
AcDb2dVertex
 10
39.96106118453811
 20
200.4710589050874
 30
0.0
  0
VERTEX
  5
139
330
12C
100
AcDbEntity
  8
LINEE VISIBILI 2D
100
AcDbVertex
100
AcDb2dVertex
 10
39.95312650293998
 20
200.4406363169783
 30
0.0
  0
VERTEX
  5
13A
330
12C
100
AcDbEntity
  8
LINEE VISIBILI 2D
100
AcDbVertex
100
AcDb2dVertex
 10
39.94450808090858
 20
200.410398374589
 30
0.0
  0
VERTEX
  5
13B
330
12C
100
AcDbEntity
  8
LINEE VISIBILI 2D
100
AcDbVertex
100
AcDb2dVertex
 10
39.93521865606523
 20
200.3803609125274
 30
0.0
  0
VERTEX
  5
13C
330
12C
100
AcDbEntity
  8
LINEE VISIBILI 2D
100
AcDbVertex
100
AcDb2dVertex
 10
39.92527096603125
 20
200.3505397654018
 30
0.0
  0
VERTEX
  5
13D
330
12C
100
AcDbEntity
  8
LINEE VISIBILI 2D
100
AcDbVertex
100
AcDb2dVertex
 10
39.91467774842796
 20
200.32095076782
 30
0.0
  0
VERTEX
  5
13E
330
12C
100
AcDbEntity
  8
LINEE VISIBILI 2D
100
AcDbVertex
100
AcDb2dVertex
 10
39.90345174087667
 20
200.2916097543902
 30
0.0
  0
VERTEX
  5
13F
330
12C
100
AcDbEntity
  8
LINEE VISIBILI 2D
100
AcDbVertex
100
AcDb2dVertex
 10
39.88999131308258
 20
200.2586949700549
 30
0.0
  0
VERTEX
  5
140
330
12C
100
AcDbEntity
  8
LINEE VISIBILI 2D
100
AcDbVertex
100
AcDb2dVertex
 10
39.87576415133318
 20
200.2261171385973
 30
0.0
  0
VERTEX
  5
141
330
12C
100
AcDbEntity
  8
LINEE VISIBILI 2D
100
AcDbVertex
100
AcDb2dVertex
 10
39.86079884295643
 20
200.1938748210117
 30
0.0
  0
VERTEX
  5
142
330
12C
100
AcDbEntity
  8
LINEE VISIBILI 2D
100
AcDbVertex
100
AcDb2dVertex
 10
39.84512397528025
 20
200.1619665782923
 30
0.0
  0
VERTEX
  5
143
330
12C
100
AcDbEntity
  8
LINEE VISIBILI 2D
100
AcDbVertex
100
AcDb2dVertex
 10
39.82876813563257
 20
200.1303909714332
 30
0.0
  0
VERTEX
  5
144
330
12C
100
AcDbEntity
  8
LINEE VISIBILI 2D
100
AcDbVertex
100
AcDb2dVertex
 10
39.81175991134135
 20
200.0991465614286
 30
0.0
  0
VERTEX
  5
145
330
12C
100
AcDbEntity
  8
LINEE VISIBILI 2D
100
AcDbVertex
100
AcDb2dVertex
 10
39.7941278897345
 20
200.0682319092727
 30
0.0
  0
VERTEX
  5
146
330
12C
100
AcDbEntity
  8
LINEE VISIBILI 2D
100
AcDbVertex
100
AcDb2dVertex
 10
39.77590065813997
 20
200.0376455759596
 30
0.0
  0
VERTEX
  5
147
330
12C
100
AcDbEntity
  8
LINEE VISIBILI 2D
100
AcDbVertex
100
AcDb2dVertex
 10
39.75710680388568
 20
200.0073861224836
 30
0.0
  0
VERTEX
  5
148
330
12C
100
AcDbEntity
  8
LINEE VISIBILI 2D
100
AcDbVertex
100
AcDb2dVertex
 10
39.73777491429959
 20
199.9774521098388
 30
0.0
  0
VERTEX
  5
149
330
12C
100
AcDbEntity
  8
LINEE VISIBILI 2D
100
AcDbVertex
100
AcDb2dVertex
 10
39.6976113784437
 20
199.9185546510197
 30
0.0
  0
VERTEX
  5
14A
330
12C
100
AcDbEntity
  8
LINEE VISIBILI 2D
100
AcDbVertex
100
AcDb2dVertex
 10
39.65563874919579
 20
199.8609416874555
 30
0.0
  0
VERTEX
  5
14B
330
12C
100
AcDbEntity
  8
LINEE VISIBILI 2D
100
AcDbVertex
100
AcDb2dVertex
 10
39.61208572517934
 20
199.8046017070998
 30
0.0
  0
VERTEX
  5
14C
330
12C
100
AcDbEntity
  8
LINEE VISIBILI 2D
100
AcDbVertex
100
AcDb2dVertex
 10
39.55226856998712
 20
199.7318876493931
 30
0.0
  0
VERTEX
  5
14D
330
12C
100
AcDbEntity
  8
LINEE VISIBILI 2D
100
AcDbVertex
100
AcDb2dVertex
 10
39.49019810537005
 20
199.6613102344037
 30
0.0
  0
VERTEX
  5
14E
330
12C
100
AcDbEntity
  8
LINEE VISIBILI 2D
100
AcDbVertex
100
AcDb2dVertex
 10
39.42599384289162
 20
199.5927916683721
 30
0.0
  0
VERTEX
  5
14F
330
12C
100
AcDbEntity
  8
LINEE VISIBILI 2D
100
AcDbVertex
100
AcDb2dVertex
 10
39.35977529411533
 20
199.526254157539
 30
0.0
  0
VERTEX
  5
150
330
12C
100
AcDbEntity
  8
LINEE VISIBILI 2D
100
AcDbVertex
100
AcDb2dVertex
 10
39.29166197060466
 20
199.4616199081447
 30
0.0
  0
VERTEX
  5
151
330
12C
100
AcDbEntity
  8
LINEE VISIBILI 2D
100
AcDbVertex
100
AcDb2dVertex
 10
39.22177338392311
 20
199.39881112643
 30
0.0
  0
VERTEX
  5
152
330
12C
100
AcDbEntity
  8
LINEE VISIBILI 2D
100
AcDbVertex
100
AcDb2dVertex
 10
39.15022904563418
 20
199.3377500186353
 30
0.0
  0
VERTEX
  5
153
330
12C
100
AcDbEntity
  8
LINEE VISIBILI 2D
100
AcDbVertex
100
AcDb2dVertex
 10
39.07714846730136
 20
199.2783587910011
 30
0.0
  0
VERTEX
  5
154
330
12C
100
AcDbEntity
  8
LINEE VISIBILI 2D
100
AcDbVertex
100
AcDb2dVertex
 10
39.00265116048814
 20
199.2205596497682
 30
0.0
  0
VERTEX
  5
155
330
12C
100
AcDbEntity
  8
LINEE VISIBILI 2D
100
AcDbVertex
100
AcDb2dVertex
 10
38.92685663675802
 20
199.1642748011768
 30
0.0
  0
VERTEX
  5
156
330
12C
100
AcDbEntity
  8
LINEE VISIBILI 2D
100
AcDbVertex
100
AcDb2dVertex
 10
38.84988440767449
 20
199.1094264514676
 30
0.0
  0
VERTEX
  5
157
330
12C
100
AcDbEntity
  8
LINEE VISIBILI 2D
100
AcDbVertex
100
AcDb2dVertex
 10
38.77185398480104
 20
199.0559368068812
 30
0.0
  0
VERTEX
  5
158
330
12C
100
AcDbEntity
  8
LINEE VISIBILI 2D
100
AcDbVertex
100
AcDb2dVertex
 10
38.61309660393836
 20
198.9527224580389
 30
0.0
  0
VERTEX
  5
159
330
12C
100
AcDbEntity
  8
LINEE VISIBILI 2D
100
AcDbVertex
100
AcDb2dVertex
 10
38.45154058667794
 20
198.8540094045741
 30
0.0
  0
VERTEX
  5
15A
330
12C
100
AcDbEntity
  8
LINEE VISIBILI 2D
100
AcDbVertex
100
AcDb2dVertex
 10
38.22948764628889
 20
198.7264871847136
 30
0.0
  0
VERTEX
  5
15B
330
12C
100
AcDbEntity
  8
LINEE VISIBILI 2D
100
AcDbVertex
100
AcDb2dVertex
 10
38.0043066823745
 20
198.6056204047698
 30
0.0
  0
VERTEX
  5
15C
330
12C
100
AcDbEntity
  8
LINEE VISIBILI 2D
100
AcDbVertex
100
AcDb2dVertex
 10
37.77625357956025
 20
198.4909406609905
 30
0.0
  0
VERTEX
  5
15D
330
12C
100
AcDbEntity
  8
LINEE VISIBILI 2D
100
AcDbVertex
100
AcDb2dVertex
 10
37.54558422247161
 20
198.3819795496238
 30
0.0
  0
VERTEX
  5
15E
330
12C
100
AcDbEntity
  8
LINEE VISIBILI 2D
100
AcDbVertex
100
AcDb2dVertex
 10
37.31255449573405
 20
198.2782686669174
 30
0.0
  0
VERTEX
  5
15F
330
12C
100
AcDbEntity
  8
LINEE VISIBILI 2D
100
AcDbVertex
100
AcDb2dVertex
 10
37.07742028397307
 20
198.1793396091194
 30
0.0
  0
VERTEX
  5
160
330
12C
100
AcDbEntity
  8
LINEE VISIBILI 2D
100
AcDbVertex
100
AcDb2dVertex
 10
36.60186194388272
 20
197.9939533532399
 30
0.0
  0
VERTEX
  5
161
330
12C
100
AcDbEntity
  8
LINEE VISIBILI 2D
100
AcDbVertex
100
AcDb2dVertex
 10
35.98587416043607
 20
197.7770218482528
 30
0.0
  0
VERTEX
  5
162
330
12C
100
AcDbEntity
  8
LINEE VISIBILI 2D
100
AcDbVertex
100
AcDb2dVertex
 10
35.36268353296471
 20
197.579887347701
 30
0.0
  0
VERTEX
  5
163
330
12C
100
AcDbEntity
  8
LINEE VISIBILI 2D
100
AcDbVertex
100
AcDb2dVertex
 10
34.73382826134898
 20
197.400268429549
 30
0.0
  0
VERTEX
  5
164
330
12C
100
AcDbEntity
  8
LINEE VISIBILI 2D
100
AcDbVertex
100
AcDb2dVertex
 10
34.1008465454692
 20
197.2358836717613
 30
0.0
  0
VERTEX
  5
165
330
12C
100
AcDbEntity
  8
LINEE VISIBILI 2D
100
AcDbVertex
100
AcDb2dVertex
 10
33.35057507278494
 20
197.0588064463478
 30
0.0
  0
VERTEX
  5
166
330
12C
100
AcDbEntity
  8
LINEE VISIBILI 2D
100
AcDbVertex
100
AcDb2dVertex
 10
32.59705613037825
 20
196.8981901681743
 30
0.0
  0
VERTEX
  5
167
330
12C
100
AcDbEntity
  8
LINEE VISIBILI 2D
100
AcDbVertex
100
AcDb2dVertex
 10
31.84064401825775
 20
196.752470909728
 30
0.0
  0
VERTEX
  5
168
330
12C
100
AcDbEntity
  8
LINEE VISIBILI 2D
100
AcDbVertex
100
AcDb2dVertex
 10
31.08169303643205
 20
196.6200847434958
 30
0.0
  0
VERTEX
  5
169
330
12C
100
AcDbEntity
  8
LINEE VISIBILI 2D
100
AcDbVertex
100
AcDb2dVertex
 10
29.42490068658072
 20
196.3724174179924
 30
0.0
  0
VERTEX
  5
16A
330
12C
100
AcDbEntity
  8
LINEE VISIBILI 2D
100
AcDbVertex
100
AcDb2dVertex
 10
27.76099275715008
 20
196.1739287140758
 30
0.0
  0
VERTEX
  5
16B
330
12C
100
AcDbEntity
  8
LINEE VISIBILI 2D
100
AcDbVertex
100
AcDb2dVertex
 10
25.82536431375682
 20
195.9979327713275
 30
0.0
  0
VERTEX
  5
16C
330
12C
100
AcDbEntity
  8
LINEE VISIBILI 2D
100
AcDbVertex
100
AcDb2dVertex
 10
23.88578516166766
 20
195.876252598939
 30
0.0
  0
VERTEX
  5
16D
330
12C
100
AcDbEntity
  8
LINEE VISIBILI 2D
100
AcDbVertex
100
AcDb2dVertex
 10
21.94356692834501
 20
195.8056640817893
 30
0.0
  0
VERTEX
  5
16E
330
12C
100
AcDbEntity
  8
LINEE VISIBILI 2D
100
AcDbVertex
100
AcDb2dVertex
 10
20.00002124125122
 20
195.7829431047572
 30
0.0
  0
VERTEX
  5
16F
330
12C
100
AcDbEntity
  8
LINEE VISIBILI 2D
100
AcDbVertex
100
AcDb2dVertex
 10
18.05646101473625
 20
195.8059234509347
 30
0.0
  0
VERTEX
  5
170
330
12C
100
AcDbEntity
  8
LINEE VISIBILI 2D
100
AcDbVertex
100
AcDb2dVertex
 10
16.11424526786322
 20
195.8766698662389
 30
0.0
  0
VERTEX
  5
171
330
12C
100
AcDbEntity
  8
LINEE VISIBILI 2D
100
AcDbVertex
100
AcDb2dVertex
 10
14.17473430669398
 20
195.998304681241
 30
0.0
  0
VERTEX
  5
172
330
12C
100
AcDbEntity
  8
LINEE VISIBILI 2D
100
AcDbVertex
100
AcDb2dVertex
 10
12.23928843729038
 20
196.1739502265125
 30
0.0
  0
VERTEX
  5
173
330
12C
100
AcDbEntity
  8
LINEE VISIBILI 2D
100
AcDbVertex
100
AcDb2dVertex
 10
10.57558291209183
 20
196.3719403012756
 30
0.0
  0
VERTEX
  5
174
330
12C
100
AcDbEntity
  8
LINEE VISIBILI 2D
100
AcDbVertex
100
AcDb2dVertex
 10
8.918596693208904
 20
196.619503727004
 30
0.0
  0
VERTEX
  5
175
330
12C
100
AcDbEntity
  8
LINEE VISIBILI 2D
100
AcDbVertex
100
AcDb2dVertex
 10
8.159308977355726
 20
196.7521321178377
 30
0.0
  0
VERTEX
  5
176
330
12C
100
AcDbEntity
  8
LINEE VISIBILI 2D
100
AcDbVertex
100
AcDb2dVertex
 10
7.402512269629617
 20
196.898180067075
 30
0.0
  0
VERTEX
  5
177
330
12C
100
AcDbEntity
  8
LINEE VISIBILI 2D
100
AcDbVertex
100
AcDb2dVertex
 10
6.648706370274656
 20
197.059066667431
 30
0.0
  0
VERTEX
  5
178
330
12C
100
AcDbEntity
  8
LINEE VISIBILI 2D
100
AcDbVertex
100
AcDb2dVertex
 10
5.898391079534921
 20
197.2362110116209
 30
0.0
  0
VERTEX
  5
179
330
12C
100
AcDbEntity
  8
LINEE VISIBILI 2D
100
AcDbVertex
100
AcDb2dVertex
 10
5.265635420814005
 20
197.4004266656472
 30
0.0
  0
VERTEX
  5
17A
330
12C
100
AcDbEntity
  8
LINEE VISIBILI 2D
100
AcDbVertex
100
AcDb2dVertex
 10
4.637143393242366
 20
197.5797878446826
 30
0.0
  0
VERTEX
  5
17B
330
12C
100
AcDbEntity
  8
LINEE VISIBILI 2D
100
AcDbVertex
100
AcDb2dVertex
 10
4.014311134034656
 20
197.7767375604411
 30
0.0
  0
VERTEX
  5
17C
330
12C
100
AcDbEntity
  8
LINEE VISIBILI 2D
100
AcDbVertex
100
AcDb2dVertex
 10
3.398534780405531
 20
197.9937188246369
 30
0.0
  0
VERTEX
  5
17D
330
12C
100
AcDbEntity
  8
LINEE VISIBILI 2D
100
AcDbVertex
100
AcDb2dVertex
 10
2.922962533230167
 20
198.1793664895764
 30
0.0
  0
VERTEX
  5
17E
330
12C
100
AcDbEntity
  8
LINEE VISIBILI 2D
100
AcDbVertex
100
AcDb2dVertex
 10
2.687770020803923
 20
198.2784529360145
 30
0.0
  0
VERTEX
  5
17F
330
12C
100
AcDbEntity
  8
LINEE VISIBILI 2D
100
AcDbVertex
100
AcDb2dVertex
 10
2.454655717154145
 20
198.3823047110934
 30
0.0
  0
VERTEX
  5
180
330
12C
100
AcDbEntity
  8
LINEE VISIBILI 2D
100
AcDbVertex
100
AcDb2dVertex
 10
2.223881473282461
 20
198.4913645043094
 30
0.0
  0
VERTEX
  5
181
330
12C
100
AcDbEntity
  8
LINEE VISIBILI 2D
100
AcDbVertex
100
AcDb2dVertex
 10
1.9957091401905
 20
198.606075005159
 30
0.0
  0
VERTEX
  5
182
330
12C
100
AcDbEntity
  8
LINEE VISIBILI 2D
100
AcDbVertex
100
AcDb2dVertex
 10
1.770400568879892
 20
198.7268789031384
 30
0.0
  0
VERTEX
  5
183
330
12C
100
AcDbEntity
  8
LINEE VISIBILI 2D
100
AcDbVertex
100
AcDb2dVertex
 10
1.548217610352266
 20
198.8542188877442
 30
0.0
  0
VERTEX
  5
184
330
12C
100
AcDbEntity
  8
LINEE VISIBILI 2D
100
AcDbVertex
100
AcDb2dVertex
 10
1.386569200123685
 20
198.9527144054394
 30
0.0
  0
VERTEX
  5
185
330
12C
100
AcDbEntity
  8
LINEE VISIBILI 2D
100
AcDbVertex
100
AcDb2dVertex
 10
1.227728656978428
 20
199.0556758696508
 30
0.0
  0
VERTEX
  5
186
330
12C
100
AcDbEntity
  8
LINEE VISIBILI 2D
100
AcDbVertex
100
AcDb2dVertex
 10
1.149662399655207
 20
199.1090394653667
 30
0.0
  0
VERTEX
  5
187
330
12C
100
AcDbEntity
  8
LINEE VISIBILI 2D
100
AcDbVertex
100
AcDb2dVertex
 10
1.07265938601461
 20
199.1637693081117
 30
0.0
  0
VERTEX
  5
188
330
12C
100
AcDbEntity
  8
LINEE VISIBILI 2D
100
AcDbVertex
100
AcDb2dVertex
 10
0.9968400416939024
 20
199.2199486513524
 30
0.0
  0
VERTEX
  5
189
330
12C
100
AcDbEntity
  8
LINEE VISIBILI 2D
100
AcDbVertex
100
AcDb2dVertex
 10
0.9223247923303478
 20
199.2776607485555
 30
0.0
  0
VERTEX
  5
18A
330
12C
100
AcDbEntity
  8
LINEE VISIBILI 2D
100
AcDbVertex
100
AcDb2dVertex
 10
0.8492340635612109
 20
199.3369888531876
 30
0.0
  0
VERTEX
  5
18B
330
12C
100
AcDbEntity
  8
LINEE VISIBILI 2D
100
AcDbVertex
100
AcDb2dVertex
 10
0.7776882810237565
 20
199.3980162187154
 30
0.0
  0
VERTEX
  5
18C
330
12C
100
AcDbEntity
  8
LINEE VISIBILI 2D
100
AcDbVertex
100
AcDb2dVertex
 10
0.7078078703552486
 20
199.4608260986056
 30
0.0
  0
VERTEX
  5
18D
330
12C
100
AcDbEntity
  8
LINEE VISIBILI 2D
100
AcDbVertex
100
AcDb2dVertex
 10
0.6397132571929518
 20
199.5255017463247
 30
0.0
  0
VERTEX
  5
18E
330
12C
100
AcDbEntity
  8
LINEE VISIBILI 2D
100
AcDbVertex
100
AcDb2dVertex
 10
0.5735248671741309
 20
199.5921264153396
 30
0.0
  0
VERTEX
  5
18F
330
12C
100
AcDbEntity
  8
LINEE VISIBILI 2D
100
AcDbVertex
100
AcDb2dVertex
 10
0.5093631259360501
 20
199.6607833591168
 30
0.0
  0
VERTEX
  5
190
330
12C
100
AcDbEntity
  8
LINEE VISIBILI 2D
100
AcDbVertex
100
AcDb2dVertex
 10
0.4473484591159738
 20
199.7315558311231
 30
0.0
  0
VERTEX
  5
191
330
12C
100
AcDbEntity
  8
LINEE VISIBILI 2D
100
AcDbVertex
100
AcDb2dVertex
 10
0.3876012923511666
 20
199.804527084825
 30
0.0
  0
VERTEX
  5
192
330
12C
100
AcDbEntity
  8
LINEE VISIBILI 2D
100
AcDbVertex
100
AcDb2dVertex
 10
0.3466159227121072
 20
199.8577496874134
 30
0.0
  0
VERTEX
  5
193
330
12C
100
AcDbEntity
  8
LINEE VISIBILI 2D
100
AcDbVertex
100
AcDb2dVertex
 10
0.3070177365977302
 20
199.9121061878059
 30
0.0
  0
VERTEX
  5
194
330
12C
100
AcDbEntity
  8
LINEE VISIBILI 2D
100
AcDbVertex
100
AcDb2dVertex
 10
0.2689883457918067
 20
199.9675783721175
 30
0.0
  0
VERTEX
  5
195
330
12C
100
AcDbEntity
  8
LINEE VISIBILI 2D
100
AcDbVertex
100
AcDb2dVertex
 10
0.2327093620781081
 20
200.0241480264631
 30
0.0
  0
VERTEX
  5
196
330
12C
100
AcDbEntity
  8
LINEE VISIBILI 2D
100
AcDbVertex
100
AcDb2dVertex
 10
0.1983623972404055
 20
200.0817969369574
 30
0.0
  0
VERTEX
  5
197
330
12C
100
AcDbEntity
  8
LINEE VISIBILI 2D
100
AcDbVertex
100
AcDb2dVertex
 10
0.1819701755824814
 20
200.1110204214212
 30
0.0
  0
VERTEX
  5
198
330
12C
100
AcDbEntity
  8
LINEE VISIBILI 2D
100
AcDbVertex
100
AcDb2dVertex
 10
0.1661290630624704
 20
200.1405068897153
 30
0.0
  0
VERTEX
  5
199
330
12C
100
AcDbEntity
  8
LINEE VISIBILI 2D
100
AcDbVertex
100
AcDb2dVertex
 10
0.1508617611533441
 20
200.170254065104
 30
0.0
  0
VERTEX
  5
19A
330
12C
100
AcDbEntity
  8
LINEE VISIBILI 2D
100
AcDbVertex
100
AcDb2dVertex
 10
0.1361909713280739
 20
200.2002596708518
 30
0.0
  0
VERTEX
  5
19B
330
12C
100
AcDbEntity
  8
LINEE VISIBILI 2D
100
AcDbVertex
100
AcDb2dVertex
 10
0.1221393950596311
 20
200.2305214302228
 30
0.0
  0
VERTEX
  5
19C
330
12C
100
AcDbEntity
  8
LINEE VISIBILI 2D
100
AcDbVertex
100
AcDb2dVertex
 10
0.1087297338209872
 20
200.2610370664817
 30
0.0
  0
VERTEX
  5
19D
330
12C
100
AcDbEntity
  8
LINEE VISIBILI 2D
100
AcDbVertex
100
AcDb2dVertex
 10
0.0959846890851137
 20
200.2918043028925
 30
0.0
  0
VERTEX
  5
19E
330
12C
100
AcDbEntity
  8
LINEE VISIBILI 2D
100
AcDbVertex
100
AcDb2dVertex
 10
0.0839269623249818
 20
200.3228208627199
 30
0.0
  0
VERTEX
  5
19F
330
12C
100
AcDbEntity
  8
LINEE VISIBILI 2D
100
AcDbVertex
100
AcDb2dVertex
 10
0.0725792550135629
 20
200.3540844692279
 30
0.0
  0
VERTEX
  5
1A0
330
12C
100
AcDbEntity
  8
LINEE VISIBILI 2D
100
AcDbVertex
100
AcDb2dVertex
 10
0.0619642686238286
 20
200.3855928456812
 30
0.0
  0
VERTEX
  5
1A1
330
12C
100
AcDbEntity
  8
LINEE VISIBILI 2D
100
AcDbVertex
100
AcDb2dVertex
 10
0.0521047046287502
 20
200.417343715344
 30
0.0
  0
VERTEX
  5
1A2
330
12C
100
AcDbEntity
  8
LINEE VISIBILI 2D
100
AcDbVertex
100
AcDb2dVertex
 10
0.0430232645012991
 20
200.4493348014806
 30
0.0
  0
VERTEX
  5
1A3
330
12C
100
AcDbEntity
  8
LINEE VISIBILI 2D
100
AcDbVertex
100
AcDb2dVertex
 10
0.0347426497144467
 20
200.4815638273555
 30
0.0
  0
VERTEX
  5
1A4
330
12C
100
AcDbEntity
  8
LINEE VISIBILI 2D
100
AcDbVertex
100
AcDb2dVertex
 10
0.0272855617411645
 20
200.5140285162329
 30
0.0
  0
VERTEX
  5
1A5
330
12C
100
AcDbEntity
  8
LINEE VISIBILI 2D
100
AcDbVertex
100
AcDb2dVertex
 10
0.0206747020544238
 20
200.5467265913773
 30
0.0
  0
VERTEX
  5
1A6
330
12C
100
AcDbEntity
  8
LINEE VISIBILI 2D
100
AcDbVertex
100
AcDb2dVertex
 10
0.014932772127196
 20
200.5796557760531
 30
0.0
  0
VERTEX
  5
1A7
330
12C
100
AcDbEntity
  8
LINEE VISIBILI 2D
100
AcDbVertex
100
AcDb2dVertex
 10
0.0100824734324526
 20
200.6128137935245
 30
0.0
  0
VERTEX
  5
1A8
330
12C
100
AcDbEntity
  8
LINEE VISIBILI 2D
100
AcDbVertex
100
AcDb2dVertex
 10
0.0061465074431649
 20
200.6461983670559
 30
0.0
  0
VERTEX
  5
1A9
330
12C
100
AcDbEntity
  8
LINEE VISIBILI 2D
100
AcDbVertex
100
AcDb2dVertex
 10
0.0031475756323044
 20
200.6798072199117
 30
0.0
  0
VERTEX
  5
1AA
330
12C
100
AcDbEntity
  8
LINEE VISIBILI 2D
100
AcDbVertex
100
AcDb2dVertex
 10
0.0011083794728425
 20
200.7136380753563
 30
0.0
  0
VERTEX
  5
1AB
330
12C
100
AcDbEntity
  8
LINEE VISIBILI 2D
100
AcDbVertex
100
AcDb2dVertex
 10
0.0000516204377506
 20
200.747688656654
 30
0.0
  0
VERTEX
  5
1AC
330
12C
100
AcDbEntity
  8
LINEE VISIBILI 2D
100
AcDbVertex
100
AcDb2dVertex
 10
0.0
 20
200.7819566870691
 30
0.0
  0
SEQEND
  5
12D
330
12C
100
AcDbEntity
  8
LINEE VISIBILI 2D
  0
ARC
  5
1AD
330
1F
100
AcDbEntity
  8
LINEE VISIBILI 2D
100
AcDbCircle
 10
1.454820682934346
 20
200.7517002788304
 30
0.0
 40
1.455135275406744
100
AcDbArc
 50
148.950088507841
 51
178.8085716396724
  0
POLYLINE
  5
1B1
330
1F
100
AcDbEntity
  8
LINEE VISIBILI 2D
100
AcDb2dPolyline
 66
     1
 10
0.0
 20
0.0
 30
0.0
  0
VERTEX
  5
1B3
330
1B1
100
AcDbEntity
  8
LINEE VISIBILI 2D
100
AcDbVertex
100
AcDb2dVertex
 10
395.6696441173037
 20
314.782112711066
 30
0.0
  0
VERTEX
  5
1B4
330
1B1
100
AcDbEntity
  8
LINEE VISIBILI 2D
100
AcDbVertex
100
AcDb2dVertex
 10
395.5497204439512
 20
314.490028404175
 30
0.0
  0
VERTEX
  5
1B5
330
1B1
100
AcDbEntity
  8
LINEE VISIBILI 2D
100
AcDbVertex
100
AcDb2dVertex
 10
395.4349417804274
 20
314.1958225388547
 30
0.0
  0
VERTEX
  5
1B6
330
1B1
100
AcDbEntity
  8
LINEE VISIBILI 2D
100
AcDbVertex
100
AcDb2dVertex
 10
395.3253260894443
 20
313.8995973763924
 30
0.0
  0
VERTEX
  5
1B7
330
1B1
100
AcDbEntity
  8
LINEE VISIBILI 2D
100
AcDbVertex
100
AcDb2dVertex
 10
395.2208913337139
 20
313.6014551780753
 30
0.0
  0
VERTEX
  5
1B8
330
1B1
100
AcDbEntity
  8
LINEE VISIBILI 2D
100
AcDbVertex
100
AcDb2dVertex
 10
395.0276364788588
 20
312.9998287190257
 30
0.0
  0
VERTEX
  5
1B9
330
1B1
100
AcDbEntity
  8
LINEE VISIBILI 2D
100
AcDbVertex
100
AcDb2dVertex
 10
394.8553209175574
 20
312.391761252004
 30
0.0
  0
VERTEX
  5
1BA
330
1B1
100
AcDbEntity
  8
LINEE VISIBILI 2D
100
AcDbVertex
100
AcDb2dVertex
 10
394.7040883515052
 20
311.7780708673081
 30
0.0
  0
VERTEX
  5
1BB
330
1B1
100
AcDbEntity
  8
LINEE VISIBILI 2D
100
AcDbVertex
100
AcDb2dVertex
 10
394.5740824823977
 20
311.1595756552359
 30
0.0
  0
VERTEX
  5
1BC
330
1B1
100
AcDbEntity
  8
LINEE VISIBILI 2D
100
AcDbVertex
100
AcDb2dVertex
 10
394.4654470119303
 20
310.5370937060855
 30
0.0
  0
VERTEX
  5
1BD
330
1B1
100
AcDbEntity
  8
LINEE VISIBILI 2D
100
AcDbVertex
100
AcDb2dVertex
 10
394.3783256417986
 20
309.9114431101547
 30
0.0
  0
VERTEX
  5
1BE
330
1B1
100
AcDbEntity
  8
LINEE VISIBILI 2D
100
AcDbVertex
100
AcDb2dVertex
 10
394.3412589944528
 20
309.5822985429084
 30
0.0
  0
VERTEX
  5
1BF
330
1B1
100
AcDbEntity
  8
LINEE VISIBILI 2D
100
AcDbVertex
100
AcDb2dVertex
 10
394.3100395069568
 20
309.2525880064524
 30
0.0
  0
VERTEX
  5
1C0
330
1B1
100
AcDbEntity
  8
LINEE VISIBILI 2D
100
AcDbVertex
100
AcDb2dVertex
 10
394.2646993961618
 20
308.591791593915
 30
0.0
  0
VERTEX
  5
1C1
330
1B1
100
AcDbEntity
  8
LINEE VISIBILI 2D
100
AcDbVertex
100
AcDb2dVertex
 10
394.2414200787094
 20
307.9296990085495
 30
0.0
  0
VERTEX
  5
1C2
330
1B1
100
AcDbEntity
  8
LINEE VISIBILI 2D
100
AcDbVertex
100
AcDb2dVertex
 10
394.2393163238956
 20
307.2669553863624
 30
0.0
  0
VERTEX
  5
1C3
330
1B1
100
AcDbEntity
  8
LINEE VISIBILI 2D
100
AcDbVertex
100
AcDb2dVertex
 10
394.2575029010162
 20
306.6042058633601
 30
0.0
  0
VERTEX
  5
1C4
330
1B1
100
AcDbEntity
  8
LINEE VISIBILI 2D
100
AcDbVertex
100
AcDb2dVertex
 10
394.2950945793671
 20
305.9420955755493
 30
0.0
  0
VERTEX
  5
1C5
330
1B1
100
AcDbEntity
  8
LINEE VISIBILI 2D
100
AcDbVertex
100
AcDb2dVertex
 10
394.3512061282441
 20
305.2812696589364
 30
0.0
  0
VERTEX
  5
1C6
330
1B1
100
AcDbEntity
  8
LINEE VISIBILI 2D
100
AcDbVertex
100
AcDb2dVertex
 10
394.4249523169432
 20
304.6223732495281
 30
0.0
  0
VERTEX
  5
1C7
330
1B1
100
AcDbEntity
  8
LINEE VISIBILI 2D
100
AcDbVertex
100
AcDb2dVertex
 10
394.5019588775577
 20
304.0563679605383
 30
0.0
  0
VERTEX
  5
1C8
330
1B1
100
AcDbEntity
  8
LINEE VISIBILI 2D
100
AcDbVertex
100
AcDb2dVertex
 10
394.5906172733645
 20
303.4922444068577
 30
0.0
  0
VERTEX
  5
1C9
330
1B1
100
AcDbEntity
  8
LINEE VISIBILI 2D
100
AcDbVertex
100
AcDb2dVertex
 10
394.6901335766825
 20
302.9299712175681
 30
0.0
  0
VERTEX
  5
1CA
330
1B1
100
AcDbEntity
  8
LINEE VISIBILI 2D
100
AcDbVertex
100
AcDb2dVertex
 10
394.7997138598303
 20
302.3695170217515
 30
0.0
  0
VERTEX
  5
1CB
330
1B1
100
AcDbEntity
  8
LINEE VISIBILI 2D
100
AcDbVertex
100
AcDb2dVertex
 10
395.0458906548898
 20
301.2539401268638
 30
0.0
  0
VERTEX
  5
1CC
330
1B1
100
AcDbEntity
  8
LINEE VISIBILI 2D
100
AcDbVertex
100
AcDb2dVertex
 10
395.3227962370926
 20
300.1452627548488
 30
0.0
  0
VERTEX
  5
1CD
330
1B1
100
AcDbEntity
  8
LINEE VISIBILI 2D
100
AcDbVertex
100
AcDb2dVertex
 10
395.6553413213483
 20
298.9347312845714
 30
0.0
  0
VERTEX
  5
1CE
330
1B1
100
AcDbEntity
  8
LINEE VISIBILI 2D
100
AcDbVertex
100
AcDb2dVertex
 10
398.5526045856138
 20
289.5676447524266
 30
0.0
  0
VERTEX
  5
1CF
330
1B1
100
AcDbEntity
  8
LINEE VISIBILI 2D
100
AcDbVertex
100
AcDb2dVertex
 10
398.9886382216115
 20
287.9433269795247
 30
0.0
  0
VERTEX
  5
1D0
330
1B1
100
AcDbEntity
  8
LINEE VISIBILI 2D
100
AcDbVertex
100
AcDb2dVertex
 10
399.3930250736688
 20
286.3109529411864
 30
0.0
  0
VERTEX
  5
1D1
330
1B1
100
AcDbEntity
  8
LINEE VISIBILI 2D
100
AcDbVertex
100
AcDb2dVertex
 10
399.7639806554699
 20
284.6706371503073
 30
0.0
  0
VERTEX
  5
1D2
330
1B1
100
AcDbEntity
  8
LINEE VISIBILI 2D
100
AcDbVertex
100
AcDb2dVertex
 10
400.0997204806994
 20
283.0224941197832
 30
0.0
  0
VERTEX
  5
1D3
330
1B1
100
AcDbEntity
  8
LINEE VISIBILI 2D
100
AcDbVertex
100
AcDb2dVertex
 10
400.4116261429216
 20
281.2885609830595
 30
0.0
  0
VERTEX
  5
1D4
330
1B1
100
AcDbEntity
  8
LINEE VISIBILI 2D
100
AcDbVertex
100
AcDb2dVertex
 10
400.6810682703129
 20
279.547335252964
 30
0.0
  0
VERTEX
  5
1D5
330
1B1
100
AcDbEntity
  8
LINEE VISIBILI 2D
100
AcDbVertex
100
AcDb2dVertex
 10
400.9061543651482
 20
277.7999813974495
 30
0.0
  0
VERTEX
  5
1D6
330
1B1
100
AcDbEntity
  8
LINEE VISIBILI 2D
100
AcDbVertex
100
AcDb2dVertex
 10
401.0849919297023
 20
276.0476638844687
 30
0.0
  0
VERTEX
  5
1D7
330
1B1
100
AcDbEntity
  8
LINEE VISIBILI 2D
100
AcDbVertex
100
AcDb2dVertex
 10
401.2156884662505
 20
274.2915471819746
 30
0.0
  0
VERTEX
  5
1D8
330
1B1
100
AcDbEntity
  8
LINEE VISIBILI 2D
100
AcDbVertex
100
AcDb2dVertex
 10
401.2963514770675
 20
272.5327957579199
 30
0.0
  0
VERTEX
  5
1D9
330
1B1
100
AcDbEntity
  8
LINEE VISIBILI 2D
100
AcDbVertex
100
AcDb2dVertex
 10
401.3250884644283
 20
270.7725740802574
 30
0.0
  0
VERTEX
  5
1DA
330
1B1
100
AcDbEntity
  8
LINEE VISIBILI 2D
100
AcDbVertex
100
AcDb2dVertex
 10
401.3000069306078
 20
269.01204661694
 30
0.0
  0
VERTEX
  5
1DB
330
1B1
100
AcDbEntity
  8
LINEE VISIBILI 2D
100
AcDbVertex
100
AcDb2dVertex
 10
401.2484027457678
 20
267.7592526701965
 30
0.0
  0
VERTEX
  5
1DC
330
1B1
100
AcDbEntity
  8
LINEE VISIBILI 2D
100
AcDbVertex
100
AcDb2dVertex
 10
401.168407861498
 20
266.5076816678115
 30
0.0
  0
VERTEX
  5
1DD
330
1B1
100
AcDbEntity
  8
LINEE VISIBILI 2D
100
AcDbVertex
100
AcDb2dVertex
 10
401.0598655984172
 20
265.2581213789541
 30
0.0
  0
VERTEX
  5
1DE
330
1B1
100
AcDbEntity
  8
LINEE VISIBILI 2D
100
AcDbVertex
100
AcDb2dVertex
 10
400.9226192771446
 20
264.0113595727935
 30
0.0
  0
VERTEX
  5
1DF
330
1B1
100
AcDbEntity
  8
LINEE VISIBILI 2D
100
AcDbVertex
100
AcDb2dVertex
 10
400.7565122182993
 20
262.7681840184985
 30
0.0
  0
VERTEX
  5
1E0
330
1B1
100
AcDbEntity
  8
LINEE VISIBILI 2D
100
AcDbVertex
100
AcDb2dVertex
 10
400.5613877425002
 20
261.5293824852382
 30
0.0
  0
VERTEX
  5
1E1
330
1B1
100
AcDbEntity
  8
LINEE VISIBILI 2D
100
AcDbVertex
100
AcDb2dVertex
 10
400.3370891703663
 20
260.2957427421817
 30
0.0
  0
VERTEX
  5
1E2
330
1B1
100
AcDbEntity
  8
LINEE VISIBILI 2D
100
AcDbVertex
100
AcDb2dVertex
 10
400.0834598225167
 20
259.0680525584979
 30
0.0
  0
VERTEX
  5
1E3
330
1B1
100
AcDbEntity
  8
LINEE VISIBILI 2D
100
AcDbVertex
100
AcDb2dVertex
 10
399.8629017714894
 20
258.10450159941
 30
0.0
  0
VERTEX
  5
1E4
330
1B1
100
AcDbEntity
  8
LINEE VISIBILI 2D
100
AcDbVertex
100
AcDb2dVertex
 10
399.6254030709112
 20
257.1449775379125
 30
0.0
  0
VERTEX
  5
1E5
330
1B1
100
AcDbEntity
  8
LINEE VISIBILI 2D
100
AcDbVertex
100
AcDb2dVertex
 10
399.1051752548837
 20
255.2373576594006
 30
0.0
  0
VERTEX
  5
1E6
330
1B1
100
AcDbEntity
  8
LINEE VISIBILI 2D
100
AcDbVertex
100
AcDb2dVertex
 10
395.882883009726
 20
244.6411685645082
 30
0.0
  0
VERTEX
  5
1E7
330
1B1
100
AcDbEntity
  8
LINEE VISIBILI 2D
100
AcDbVertex
100
AcDb2dVertex
 10
395.298282234701
 20
242.432269483034
 30
0.0
  0
VERTEX
  5
1E8
330
1B1
100
AcDbEntity
  8
LINEE VISIBILI 2D
100
AcDbVertex
100
AcDb2dVertex
 10
394.7155412205471
 20
239.9760325671132
 30
0.0
  0
VERTEX
  5
1E9
330
1B1
100
AcDbEntity
  8
LINEE VISIBILI 2D
100
AcDbVertex
100
AcDb2dVertex
 10
394.1996659326475
 20
237.5048039262414
 30
0.0
  0
VERTEX
  5
1EA
330
1B1
100
AcDbEntity
  8
LINEE VISIBILI 2D
100
AcDbVertex
100
AcDb2dVertex
 10
393.7493231530933
 20
235.020767886041
 30
0.0
  0
VERTEX
  5
1EB
330
1B1
100
AcDbEntity
  8
LINEE VISIBILI 2D
100
AcDbVertex
100
AcDb2dVertex
 10
393.3631796639761
 20
232.5261087721343
 30
0.0
  0
VERTEX
  5
1EC
330
1B1
100
AcDbEntity
  8
LINEE VISIBILI 2D
100
AcDbVertex
100
AcDb2dVertex
 10
392.968416562518
 20
229.4011336840521
 30
0.0
  0
VERTEX
  5
1ED
330
1B1
100
AcDbEntity
  8
LINEE VISIBILI 2D
100
AcDbVertex
100
AcDb2dVertex
 10
392.663529499876
 20
226.2658858631868
 30
0.0
  0
VERTEX
  5
1EE
330
1B1
100
AcDbEntity
  8
LINEE VISIBILI 2D
100
AcDbVertex
100
AcDb2dVertex
 10
392.4404911773367
 20
223.1232345079872
 30
0.0
  0
VERTEX
  5
1EF
330
1B1
100
AcDbEntity
  8
LINEE VISIBILI 2D
100
AcDbVertex
100
AcDb2dVertex
 10
392.2912742961862
 20
219.976048816902
 30
0.0
  0
VERTEX
  5
1F0
330
1B1
100
AcDbEntity
  8
LINEE VISIBILI 2D
100
AcDbVertex
100
AcDb2dVertex
 10
392.2023782761664
 20
216.4370890823499
 30
0.0
  0
VERTEX
  5
1F1
330
1B1
100
AcDbEntity
  8
LINEE VISIBILI 2D
100
AcDbVertex
100
AcDb2dVertex
 10
392.1891974255904
 20
212.8971789137183
 30
0.0
  0
VERTEX
  5
1F2
330
1B1
100
AcDbEntity
  8
LINEE VISIBILI 2D
100
AcDbVertex
100
AcDb2dVertex
 10
392.3605030589919
 20
205.8191164669108
 30
0.0
  0
SEQEND
  5
1B2
330
1B1
100
AcDbEntity
  8
LINEE VISIBILI 2D
  0
POLYLINE
  5
1F3
330
1F
100
AcDbEntity
  8
LINEE VISIBILI 2D
100
AcDb2dPolyline
 66
     1
 10
0.0
 20
0.0
 30
0.0
  0
VERTEX
  5
1F5
330
1F3
100
AcDbEntity
  8
LINEE VISIBILI 2D
100
AcDbVertex
100
AcDb2dVertex
 10
391.7594846639296
 20
205.8322351088812
 30
0.0
  0
VERTEX
  5
1F6
330
1F3
100
AcDbEntity
  8
LINEE VISIBILI 2D
100
AcDbVertex
100
AcDb2dVertex
 10
391.5885931281724
 20
212.9977829924803
 30
0.0
  0
VERTEX
  5
1F7
330
1F3
100
AcDbEntity
  8
LINEE VISIBILI 2D
100
AcDbVertex
100
AcDb2dVertex
 10
391.604407086827
 20
216.5814269138524
 30
0.0
  0
VERTEX
  5
1F8
330
1F3
100
AcDbEntity
  8
LINEE VISIBILI 2D
100
AcDbVertex
100
AcDb2dVertex
 10
391.6979363630927
 20
220.1639720705099
 30
0.0
  0
VERTEX
  5
1F9
330
1F3
100
AcDbEntity
  8
LINEE VISIBILI 2D
100
AcDbVertex
100
AcDb2dVertex
 10
391.8495163516478
 20
223.2887129653345
 30
0.0
  0
VERTEX
  5
1FA
330
1F3
100
AcDbEntity
  8
LINEE VISIBILI 2D
100
AcDbVertex
100
AcDb2dVertex
 10
392.0738276010966
 20
226.4089098586921
 30
0.0
  0
VERTEX
  5
1FB
330
1F3
100
AcDbEntity
  8
LINEE VISIBILI 2D
100
AcDbVertex
100
AcDb2dVertex
 10
392.3785626959665
 20
229.5218150068796
 30
0.0
  0
VERTEX
  5
1FC
330
1F3
100
AcDbEntity
  8
LINEE VISIBILI 2D
100
AcDbVertex
100
AcDb2dVertex
 10
392.7714142207848
 20
232.6246806661936
 30
0.0
  0
VERTEX
  5
1FD
330
1F3
100
AcDbEntity
  8
LINEE VISIBILI 2D
100
AcDbVertex
100
AcDb2dVertex
 10
393.1661923760321
 20
235.1710798463934
 30
0.0
  0
VERTEX
  5
1FE
330
1F3
100
AcDbEntity
  8
LINEE VISIBILI 2D
100
AcDbVertex
100
AcDb2dVertex
 10
393.6274804546068
 20
237.7064381406658
 30
0.0
  0
VERTEX
  5
1FF
330
1F3
100
AcDbEntity
  8
LINEE VISIBILI 2D
100
AcDbVertex
100
AcDb2dVertex
 10
394.1567740092388
 20
240.228391862011
 30
0.0
  0
VERTEX
  5
200
330
1F3
100
AcDbEntity
  8
LINEE VISIBILI 2D
100
AcDbVertex
100
AcDb2dVertex
 10
394.7555685926579
 20
242.7345773234293
 30
0.0
  0
VERTEX
  5
201
330
1F3
100
AcDbEntity
  8
LINEE VISIBILI 2D
100
AcDbVertex
100
AcDb2dVertex
 10
395.3362236061392
 20
244.9140595141259
 30
0.0
  0
VERTEX
  5
202
330
1F3
100
AcDbEntity
  8
LINEE VISIBILI 2D
100
AcDbVertex
100
AcDb2dVertex
 10
398.5393632749922
 20
255.4407909107907
 30
0.0
  0
VERTEX
  5
203
330
1F3
100
AcDbEntity
  8
LINEE VISIBILI 2D
100
AcDbVertex
100
AcDb2dVertex
 10
399.0588492012105
 20
257.3494447641853
 30
0.0
  0
VERTEX
  5
204
330
1F3
100
AcDbEntity
  8
LINEE VISIBILI 2D
100
AcDbVertex
100
AcDb2dVertex
 10
399.2955082846584
 20
258.3097358218546
 30
0.0
  0
VERTEX
  5
205
330
1F3
100
AcDbEntity
  8
LINEE VISIBILI 2D
100
AcDbVertex
100
AcDb2dVertex
 10
399.5149104696884
 20
259.2740595558646
 30
0.0
  0
VERTEX
  5
206
330
1F3
100
AcDbEntity
  8
LINEE VISIBILI 2D
100
AcDbVertex
100
AcDb2dVertex
 10
399.7608704691755
 20
260.4727222116444
 30
0.0
  0
VERTEX
  5
207
330
1F3
100
AcDbEntity
  8
LINEE VISIBILI 2D
100
AcDbVertex
100
AcDb2dVertex
 10
399.9784511626338
 20
261.676913508669
 30
0.0
  0
VERTEX
  5
208
330
1F3
100
AcDbEntity
  8
LINEE VISIBILI 2D
100
AcDbVertex
100
AcDb2dVertex
 10
400.1678360237881
 20
262.8859235312992
 30
0.0
  0
VERTEX
  5
209
330
1F3
100
AcDbEntity
  8
LINEE VISIBILI 2D
100
AcDbVertex
100
AcDb2dVertex
 10
400.3292085263638
 20
264.0990423638953
 30
0.0
  0
VERTEX
  5
20A
330
1F3
100
AcDbEntity
  8
LINEE VISIBILI 2D
100
AcDbVertex
100
AcDb2dVertex
 10
400.4627521440863
 20
265.3155600908177
 30
0.0
  0
VERTEX
  5
20B
330
1F3
100
AcDbEntity
  8
LINEE VISIBILI 2D
100
AcDbVertex
100
AcDb2dVertex
 10
400.5686503506803
 20
266.5347667964272
 30
0.0
  0
VERTEX
  5
20C
330
1F3
100
AcDbEntity
  8
LINEE VISIBILI 2D
100
AcDbVertex
100
AcDb2dVertex
 10
400.6470866198712
 20
267.7559525650841
 30
0.0
  0
VERTEX
  5
20D
330
1F3
100
AcDbEntity
  8
LINEE VISIBILI 2D
100
AcDbVertex
100
AcDb2dVertex
 10
400.6982444253841
 20
268.9784074811488
 30
0.0
  0
VERTEX
  5
20E
330
1F3
100
AcDbEntity
  8
LINEE VISIBILI 2D
100
AcDbVertex
100
AcDb2dVertex
 10
400.724587080227
 20
270.7309268689452
 30
0.0
  0
VERTEX
  5
20F
330
1F3
100
AcDbEntity
  8
LINEE VISIBILI 2D
100
AcDbVertex
100
AcDb2dVertex
 10
400.6971649308424
 20
272.4833559271158
 30
0.0
  0
VERTEX
  5
210
330
1F3
100
AcDbEntity
  8
LINEE VISIBILI 2D
100
AcDbVertex
100
AcDb2dVertex
 10
400.6178399656702
 20
274.2344562071506
 30
0.0
  0
VERTEX
  5
211
330
1F3
100
AcDbEntity
  8
LINEE VISIBILI 2D
100
AcDbVertex
100
AcDb2dVertex
 10
400.4884741731498
 20
275.9829892605395
 30
0.0
  0
VERTEX
  5
212
330
1F3
100
AcDbEntity
  8
LINEE VISIBILI 2D
100
AcDbVertex
100
AcDb2dVertex
 10
400.3109295417211
 20
277.7277166387726
 30
0.0
  0
VERTEX
  5
213
330
1F3
100
AcDbEntity
  8
LINEE VISIBILI 2D
100
AcDbVertex
100
AcDb2dVertex
 10
400.0870680598238
 20
279.4673998933397
 30
0.0
  0
VERTEX
  5
214
330
1F3
100
AcDbEntity
  8
LINEE VISIBILI 2D
100
AcDbVertex
100
AcDb2dVertex
 10
399.8187517158975
 20
281.2008005757308
 30
0.0
  0
VERTEX
  5
215
330
1F3
100
AcDbEntity
  8
LINEE VISIBILI 2D
100
AcDbVertex
100
AcDb2dVertex
 10
399.507842498382
 20
282.9266802374361
 30
0.0
  0
VERTEX
  5
216
330
1F3
100
AcDbEntity
  8
LINEE VISIBILI 2D
100
AcDbVertex
100
AcDb2dVertex
 10
399.1713531054779
 20
284.5742065204226
 30
0.0
  0
VERTEX
  5
217
330
1F3
100
AcDbEntity
  8
LINEE VISIBILI 2D
100
AcDbVertex
100
AcDb2dVertex
 10
398.7993164194183
 20
286.213759976873
 30
0.0
  0
VERTEX
  5
218
330
1F3
100
AcDbEntity
  8
LINEE VISIBILI 2D
100
AcDbVertex
100
AcDb2dVertex
 10
398.3936638731736
 20
287.8454278493068
 30
0.0
  0
VERTEX
  5
219
330
1F3
100
AcDbEntity
  8
LINEE VISIBILI 2D
100
AcDbVertex
100
AcDb2dVertex
 10
397.9563268997147
 20
289.4692973802435
 30
0.0
  0
VERTEX
  5
21A
330
1F3
100
AcDbEntity
  8
LINEE VISIBILI 2D
100
AcDbVertex
100
AcDb2dVertex
 10
395.0809275779948
 20
298.7601467166201
 30
0.0
  0
VERTEX
  5
21B
330
1F3
100
AcDbEntity
  8
LINEE VISIBILI 2D
100
AcDbVertex
100
AcDb2dVertex
 10
394.7515149203622
 20
299.9556531747557
 30
0.0
  0
VERTEX
  5
21C
330
1F3
100
AcDbEntity
  8
LINEE VISIBILI 2D
100
AcDbVertex
100
AcDb2dVertex
 10
394.4623464276959
 20
301.1111450264323
 30
0.0
  0
VERTEX
  5
21D
330
1F3
100
AcDbEntity
  8
LINEE VISIBILI 2D
100
AcDbVertex
100
AcDb2dVertex
 10
394.2063096940862
 20
302.2740863634715
 30
0.0
  0
VERTEX
  5
21E
330
1F3
100
AcDbEntity
  8
LINEE VISIBILI 2D
100
AcDbVertex
100
AcDb2dVertex
 10
394.0927987536286
 20
302.8583953701116
 30
0.0
  0
VERTEX
  5
21F
330
1F3
100
AcDbEntity
  8
LINEE VISIBILI 2D
100
AcDbVertex
100
AcDb2dVertex
 10
393.9900703729766
 20
303.4446204854238
 30
0.0
  0
VERTEX
  5
220
330
1F3
100
AcDbEntity
  8
LINEE VISIBILI 2D
100
AcDbVertex
100
AcDb2dVertex
 10
393.8989577588104
 20
304.032779621852
 30
0.0
  0
VERTEX
  5
221
330
1F3
100
AcDbEntity
  8
LINEE VISIBILI 2D
100
AcDbVertex
100
AcDb2dVertex
 10
393.8202941178108
 20
304.62289069184
 30
0.0
  0
VERTEX
  5
222
330
1F3
100
AcDbEntity
  8
LINEE VISIBILI 2D
100
AcDbVertex
100
AcDb2dVertex
 10
393.7482653280608
 20
305.2826922418328
 30
0.0
  0
VERTEX
  5
223
330
1F3
100
AcDbEntity
  8
LINEE VISIBILI 2D
100
AcDbVertex
100
AcDb2dVertex
 10
393.6935525791345
 20
305.9443296119218
 30
0.0
  0
VERTEX
  5
224
330
1F3
100
AcDbEntity
  8
LINEE VISIBILI 2D
100
AcDbVertex
100
AcDb2dVertex
 10
393.6569786346428
 20
306.6071925465906
 30
0.0
  0
VERTEX
  5
225
330
1F3
100
AcDbEntity
  8
LINEE VISIBILI 2D
100
AcDbVertex
100
AcDb2dVertex
 10
393.6393662581968
 20
307.270670790323
 30
0.0
  0
VERTEX
  5
226
330
1F3
100
AcDbEntity
  8
LINEE VISIBILI 2D
100
AcDbVertex
100
AcDb2dVertex
 10
393.6415382134074
 20
307.9341540876028
 30
0.0
  0
VERTEX
  5
227
330
1F3
100
AcDbEntity
  8
LINEE VISIBILI 2D
100
AcDbVertex
100
AcDb2dVertex
 10
393.6643172638855
 20
308.5970321829135
 30
0.0
  0
VERTEX
  5
228
330
1F3
100
AcDbEntity
  8
LINEE VISIBILI 2D
100
AcDbVertex
100
AcDb2dVertex
 10
393.7085261732423
 20
309.2586948207388
 30
0.0
  0
VERTEX
  5
229
330
1F3
100
AcDbEntity
  8
LINEE VISIBILI 2D
100
AcDbVertex
100
AcDb2dVertex
 10
393.7749877050885
 20
309.9185317455626
 30
0.0
  0
VERTEX
  5
22A
330
1F3
100
AcDbEntity
  8
LINEE VISIBILI 2D
100
AcDbVertex
100
AcDb2dVertex
 10
393.8592084814208
 20
310.5421498476407
 30
0.0
  0
VERTEX
  5
22B
330
1F3
100
AcDbEntity
  8
LINEE VISIBILI 2D
100
AcDbVertex
100
AcDb2dVertex
 10
393.9640836371719
 20
311.1628142986433
 30
0.0
  0
VERTEX
  5
22C
330
1F3
100
AcDbEntity
  8
LINEE VISIBILI 2D
100
AcDbVertex
100
AcDb2dVertex
 10
394.0895047745895
 20
311.7797632839097
 30
0.0
  0
VERTEX
  5
22D
330
1F3
100
AcDbEntity
  8
LINEE VISIBILI 2D
100
AcDbVertex
100
AcDb2dVertex
 10
394.2353634959213
 20
312.3922349887788
 30
0.0
  0
VERTEX
  5
22E
330
1F3
100
AcDbEntity
  8
LINEE VISIBILI 2D
100
AcDbVertex
100
AcDb2dVertex
 10
394.401551403415
 20
312.99946759859
 30
0.0
  0
VERTEX
  5
22F
330
1F3
100
AcDbEntity
  8
LINEE VISIBILI 2D
100
AcDbVertex
100
AcDb2dVertex
 10
394.5879600993185
 20
313.600699298682
 30
0.0
  0
VERTEX
  5
230
330
1F3
100
AcDbEntity
  8
LINEE VISIBILI 2D
100
AcDbVertex
100
AcDb2dVertex
 10
394.7944811858793
 20
314.1951682743942
 30
0.0
  0
VERTEX
  5
231
330
1F3
100
AcDbEntity
  8
LINEE VISIBILI 2D
100
AcDbVertex
100
AcDb2dVertex
 10
395.0210062653452
 20
314.7821127110656
 30
0.0
  0
SEQEND
  5
1F4
330
1F3
100
AcDbEntity
  8
LINEE VISIBILI 2D
  0
ARC
  5
232
330
1F
100
AcDbEntity
  8
LINEE VISIBILI 2D
100
AcDbCircle
 10
462.289803409842
 20
211.6479804105626
 30
0.0
 40
0.499909251036163
100
AcDbArc
 50
282.9915810562719
 51
0.0081576148387652
  0
ARC
  5
233
330
1F
100
AcDbEntity
  8
LINEE VISIBILI 2D
100
AcDbCircle
 10
462.2897105451303
 20
215.9434709141567
 30
0.0
 40
0.5000021092221242
100
AcDbArc
 50
0.0032836317617462
 51
102.819390154342
  0
LINE
  5
234
330
1F
100
AcDbEntity
  8
LINEE VISIBILI 2D
100
AcDbLine
 10
462.4021224975585
 20
211.1608505249023
 30
0.0
 11
395.7887130280577
 21
195.7821109145749
 31
0.0
  0
ARC
  5
235
330
1F
100
AcDbEntity
  8
LINEE VISIBILI 2D
100
AcDbCircle
 10
269.2860511718913
 20
211.693253922235
 30
0.0
 40
0.5001385322699758
100
AcDbArc
 50
180.0145893216028
 51
263.0418471633431
  0
ARC
  5
236
330
1F
100
AcDbEntity
  8
LINEE VISIBILI 2D
100
AcDbCircle
 10
269.285951852479
 20
215.9853853385853
 30
0.0
 40
0.5000391987650743
100
AcDbArc
 50
81.05830813158901
 51
179.9947497208083
  0
LINE
  5
237
330
1F
100
AcDbEntity
  8
LINEE VISIBILI 2D
100
AcDbLine
 10
395.7887112518345
 20
195.7821128688322
 30
0.0
 11
269.2256456622758
 21
211.1967766375643
 31
0.0
  0
LINE
  5
239
330
1F
100
AcDbEntity
  8
LINEE VISIBILI 2D
100
AcDbLine
 10
269.3636725160498
 20
216.4793472488097
 30
0.0
 11
274.3232412068382
 21
215.6737260778978
 31
0.0
  0
LINE
  5
23B
330
1F
100
AcDbEntity
  8
LINEE VISIBILI 2D
100
AcDbLine
 10
456.9038422150909
 20
215.2175282337599
 30
0.0
 11
462.1787708286613
 21
216.4310101315909
 31
0.0
  0
LINE
  5
23C
330
1F
100
AcDbEntity
  8
LINEE VISIBILI 2D
100
AcDbLine
 10
454.7887126558253
 20
312.8821005040351
 30
0.0
 11
453.9887126558252
 21
312.8821005040351
 31
0.0
  0
LINE
  5
23D
330
1F
100
AcDbEntity
  8
LINEE VISIBILI 2D
100
AcDbLine
 10
455.5887126558253
 20
312.8821005040351
 30
0.0
 11
454.7887126558253
 21
312.8821005040351
 31
0.0
  0
LINE
  5
23E
330
1F
100
AcDbEntity
  8
LINEE VISIBILI 2D
100
AcDbLine
 10
454.7887126558253
 20
316.7821005040351
 30
0.0
 11
455.5887126558253
 21
316.782100504035
 31
0.0
  0
LINE
  5
23F
330
1F
100
AcDbEntity
  8
LINEE VISIBILI 2D
100
AcDbLine
 10
453.9887126558252
 20
316.782100504035
 30
0.0
 11
454.7887126558253
 21
316.7821005040351
 31
0.0
  0
LINE
  5
240
330
1F
100
AcDbEntity
  8
LINEE VISIBILI 2D
100
AcDbLine
 10
455.5887126558253
 20
312.8821005040351
 30
0.0
 11
455.5887126558253
 21
316.782100504035
 31
0.0
  0
LINE
  5
241
330
1F
100
AcDbEntity
  8
LINEE VISIBILI 2D
100
AcDbLine
 10
453.9887126558252
 20
316.782100504035
 30
0.0
 11
453.9887126558252
 21
312.8821005040351
 31
0.0
  0
LINE
  5
242
330
1F
100
AcDbEntity
  8
LINEE VISIBILI 2D
100
AcDbLine
 10
284.9087126558253
 20
214.8060159228724
 30
0.0
 11
284.9087126558253
 21
312.8821005040351
 31
0.0
  0
LINE
  5
243
330
1F
100
AcDbEntity
  8
LINEE VISIBILI 2D
100
AcDbLine
 10
284.8687126558253
 20
312.882100504035
 30
0.0
 11
284.8687126558253
 21
214.8093630218189
 31
0.0
  0
LINE
  5
244
330
1F
100
AcDbEntity
  8
LINEE VISIBILI 2D
100
AcDbLine
 10
401.3887126558252
 20
314.7821127110661
 30
0.0
 11
403.2851754963714
 21
316.7783893853252
 31
0.0
  0
LINE
  5
245
330
1F
100
AcDbEntity
  8
LINEE VISIBILI 2D
100
AcDbLine
 10
388.2887126558253
 20
316.7821127110661
 30
0.0
 11
390.1887126558253
 21
314.7821127110661
 31
0.0
  0
LINE
  5
246
330
1F
100
AcDbEntity
  8
LINEE VISIBILI 2D
100
AcDbLine
 10
388.2887126558253
 20
316.7821127110661
 30
0.0
 11
403.2812562061178
 21
316.7821127110661
 31
0.0
  0
LINE
  5
247
330
1F
100
AcDbEntity
  8
LINEE VISIBILI 2D
100
AcDbLine
 10
401.3887126558252
 20
314.7821127110661
 30
0.0
 11
390.1887126558253
 21
314.7821127110661
 31
0.0
  0
LINE
  5
248
330
1F
100
AcDbEntity
  8
LINEE VISIBILI 2D
100
AcDbLine
 10
392.3605197859413
 20
205.8179263205873
 30
0.0
 11
392.3346638931004
 21
205.783787310162
 31
0.0
  0
LINE
  5
249
330
1F
100
AcDbEntity
  8
LINEE VISIBILI 2D
100
AcDbLine
 10
284.7887126558253
 20
312.8821005040351
 30
0.0
 11
283.9887126558253
 21
312.8821005040351
 31
0.0
  0
LINE
  5
24A
330
1F
100
AcDbEntity
  8
LINEE VISIBILI 2D
100
AcDbLine
 10
285.5887126558252
 20
312.8821005040351
 30
0.0
 11
284.7887126558253
 21
312.8821005040351
 31
0.0
  0
LINE
  5
24B
330
1F
100
AcDbEntity
  8
LINEE VISIBILI 2D
100
AcDbLine
 10
284.7887126558253
 20
316.7821005040351
 30
0.0
 11
285.5887126558252
 21
316.782100504035
 31
0.0
  0
LINE
  5
24C
330
1F
100
AcDbEntity
  8
LINEE VISIBILI 2D
100
AcDbLine
 10
283.9887126558253
 20
316.782100504035
 30
0.0
 11
284.7887126558253
 21
316.7821005040351
 31
0.0
  0
LINE
  5
24D
330
1F
100
AcDbEntity
  8
LINEE VISIBILI 2D
100
AcDbLine
 10
285.5887126558252
 20
312.8821005040351
 30
0.0
 11
285.5887126558252
 21
316.782100504035
 31
0.0
  0
LINE
  5
24E
330
1F
100
AcDbEntity
  8
LINEE VISIBILI 2D
100
AcDbLine
 10
283.9887126558253
 20
316.782100504035
 30
0.0
 11
283.9887126558253
 21
312.8821005040351
 31
0.0
  0
LINE
  5
24F
330
1F
100
AcDbEntity
  8
LINEE VISIBILI 2D
100
AcDbLine
 10
454.9087126558252
 20
214.9051557452123
 30
0.0
 11
454.9087126558252
 21
312.882100504035
 31
0.0
  0
LINE
  5
250
330
1F
100
AcDbEntity
  8
LINEE VISIBILI 2D
100
AcDbLine
 10
454.8687126558252
 20
312.8821005040351
 30
0.0
 11
454.8687126558252
 21
214.8988123971394
 31
0.0
  0
LINE
  5
251
330
1F
100
AcDbEntity
  8
LINEE VISIBILI 2D
100
AcDbLine
 10
462.7897126558122
 20
211.6555218674733
 30
0.0
 11
462.7897126386122
 21
215.1736432126992
 31
0.0
  0
LINE
  5
252
330
1F
100
AcDbEntity
  8
LINEE VISIBILI 2D
100
AcDbLine
 10
462.7897126386122
 20
215.1736432126992
 30
0.0
 11
462.7897126515523
 21
215.9434995693701
 31
0.0
  0
LINE
  5
253
330
1F
100
AcDbEntity
  8
LINEE VISIBILI 2D
100
AcDbLine
 10
395.7887268066406
 20
195.7821126966925
 30
0.0
 11
395.7887268067595
 21
200.7819566870707
 31
0.0
  0
LINE
  5
254
330
1F
100
AcDbEntity
  8
LINEE VISIBILI 2D
100
AcDbLine
 10
395.7887126558107
 20
205.4928211411607
 30
0.0
 11
456.547470090726
 21
215.1649947111724
 31
0.0
  0
LINE
  5
255
330
1F
100
AcDbEntity
  8
LINEE VISIBILI 2D
100
AcDbLine
 10
395.7887126558103
 20
200.7819566870707
 30
0.0
 11
395.78871265581
 21
205.4928206751363
 31
0.0
  0
LINE
  5
256
330
1F
100
AcDbEntity
  8
LINEE VISIBILI 2D
100
AcDbLine
 10
268.785912655815
 20
215.5087632906088
 30
0.0
 11
268.7859126558134
 21
211.702718831239
 31
0.0
  0
POLYLINE
  5
257
330
1F
100
AcDbEntity
  8
LINEE VISIBILI 2D
100
AcDb2dPolyline
 66
     1
 10
0.0
 20
0.0
 30
0.0
  0
VERTEX
  5
259
330
257
100
AcDbEntity
  8
LINEE VISIBILI 2D
100
AcDbVertex
100
AcDb2dVertex
 10
268.7859126558131
 20
215.978059692549
 30
0.0
  0
VERTEX
  5
25A
330
257
100
AcDbEntity
  8
LINEE VISIBILI 2D
100
AcDbVertex
100
AcDb2dVertex
 10
268.7859126558132
 20
215.9840208947501
 30
0.0
  0
VERTEX
  5
25B
330
257
100
AcDbEntity
  8
LINEE VISIBILI 2D
100
AcDbVertex
100
AcDb2dVertex
 10
268.7859126558133
 20
215.9852518215541
 30
0.0
  0
VERTEX
  5
25C
330
257
100
AcDbEntity
  8
LINEE VISIBILI 2D
100
AcDbVertex
100
AcDb2dVertex
 10
268.7859126558133
 20
215.985429865724
 30
0.0
  0
VERTEX
  5
25D
330
257
100
AcDbEntity
  8
LINEE VISIBILI 2D
100
AcDbVertex
100
AcDb2dVertex
 10
268.7859126558133
 20
215.9854095329188
 30
0.0
  0
VERTEX
  5
25E
330
257
100
AcDbEntity
  8
LINEE VISIBILI 2D
100
AcDbVertex
100
AcDb2dVertex
 10
268.7859126558133
 20
215.985316296822
 30
0.0
  0
VERTEX
  5
25F
330
257
100
AcDbEntity
  8
LINEE VISIBILI 2D
100
AcDbVertex
100
AcDb2dVertex
 10
268.7859126558135
 20
215.9739096524563
 30
0.0
  0
VERTEX
  5
260
330
257
100
AcDbEntity
  8
LINEE VISIBILI 2D
100
AcDbVertex
100
AcDb2dVertex
 10
268.785912655814
 20
215.8951062328308
 30
0.0
  0
VERTEX
  5
261
330
257
100
AcDbEntity
  8
LINEE VISIBILI 2D
100
AcDbVertex
100
AcDb2dVertex
 10
268.785912655815
 20
215.5135361751574
 30
0.0
  0
SEQEND
  5
258
330
257
100
AcDbEntity
  8
LINEE VISIBILI 2D
  0
LINE
  5
262
330
1F
100
AcDbEntity
  8
LINEE VISIBILI 2D
100
AcDbLine
 10
276.3702352978489
 20
215.5201981842401
 30
0.0
 11
395.7887079658263
 21
205.4928215363058
 31
0.0
  0
LINE
  5
265
330
1F
100
AcDbEntity
  8
LINEE VISIBILI 2D
100
AcDbLine
 10
456.5474700907246
 20
215.1649947111752
 30
0.0
 11
456.9038422150909
 21
215.2175282337599
 31
0.0
  0
LINE
  5
268
330
1F
100
AcDbEntity
  8
LINEE VISIBILI 2D
100
AcDbLine
 10
274.3232412068382
 20
215.6737260778978
 30
0.0
 11
276.3702352978463
 21
215.5201981842105
 31
0.0
  0
ARC
  5
281
330
1F
100
AcDbEntity
  8
LINEE VISIBILI 2D
100
AcDbCircle
 10
462.2896512624983
 20
7.947211635013417
 30
0.0
 40
0.5000613969034238
100
AcDbArc
 50
276.3833266526254
 51
359.9931332536677
  0
ARC
  5
282
330
1F
100
AcDbEntity
  8
LINEE VISIBILI 2D
100
AcDbCircle
 10
462.2896994450531
 20
32.05283443651462
 30
0.0
 40
0.5000132108827376
100
AcDbArc
 50
0.0012653190500227
 51
83.61422919489163
  0
LINE
  5
283
330
1F
100
AcDbEntity
  8
LINEE VISIBILI 2D
100
AcDbLine
 10
395.7887151456091
 20
39.99999781754292
 30
0.0
 11
462.3446991462787
 21
32.54981319523659
 31
0.0
  0
ARC
  5
284
330
1F
100
AcDbEntity
  8
LINEE VISIBILI 2D
100
AcDbCircle
 10
269.2859819170678
 20
7.971413462127571
 30
0.0
 40
0.5000692658918644
100
AcDbArc
 50
180.0078069341372
 51
266.440488114462
  0
LINE
  5
285
330
1F
100
AcDbEntity
  8
LINEE VISIBILI 2D
100
AcDbLine
 10
395.7887098476683
 20
0.0000020838171029
 30
0.0
 11
269.2549346550968
 21
7.472303464734608
 31
0.0
  0
ARC
  5
286
330
1F
100
AcDbEntity
  8
LINEE VISIBILI 2D
100
AcDbCircle
 10
454.7887126558271
 20
19.99995797318381
 30
0.0
 40
0.7999999999999119
100
AcDbArc
 50
269.9999999999878
 51
0.0000000000061067
  0
ARC
  5
287
330
1F
100
AcDbEntity
  8
LINEE VISIBILI 2D
100
AcDbCircle
 10
454.7887126558271
 20
19.99995797318402
 30
0.0
 40
0.8000000000001818
100
AcDbArc
 50
180.0000000000091
 51
269.9999999999878
  0
ARC
  5
288
330
1F
100
AcDbEntity
  8
LINEE VISIBILI 2D
100
AcDbCircle
 10
454.7887126558268
 20
19.99995797318401
 30
0.0
 40
0.7999999999998764
100
AcDbArc
 50
89.99999999998371
 51
180.0000000000086
  0
ARC
  5
289
330
1F
100
AcDbEntity
  8
LINEE VISIBILI 2D
100
AcDbCircle
 10
454.7887126558273
 20
19.99995797318411
 30
0.0
 40
0.7999999999996703
100
AcDbArc
 50
359.9999999999847
 51
90.00000000002442
  0
ARC
  5
28A
330
1F
100
AcDbEntity
  8
LINEE VISIBILI 2D
100
AcDbCircle
 10
395.788712655827
 20
19.99995797318386
 30
0.0
 40
7.5
100
AcDbArc
 50
0.0000000000002443
 51
179.9999999999998
  0
ARC
  5
28B
330
1F
100
AcDbEntity
  8
LINEE VISIBILI 2D
100
AcDbCircle
 10
395.788712655827
 20
19.99995797318389
 30
0.0
 40
7.5
100
AcDbArc
 50
179.9999999999999
 51
0.0000000000000271
  0
ARC
  5
28C
330
1F
100
AcDbEntity
  8
LINEE VISIBILI 2D
100
AcDbCircle
 10
284.7887126558271
 20
19.99995797318384
 30
0.0
 40
0.7999999999999404
100
AcDbArc
 50
269.9999999999919
 51
0.0000000000040711
  0
ARC
  5
28D
330
1F
100
AcDbEntity
  8
LINEE VISIBILI 2D
100
AcDbCircle
 10
284.7887126558269
 20
19.99995797318375
 30
0.0
 40
0.7999999999998409
100
AcDbArc
 50
179.9999999999898
 51
270.0000000000081
  0
ARC
  5
28E
330
1F
100
AcDbEntity
  8
LINEE VISIBILI 2D
100
AcDbCircle
 10
284.7887126558269
 20
19.99995797318402
 30
0.0
 40
0.7999999999998693
100
AcDbArc
 50
89.99999999999593
 51
180.0000000000091
  0
ARC
  5
28F
330
1F
100
AcDbEntity
  8
LINEE VISIBILI 2D
100
AcDbCircle
 10
284.7887126558271
 20
19.99995797318394
 30
0.0
 40
0.7999999999998977
100
AcDbArc
 50
359.9999999999964
 51
90.00000000000815
  0
LINE
  5
290
330
1F
100
AcDbEntity
  8
LINEE VISIBILI 2D
100
AcDbLine
 10
462.7897126558142
 20
7.959007531383981
 30
0.0
 11
462.7897126386139
 21
11.05344946510354
 31
0.0
  0
LINE
  5
291
330
1F
100
AcDbEntity
  8
LINEE VISIBILI 2D
100
AcDbLine
 10
462.7897126389346
 20
28.94649520578547
 30
0.0
 11
462.7897126558138
 21
32.05177033948341
 31
0.0
  0
LINE
  5
292
330
1F
100
AcDbEntity
  8
LINEE VISIBILI 2D
100
AcDbLine
 10
462.7897119522095
 20
11.05344946510354
 30
0.0
 11
462.7897120036497
 21
28.94649520578548
 31
0.0
  0
LINE
  5
293
330
1F
100
AcDbEntity
  8
LINEE VISIBILI 2D
100
AcDbLine
 10
456.2965272391811
 20
26.71277442760766
 30
0.0
 11
399.1413923805494
 21
26.70887283800442
 31
0.0
  0
LINE
  5
294
330
1F
100
AcDbEntity
  8
LINEE VISIBILI 2D
100
AcDbLine
 10
399.1414987710015
 20
13.29109627637081
 30
0.0
 11
456.5474700907263
 21
13.28733243651061
 31
0.0
  0
LINE
  5
295
330
1F
100
AcDbEntity
  8
LINEE VISIBILI 2D
100
AcDbLine
 10
395.788712655812
 20
0.0
 30
0.0
 11
395.7887126558034
 21
12.49995797322779
 31
0.0
  0
LINE
  5
296
330
1F
100
AcDbEntity
  8
LINEE VISIBILI 2D
100
AcDbLine
 10
462.3450632083203
 20
7.450226551005357
 30
0.0
 11
395.788712655812
 21
0.0
 31
0.0
  0
LINE
  5
297
330
1F
100
AcDbEntity
  8
LINEE VISIBILI 2D
100
AcDbLine
 10
268.7859126558133
 20
27.3743884770866
 30
0.0
 11
268.7859126558133
 21
27.34280980249743
 31
0.0
  0
LINE
  5
298
330
1F
100
AcDbEntity
  8
LINEE VISIBILI 2D
100
AcDbLine
 10
268.785912655813
 20
32.01816783914011
 30
0.0
 11
268.7859126558133
 21
27.3743884770866
 31
0.0
  0
LINE
  5
299
330
1F
100
AcDbEntity
  8
LINEE VISIBILI 2D
100
AcDbLine
 10
268.7859126558167
 20
12.6260356487037
 30
0.0
 11
268.785912655817
 21
7.9806809096047
 31
0.0
  0
LINE
  5
29A
330
1F
100
AcDbEntity
  8
LINEE VISIBILI 2D
100
AcDbLine
 10
268.7859126558167
 20
12.6569544398629
 30
0.0
 11
268.7859126558167
 21
12.6260356487037
 31
0.0
  0
LINE
  5
29B
330
1F
100
AcDbEntity
  8
LINEE VISIBILI 2D
100
AcDbLine
 10
268.7859126558133
 20
27.34280980249743
 30
0.0
 11
268.7859126558167
 21
12.6569544398629
 31
0.0
  0
LINE
  5
29C
330
1F
100
AcDbEntity
  8
LINEE VISIBILI 2D
100
AcDbLine
 10
392.4358961081854
 20
26.70880446117371
 30
0.0
 11
276.3599191878132
 21
26.71299458292707
 31
0.0
  0
LINE
  5
29D
330
1F
100
AcDbEntity
  8
LINEE VISIBILI 2D
100
AcDbLine
 10
395.788712655812
 20
40.00000000000009
 30
0.0
 11
395.7887126558079
 21
27.49995797313997
 31
0.0
  0
LINE
  5
29E
330
1F
100
AcDbEntity
  8
LINEE VISIBILI 2D
100
AcDbLine
 10
395.788712655812
 20
40.00000000000009
 30
0.0
 11
269.2566474215301
 21
32.52779868430373
 31
0.0
  0
LINE
  5
29F
330
1F
100
AcDbEntity
  8
LINEE VISIBILI 2D
100
AcDbLine
 10
276.370235297848
 20
13.28700648341328
 30
0.0
 11
392.4357898648032
 21
13.2911645822381
 31
0.0
  0
LINE
  5
2A0
330
1F
100
AcDbEntity
  8
LINEE VISIBILI 2D
100
AcDbLine
 10
456.903404586046
 20
26.70897514981556
 30
0.0
 11
456.2965357559386
 21
26.71277438911517
 31
0.0
  0
LINE
  5
2A1
330
1F
100
AcDbEntity
  8
LINEE VISIBILI 2D
100
AcDbLine
 10
457.0507190634564
 20
26.64403372016237
 30
0.0
 11
456.903404586046
 21
26.70897514981555
 31
0.0
  0
LINE
  5
2A2
330
1F
100
AcDbEntity
  8
LINEE VISIBILI 2D
100
AcDbLine
 10
457.10963426075
 20
26.2620148094903
 30
0.0
 11
457.1073144176247
 21
26.50381440204349
 31
0.0
  0
ARC
  5
2A3
330
1F
100
AcDbEntity
  8
LINEE VISIBILI 2D
100
AcDbCircle
 10
463.8601423813997
 20
22.9601603071933
 30
0.0
 40
12.12595460341282
100
AcDbArc
 50
232.9106651054601
 51
262.205340036962
  0
LINE
  5
2A4
330
1F
100
AcDbEntity
  8
LINEE VISIBILI 2D
100
AcDbLine
 10
457.107396873102
 20
13.49601834443969
 30
0.0
 11
457.1097342735494
 21
13.72228828341792
 31
0.0
  0
LINE
  5
2A5
330
1F
100
AcDbEntity
  8
LINEE VISIBILI 2D
100
AcDbLine
 10
456.9038422150927
 20
13.29075206691959
 30
0.0
 11
457.0499958762375
 21
13.35496061576693
 31
0.0
  0
LINE
  5
2A6
330
1F
100
AcDbEntity
  8
LINEE VISIBILI 2D
100
AcDbLine
 10
456.5474857965587
 20
13.28733258158905
 30
0.0
 11
456.9038422150927
 21
13.29075206691964
 31
0.0
  0
LINE
  5
2A7
330
1F
100
AcDbEntity
  8
LINEE VISIBILI 2D
100
AcDbLine
 10
276.3599191294412
 20
26.71299458273359
 30
0.0
 11
274.323233573201
 21
26.70820488958159
 31
0.0
  0
LINE
  5
2A8
330
1F
100
AcDbEntity
  8
LINEE VISIBILI 2D
100
AcDbLine
 10
274.1222871074674
 20
26.50574946605856
 30
0.0
 11
274.1204165605714
 21
25.92700684649157
 31
0.0
  0
LINE
  5
2A9
330
1F
100
AcDbEntity
  8
LINEE VISIBILI 2D
100
AcDbLine
 10
274.1760529022679
 20
13.35538985669469
 30
0.0
 11
274.32324120684
 21
13.29179652135504
 31
0.0
  0
LINE
  5
2AA
330
1F
100
AcDbEntity
  8
LINEE VISIBILI 2D
100
AcDbLine
 10
274.1204086555858
 20
14.07036467107439
 30
0.0
 11
274.1222932329729
 21
13.49425235941444
 31
0.0
  0
LINE
  5
2AB
330
1F
100
AcDbEntity
  8
LINEE VISIBILI 2D
100
AcDbLine
 10
274.32324120684
 20
13.29179652135508
 30
0.0
 11
276.3702331684702
 21
13.28700648616648
 31
0.0
  0
LINE
  5
2AC
330
1F
100
AcDbEntity
  8
LINEE VISIBILI 2D
100
AcDbLine
 10
274.1204165821457
 20
25.9269985394948
 30
0.0
 11
274.1204086766236
 21
14.07037333931625
 31
0.0
  0
POLYLINE
  5
2AD
330
1F
100
AcDbEntity
  8
LINEE VISIBILI 2D
100
AcDb2dPolyline
 66
     1
 10
0.0
 20
0.0
 30
0.0
  0
VERTEX
  5
2AF
330
2AD
100
AcDbEntity
  8
LINEE VISIBILI 2D
100
AcDbVertex
100
AcDb2dVertex
 10
268.7859126558134
 20
26.94228805190556
 30
0.0
  0
VERTEX
  5
2B0
330
2AD
100
AcDbEntity
  8
LINEE VISIBILI 2D
100
AcDbVertex
100
AcDb2dVertex
 10
269.394814330642
 20
27.47188618524829
 30
0.0
  0
VERTEX
  5
2B1
330
2AD
100
AcDbEntity
  8
LINEE VISIBILI 2D
100
AcDbVertex
100
AcDb2dVertex
 10
269.4607181396906
 20
27.52583827694105
 30
0.0
  0
VERTEX
  5
2B2
330
2AD
100
AcDbEntity
  8
LINEE VISIBILI 2D
100
AcDbVertex
100
AcDb2dVertex
 10
269.528101792574
 20
27.57789656106848
 30
0.0
  0
VERTEX
  5
2B3
330
2AD
100
AcDbEntity
  8
LINEE VISIBILI 2D
100
AcDbVertex
100
AcDb2dVertex
 10
269.5968469661198
 20
27.62814559380704
 30
0.0
  0
VERTEX
  5
2B4
330
2AD
100
AcDbEntity
  8
LINEE VISIBILI 2D
100
AcDbVertex
100
AcDb2dVertex
 10
269.6668353371547
 20
27.67666993133324
 30
0.0
  0
VERTEX
  5
2B5
330
2AD
100
AcDbEntity
  8
LINEE VISIBILI 2D
100
AcDbVertex
100
AcDb2dVertex
 10
269.737948582506
 20
27.72355412982354
 30
0.0
  0
VERTEX
  5
2B6
330
2AD
100
AcDbEntity
  8
LINEE VISIBILI 2D
100
AcDbVertex
100
AcDb2dVertex
 10
269.8100683790009
 20
27.76888274545444
 30
0.0
  0
VERTEX
  5
2B7
330
2AD
100
AcDbEntity
  8
LINEE VISIBILI 2D
100
AcDbVertex
100
AcDb2dVertex
 10
269.8830764034664
 20
27.81274033440241
 30
0.0
  0
VERTEX
  5
2B8
330
2AD
100
AcDbEntity
  8
LINEE VISIBILI 2D
100
AcDbVertex
100
AcDb2dVertex
 10
269.9773987143587
 20
27.86671588403577
 30
0.0
  0
VERTEX
  5
2B9
330
2AD
100
AcDbEntity
  8
LINEE VISIBILI 2D
100
AcDbVertex
100
AcDb2dVertex
 10
270.0728757257875
 20
27.91857397157482
 30
0.0
  0
VERTEX
  5
2BA
330
2AD
100
AcDbEntity
  8
LINEE VISIBILI 2D
100
AcDbVertex
100
AcDb2dVertex
 10
270.1694076051473
 20
27.96845634048609
 30
0.0
  0
VERTEX
  5
2BB
330
2AD
100
AcDbEntity
  8
LINEE VISIBILI 2D
100
AcDbVertex
100
AcDb2dVertex
 10
270.2668945198328
 20
28.01650473423613
 30
0.0
  0
VERTEX
  5
2BC
330
2AD
100
AcDbEntity
  8
LINEE VISIBILI 2D
100
AcDbVertex
100
AcDb2dVertex
 10
270.4643341247595
 20
28.10766657011864
 30
0.0
  0
VERTEX
  5
2BD
330
2AD
100
AcDbEntity
  8
LINEE VISIBILI 2D
100
AcDbVertex
100
AcDb2dVertex
 10
270.6643958797249
 20
28.19319342695464
 30
0.0
  0
VERTEX
  5
2BE
330
2AD
100
AcDbEntity
  8
LINEE VISIBILI 2D
100
AcDbVertex
100
AcDb2dVertex
 10
270.830359364492
 20
28.25964869414078
 30
0.0
  0
VERTEX
  5
2BF
330
2AD
100
AcDbEntity
  8
LINEE VISIBILI 2D
100
AcDbVertex
100
AcDb2dVertex
 10
270.9980168238794
 20
28.32122507516685
 30
0.0
  0
VERTEX
  5
2C0
330
2AD
100
AcDbEntity
  8
LINEE VISIBILI 2D
100
AcDbVertex
100
AcDb2dVertex
 10
271.0826253106827
 20
28.34960898162474
 30
0.0
  0
VERTEX
  5
2C1
330
2AD
100
AcDbEntity
  8
LINEE VISIBILI 2D
100
AcDbVertex
100
AcDb2dVertex
 10
271.1678307110934
 20
28.3760835244485
 30
0.0
  0
VERTEX
  5
2C2
330
2AD
100
AcDbEntity
  8
LINEE VISIBILI 2D
100
AcDbVertex
100
AcDb2dVertex
 10
271.2536908317623
 20
28.40041882294007
 30
0.0
  0
VERTEX
  5
2C3
330
2AD
100
AcDbEntity
  8
LINEE VISIBILI 2D
100
AcDbVertex
100
AcDb2dVertex
 10
271.3402634793404
 20
28.42238499640141
 30
0.0
  0
VERTEX
  5
2C4
330
2AD
100
AcDbEntity
  8
LINEE VISIBILI 2D
100
AcDbVertex
100
AcDb2dVertex
 10
271.4044268426766
 20
28.43679490201811
 30
0.0
  0
VERTEX
  5
2C5
330
2AD
100
AcDbEntity
  8
LINEE VISIBILI 2D
100
AcDbVertex
100
AcDb2dVertex
 10
271.4366761991032
 20
28.44325642828964
 30
0.0
  0
VERTEX
  5
2C6
330
2AD
100
AcDbEntity
  8
LINEE VISIBILI 2D
100
AcDbVertex
100
AcDb2dVertex
 10
271.469043425078
 20
28.4491070216375
 30
0.0
  0
VERTEX
  5
2C7
330
2AD
100
AcDbEntity
  8
LINEE VISIBILI 2D
100
AcDbVertex
100
AcDb2dVertex
 10
271.5015330853827
 20
28.45426019563735
 30
0.0
  0
VERTEX
  5
2C8
330
2AD
100
AcDbEntity
  8
LINEE VISIBILI 2D
100
AcDbVertex
100
AcDb2dVertex
 10
271.5341497447992
 20
28.45862946386486
 30
0.0
  0
VERTEX
  5
2C9
330
2AD
100
AcDbEntity
  8
LINEE VISIBILI 2D
100
AcDbVertex
100
AcDb2dVertex
 10
271.5668979681093
 20
28.46212833989568
 30
0.0
  0
VERTEX
  5
2CA
330
2AD
100
AcDbEntity
  8
LINEE VISIBILI 2D
100
AcDbVertex
100
AcDb2dVertex
 10
271.5997823200947
 20
28.46467033730547
 30
0.0
  0
VERTEX
  5
2CB
330
2AD
100
AcDbEntity
  8
LINEE VISIBILI 2D
100
AcDbVertex
100
AcDb2dVertex
 10
271.622019323059
 20
28.46578375976991
 30
0.0
  0
VERTEX
  5
2CC
330
2AD
100
AcDbEntity
  8
LINEE VISIBILI 2D
100
AcDbVertex
100
AcDb2dVertex
 10
271.6442626075177
 20
28.46629617106642
 30
0.0
  0
VERTEX
  5
2CD
330
2AD
100
AcDbEntity
  8
LINEE VISIBILI 2D
100
AcDbVertex
100
AcDb2dVertex
 10
271.6553685886179
 20
28.46628734816506
 30
0.0
  0
VERTEX
  5
2CE
330
2AD
100
AcDbEntity
  8
LINEE VISIBILI 2D
100
AcDbVertex
100
AcDb2dVertex
 10
271.6664545200643
 20
28.46608069323774
 30
0.0
  0
VERTEX
  5
2CF
330
2AD
100
AcDbEntity
  8
LINEE VISIBILI 2D
100
AcDbVertex
100
AcDb2dVertex
 10
271.6775131951812
 20
28.46566034653982
 30
0.0
  0
VERTEX
  5
2D0
330
2AD
100
AcDbEntity
  8
LINEE VISIBILI 2D
100
AcDbVertex
100
AcDb2dVertex
 10
271.6885374072926
 20
28.46501044832661
 30
0.0
  0
VERTEX
  5
2D1
330
2AD
100
AcDbEntity
  8
LINEE VISIBILI 2D
100
AcDbVertex
100
AcDb2dVertex
 10
271.6995199497229
 20
28.46411513885349
 30
0.0
  0
VERTEX
  5
2D2
330
2AD
100
AcDbEntity
  8
LINEE VISIBILI 2D
100
AcDbVertex
100
AcDb2dVertex
 10
271.7104536157961
 20
28.46295855837578
 30
0.0
  0
VERTEX
  5
2D3
330
2AD
100
AcDbEntity
  8
LINEE VISIBILI 2D
100
AcDbVertex
100
AcDb2dVertex
 10
271.7213311988367
 20
28.46152484714883
 30
0.0
  0
VERTEX
  5
2D4
330
2AD
100
AcDbEntity
  8
LINEE VISIBILI 2D
100
AcDbVertex
100
AcDb2dVertex
 10
271.7321454921687
 20
28.45979814542798
 30
0.0
  0
VERTEX
  5
2D5
330
2AD
100
AcDbEntity
  8
LINEE VISIBILI 2D
100
AcDbVertex
100
AcDb2dVertex
 10
271.7428892891163
 20
28.45776259346857
 30
0.0
  0
VERTEX
  5
2D6
330
2AD
100
AcDbEntity
  8
LINEE VISIBILI 2D
100
AcDbVertex
100
AcDb2dVertex
 10
271.7535553830036
 20
28.45540233152595
 30
0.0
  0
VERTEX
  5
2D7
330
2AD
100
AcDbEntity
  8
LINEE VISIBILI 2D
100
AcDbVertex
100
AcDb2dVertex
 10
271.764136567155
 20
28.45270149985547
 30
0.0
  0
VERTEX
  5
2D8
330
2AD
100
AcDbEntity
  8
LINEE VISIBILI 2D
100
AcDbVertex
100
AcDb2dVertex
 10
271.7746256348947
 20
28.44964423871245
 30
0.0
  0
VERTEX
  5
2D9
330
2AD
100
AcDbEntity
  8
LINEE VISIBILI 2D
100
AcDbVertex
100
AcDb2dVertex
 10
271.7806967587196
 20
28.44769177431832
 30
0.0
  0
VERTEX
  5
2DA
330
2AD
100
AcDbEntity
  8
LINEE VISIBILI 2D
100
AcDbVertex
100
AcDb2dVertex
 10
271.7867339400657
 20
28.44561604947482
 30
0.0
  0
VERTEX
  5
2DB
330
2AD
100
AcDbEntity
  8
LINEE VISIBILI 2D
100
AcDbVertex
100
AcDb2dVertex
 10
271.7927370081927
 20
28.44342038914632
 30
0.0
  0
VERTEX
  5
2DC
330
2AD
100
AcDbEntity
  8
LINEE VISIBILI 2D
100
AcDbVertex
100
AcDb2dVertex
 10
271.7987057923604
 20
28.4411081182972
 30
0.0
  0
VERTEX
  5
2DD
330
2AD
100
AcDbEntity
  8
LINEE VISIBILI 2D
100
AcDbVertex
100
AcDb2dVertex
 10
271.8046401218287
 20
28.43868256189182
 30
0.0
  0
VERTEX
  5
2DE
330
2AD
100
AcDbEntity
  8
LINEE VISIBILI 2D
100
AcDbVertex
100
AcDb2dVertex
 10
271.8105398258573
 20
28.43614704489457
 30
0.0
  0
VERTEX
  5
2DF
330
2AD
100
AcDbEntity
  8
LINEE VISIBILI 2D
100
AcDbVertex
100
AcDb2dVertex
 10
271.8222346746346
 20
28.43075942898195
 30
0.0
  0
VERTEX
  5
2E0
330
2AD
100
AcDbEntity
  8
LINEE VISIBILI 2D
100
AcDbVertex
100
AcDb2dVertex
 10
271.8337889727707
 20
28.42497187027433
 30
0.0
  0
VERTEX
  5
2E1
330
2AD
100
AcDbEntity
  8
LINEE VISIBILI 2D
100
AcDbVertex
100
AcDb2dVertex
 10
271.8452013543438
 20
28.41881096848672
 30
0.0
  0
VERTEX
  5
2E2
330
2AD
100
AcDbEntity
  8
LINEE VISIBILI 2D
100
AcDbVertex
100
AcDb2dVertex
 10
271.8564704534322
 20
28.41230332333412
 30
0.0
  0
VERTEX
  5
2E3
330
2AD
100
AcDbEntity
  8
LINEE VISIBILI 2D
100
AcDbVertex
100
AcDb2dVertex
 10
271.8675949041142
 20
28.40547553453153
 30
0.0
  0
VERTEX
  5
2E4
330
2AD
100
AcDbEntity
  8
LINEE VISIBILI 2D
100
AcDbVertex
100
AcDb2dVertex
 10
271.8785733404682
 20
28.39835420179395
 30
0.0
  0
VERTEX
  5
2E5
330
2AD
100
AcDbEntity
  8
LINEE VISIBILI 2D
100
AcDbVertex
100
AcDb2dVertex
 10
271.8894043965723
 20
28.39096592483639
 30
0.0
  0
VERTEX
  5
2E6
330
2AD
100
AcDbEntity
  8
LINEE VISIBILI 2D
100
AcDbVertex
100
AcDb2dVertex
 10
271.9000867065049
 20
28.38333730337384
 30
0.0
  0
VERTEX
  5
2E7
330
2AD
100
AcDbEntity
  8
LINEE VISIBILI 2D
100
AcDbVertex
100
AcDb2dVertex
 10
271.9106189043444
 20
28.3754949371213
 30
0.0
  0
VERTEX
  5
2E8
330
2AD
100
AcDbEntity
  8
LINEE VISIBILI 2D
100
AcDbVertex
100
AcDb2dVertex
 10
271.9312275000571
 20
28.35927536910627
 30
0.0
  0
VERTEX
  5
2E9
330
2AD
100
AcDbEntity
  8
LINEE VISIBILI 2D
100
AcDbVertex
100
AcDb2dVertex
 10
271.9512192563364
 20
28.34252001851132
 30
0.0
  0
VERTEX
  5
2EA
330
2AD
100
AcDbEntity
  8
LINEE VISIBILI 2D
100
AcDbVertex
100
AcDb2dVertex
 10
271.9762356595158
 20
28.32029464696772
 30
0.0
  0
VERTEX
  5
2EB
330
2AD
100
AcDbEntity
  8
LINEE VISIBILI 2D
100
AcDbVertex
100
AcDb2dVertex
 10
272.0004562440399
 20
28.29759954949267
 30
0.0
  0
VERTEX
  5
2EC
330
2AD
100
AcDbEntity
  8
LINEE VISIBILI 2D
100
AcDbVertex
100
AcDb2dVertex
 10
272.0475428234113
 20
28.25109046971503
 30
0.0
  0
VERTEX
  5
2ED
330
2AD
100
AcDbEntity
  8
LINEE VISIBILI 2D
100
AcDbVertex
100
AcDb2dVertex
 10
272.1915073944418
 20
28.10095610917784
 30
0.0
  0
VERTEX
  5
2EE
330
2AD
100
AcDbEntity
  8
LINEE VISIBILI 2D
100
AcDbVertex
100
AcDb2dVertex
 10
274.1204165509601
 20
25.92700391753467
 30
0.0
  0
SEQEND
  5
2AE
330
2AD
100
AcDbEntity
  8
LINEE VISIBILI 2D
  0
POLYLINE
  5
2EF
330
1F
100
AcDbEntity
  8
LINEE VISIBILI 2D
100
AcDb2dPolyline
 66
     1
 10
0.0
 20
0.0
 30
0.0
  0
VERTEX
  5
2F1
330
2EF
100
AcDbEntity
  8
LINEE VISIBILI 2D
100
AcDbVertex
100
AcDb2dVertex
 10
274.1204086448056
 20
14.07036785780626
 30
0.0
  0
VERTEX
  5
2F2
330
2EF
100
AcDbEntity
  8
LINEE VISIBILI 2D
100
AcDbVertex
100
AcDb2dVertex
 10
272.2029541659006
 20
11.90644443896463
 30
0.0
  0
VERTEX
  5
2F3
330
2EF
100
AcDbEntity
  8
LINEE VISIBILI 2D
100
AcDbVertex
100
AcDb2dVertex
 10
272.1408589887155
 20
11.84084323568761
 30
0.0
  0
VERTEX
  5
2F4
330
2EF
100
AcDbEntity
  8
LINEE VISIBILI 2D
100
AcDbVertex
100
AcDb2dVertex
 10
272.0772964154325
 20
11.77665546912986
 30
0.0
  0
VERTEX
  5
2F5
330
2EF
100
AcDbEntity
  8
LINEE VISIBILI 2D
100
AcDbVertex
100
AcDb2dVertex
 10
272.0116938621443
 20
11.71436726990565
 30
0.0
  0
VERTEX
  5
2F6
330
2EF
100
AcDbEntity
  8
LINEE VISIBILI 2D
100
AcDbVertex
100
AcDb2dVertex
 10
271.9779486605271
 20
11.68408742386059
 30
0.0
  0
VERTEX
  5
2F7
330
2EF
100
AcDbEntity
  8
LINEE VISIBILI 2D
100
AcDbVertex
100
AcDb2dVertex
 10
271.9434787449434
 20
11.65446476862928
 30
0.0
  0
VERTEX
  5
2F8
330
2EF
100
AcDbEntity
  8
LINEE VISIBILI 2D
100
AcDbVertex
100
AcDb2dVertex
 10
271.922703296589
 20
11.63731141702458
 30
0.0
  0
VERTEX
  5
2F9
330
2EF
100
AcDbEntity
  8
LINEE VISIBILI 2D
100
AcDbVertex
100
AcDb2dVertex
 10
271.9015625659161
 20
11.62064957131219
 30
0.0
  0
VERTEX
  5
2FA
330
2EF
100
AcDbEntity
  8
LINEE VISIBILI 2D
100
AcDbVertex
100
AcDb2dVertex
 10
271.8908281670831
 20
11.61257802839732
 30
0.0
  0
VERTEX
  5
2FB
330
2EF
100
AcDbEntity
  8
LINEE VISIBILI 2D
100
AcDbVertex
100
AcDb2dVertex
 10
271.8799699845179
 20
11.60471944023358
 30
0.0
  0
VERTEX
  5
2FC
330
2EF
100
AcDbEntity
  8
LINEE VISIBILI 2D
100
AcDbVertex
100
AcDb2dVertex
 10
271.8689771971697
 20
11.59710383291365
 30
0.0
  0
VERTEX
  5
2FD
330
2EF
100
AcDbEntity
  8
LINEE VISIBILI 2D
100
AcDbVertex
100
AcDb2dVertex
 10
271.8578389839876
 20
11.58976123253022
 30
0.0
  0
VERTEX
  5
2FE
330
2EF
100
AcDbEntity
  8
LINEE VISIBILI 2D
100
AcDbVertex
100
AcDb2dVertex
 10
271.8465445239207
 20
11.58272166517595
 30
0.0
  0
VERTEX
  5
2FF
330
2EF
100
AcDbEntity
  8
LINEE VISIBILI 2D
100
AcDbVertex
100
AcDb2dVertex
 10
271.8350829959182
 20
11.57601515694355
 30
0.0
  0
VERTEX
  5
300
330
2EF
100
AcDbEntity
  8
LINEE VISIBILI 2D
100
AcDbVertex
100
AcDb2dVertex
 10
271.8234435789293
 20
11.56967173392569
 30
0.0
  0
VERTEX
  5
301
330
2EF
100
AcDbEntity
  8
LINEE VISIBILI 2D
100
AcDbVertex
100
AcDb2dVertex
 10
271.8116154519031
 20
11.56372142221506
 30
0.0
  0
VERTEX
  5
302
330
2EF
100
AcDbEntity
  8
LINEE VISIBILI 2D
100
AcDbVertex
100
AcDb2dVertex
 10
271.8056272405477
 20
11.56090306625392
 30
0.0
  0
VERTEX
  5
303
330
2EF
100
AcDbEntity
  8
LINEE VISIBILI 2D
100
AcDbVertex
100
AcDb2dVertex
 10
271.7995877937887
 20
11.55819424790434
 30
0.0
  0
VERTEX
  5
304
330
2EF
100
AcDbEntity
  8
LINEE VISIBILI 2D
100
AcDbVertex
100
AcDb2dVertex
 10
271.793495758995
 20
11.55559872042791
 30
0.0
  0
VERTEX
  5
305
330
2EF
100
AcDbEntity
  8
LINEE VISIBILI 2D
100
AcDbVertex
100
AcDb2dVertex
 10
271.7873497835353
 20
11.55312023708621
 30
0.0
  0
VERTEX
  5
306
330
2EF
100
AcDbEntity
  8
LINEE VISIBILI 2D
100
AcDbVertex
100
AcDb2dVertex
 10
271.7811485147781
 20
11.55076255114084
 30
0.0
  0
VERTEX
  5
307
330
2EF
100
AcDbEntity
  8
LINEE VISIBILI 2D
100
AcDbVertex
100
AcDb2dVertex
 10
271.774890600092
 20
11.54852941585336
 30
0.0
  0
VERTEX
  5
308
330
2EF
100
AcDbEntity
  8
LINEE VISIBILI 2D
100
AcDbVertex
100
AcDb2dVertex
 10
271.7685746868458
 20
11.54642458448538
 30
0.0
  0
VERTEX
  5
309
330
2EF
100
AcDbEntity
  8
LINEE VISIBILI 2D
100
AcDbVertex
100
AcDb2dVertex
 10
271.762199422408
 20
11.54445181029847
 30
0.0
  0
VERTEX
  5
30A
330
2EF
100
AcDbEntity
  8
LINEE VISIBILI 2D
100
AcDbVertex
100
AcDb2dVertex
 10
271.7533490400933
 20
11.54196288641338
 30
0.0
  0
VERTEX
  5
30B
330
2EF
100
AcDbEntity
  8
LINEE VISIBILI 2D
100
AcDbVertex
100
AcDb2dVertex
 10
271.7443999527266
 20
11.53972780252584
 30
0.0
  0
VERTEX
  5
30C
330
2EF
100
AcDbEntity
  8
LINEE VISIBILI 2D
100
AcDbVertex
100
AcDb2dVertex
 10
271.7353679203651
 20
11.53774431003041
 30
0.0
  0
VERTEX
  5
30D
330
2EF
100
AcDbEntity
  8
LINEE VISIBILI 2D
100
AcDbVertex
100
AcDb2dVertex
 10
271.7262687030666
 20
11.53601016032167
 30
0.0
  0
VERTEX
  5
30E
330
2EF
100
AcDbEntity
  8
LINEE VISIBILI 2D
100
AcDbVertex
100
AcDb2dVertex
 10
271.7171180608884
 20
11.53452310479418
 30
0.0
  0
VERTEX
  5
30F
330
2EF
100
AcDbEntity
  8
LINEE VISIBILI 2D
100
AcDbVertex
100
AcDb2dVertex
 10
271.707931753888
 20
11.53328089484252
 30
0.0
  0
VERTEX
  5
310
330
2EF
100
AcDbEntity
  8
LINEE VISIBILI 2D
100
AcDbVertex
100
AcDb2dVertex
 10
271.698725542123
 20
11.53228128186124
 30
0.0
  0
VERTEX
  5
311
330
2EF
100
AcDbEntity
  8
LINEE VISIBILI 2D
100
AcDbVertex
100
AcDb2dVertex
 10
271.6895151856509
 20
11.53152201724492
 30
0.0
  0
VERTEX
  5
312
330
2EF
100
AcDbEntity
  8
LINEE VISIBILI 2D
100
AcDbVertex
100
AcDb2dVertex
 10
271.6827530515557
 20
11.53111506731914
 30
0.0
  0
VERTEX
  5
313
330
2EF
100
AcDbEntity
  8
LINEE VISIBILI 2D
100
AcDbVertex
100
AcDb2dVertex
 10
271.6759969155162
 20
11.53083015833766
 30
0.0
  0
VERTEX
  5
314
330
2EF
100
AcDbEntity
  8
LINEE VISIBILI 2D
100
AcDbVertex
100
AcDb2dVertex
 10
271.6625015454194
 20
11.5306004288614
 30
0.0
  0
VERTEX
  5
315
330
2EF
100
AcDbEntity
  8
LINEE VISIBILI 2D
100
AcDbVertex
100
AcDb2dVertex
 10
271.6490268909913
 20
11.53078076012374
 30
0.0
  0
VERTEX
  5
316
330
2EF
100
AcDbEntity
  8
LINEE VISIBILI 2D
100
AcDbVertex
100
AcDb2dVertex
 10
271.6355707678626
 20
11.5313190834323
 30
0.0
  0
VERTEX
  5
317
330
2EF
100
AcDbEntity
  8
LINEE VISIBILI 2D
100
AcDbVertex
100
AcDb2dVertex
 10
271.6221309916641
 20
11.53216333009465
 30
0.0
  0
VERTEX
  5
318
330
2EF
100
AcDbEntity
  8
LINEE VISIBILI 2D
100
AcDbVertex
100
AcDb2dVertex
 10
271.6087053780265
 20
11.5332614314184
 30
0.0
  0
VERTEX
  5
319
330
2EF
100
AcDbEntity
  8
LINEE VISIBILI 2D
100
AcDbVertex
100
AcDb2dVertex
 10
271.5818879009568
 20
11.53601092328051
 30
0.0
  0
VERTEX
  5
31A
330
2EF
100
AcDbEntity
  8
LINEE VISIBILI 2D
100
AcDbVertex
100
AcDb2dVertex
 10
271.5448207983055
 20
11.54055153921106
 30
0.0
  0
VERTEX
  5
31B
330
2EF
100
AcDbEntity
  8
LINEE VISIBILI 2D
100
AcDbVertex
100
AcDb2dVertex
 10
271.5078221282372
 20
11.54580370130344
 30
0.0
  0
VERTEX
  5
31C
330
2EF
100
AcDbEntity
  8
LINEE VISIBILI 2D
100
AcDbVertex
100
AcDb2dVertex
 10
271.4340705107381
 20
11.55829494799992
 30
0.0
  0
VERTEX
  5
31D
330
2EF
100
AcDbEntity
  8
LINEE VISIBILI 2D
100
AcDbVertex
100
AcDb2dVertex
 10
271.3607138982352
 20
11.57318923142244
 30
0.0
  0
VERTEX
  5
31E
330
2EF
100
AcDbEntity
  8
LINEE VISIBILI 2D
100
AcDbVertex
100
AcDb2dVertex
 10
271.2878331405042
 20
11.59019111962348
 30
0.0
  0
VERTEX
  5
31F
330
2EF
100
AcDbEntity
  8
LINEE VISIBILI 2D
100
AcDbVertex
100
AcDb2dVertex
 10
271.2010980023849
 20
11.61300161713485
 30
0.0
  0
VERTEX
  5
320
330
2EF
100
AcDbEntity
  8
LINEE VISIBILI 2D
100
AcDbVertex
100
AcDb2dVertex
 10
271.1151022908591
 20
11.6381858268779
 30
0.0
  0
VERTEX
  5
321
330
2EF
100
AcDbEntity
  8
LINEE VISIBILI 2D
100
AcDbVertex
100
AcDb2dVertex
 10
271.0297840271819
 20
11.66550874343152
 30
0.0
  0
VERTEX
  5
322
330
2EF
100
AcDbEntity
  8
LINEE VISIBILI 2D
100
AcDbVertex
100
AcDb2dVertex
 10
270.945081232608
 20
11.69473536137462
 30
0.0
  0
VERTEX
  5
323
330
2EF
100
AcDbEntity
  8
LINEE VISIBILI 2D
100
AcDbVertex
100
AcDb2dVertex
 10
270.7772741357906
 20
11.75795967974482
 30
0.0
  0
VERTEX
  5
324
330
2EF
100
AcDbEntity
  8
LINEE VISIBILI 2D
100
AcDbVertex
100
AcDb2dVertex
 10
270.6111851704472
 20
11.82597873861972
 30
0.0
  0
VERTEX
  5
325
330
2EF
100
AcDbEntity
  8
LINEE VISIBILI 2D
100
AcDbVertex
100
AcDb2dVertex
 10
270.4245621506396
 20
11.90718347595324
 30
0.0
  0
VERTEX
  5
326
330
2EF
100
AcDbEntity
  8
LINEE VISIBILI 2D
100
AcDbVertex
100
AcDb2dVertex
 10
270.2402922352266
 20
11.99332070600425
 30
0.0
  0
VERTEX
  5
327
330
2EF
100
AcDbEntity
  8
LINEE VISIBILI 2D
100
AcDbVertex
100
AcDb2dVertex
 10
270.149283941165
 20
12.03860934436965
 30
0.0
  0
VERTEX
  5
328
330
2EF
100
AcDbEntity
  8
LINEE VISIBILI 2D
100
AcDbVertex
100
AcDb2dVertex
 10
270.0591570225986
 20
12.08557551219943
 30
0.0
  0
VERTEX
  5
329
330
2EF
100
AcDbEntity
  8
LINEE VISIBILI 2D
100
AcDbVertex
100
AcDb2dVertex
 10
269.970009179326
 20
12.13436734492192
 30
0.0
  0
VERTEX
  5
32A
330
2EF
100
AcDbEntity
  8
LINEE VISIBILI 2D
100
AcDbVertex
100
AcDb2dVertex
 10
269.881938111146
 20
12.18513297796545
 30
0.0
  0
VERTEX
  5
32B
330
2EF
100
AcDbEntity
  8
LINEE VISIBILI 2D
100
AcDbVertex
100
AcDb2dVertex
 10
269.8090829965031
 20
12.22927029910785
 30
0.0
  0
VERTEX
  5
32C
330
2EF
100
AcDbEntity
  8
LINEE VISIBILI 2D
100
AcDbVertex
100
AcDb2dVertex
 10
269.7371512102205
 20
12.27494201924422
 30
0.0
  0
VERTEX
  5
32D
330
2EF
100
AcDbEntity
  8
LINEE VISIBILI 2D
100
AcDbVertex
100
AcDb2dVertex
 10
269.6662422456179
 20
12.32219410620883
 30
0.0
  0
VERTEX
  5
32E
330
2EF
100
AcDbEntity
  8
LINEE VISIBILI 2D
100
AcDbVertex
100
AcDb2dVertex
 10
269.5964555960148
 20
12.3710725278359
 30
0.0
  0
VERTEX
  5
32F
330
2EF
100
AcDbEntity
  8
LINEE VISIBILI 2D
100
AcDbVertex
100
AcDb2dVertex
 10
269.5278907547305
 20
12.42162325195971
 30
0.0
  0
VERTEX
  5
330
330
2EF
100
AcDbEntity
  8
LINEE VISIBILI 2D
100
AcDbVertex
100
AcDb2dVertex
 10
269.4606472150848
 20
12.4738922464145
 30
0.0
  0
VERTEX
  5
331
330
2EF
100
AcDbEntity
  8
LINEE VISIBILI 2D
100
AcDbVertex
100
AcDb2dVertex
 10
269.3948244703971
 20
12.52792547903452
 30
0.0
  0
VERTEX
  5
332
330
2EF
100
AcDbEntity
  8
LINEE VISIBILI 2D
100
AcDbVertex
100
AcDb2dVertex
 10
268.7859126558166
 20
13.05673466363725
 30
0.0
  0
SEQEND
  5
2F0
330
2EF
100
AcDbEntity
  8
LINEE VISIBILI 2D
  0
ARC
  5
333
330
1F
100
AcDbEntity
  8
LINEE VISIBILI 2D
100
AcDbCircle
 10
1632.221424969992
 20
20.00099693613195
 30
0.0
 40
1170.040880899618
100
AcDbArc
 50
179.5566934291886
 51
180.4434070084946
  0
LINE
  5
334
330
1F
100
AcDbEntity
  8
LINEE VISIBILI 2D
100
AcDbLine
 10
457.1097343758196
 20
13.72230906107057
 30
0.0
 11
457.1096343801848
 21
26.26199243669276
 31
0.0
  0
LINE
  5
335
330
1F
100
AcDbEntity
  8
LINEE VISIBILI 2D
100
AcDbLine
 10
457.1073144176247
 20
26.50381440204349
 30
0.0
 11
457.0507190638103
 21
26.64403372053044
 31
0.0
  0
LINE
  5
336
330
1F
100
AcDbEntity
  8
LINEE VISIBILI 2D
100
AcDbLine
 10
457.049995876501
 20
13.35496061545289
 30
0.0
 11
457.107396873102
 21
13.49601834443972
 31
0.0
  0
ARC
  5
337
330
1F
100
AcDbEntity
  8
LINEE VISIBILI 2D
100
AcDbCircle
 10
454.7887126557896
 20
19.99999904688223
 30
0.0
 40
0.2499999999998295
100
AcDbArc
 50
359.9999994695148
 51
180.000000715776
  0
ARC
  5
338
330
1F
100
AcDbEntity
  8
LINEE VISIBILI 2D
100
AcDbCircle
 10
454.7887126557898
 20
19.99999904261654
 30
0.0
 40
0.2499999999998863
100
AcDbArc
 50
179.9999997381494
 51
0.0000004471414096
  0
ARC
  5
33A
330
1F
100
AcDbEntity
  8
LINEE VISIBILI 2D
100
AcDbCircle
 10
284.78871265579
 20
19.99999904459361
 30
0.0
 40
0.25
100
AcDbArc
 50
179.99999818194
 51
359.9999999940334
  0
ARC
  5
33B
330
1F
100
AcDbEntity
  8
LINEE VISIBILI 2D
100
AcDbCircle
 10
284.78871265579
 20
19.99999904457082
 30
0.0
 40
0.2499999999999432
100
AcDbArc
 50
359.9999999992566
 51
179.9999981767167
  0
LINE
  5
33D
330
1F
100
AcDbEntity
  8
LINEE VISIBILI 2D
100
AcDbLine
 10
274.122293232973
 20
13.49425235941444
 30
0.0
 11
274.1763663660466
 21
13.35567530257137
 31
0.0
  0
ARC
  5
33E
330
1F
100
AcDbEntity
  8
LINEE VISIBILI 2D
100
AcDbCircle
 10
274.3317621719407
 20
26.50395722148031
 30
0.0
 40
0.2094827314518654
100
AcDbArc
 50
93.73421238049614
 51
179.5097958563196
  0
LINE
  5
33F
330
1F
100
AcDbEntity
  8
LINEE VISIBILI 2D
100
AcDbLine
 10
151.5165588295132
 20
99.38939929227956
 30
0.0
 11
151.0533390136749
 21
95.53539566187376
 31
0.0
  0
LINE
  5
340
330
1F
100
AcDbEntity
  8
LINEE VISIBILI 2D
100
AcDbLine
 10
149.3596845158398
 20
95.66977771769483
 30
0.0
 11
149.8152688692909
 21
99.52352250954334
 31
0.0
  0
LINE
  5
341
330
1F
100
AcDbEntity
  8
LINEE VISIBILI 2D
100
AcDbLine
 10
15.26161656326899
 20
47.05385699618703
 30
0.0
 11
15.3786246104867
 21
44.03133198616919
 31
0.0
  0
LINE
  5
342
330
1F
100
AcDbEntity
  8
LINEE VISIBILI 2D
100
AcDbLine
 10
12.53442993000635
 20
117.5019159291367
 30
0.0
 11
15.20840189323054
 21
48.42848613423092
 31
0.0
  0
LINE
  5
343
330
1F
100
AcDbEntity
  8
LINEE VISIBILI 2D
100
AcDbLine
 10
15.23020735408062
 20
47.07612622989158
 30
0.0
 11
12.50131028380384
 21
117.5004258205873
 31
0.0
  0
LINE
  5
344
330
1F
100
AcDbEntity
  8
LINEE VISIBILI 2D
100
AcDbLine
 10
15.34834934098268
 20
44.02725100097448
 30
0.0
 11
15.23061845102486
 21
47.06551710334117
 31
0.0
  0
LINE
  5
345
330
1F
100
AcDbEntity
  8
LINEE VISIBILI 2D
100
AcDbLine
 10
102.5312389533547
 20
107.1891856168558
 30
0.0
 11
100.7142257726899
 21
105.5680568447551
 31
0.0
  0
LINE
  5
346
330
1F
100
AcDbEntity
  8
LINEE VISIBILI 2D
100
AcDbLine
 10
90.37575963614107
 20
105.936407750975
 30
0.0
 11
88.74493742874049
 21
107.6871952368389
 31
0.0
  0
POLYLINE
  5
347
330
1F
100
AcDbEntity
  8
LINEE VISIBILI 2D
100
AcDb2dPolyline
 66
     1
 10
0.0
 20
0.0
 30
0.0
  0
VERTEX
  5
349
330
347
100
AcDbEntity
  8
LINEE VISIBILI 2D
100
AcDbVertex
100
AcDb2dVertex
 10
94.68809904883313
 20
104.7706435455909
 30
0.0
  0
VERTEX
  5
34A
330
347
100
AcDbEntity
  8
LINEE VISIBILI 2D
100
AcDbVertex
100
AcDb2dVertex
 10
94.54552254749499
 20
104.4619029001235
 30
0.0
  0
VERTEX
  5
34B
330
347
100
AcDbEntity
  8
LINEE VISIBILI 2D
100
AcDbVertex
100
AcDb2dVertex
 10
94.40855137763696
 20
104.1506347955114
 30
0.0
  0
VERTEX
  5
34C
330
347
100
AcDbEntity
  8
LINEE VISIBILI 2D
100
AcDbVertex
100
AcDb2dVertex
 10
94.27717542575521
 20
103.8369520642509
 30
0.0
  0
VERTEX
  5
34D
330
347
100
AcDbEntity
  8
LINEE VISIBILI 2D
100
AcDbVertex
100
AcDb2dVertex
 10
94.15138457834595
 20
103.5209675388382
 30
0.0
  0
VERTEX
  5
34E
330
347
100
AcDbEntity
  8
LINEE VISIBILI 2D
100
AcDbVertex
100
AcDb2dVertex
 10
94.03116872190537
 20
103.2027940517693
 30
0.0
  0
VERTEX
  5
34F
330
347
100
AcDbEntity
  8
LINEE VISIBILI 2D
100
AcDbVertex
100
AcDb2dVertex
 10
93.91651774292965
 20
102.8825444355406
 30
0.0
  0
VERTEX
  5
350
330
347
100
AcDbEntity
  8
LINEE VISIBILI 2D
100
AcDbVertex
100
AcDb2dVertex
 10
93.70386996335765
 20
102.2362681455879
 30
0.0
  0
VERTEX
  5
351
330
347
100
AcDbEntity
  8
LINEE VISIBILI 2D
100
AcDbVertex
100
AcDb2dVertex
 10
93.51336033159947
 20
101.5830413289494
 30
0.0
  0
VERTEX
  5
352
330
347
100
AcDbEntity
  8
LINEE VISIBILI 2D
100
AcDbVertex
100
AcDb2dVertex
 10
93.34490793962473
 20
100.9237666455946
 30
0.0
  0
VERTEX
  5
353
330
347
100
AcDbEntity
  8
LINEE VISIBILI 2D
100
AcDbVertex
100
AcDb2dVertex
 10
93.19843187940293
 20
100.2593467554927
 30
0.0
  0
VERTEX
  5
354
330
347
100
AcDbEntity
  8
LINEE VISIBILI 2D
100
AcDbVertex
100
AcDb2dVertex
 10
93.07385124290368
 20
99.59068431861311
 30
0.0
  0
VERTEX
  5
355
330
347
100
AcDbEntity
  8
LINEE VISIBILI 2D
100
AcDbVertex
100
AcDb2dVertex
 10
92.96404046408236
 20
98.86773019043602
 30
0.0
  0
VERTEX
  5
356
330
347
100
AcDbEntity
  8
LINEE VISIBILI 2D
100
AcDbVertex
100
AcDb2dVertex
 10
92.87837329493923
 20
98.1415867278865
 30
0.0
  0
VERTEX
  5
357
330
347
100
AcDbEntity
  8
LINEE VISIBILI 2D
100
AcDbVertex
100
AcDb2dVertex
 10
92.81575835920728
 20
97.41292817063872
 30
0.0
  0
VERTEX
  5
358
330
347
100
AcDbEntity
  8
LINEE VISIBILI 2D
100
AcDbVertex
100
AcDb2dVertex
 10
92.77510428061955
 20
96.68242875836691
 30
0.0
  0
VERTEX
  5
359
330
347
100
AcDbEntity
  8
LINEE VISIBILI 2D
100
AcDbVertex
100
AcDb2dVertex
 10
92.75531968290904
 20
95.95076273074525
 30
0.0
  0
VERTEX
  5
35A
330
347
100
AcDbEntity
  8
LINEE VISIBILI 2D
100
AcDbVertex
100
AcDb2dVertex
 10
92.75531318980876
 20
95.21860432744794
 30
0.0
  0
VERTEX
  5
35B
330
347
100
AcDbEntity
  8
LINEE VISIBILI 2D
100
AcDbVertex
100
AcDb2dVertex
 10
92.77399342505175
 20
94.4866277881492
 30
0.0
  0
VERTEX
  5
35C
330
347
100
AcDbEntity
  8
LINEE VISIBILI 2D
100
AcDbVertex
100
AcDb2dVertex
 10
92.81026901237098
 20
93.75550735252321
 30
0.0
  0
VERTEX
  5
35D
330
347
100
AcDbEntity
  8
LINEE VISIBILI 2D
100
AcDbVertex
100
AcDb2dVertex
 10
92.85611905615249
 20
93.11015464389601
 30
0.0
  0
VERTEX
  5
35E
330
347
100
AcDbEntity
  8
LINEE VISIBILI 2D
100
AcDbVertex
100
AcDb2dVertex
 10
92.91403907751487
 20
92.46599405899184
 30
0.0
  0
VERTEX
  5
35F
330
347
100
AcDbEntity
  8
LINEE VISIBILI 2D
100
AcDbVertex
100
AcDb2dVertex
 10
93.06274577621875
 20
91.18123095709265
 30
0.0
  0
VERTEX
  5
360
330
347
100
AcDbEntity
  8
LINEE VISIBILI 2D
100
AcDbVertex
100
AcDb2dVertex
 10
93.24970255495575
 20
89.90118144030564
 30
0.0
  0
VERTEX
  5
361
330
347
100
AcDbEntity
  8
LINEE VISIBILI 2D
100
AcDbVertex
100
AcDb2dVertex
 10
93.46822286019905
 20
88.62580890211079
 30
0.0
  0
VERTEX
  5
362
330
347
100
AcDbEntity
  8
LINEE VISIBILI 2D
100
AcDbVertex
100
AcDb2dVertex
 10
96.40417475441758
 20
74.2770263870064
 30
0.0
  0
VERTEX
  5
363
330
347
100
AcDbEntity
  8
LINEE VISIBILI 2D
100
AcDbVertex
100
AcDb2dVertex
 10
96.8280949508447
 20
71.59693230754601
 30
0.0
  0
VERTEX
  5
364
330
347
100
AcDbEntity
  8
LINEE VISIBILI 2D
100
AcDbVertex
100
AcDb2dVertex
 10
96.98775228135946
 20
70.38936251233426
 30
0.0
  0
VERTEX
  5
365
330
347
100
AcDbEntity
  8
LINEE VISIBILI 2D
100
AcDbVertex
100
AcDb2dVertex
 10
97.12347928225572
 20
69.17901509408498
 30
0.0
  0
VERTEX
  5
366
330
347
100
AcDbEntity
  8
LINEE VISIBILI 2D
100
AcDbVertex
100
AcDb2dVertex
 10
97.23102085668882
 20
67.96605865890301
 30
0.0
  0
VERTEX
  5
367
330
347
100
AcDbEntity
  8
LINEE VISIBILI 2D
100
AcDbVertex
100
AcDb2dVertex
 10
97.30612190781414
 20
66.75066181289328
 30
0.0
  0
VERTEX
  5
368
330
347
100
AcDbEntity
  8
LINEE VISIBILI 2D
100
AcDbVertex
100
AcDb2dVertex
 10
97.34170762414251
 20
65.69700833561696
 30
0.0
  0
VERTEX
  5
369
330
347
100
AcDbEntity
  8
LINEE VISIBILI 2D
100
AcDbVertex
100
AcDb2dVertex
 10
97.34737346612856
 20
64.64272224389969
 30
0.0
  0
VERTEX
  5
36A
330
347
100
AcDbEntity
  8
LINEE VISIBILI 2D
100
AcDbVertex
100
AcDb2dVertex
 10
97.32069036111441
 20
63.58887286301009
 30
0.0
  0
VERTEX
  5
36B
330
347
100
AcDbEntity
  8
LINEE VISIBILI 2D
100
AcDbVertex
100
AcDb2dVertex
 10
97.25922923644214
 20
62.53652951821672
 30
0.0
  0
VERTEX
  5
36C
330
347
100
AcDbEntity
  8
LINEE VISIBILI 2D
100
AcDbVertex
100
AcDb2dVertex
 10
97.18163411148802
 20
61.67833165161087
 30
0.0
  0
VERTEX
  5
36D
330
347
100
AcDbEntity
  8
LINEE VISIBILI 2D
100
AcDbVertex
100
AcDb2dVertex
 10
97.07883146344721
 20
60.822759369551
 30
0.0
  0
VERTEX
  5
36E
330
347
100
AcDbEntity
  8
LINEE VISIBILI 2D
100
AcDbVertex
100
AcDb2dVertex
 10
96.95046938944381
 20
59.97071782641768
 30
0.0
  0
VERTEX
  5
36F
330
347
100
AcDbEntity
  8
LINEE VISIBILI 2D
100
AcDbVertex
100
AcDb2dVertex
 10
96.79619598660186
 20
59.12311217659144
 30
0.0
  0
VERTEX
  5
370
330
347
100
AcDbEntity
  8
LINEE VISIBILI 2D
100
AcDbVertex
100
AcDb2dVertex
 10
96.61565935204542
 20
58.28084757445282
 30
0.0
  0
VERTEX
  5
371
330
347
100
AcDbEntity
  8
LINEE VISIBILI 2D
100
AcDbVertex
100
AcDb2dVertex
 10
96.40850758289854
 20
57.44482917438237
 30
0.0
  0
VERTEX
  5
372
330
347
100
AcDbEntity
  8
LINEE VISIBILI 2D
100
AcDbVertex
100
AcDb2dVertex
 10
96.17438877628529
 20
56.61596213076059
 30
0.0
  0
VERTEX
  5
373
330
347
100
AcDbEntity
  8
LINEE VISIBILI 2D
100
AcDbVertex
100
AcDb2dVertex
 10
95.91295102932972
 20
55.79515159796807
 30
0.0
  0
VERTEX
  5
374
330
347
100
AcDbEntity
  8
LINEE VISIBILI 2D
100
AcDbVertex
100
AcDb2dVertex
 10
95.65805154386309
 20
55.07323345579498
 30
0.0
  0
VERTEX
  5
375
330
347
100
AcDbEntity
  8
LINEE VISIBILI 2D
100
AcDbVertex
100
AcDb2dVertex
 10
95.38444586609193
 20
54.35785221679661
 30
0.0
  0
VERTEX
  5
376
330
347
100
AcDbEntity
  8
LINEE VISIBILI 2D
100
AcDbVertex
100
AcDb2dVertex
 10
95.09526738386284
 20
53.64847167097606
 30
0.0
  0
VERTEX
  5
377
330
347
100
AcDbEntity
  8
LINEE VISIBILI 2D
100
AcDbVertex
100
AcDb2dVertex
 10
94.7936494850224
 20
52.94455560833646
 30
0.0
  0
VERTEX
  5
378
330
347
100
AcDbEntity
  8
LINEE VISIBILI 2D
100
AcDbVertex
100
AcDb2dVertex
 10
91.73063990119205
 20
46.36287893235435
 30
0.0
  0
VERTEX
  5
379
330
347
100
AcDbEntity
  8
LINEE VISIBILI 2D
100
AcDbVertex
100
AcDb2dVertex
 10
90.99301561248811
 20
44.672739670303
 30
0.0
  0
VERTEX
  5
37A
330
347
100
AcDbEntity
  8
LINEE VISIBILI 2D
100
AcDbVertex
100
AcDb2dVertex
 10
90.30494291517106
 20
42.9619598292684
 30
0.0
  0
VERTEX
  5
37B
330
347
100
AcDbEntity
  8
LINEE VISIBILI 2D
100
AcDbVertex
100
AcDb2dVertex
 10
89.96246472065969
 20
42.0413315913415
 30
0.0
  0
VERTEX
  5
37C
330
347
100
AcDbEntity
  8
LINEE VISIBILI 2D
100
AcDbVertex
100
AcDb2dVertex
 10
89.63782708151153
 20
41.11408514574402
 30
0.0
  0
VERTEX
  5
37D
330
347
100
AcDbEntity
  8
LINEE VISIBILI 2D
100
AcDbVertex
100
AcDb2dVertex
 10
89.33160150951298
 20
40.18054648617765
 30
0.0
  0
VERTEX
  5
37E
330
347
100
AcDbEntity
  8
LINEE VISIBILI 2D
100
AcDbVertex
100
AcDb2dVertex
 10
89.04435951645046
 20
39.24104160634405
 30
0.0
  0
VERTEX
  5
37F
330
347
100
AcDbEntity
  8
LINEE VISIBILI 2D
100
AcDbVertex
100
AcDb2dVertex
 10
88.77667261411046
 20
38.29589649994489
 30
0.0
  0
VERTEX
  5
380
330
347
100
AcDbEntity
  8
LINEE VISIBILI 2D
100
AcDbVertex
100
AcDb2dVertex
 10
88.52911231427935
 20
37.34543716068186
 30
0.0
  0
VERTEX
  5
381
330
347
100
AcDbEntity
  8
LINEE VISIBILI 2D
100
AcDbVertex
100
AcDb2dVertex
 10
88.30225012874358
 20
36.38998958225662
 30
0.0
  0
VERTEX
  5
382
330
347
100
AcDbEntity
  8
LINEE VISIBILI 2D
100
AcDbVertex
100
AcDb2dVertex
 10
88.09665756928959
 20
35.42987975837085
 30
0.0
  0
VERTEX
  5
383
330
347
100
AcDbEntity
  8
LINEE VISIBILI 2D
100
AcDbVertex
100
AcDb2dVertex
 10
87.88497503504469
 20
34.30875937926472
 30
0.0
  0
VERTEX
  5
384
330
347
100
AcDbEntity
  8
LINEE VISIBILI 2D
100
AcDbVertex
100
AcDb2dVertex
 10
87.70222831050263
 20
33.18252611726849
 30
0.0
  0
VERTEX
  5
385
330
347
100
AcDbEntity
  8
LINEE VISIBILI 2D
100
AcDbVertex
100
AcDb2dVertex
 10
87.54785779561238
 20
32.05192298963768
 30
0.0
  0
VERTEX
  5
386
330
347
100
AcDbEntity
  8
LINEE VISIBILI 2D
100
AcDbVertex
100
AcDb2dVertex
 10
87.42130389032288
 20
30.9176930136278
 30
0.0
  0
VERTEX
  5
387
330
347
100
AcDbEntity
  8
LINEE VISIBILI 2D
100
AcDbVertex
100
AcDb2dVertex
 10
87.3220069945831
 20
29.7805792064944
 30
0.0
  0
VERTEX
  5
388
330
347
100
AcDbEntity
  8
LINEE VISIBILI 2D
100
AcDbVertex
100
AcDb2dVertex
 10
87.24940750834198
 20
28.64132458549301
 30
0.0
  0
VERTEX
  5
389
330
347
100
AcDbEntity
  8
LINEE VISIBILI 2D
100
AcDbVertex
100
AcDb2dVertex
 10
87.20294583154847
 20
27.50067216787917
 30
0.0
  0
VERTEX
  5
38A
330
347
100
AcDbEntity
  8
LINEE VISIBILI 2D
100
AcDbVertex
100
AcDb2dVertex
 10
87.18206236415156
 20
26.35936497090839
 30
0.0
  0
VERTEX
  5
38B
330
347
100
AcDbEntity
  8
LINEE VISIBILI 2D
100
AcDbVertex
100
AcDb2dVertex
 10
87.18754745466497
 20
25.12602968900443
 30
0.0
  0
VERTEX
  5
38C
330
347
100
AcDbEntity
  8
LINEE VISIBILI 2D
100
AcDbVertex
100
AcDb2dVertex
 10
87.22120076352322
 20
23.89324893384147
 30
0.0
  0
VERTEX
  5
38D
330
347
100
AcDbEntity
  8
LINEE VISIBILI 2D
100
AcDbVertex
100
AcDb2dVertex
 10
87.28197261074651
 20
22.661474183829
 30
0.0
  0
VERTEX
  5
38E
330
347
100
AcDbEntity
  8
LINEE VISIBILI 2D
100
AcDbVertex
100
AcDb2dVertex
 10
87.36881331635514
 20
21.43115691737651
 30
0.0
  0
VERTEX
  5
38F
330
347
100
AcDbEntity
  8
LINEE VISIBILI 2D
100
AcDbVertex
100
AcDb2dVertex
 10
87.48067320036938
 20
20.20274861289351
 30
0.0
  0
VERTEX
  5
390
330
347
100
AcDbEntity
  8
LINEE VISIBILI 2D
100
AcDbVertex
100
AcDb2dVertex
 10
87.61650258280951
 20
18.97670074878946
 30
0.0
  0
VERTEX
  5
391
330
347
100
AcDbEntity
  8
LINEE VISIBILI 2D
100
AcDbVertex
100
AcDb2dVertex
 10
87.77525178369582
 20
17.75346480347388
 30
0.0
  0
VERTEX
  5
392
330
347
100
AcDbEntity
  8
LINEE VISIBILI 2D
100
AcDbVertex
100
AcDb2dVertex
 10
87.95587112304856
 20
16.53349225535626
 30
0.0
  0
SEQEND
  5
348
330
347
100
AcDbEntity
  8
LINEE VISIBILI 2D
  0
POLYLINE
  5
393
330
1F
100
AcDbEntity
  8
LINEE VISIBILI 2D
100
AcDb2dPolyline
 66
     1
 10
0.0
 20
0.0
 30
0.0
  0
VERTEX
  5
395
330
393
100
AcDbEntity
  8
LINEE VISIBILI 2D
100
AcDbVertex
100
AcDb2dVertex
 10
87.45232149650684
 20
16.4531614106553
 30
0.0
  0
VERTEX
  5
396
330
393
100
AcDbEntity
  8
LINEE VISIBILI 2D
100
AcDbVertex
100
AcDb2dVertex
 10
87.26882210561539
 20
17.68263025431417
 30
0.0
  0
VERTEX
  5
397
330
393
100
AcDbEntity
  8
LINEE VISIBILI 2D
100
AcDbVertex
100
AcDb2dVertex
 10
87.10739840630031
 20
18.91541526550831
 30
0.0
  0
VERTEX
  5
398
330
393
100
AcDbEntity
  8
LINEE VISIBILI 2D
100
AcDbVertex
100
AcDb2dVertex
 10
86.96909901403286
 20
20.15106094910429
 30
0.0
  0
VERTEX
  5
399
330
393
100
AcDbEntity
  8
LINEE VISIBILI 2D
100
AcDbVertex
100
AcDb2dVertex
 10
86.85497254428415
 20
21.38911180996865
 30
0.0
  0
VERTEX
  5
39A
330
393
100
AcDbEntity
  8
LINEE VISIBILI 2D
100
AcDbVertex
100
AcDb2dVertex
 10
86.76606761252546
 20
22.62911235296798
 30
0.0
  0
VERTEX
  5
39B
330
393
100
AcDbEntity
  8
LINEE VISIBILI 2D
100
AcDbVertex
100
AcDb2dVertex
 10
86.70343283422795
 20
23.87060708296882
 30
0.0
  0
VERTEX
  5
39C
330
393
100
AcDbEntity
  8
LINEE VISIBILI 2D
100
AcDbVertex
100
AcDb2dVertex
 10
86.66811682486285
 20
25.11314050483776
 30
0.0
  0
VERTEX
  5
39D
330
393
100
AcDbEntity
  8
LINEE VISIBILI 2D
100
AcDbVertex
100
AcDb2dVertex
 10
86.66116819990136
 20
26.35625712344133
 30
0.0
  0
VERTEX
  5
39E
330
393
100
AcDbEntity
  8
LINEE VISIBILI 2D
100
AcDbVertex
100
AcDb2dVertex
 10
86.68087017430023
 20
27.50652862524813
 30
0.0
  0
VERTEX
  5
39F
330
393
100
AcDbEntity
  8
LINEE VISIBILI 2D
100
AcDbVertex
100
AcDb2dVertex
 10
86.7263106050054
 20
28.65617079675312
 30
0.0
  0
VERTEX
  5
3A0
330
393
100
AcDbEntity
  8
LINEE VISIBILI 2D
100
AcDbVertex
100
AcDb2dVertex
 10
86.79804453335369
 20
29.80444498067498
 30
0.0
  0
VERTEX
  5
3A1
330
393
100
AcDbEntity
  8
LINEE VISIBILI 2D
100
AcDbVertex
100
AcDb2dVertex
 10
86.89662700068188
 20
30.95061251973241
 30
0.0
  0
VERTEX
  5
3A2
330
393
100
AcDbEntity
  8
LINEE VISIBILI 2D
100
AcDbVertex
100
AcDb2dVertex
 10
87.02261304832674
 20
32.09393475664408
 30
0.0
  0
VERTEX
  5
3A3
330
393
100
AcDbEntity
  8
LINEE VISIBILI 2D
100
AcDbVertex
100
AcDb2dVertex
 10
87.17655771762508
 20
33.2336730341287
 30
0.0
  0
VERTEX
  5
3A4
330
393
100
AcDbEntity
  8
LINEE VISIBILI 2D
100
AcDbVertex
100
AcDb2dVertex
 10
87.3590160499137
 20
34.36908869490493
 30
0.0
  0
VERTEX
  5
3A5
330
393
100
AcDbEntity
  8
LINEE VISIBILI 2D
100
AcDbVertex
100
AcDb2dVertex
 10
87.57054308652937
 20
35.49944308169147
 30
0.0
  0
VERTEX
  5
3A6
330
393
100
AcDbEntity
  8
LINEE VISIBILI 2D
100
AcDbVertex
100
AcDb2dVertex
 10
87.7774189526888
 20
36.47338689032498
 30
0.0
  0
VERTEX
  5
3A7
330
393
100
AcDbEntity
  8
LINEE VISIBILI 2D
100
AcDbVertex
100
AcDb2dVertex
 10
88.00593693591364
 20
37.44263066292259
 30
0.0
  0
VERTEX
  5
3A8
330
393
100
AcDbEntity
  8
LINEE VISIBILI 2D
100
AcDbVertex
100
AcDb2dVertex
 10
88.25553656944979
 20
38.40682133096745
 30
0.0
  0
VERTEX
  5
3A9
330
393
100
AcDbEntity
  8
LINEE VISIBILI 2D
100
AcDbVertex
100
AcDb2dVertex
 10
88.52565738654314
 20
39.36560582594265
 30
0.0
  0
VERTEX
  5
3AA
330
393
100
AcDbEntity
  8
LINEE VISIBILI 2D
100
AcDbVertex
100
AcDb2dVertex
 10
88.81573892043965
 20
40.31863107933133
 30
0.0
  0
VERTEX
  5
3AB
330
393
100
AcDbEntity
  8
LINEE VISIBILI 2D
100
AcDbVertex
100
AcDb2dVertex
 10
89.12522070438521
 20
41.26554402261658
 30
0.0
  0
VERTEX
  5
3AC
330
393
100
AcDbEntity
  8
LINEE VISIBILI 2D
100
AcDbVertex
100
AcDb2dVertex
 10
89.45354227162573
 20
42.20599158728155
 30
0.0
  0
VERTEX
  5
3AD
330
393
100
AcDbEntity
  8
LINEE VISIBILI 2D
100
AcDbVertex
100
AcDb2dVertex
 10
89.80014315540712
 20
43.13962070480933
 30
0.0
  0
VERTEX
  5
3AE
330
393
100
AcDbEntity
  8
LINEE VISIBILI 2D
100
AcDbVertex
100
AcDb2dVertex
 10
90.48794446790205
 20
44.85286899874533
 30
0.0
  0
VERTEX
  5
3AF
330
393
100
AcDbEntity
  8
LINEE VISIBILI 2D
100
AcDbVertex
100
AcDb2dVertex
 10
91.22450517154545
 20
46.54586865368669
 30
0.0
  0
VERTEX
  5
3B0
330
393
100
AcDbEntity
  8
LINEE VISIBILI 2D
100
AcDbVertex
100
AcDb2dVertex
 10
94.31143538143466
 20
53.18923266628672
 30
0.0
  0
VERTEX
  5
3B1
330
393
100
AcDbEntity
  8
LINEE VISIBILI 2D
100
AcDbVertex
100
AcDb2dVertex
 10
94.60043887488186
 20
53.86495765390264
 30
0.0
  0
VERTEX
  5
3B2
330
393
100
AcDbEntity
  8
LINEE VISIBILI 2D
100
AcDbVertex
100
AcDb2dVertex
 10
94.87690071413059
 20
54.5460356685538
 30
0.0
  0
VERTEX
  5
3B3
330
393
100
AcDbEntity
  8
LINEE VISIBILI 2D
100
AcDbVertex
100
AcDb2dVertex
 10
95.13834239431373
 20
55.23287727818045
 30
0.0
  0
VERTEX
  5
3B4
330
393
100
AcDbEntity
  8
LINEE VISIBILI 2D
100
AcDbVertex
100
AcDb2dVertex
 10
95.38228541056422
 20
55.92589305072287
 30
0.0
  0
VERTEX
  5
3B5
330
393
100
AcDbEntity
  8
LINEE VISIBILI 2D
100
AcDbVertex
100
AcDb2dVertex
 10
95.63836579796321
 20
56.72990441399818
 30
0.0
  0
VERTEX
  5
3B6
330
393
100
AcDbEntity
  8
LINEE VISIBILI 2D
100
AcDbVertex
100
AcDb2dVertex
 10
95.86826386368626
 20
57.54173665949526
 30
0.0
  0
VERTEX
  5
3B7
330
393
100
AcDbEntity
  8
LINEE VISIBILI 2D
100
AcDbVertex
100
AcDb2dVertex
 10
96.07216008488277
 20
58.36052115308766
 30
0.0
  0
VERTEX
  5
3B8
330
393
100
AcDbEntity
  8
LINEE VISIBILI 2D
100
AcDbVertex
100
AcDb2dVertex
 10
96.25023493870214
 20
59.18538926064897
 30
0.0
  0
VERTEX
  5
3B9
330
393
100
AcDbEntity
  8
LINEE VISIBILI 2D
100
AcDbVertex
100
AcDb2dVertex
 10
96.40266890229376
 20
60.01547234805276
 30
0.0
  0
VERTEX
  5
3BA
330
393
100
AcDbEntity
  8
LINEE VISIBILI 2D
100
AcDbVertex
100
AcDb2dVertex
 10
96.52964245280704
 20
60.84990178117262
 30
0.0
  0
VERTEX
  5
3BB
330
393
100
AcDbEntity
  8
LINEE VISIBILI 2D
100
AcDbVertex
100
AcDb2dVertex
 10
96.63133606739137
 20
61.68780892588209
 30
0.0
  0
VERTEX
  5
3BC
330
393
100
AcDbEntity
  8
LINEE VISIBILI 2D
100
AcDbVertex
100
AcDb2dVertex
 10
96.70793022319617
 20
62.52832514805476
 30
0.0
  0
VERTEX
  5
3BD
330
393
100
AcDbEntity
  8
LINEE VISIBILI 2D
100
AcDbVertex
100
AcDb2dVertex
 10
96.743190286659
 20
63.05457092219176
 30
0.0
  0
VERTEX
  5
3BE
330
393
100
AcDbEntity
  8
LINEE VISIBILI 2D
100
AcDbVertex
100
AcDb2dVertex
 10
96.76909716805093
 20
63.58135697333175
 30
0.0
  0
VERTEX
  5
3BF
330
393
100
AcDbEntity
  8
LINEE VISIBILI 2D
100
AcDbVertex
100
AcDb2dVertex
 10
96.79437043764863
 20
64.63599186019945
 30
0.0
  0
VERTEX
  5
3C0
330
393
100
AcDbEntity
  8
LINEE VISIBILI 2D
100
AcDbVertex
100
AcDb2dVertex
 10
96.78678813804248
 20
65.69111371581539
 30
0.0
  0
VERTEX
  5
3C1
330
393
100
AcDbEntity
  8
LINEE VISIBILI 2D
100
AcDbVertex
100
AcDb2dVertex
 10
96.74938837528568
 20
66.74560644733714
 30
0.0
  0
VERTEX
  5
3C2
330
393
100
AcDbEntity
  8
LINEE VISIBILI 2D
100
AcDbVertex
100
AcDb2dVertex
 10
96.67359385839329
 20
67.95241443129956
 30
0.0
  0
VERTEX
  5
3C3
330
393
100
AcDbEntity
  8
LINEE VISIBILI 2D
100
AcDbVertex
100
AcDb2dVertex
 10
96.56621516258098
 20
69.1567247519556
 30
0.0
  0
VERTEX
  5
3C4
330
393
100
AcDbEntity
  8
LINEE VISIBILI 2D
100
AcDbVertex
100
AcDb2dVertex
 10
96.4308569066603
 20
70.35833300813942
 30
0.0
  0
VERTEX
  5
3C5
330
393
100
AcDbEntity
  8
LINEE VISIBILI 2D
100
AcDbVertex
100
AcDb2dVertex
 10
96.27112370944271
 20
71.55703479868532
 30
0.0
  0
VERTEX
  5
3C6
330
393
100
AcDbEntity
  8
LINEE VISIBILI 2D
100
AcDbVertex
100
AcDb2dVertex
 10
95.84538762892924
 20
74.21096368640352
 30
0.0
  0
VERTEX
  5
3C7
330
393
100
AcDbEntity
  8
LINEE VISIBILI 2D
100
AcDbVertex
100
AcDb2dVertex
 10
92.90797527682242
 20
88.53123744780726
 30
0.0
  0
VERTEX
  5
3C8
330
393
100
AcDbEntity
  8
LINEE VISIBILI 2D
100
AcDbVertex
100
AcDb2dVertex
 10
92.68701001289247
 20
89.81894923922565
 30
0.0
  0
VERTEX
  5
3C9
330
393
100
AcDbEntity
  8
LINEE VISIBILI 2D
100
AcDbVertex
100
AcDb2dVertex
 10
92.49851337140611
 20
91.11159695315491
 30
0.0
  0
VERTEX
  5
3CA
330
393
100
AcDbEntity
  8
LINEE VISIBILI 2D
100
AcDbVertex
100
AcDb2dVertex
 10
92.34880904958044
 20
92.40903473588513
 30
0.0
  0
VERTEX
  5
3CB
330
393
100
AcDbEntity
  8
LINEE VISIBILI 2D
100
AcDbVertex
100
AcDb2dVertex
 10
92.29048016392068
 20
93.05950432376622
 30
0.0
  0
VERTEX
  5
3CC
330
393
100
AcDbEntity
  8
LINEE VISIBILI 2D
100
AcDbVertex
100
AcDb2dVertex
 10
92.24422074463252
 20
93.71111673370627
 30
0.0
  0
VERTEX
  5
3CD
330
393
100
AcDbEntity
  8
LINEE VISIBILI 2D
100
AcDbVertex
100
AcDb2dVertex
 10
92.2074547197373
 20
94.44863273129834
 30
0.0
  0
VERTEX
  5
3CE
330
393
100
AcDbEntity
  8
LINEE VISIBILI 2D
100
AcDbVertex
100
AcDb2dVertex
 10
92.18817206729303
 20
95.18694672441061
 30
0.0
  0
VERTEX
  5
3CF
330
393
100
AcDbEntity
  8
LINEE VISIBILI 2D
100
AcDbVertex
100
AcDb2dVertex
 10
92.18743783218101
 20
95.92542093910029
 30
0.0
  0
VERTEX
  5
3D0
330
393
100
AcDbEntity
  8
LINEE VISIBILI 2D
100
AcDbVertex
100
AcDb2dVertex
 10
92.2063170592825
 20
96.66341760142465
 30
0.0
  0
VERTEX
  5
3D1
330
393
100
AcDbEntity
  8
LINEE VISIBILI 2D
100
AcDbVertex
100
AcDb2dVertex
 10
92.24587479347878
 20
97.40029893744091
 30
0.0
  0
VERTEX
  5
3D2
330
393
100
AcDbEntity
  8
LINEE VISIBILI 2D
100
AcDbVertex
100
AcDb2dVertex
 10
92.30717607965113
 20
98.13542717320629
 30
0.0
  0
VERTEX
  5
3D3
330
393
100
AcDbEntity
  8
LINEE VISIBILI 2D
100
AcDbVertex
100
AcDb2dVertex
 10
92.39128596268082
 20
98.86816453477807
 30
0.0
  0
VERTEX
  5
3D4
330
393
100
AcDbEntity
  8
LINEE VISIBILI 2D
100
AcDbVertex
100
AcDb2dVertex
 10
92.49926948744917
 20
99.59787324821348
 30
0.0
  0
VERTEX
  5
3D5
330
393
100
AcDbEntity
  8
LINEE VISIBILI 2D
100
AcDbVertex
100
AcDb2dVertex
 10
92.62161012762661
 20
100.271572780815
 30
0.0
  0
VERTEX
  5
3D6
330
393
100
AcDbEntity
  8
LINEE VISIBILI 2D
100
AcDbVertex
100
AcDb2dVertex
 10
92.76550691967214
 20
100.941232702347
 30
0.0
  0
VERTEX
  5
3D7
330
393
100
AcDbEntity
  8
LINEE VISIBILI 2D
100
AcDbVertex
100
AcDb2dVertex
 10
92.93104826188434
 20
101.6059695360979
 30
0.0
  0
VERTEX
  5
3D8
330
393
100
AcDbEntity
  8
LINEE VISIBILI 2D
100
AcDbVertex
100
AcDb2dVertex
 10
93.11832255256172
 20
102.2648998053558
 30
0.0
  0
VERTEX
  5
3D9
330
393
100
AcDbEntity
  8
LINEE VISIBILI 2D
100
AcDbVertex
100
AcDb2dVertex
 10
93.32741819000283
 20
102.9171400334089
 30
0.0
  0
VERTEX
  5
3DA
330
393
100
AcDbEntity
  8
LINEE VISIBILI 2D
100
AcDbVertex
100
AcDb2dVertex
 10
93.55842357250617
 20
103.5618067435455
 30
0.0
  0
VERTEX
  5
3DB
330
393
100
AcDbEntity
  8
LINEE VISIBILI 2D
100
AcDbVertex
100
AcDb2dVertex
 10
93.81142709837032
 20
104.1980164590538
 30
0.0
  0
VERTEX
  5
3DC
330
393
100
AcDbEntity
  8
LINEE VISIBILI 2D
100
AcDbVertex
100
AcDb2dVertex
 10
93.94620578953098
 20
104.5126738573499
 30
0.0
  0
VERTEX
  5
3DD
330
393
100
AcDbEntity
  8
LINEE VISIBILI 2D
100
AcDbVertex
100
AcDb2dVertex
 10
94.08651716589378
 20
104.8248857032221
 30
0.0
  0
SEQEND
  5
394
330
393
100
AcDbEntity
  8
LINEE VISIBILI 2D
  0
LINE
  5
3DE
330
1F
100
AcDbEntity
  8
LINEE VISIBILI 2D
100
AcDbLine
 10
12.98880103151809
 20
120.8520999413063
 30
0.0
 11
13.1100352527245
 21
117.6665045230863
 31
0.0
  0
LINE
  5
3DF
330
1F
100
AcDbEntity
  8
LINEE VISIBILI 2D
100
AcDbLine
 10
11.78400032531026
 20
117.6370576993988
 30
0.0
 11
11.65809506065644
 21
120.8204413470227
 31
0.0
  0
LINE
  5
3E0
330
1F
100
AcDbEntity
  8
LINEE VISIBILI 2D
100
AcDbLine
 10
139.8751471330144
 20
8.325779927653409
 30
0.0
 11
150.2594437061849
 21
95.37066910680392
 31
0.0
  0
LINE
  5
3E1
330
1F
100
AcDbEntity
  8
LINEE VISIBILI 2D
100
AcDbLine
 10
150.358353157223
 20
10.85590514512626
 30
0.0
 11
150.5245639155328
 21
10.61266563763582
 31
0.0
  0
LINE
  5
3E2
330
1F
100
AcDbEntity
  8
LINEE VISIBILI 2D
100
AcDbLine
 10
150.5487128634318
 20
10.53313906201778
 30
0.0
 11
150.5631751173299
 21
10.44560720973972
 31
0.0
  0
LINE
  5
3E3
330
1F
100
AcDbEntity
  8
LINEE VISIBILI 2D
100
AcDbLine
 10
150.5245639705426
 20
10.61266549171067
 30
0.0
 11
150.5487123108977
 21
10.53314141839964
 31
0.0
  0
POLYLINE
  5
3E4
330
1F
100
AcDbEntity
  8
LINEE VISIBILI 2D
100
AcDb2dPolyline
 66
     1
 10
0.0
 20
0.0
 30
0.0
  0
VERTEX
  5
3E6
330
3E4
100
AcDbEntity
  8
LINEE VISIBILI 2D
100
AcDbVertex
100
AcDb2dVertex
 10
150.5610196004588
 20
10.30376628194805
 30
0.0
  0
VERTEX
  5
3E7
330
3E4
100
AcDbEntity
  8
LINEE VISIBILI 2D
100
AcDbVertex
100
AcDb2dVertex
 10
150.5571357877805
 20
10.27997637417163
 30
0.0
  0
VERTEX
  5
3E8
330
3E4
100
AcDbEntity
  8
LINEE VISIBILI 2D
100
AcDbVertex
100
AcDb2dVertex
 10
150.5526269848892
 20
10.25631369593439
 30
0.0
  0
VERTEX
  5
3E9
330
3E4
100
AcDbEntity
  8
LINEE VISIBILI 2D
100
AcDbVertex
100
AcDb2dVertex
 10
150.547556546663
 20
10.23276888471319
 30
0.0
  0
VERTEX
  5
3EA
330
3E4
100
AcDbEntity
  8
LINEE VISIBILI 2D
100
AcDbVertex
100
AcDb2dVertex
 10
150.5419878279802
 20
10.20933257798486
 30
0.0
  0
VERTEX
  5
3EB
330
3E4
100
AcDbEntity
  8
LINEE VISIBILI 2D
100
AcDbVertex
100
AcDb2dVertex
 10
150.5296089687577
 20
10.1627480279142
 30
0.0
  0
VERTEX
  5
3EC
330
3E4
100
AcDbEntity
  8
LINEE VISIBILI 2D
100
AcDbVertex
100
AcDb2dVertex
 10
150.5159972462477
 20
10.11648514553716
 30
0.0
  0
VERTEX
  5
3ED
330
3E4
100
AcDbEntity
  8
LINEE VISIBILI 2D
100
AcDbVertex
100
AcDb2dVertex
 10
150.4942004958379
 20
10.04777270881511
 30
0.0
  0
VERTEX
  5
3EE
330
3E4
100
AcDbEntity
  8
LINEE VISIBILI 2D
100
AcDbVertex
100
AcDb2dVertex
 10
150.4710118266277
 20
9.979541619985313
 30
0.0
  0
VERTEX
  5
3EF
330
3E4
100
AcDbEntity
  8
LINEE VISIBILI 2D
100
AcDbVertex
100
AcDb2dVertex
 10
150.4213849314266
 20
9.844241682310482
 30
0.0
  0
VERTEX
  5
3F0
330
3E4
100
AcDbEntity
  8
LINEE VISIBILI 2D
100
AcDbVertex
100
AcDb2dVertex
 10
150.3524089479554
 20
9.67005185929332
 30
0.0
  0
VERTEX
  5
3F1
330
3E4
100
AcDbEntity
  8
LINEE VISIBILI 2D
100
AcDbVertex
100
AcDb2dVertex
 10
150.2793870008642
 20
9.497486474317094
 30
0.0
  0
VERTEX
  5
3F2
330
3E4
100
AcDbEntity
  8
LINEE VISIBILI 2D
100
AcDbVertex
100
AcDb2dVertex
 10
150.1238761973958
 20
9.156425839212833
 30
0.0
  0
VERTEX
  5
3F3
330
3E4
100
AcDbEntity
  8
LINEE VISIBILI 2D
100
AcDbVertex
100
AcDb2dVertex
 10
149.9129654470649
 20
8.727750817045276
 30
0.0
  0
VERTEX
  5
3F4
330
3E4
100
AcDbEntity
  8
LINEE VISIBILI 2D
100
AcDbVertex
100
AcDb2dVertex
 10
149.6907359563691
 20
8.304877261005685
 30
0.0
  0
VERTEX
  5
3F5
330
3E4
100
AcDbEntity
  8
LINEE VISIBILI 2D
100
AcDbVertex
100
AcDb2dVertex
 10
149.4591488691368
 20
7.886962210273842
 30
0.0
  0
VERTEX
  5
3F6
330
3E4
100
AcDbEntity
  8
LINEE VISIBILI 2D
100
AcDbVertex
100
AcDb2dVertex
 10
149.220165329196
 20
7.47316270402953
 30
0.0
  0
VERTEX
  5
3F7
330
3E4
100
AcDbEntity
  8
LINEE VISIBILI 2D
100
AcDbVertex
100
AcDb2dVertex
 10
148.6241612429478
 20
6.494038211126693
 30
0.0
  0
VERTEX
  5
3F8
330
3E4
100
AcDbEntity
  8
LINEE VISIBILI 2D
100
AcDbVertex
100
AcDb2dVertex
 10
147.9987008045774
 20
5.533564834949604
 30
0.0
  0
VERTEX
  5
3F9
330
3E4
100
AcDbEntity
  8
LINEE VISIBILI 2D
100
AcDbVertex
100
AcDb2dVertex
 10
147.3456133570139
 20
4.591556666232837
 30
0.0
  0
VERTEX
  5
3FA
330
3E4
100
AcDbEntity
  8
LINEE VISIBILI 2D
100
AcDbVertex
100
AcDb2dVertex
 10
146.6667282431866
 20
3.667827795710966
 30
0.0
  0
VERTEX
  5
3FB
330
3E4
100
AcDbEntity
  8
LINEE VISIBILI 2D
100
AcDbVertex
100
AcDb2dVertex
 10
146.0314362575172
 20
2.85006886070922
 30
0.0
  0
VERTEX
  5
3FC
330
3E4
100
AcDbEntity
  8
LINEE VISIBILI 2D
100
AcDbVertex
100
AcDb2dVertex
 10
145.7043313362024
 20
2.448822728823812
 30
0.0
  0
VERTEX
  5
3FD
330
3E4
100
AcDbEntity
  8
LINEE VISIBILI 2D
100
AcDbVertex
100
AcDb2dVertex
 10
145.3697876184594
 20
2.053783541664239
 30
0.0
  0
VERTEX
  5
3FE
330
3E4
100
AcDbEntity
  8
LINEE VISIBILI 2D
100
AcDbVertex
100
AcDb2dVertex
 10
145.0967481567549
 20
1.743626678729981
 30
0.0
  0
VERTEX
  5
3FF
330
3E4
100
AcDbEntity
  8
LINEE VISIBILI 2D
100
AcDbVertex
100
AcDb2dVertex
 10
144.8173382478139
 20
1.439201556045865
 30
0.0
  0
VERTEX
  5
400
330
3E4
100
AcDbEntity
  8
LINEE VISIBILI 2D
100
AcDbVertex
100
AcDb2dVertex
 10
144.5304678016329
 20
1.141751406108026
 30
0.0
  0
VERTEX
  5
401
330
3E4
100
AcDbEntity
  8
LINEE VISIBILI 2D
100
AcDbVertex
100
AcDb2dVertex
 10
144.2350467282082
 20
0.8525194614126009
 30
0.0
  0
VERTEX
  5
402
330
3E4
100
AcDbEntity
  8
LINEE VISIBILI 2D
100
AcDbVertex
100
AcDb2dVertex
 10
144.0364433500058
 20
0.6691957136359468
 30
0.0
  0
VERTEX
  5
403
330
3E4
100
AcDbEntity
  8
LINEE VISIBILI 2D
100
AcDbVertex
100
AcDb2dVertex
 10
143.9347326992875
 20
0.5803760441403477
 30
0.0
  0
VERTEX
  5
404
330
3E4
100
AcDbEntity
  8
LINEE VISIBILI 2D
100
AcDbVertex
100
AcDb2dVertex
 10
143.830954685428
 20
0.4941589409544783
 30
0.0
  0
VERTEX
  5
405
330
3E4
100
AcDbEntity
  8
LINEE VISIBILI 2D
100
AcDbVertex
100
AcDb2dVertex
 10
143.7247632668798
 20
0.4110752266142713
 30
0.0
  0
VERTEX
  5
406
330
3E4
100
AcDbEntity
  8
LINEE VISIBILI 2D
100
AcDbVertex
100
AcDb2dVertex
 10
143.6706543928639
 20
0.3708742723037705
 30
0.0
  0
VERTEX
  5
407
330
3E4
100
AcDbEntity
  8
LINEE VISIBILI 2D
100
AcDbVertex
100
AcDb2dVertex
 10
143.6158124020956
 20
0.3316557236556603
 30
0.0
  0
VERTEX
  5
408
330
3E4
100
AcDbEntity
  8
LINEE VISIBILI 2D
100
AcDbVertex
100
AcDb2dVertex
 10
143.5601940393815
 20
0.2934859334869324
 30
0.0
  0
VERTEX
  5
409
330
3E4
100
AcDbEntity
  8
LINEE VISIBILI 2D
100
AcDbVertex
100
AcDb2dVertex
 10
143.503756049528
 20
0.2564312546145783
 30
0.0
  0
VERTEX
  5
40A
330
3E4
100
AcDbEntity
  8
LINEE VISIBILI 2D
100
AcDbVertex
100
AcDb2dVertex
 10
143.4464551773418
 20
0.2205580398555897
 30
0.0
  0
VERTEX
  5
40B
330
3E4
100
AcDbEntity
  8
LINEE VISIBILI 2D
100
AcDbVertex
100
AcDb2dVertex
 10
143.3882481676296
 20
0.1859326420269584
 30
0.0
  0
VERTEX
  5
40C
330
3E4
100
AcDbEntity
  8
LINEE VISIBILI 2D
100
AcDbVertex
100
AcDb2dVertex
 10
143.3161316577955
 20
0.1457176555373781
 30
0.0
  0
VERTEX
  5
40D
330
3E4
100
AcDbEntity
  8
LINEE VISIBILI 2D
100
AcDbVertex
100
AcDb2dVertex
 10
143.2795310805985
 20
0.1266473969155176
 30
0.0
  0
VERTEX
  5
40E
330
3E4
100
AcDbEntity
  8
LINEE VISIBILI 2D
100
AcDbVertex
100
AcDb2dVertex
 10
143.2425609325409
 20
0.1084325548000465
 30
0.0
  0
VERTEX
  5
40F
330
3E4
100
AcDbEntity
  8
LINEE VISIBILI 2D
100
AcDbVertex
100
AcDb2dVertex
 10
143.2052151966176
 20
0.0911960742592918
 30
0.0
  0
VERTEX
  5
410
330
3E4
100
AcDbEntity
  8
LINEE VISIBILI 2D
100
AcDbVertex
100
AcDb2dVertex
 10
143.1674878558229
 20
0.0750609003615807
 30
0.0
  0
VERTEX
  5
411
330
3E4
100
AcDbEntity
  8
LINEE VISIBILI 2D
100
AcDbVertex
100
AcDb2dVertex
 10
143.1293728931516
 20
0.0601499781752403
 30
0.0
  0
VERTEX
  5
412
330
3E4
100
AcDbEntity
  8
LINEE VISIBILI 2D
100
AcDbVertex
100
AcDb2dVertex
 10
143.110168173298
 20
0.0531920318076864
 30
0.0
  0
VERTEX
  5
413
330
3E4
100
AcDbEntity
  8
LINEE VISIBILI 2D
100
AcDbVertex
100
AcDb2dVertex
 10
143.0908642915982
 20
0.0465862527685978
 30
0.0
  0
VERTEX
  5
414
330
3E4
100
AcDbEntity
  8
LINEE VISIBILI 2D
100
AcDbVertex
100
AcDb2dVertex
 10
143.0714604959266
 20
0.0403480091915155
 30
0.0
  0
VERTEX
  5
415
330
3E4
100
AcDbEntity
  8
LINEE VISIBILI 2D
100
AcDbVertex
100
AcDb2dVertex
 10
143.0519560341574
 20
0.0344926692099804
 30
0.0
  0
VERTEX
  5
416
330
3E4
100
AcDbEntity
  8
LINEE VISIBILI 2D
100
AcDbVertex
100
AcDb2dVertex
 10
143.032350154165
 20
0.0290356009575333
 30
0.0
  0
VERTEX
  5
417
330
3E4
100
AcDbEntity
  8
LINEE VISIBILI 2D
100
AcDbVertex
100
AcDb2dVertex
 10
143.0126421038238
 20
0.0239921725677151
 30
0.0
  0
VERTEX
  5
418
330
3E4
100
AcDbEntity
  8
LINEE VISIBILI 2D
100
AcDbVertex
100
AcDb2dVertex
 10
142.992831131008
 20
0.0193777521740668
 30
0.0
  0
VERTEX
  5
419
330
3E4
100
AcDbEntity
  8
LINEE VISIBILI 2D
100
AcDbVertex
100
AcDb2dVertex
 10
142.972916483592
 20
0.0152077079101292
 30
0.0
  0
VERTEX
  5
41A
330
3E4
100
AcDbEntity
  8
LINEE VISIBILI 2D
100
AcDbVertex
100
AcDb2dVertex
 10
142.9528974094501
 20
0.0114974079094432
 30
0.0
  0
VERTEX
  5
41B
330
3E4
100
AcDbEntity
  8
LINEE VISIBILI 2D
100
AcDbVertex
100
AcDb2dVertex
 10
142.9327731564566
 20
0.0082622203055497
 30
0.0
  0
VERTEX
  5
41C
330
3E4
100
AcDbEntity
  8
LINEE VISIBILI 2D
100
AcDbVertex
100
AcDb2dVertex
 10
142.9125429724859
 20
0.0055175132319897
 30
0.0
  0
VERTEX
  5
41D
330
3E4
100
AcDbEntity
  8
LINEE VISIBILI 2D
100
AcDbVertex
100
AcDb2dVertex
 10
142.8922061054123
 20
0.0032786548223039
 30
0.0
  0
VERTEX
  5
41E
330
3E4
100
AcDbEntity
  8
LINEE VISIBILI 2D
100
AcDbVertex
100
AcDb2dVertex
 10
142.87176180311
 20
0.0015610132100333
 30
0.0
  0
VERTEX
  5
41F
330
3E4
100
AcDbEntity
  8
LINEE VISIBILI 2D
100
AcDbVertex
100
AcDb2dVertex
 10
142.8512093134536
 20
0.0003799565287188
 30
0.0
  0
VERTEX
  5
420
330
3E4
100
AcDbEntity
  8
LINEE VISIBILI 2D
100
AcDbVertex
100
AcDb2dVertex
 10
142.8305478843172
 20
-0.0002491470880987
 30
0.0
  0
VERTEX
  5
421
330
3E4
100
AcDbEntity
  8
LINEE VISIBILI 2D
100
AcDbVertex
100
AcDb2dVertex
 10
142.8097767635751
 20
-0.0003109295068784
 30
0.0
  0
VERTEX
  5
422
330
3E4
100
AcDbEntity
  8
LINEE VISIBILI 2D
100
AcDbVertex
100
AcDb2dVertex
 10
142.7888951991018
 20
0.0002099774059208
 30
0.0
  0
VERTEX
  5
423
330
3E4
100
AcDbEntity
  8
LINEE VISIBILI 2D
100
AcDbVertex
100
AcDb2dVertex
 10
142.7679024387716
 20
0.0013289417838395
 30
0.0
  0
SEQEND
  5
3E5
330
3E4
100
AcDbEntity
  8
LINEE VISIBILI 2D
  0
ARC
  5
424
330
1F
100
AcDbEntity
  8
LINEE VISIBILI 2D
100
AcDbCircle
 10
149.9328134304758
 20
10.3825909565412
 30
0.0
 40
0.6364828202160142
100
AcDbArc
 50
48.0425091532424
 51
80.92861217808664
  0
LINE
  5
425
330
1F
100
AcDbEntity
  8
LINEE VISIBILI 2D
100
AcDbLine
 10
140.4216576662529
 20
12.5828018946413
 30
0.0
 11
150.0262433668105
 21
11.01199749395865
 31
0.0
  0
LINE
  5
426
330
1F
100
AcDbEntity
  8
LINEE VISIBILI 2D
100
AcDbLine
 10
97.13474203256737
 20
19.68220675489283
 30
0.0
 11
140.3837423659144
 21
12.58900713547706
 31
0.0
  0
LINE
  5
427
330
1F
100
AcDbEntity
  8
LINEE VISIBILI 2D
100
AcDbLine
 10
142.7679175893636
 20
0.0015802670823177
 30
0.0
 11
83.08977181308788
 21
3.672446395853175
 31
0.0
  0
ARC
  5
428
330
1F
100
AcDbEntity
  8
LINEE VISIBILI 2D
100
AcDbCircle
 10
0.6368409425470674
 20
43.0595945406317
 30
0.0
 40
0.6697401721230754
100
AcDbArc
 50
210.8918545156204
 51
245.9596117641796
  0
ARC
  5
429
330
1F
100
AcDbEntity
  8
LINEE VISIBILI 2D
100
AcDbCircle
 10
10.94758065083491
 20
45.51986456987966
 30
0.0
 40
4.224782605824551
100
AcDbArc
 50
81.03900074293703
 51
111.2716733411968
  0
POLYLINE
  5
42A
330
1F
100
AcDbEntity
  8
LINEE VISIBILI 2D
100
AcDb2dPolyline
 66
     1
 10
0.0
 20
0.0
 30
0.0
  0
VERTEX
  5
42C
330
42A
100
AcDbEntity
  8
LINEE VISIBILI 2D
100
AcDbVertex
100
AcDb2dVertex
 10
0.000004353571029
 20
42.94179597164326
 30
0.0
  0
VERTEX
  5
42D
330
42A
100
AcDbEntity
  8
LINEE VISIBILI 2D
100
AcDbVertex
100
AcDb2dVertex
 10
0.0001873639548826
 20
42.95540345531904
 30
0.0
  0
VERTEX
  5
42E
330
42A
100
AcDbEntity
  8
LINEE VISIBILI 2D
100
AcDbVertex
100
AcDb2dVertex
 10
0.0007597304350083
 20
42.96897163059544
 30
0.0
  0
VERTEX
  5
42F
330
42A
100
AcDbEntity
  8
LINEE VISIBILI 2D
100
AcDbVertex
100
AcDb2dVertex
 10
0.0017061573999692
 20
42.98249883302942
 30
0.0
  0
VERTEX
  5
430
330
42A
100
AcDbEntity
  8
LINEE VISIBILI 2D
100
AcDbVertex
100
AcDb2dVertex
 10
0.0030113492383287
 20
42.99598339817799
 30
0.0
  0
VERTEX
  5
431
330
42A
100
AcDbEntity
  8
LINEE VISIBILI 2D
100
AcDbVertex
100
AcDb2dVertex
 10
0.0046600103386498
 20
43.00942366159809
 30
0.0
  0
VERTEX
  5
432
330
42A
100
AcDbEntity
  8
LINEE VISIBILI 2D
100
AcDbVertex
100
AcDb2dVertex
 10
0.0066368450894958
 20
43.0228179588467
 30
0.0
  0
VERTEX
  5
433
330
42A
100
AcDbEntity
  8
LINEE VISIBILI 2D
100
AcDbVertex
100
AcDb2dVertex
 10
0.00892655787943
 20
43.0361646254808
 30
0.0
  0
VERTEX
  5
434
330
42A
100
AcDbEntity
  8
LINEE VISIBILI 2D
100
AcDbVertex
100
AcDb2dVertex
 10
0.0115138530970155
 20
43.04946199705738
 30
0.0
  0
VERTEX
  5
435
330
42A
100
AcDbEntity
  8
LINEE VISIBILI 2D
100
AcDbVertex
100
AcDb2dVertex
 10
0.0143834351308154
 20
43.06270840913337
 30
0.0
  0
VERTEX
  5
436
330
42A
100
AcDbEntity
  8
LINEE VISIBILI 2D
100
AcDbVertex
100
AcDb2dVertex
 10
0.0175200083693931
 20
43.07590219726579
 30
0.0
  0
VERTEX
  5
437
330
42A
100
AcDbEntity
  8
LINEE VISIBILI 2D
100
AcDbVertex
100
AcDb2dVertex
 10
0.0209082772013118
 20
43.08904169701158
 30
0.0
  0
VERTEX
  5
438
330
42A
100
AcDbEntity
  8
LINEE VISIBILI 2D
100
AcDbVertex
100
AcDb2dVertex
 10
0.0245329460151345
 20
43.10212524392773
 30
0.0
  0
VERTEX
  5
439
330
42A
100
AcDbEntity
  8
LINEE VISIBILI 2D
100
AcDbVertex
100
AcDb2dVertex
 10
0.0324303011427453
 20
43.12811782149901
 30
0.0
  0
VERTEX
  5
43A
330
42A
100
AcDbEntity
  8
LINEE VISIBILI 2D
100
AcDbVertex
100
AcDb2dVertex
 10
0.0410897088607311
 20
43.1538666144354
 30
0.0
  0
VERTEX
  5
43B
330
42A
100
AcDbEntity
  8
LINEE VISIBILI 2D
100
AcDbVertex
100
AcDb2dVertex
 10
0.0537748518090028
 20
43.18814646129986
 30
0.0
  0
VERTEX
  5
43C
330
42A
100
AcDbEntity
  8
LINEE VISIBILI 2D
100
AcDbVertex
100
AcDb2dVertex
 10
0.067525147184064
 20
43.22198610862264
 30
0.0
  0
VERTEX
  5
43D
330
42A
100
AcDbEntity
  8
LINEE VISIBILI 2D
100
AcDbVertex
100
AcDb2dVertex
 10
0.0822454145200203
 20
43.25541171223363
 30
0.0
  0
VERTEX
  5
43E
330
42A
100
AcDbEntity
  8
LINEE VISIBILI 2D
100
AcDbVertex
100
AcDb2dVertex
 10
0.0978404733509774
 20
43.28844942796274
 30
0.0
  0
VERTEX
  5
43F
330
42A
100
AcDbEntity
  8
LINEE VISIBILI 2D
100
AcDbVertex
100
AcDb2dVertex
 10
0.1142151432110411
 20
43.32112541163986
 30
0.0
  0
VERTEX
  5
440
330
42A
100
AcDbEntity
  8
LINEE VISIBILI 2D
100
AcDbVertex
100
AcDb2dVertex
 10
0.1312742436343169
 20
43.35346581909493
 30
0.0
  0
VERTEX
  5
441
330
42A
100
AcDbEntity
  8
LINEE VISIBILI 2D
100
AcDbVertex
100
AcDb2dVertex
 10
0.1670650143069281
 20
43.41724452865844
 30
0.0
  0
VERTEX
  5
442
330
42A
100
AcDbEntity
  8
LINEE VISIBILI 2D
100
AcDbVertex
100
AcDb2dVertex
 10
0.219344379432985
 20
43.50375923066278
 30
0.0
  0
VERTEX
  5
443
330
42A
100
AcDbEntity
  8
LINEE VISIBILI 2D
100
AcDbVertex
100
AcDb2dVertex
 10
0.2744194335352195
 20
43.58843419985126
 30
0.0
  0
VERTEX
  5
444
330
42A
100
AcDbEntity
  8
LINEE VISIBILI 2D
100
AcDbVertex
100
AcDb2dVertex
 10
0.3320319034620179
 20
43.67139817084018
 30
0.0
  0
VERTEX
  5
445
330
42A
100
AcDbEntity
  8
LINEE VISIBILI 2D
100
AcDbVertex
100
AcDb2dVertex
 10
0.3919235160617668
 20
43.75277987824576
 30
0.0
  0
VERTEX
  5
446
330
42A
100
AcDbEntity
  8
LINEE VISIBILI 2D
100
AcDbVertex
100
AcDb2dVertex
 10
0.4538359981828526
 20
43.83270805668426
 30
0.0
  0
VERTEX
  5
447
330
42A
100
AcDbEntity
  8
LINEE VISIBILI 2D
100
AcDbVertex
100
AcDb2dVertex
 10
0.5175110766736616
 20
43.91131144077193
 30
0.0
  0
VERTEX
  5
448
330
42A
100
AcDbEntity
  8
LINEE VISIBILI 2D
100
AcDbVertex
100
AcDb2dVertex
 10
0.6491159301579952
 20
44.06505876435978
 30
0.0
  0
VERTEX
  5
449
330
42A
100
AcDbEntity
  8
LINEE VISIBILI 2D
100
AcDbVertex
100
AcDb2dVertex
 10
0.826312480376653
 20
44.25908191672127
 30
0.0
  0
VERTEX
  5
44A
330
42A
100
AcDbEntity
  8
LINEE VISIBILI 2D
100
AcDbVertex
100
AcDb2dVertex
 10
1.009382868805314
 20
44.44740148318445
 30
0.0
  0
VERTEX
  5
44B
330
42A
100
AcDbEntity
  8
LINEE VISIBILI 2D
100
AcDbVertex
100
AcDb2dVertex
 10
1.197531817701538
 20
44.63065090476055
 30
0.0
  0
VERTEX
  5
44C
330
42A
100
AcDbEntity
  8
LINEE VISIBILI 2D
100
AcDbVertex
100
AcDb2dVertex
 10
1.389964049322887
 20
44.80946362246078
 30
0.0
  0
VERTEX
  5
44D
330
42A
100
AcDbEntity
  8
LINEE VISIBILI 2D
100
AcDbVertex
100
AcDb2dVertex
 10
1.622617270877773
 20
45.01639538801912
 30
0.0
  0
VERTEX
  5
44E
330
42A
100
AcDbEntity
  8
LINEE VISIBILI 2D
100
AcDbVertex
100
AcDb2dVertex
 10
1.859656530308976
 20
45.21833369305915
 30
0.0
  0
VERTEX
  5
44F
330
42A
100
AcDbEntity
  8
LINEE VISIBILI 2D
100
AcDbVertex
100
AcDb2dVertex
 10
2.100568509499526
 20
45.41562725369431
 30
0.0
  0
VERTEX
  5
450
330
42A
100
AcDbEntity
  8
LINEE VISIBILI 2D
100
AcDbVertex
100
AcDb2dVertex
 10
2.344839890332451
 20
45.60862478603807
 30
0.0
  0
SEQEND
  5
42B
330
42A
100
AcDbEntity
  8
LINEE VISIBILI 2D
  0
LINE
  5
451
330
1F
100
AcDbEntity
  8
LINEE VISIBILI 2D
100
AcDbLine
 10
9.396129875309709
 20
49.45088344267965
 30
0.0
 11
9.412586160348737
 21
49.45609378415515
 31
0.0
  0
LINE
  5
452
330
1F
100
AcDbEntity
  8
LINEE VISIBILI 2D
100
AcDbLine
 10
2.346155562402302
 20
45.60963550095805
 30
0.0
 11
2.362064006318245
 21
45.62192846840891
 31
0.0
  0
ARC
  5
453
330
1F
100
AcDbEntity
  8
LINEE VISIBILI 2D
100
AcDbCircle
 10
18.81229707922021
 20
23.77719536630673
 30
0.0
 40
27.34596840931974
100
AcDbArc
 50
110.1411856492774
 51
126.9816704768292
  0
LINE
  5
454
330
1F
100
AcDbEntity
  8
LINEE VISIBILI 2D
100
AcDbLine
 10
87.25392449062201
 20
23.16043845348759
 30
0.0
 11
97.22190737251878
 21
19.66604296558666
 31
0.0
  0
LINE
  5
455
330
1F
100
AcDbEntity
  8
LINEE VISIBILI 2D
100
AcDbLine
 10
15.20840189323644
 20
48.42848613421665
 30
0.0
 11
86.72643060832619
 21
23.34536410965065
 31
0.0
  0
LINE
  5
456
330
1F
100
AcDbEntity
  8
LINEE VISIBILI 2D
100
AcDbLine
 10
11.60784958060685
 20
49.69228397327242
 30
0.0
 11
15.17738239127377
 21
48.43937332598348
 31
0.0
  0
LINE
  5
457
330
1F
100
AcDbEntity
  8
LINEE VISIBILI 2D
100
AcDbLine
 10
82.67883408667694
 20
3.790141202014638
 30
0.0
 11
0.3669002484306532
 21
42.44695654703258
 31
0.0
  0
LINE
  5
458
330
1F
100
AcDbEntity
  8
LINEE VISIBILI 2D
100
AcDbLine
 10
151.0533391607087
 20
95.5353970025129
 30
0.0
 11
151.011349089887
 21
95.47422935478852
 31
0.0
  0
LINE
  5
459
330
1F
100
AcDbEntity
  8
LINEE VISIBILI 2D
100
AcDbLine
 10
149.3673706837225
 20
95.69356448981753
 30
0.0
 11
149.4026125267857
 21
95.73171459357613
 31
0.0
  0
ARC
  5
45A
330
1F
100
AcDbEntity
  8
LINEE VISIBILI 2D
100
AcDbCircle
 10
149.8930323532861
 20
96.06941000977439
 30
0.0
 40
0.6665092447524836
100
AcDbArc
 50
216.8485193223299
 51
273.9944205127892
  0
ARC
  5
45B
330
1F
100
AcDbEntity
  8
LINEE VISIBILI 2D
100
AcDbCircle
 10
150.3581506152215
 20
97.2423361053511
 30
0.0
 40
1.884905761222606
100
AcDbArc
 50
257.1659694819429
 51
290.2759362082867
  0
ARC
  5
45C
330
1F
100
AcDbEntity
  8
LINEE VISIBILI 2D
100
AcDbCircle
 10
150.8213770126644
 20
101.193512439931
 30
0.0
 40
1.954131614765067
100
AcDbArc
 50
257.5761179152435
 51
289.6146327043259
  0
POLYLINE
  5
45D
330
1F
100
AcDbEntity
  8
LINEE VISIBILI 2D
100
AcDb2dPolyline
 66
     1
 10
0.0
 20
0.0
 30
0.0
  0
VERTEX
  5
45F
330
45D
100
AcDbEntity
  8
LINEE VISIBILI 2D
100
AcDbVertex
100
AcDb2dVertex
 10
149.8603813847033
 20
99.60259251442613
 30
0.0
  0
VERTEX
  5
460
330
45D
100
AcDbEntity
  8
LINEE VISIBILI 2D
100
AcDbVertex
100
AcDb2dVertex
 10
149.8574671218202
 20
99.6004597066549
 30
0.0
  0
VERTEX
  5
461
330
45D
100
AcDbEntity
  8
LINEE VISIBILI 2D
100
AcDbVertex
100
AcDb2dVertex
 10
149.8546394815944
 20
99.59830201768713
 30
0.0
  0
VERTEX
  5
462
330
45D
100
AcDbEntity
  8
LINEE VISIBILI 2D
100
AcDbVertex
100
AcDb2dVertex
 10
149.8519002608312
 20
99.59611957676212
 30
0.0
  0
VERTEX
  5
463
330
45D
100
AcDbEntity
  8
LINEE VISIBILI 2D
100
AcDbVertex
100
AcDb2dVertex
 10
149.8492512503237
 20
99.59391252626748
 30
0.0
  0
VERTEX
  5
464
330
45D
100
AcDbEntity
  8
LINEE VISIBILI 2D
100
AcDbVertex
100
AcDb2dVertex
 10
149.8466942334083
 20
99.59168102193201
 30
0.0
  0
VERTEX
  5
465
330
45D
100
AcDbEntity
  8
LINEE VISIBILI 2D
100
AcDbVertex
100
AcDb2dVertex
 10
149.8442309844894
 20
99.58942523300915
 30
0.0
  0
VERTEX
  5
466
330
45D
100
AcDbEntity
  8
LINEE VISIBILI 2D
100
AcDbVertex
100
AcDb2dVertex
 10
149.8418632675355
 20
99.58714534245054
 30
0.0
  0
VERTEX
  5
467
330
45D
100
AcDbEntity
  8
LINEE VISIBILI 2D
100
AcDbVertex
100
AcDb2dVertex
 10
149.8395928345459
 20
99.58484154706834
 30
0.0
  0
VERTEX
  5
468
330
45D
100
AcDbEntity
  8
LINEE VISIBILI 2D
100
AcDbVertex
100
AcDb2dVertex
 10
149.8374214239919
 20
99.58251405768709
 30
0.0
  0
VERTEX
  5
469
330
45D
100
AcDbEntity
  8
LINEE VISIBILI 2D
100
AcDbVertex
100
AcDb2dVertex
 10
149.8353507592326
 20
99.58016309928343
 30
0.0
  0
VERTEX
  5
46A
330
45D
100
AcDbEntity
  8
LINEE VISIBILI 2D
100
AcDbVertex
100
AcDb2dVertex
 10
149.833382546908
 20
99.57778891111312
 30
0.0
  0
VERTEX
  5
46B
330
45D
100
AcDbEntity
  8
LINEE VISIBILI 2D
100
AcDbVertex
100
AcDb2dVertex
 10
149.8315184753103
 20
99.57539174682574
 30
0.0
  0
VERTEX
  5
46C
330
45D
100
AcDbEntity
  8
LINEE VISIBILI 2D
100
AcDbVertex
100
AcDb2dVertex
 10
149.8297602127366
 20
99.57297187456562
 30
0.0
  0
VERTEX
  5
46D
330
45D
100
AcDbEntity
  8
LINEE VISIBILI 2D
100
AcDbVertex
100
AcDb2dVertex
 10
149.8281094058239
 20
99.57052957705856
 30
0.0
  0
VERTEX
  5
46E
330
45D
100
AcDbEntity
  8
LINEE VISIBILI 2D
100
AcDbVertex
100
AcDb2dVertex
 10
149.8265676778688
 20
99.56806515168427
 30
0.0
  0
VERTEX
  5
46F
330
45D
100
AcDbEntity
  8
LINEE VISIBILI 2D
100
AcDbVertex
100
AcDb2dVertex
 10
149.8251366271354
 20
99.56557891053357
 30
0.0
  0
VERTEX
  5
470
330
45D
100
AcDbEntity
  8
LINEE VISIBILI 2D
100
AcDbVertex
100
AcDb2dVertex
 10
149.8238178251517
 20
99.56307118045003
 30
0.0
  0
VERTEX
  5
471
330
45D
100
AcDbEntity
  8
LINEE VISIBILI 2D
100
AcDbVertex
100
AcDb2dVertex
 10
149.822612814999
 20
99.56054230305564
 30
0.0
  0
VERTEX
  5
472
330
45D
100
AcDbEntity
  8
LINEE VISIBILI 2D
100
AcDbVertex
100
AcDb2dVertex
 10
149.8215231095952
 20
99.55799263475967
 30
0.0
  0
VERTEX
  5
473
330
45D
100
AcDbEntity
  8
LINEE VISIBILI 2D
100
AcDbVertex
100
AcDb2dVertex
 10
149.8205501899759
 20
99.55542254675087
 30
0.0
  0
VERTEX
  5
474
330
45D
100
AcDbEntity
  8
LINEE VISIBILI 2D
100
AcDbVertex
100
AcDb2dVertex
 10
149.8196955035756
 20
99.55283242497207
 30
0.0
  0
VERTEX
  5
475
330
45D
100
AcDbEntity
  8
LINEE VISIBILI 2D
100
AcDbVertex
100
AcDb2dVertex
 10
149.8189604625111
 20
99.5502226700769
 30
0.0
  0
VERTEX
  5
476
330
45D
100
AcDbEntity
  8
LINEE VISIBILI 2D
100
AcDbVertex
100
AcDb2dVertex
 10
149.8183464418715
 20
99.54759369736862
 30
0.0
  0
VERTEX
  5
477
330
45D
100
AcDbEntity
  8
LINEE VISIBILI 2D
100
AcDbVertex
100
AcDb2dVertex
 10
149.8178547780162
 20
99.54494593672023
 30
0.0
  0
VERTEX
  5
478
330
45D
100
AcDbEntity
  8
LINEE VISIBILI 2D
100
AcDbVertex
100
AcDb2dVertex
 10
149.8174867668852
 20
99.54227983247591
 30
0.0
  0
VERTEX
  5
479
330
45D
100
AcDbEntity
  8
LINEE VISIBILI 2D
100
AcDbVertex
100
AcDb2dVertex
 10
149.8172436623237
 20
99.53959584333317
 30
0.0
  0
VERTEX
  5
47A
330
45D
100
AcDbEntity
  8
LINEE VISIBILI 2D
100
AcDbVertex
100
AcDb2dVertex
 10
149.8171266744249
 20
99.53689444220593
 30
0.0
  0
VERTEX
  5
47B
330
45D
100
AcDbEntity
  8
LINEE VISIBILI 2D
100
AcDbVertex
100
AcDb2dVertex
 10
149.817136967894
 20
99.53417611606797
 30
0.0
  0
VERTEX
  5
47C
330
45D
100
AcDbEntity
  8
LINEE VISIBILI 2D
100
AcDbVertex
100
AcDb2dVertex
 10
149.817275660436
 20
99.53144136577677
 30
0.0
  0
VERTEX
  5
47D
330
45D
100
AcDbEntity
  8
LINEE VISIBILI 2D
100
AcDbVertex
100
AcDb2dVertex
 10
149.8175438211715
 20
99.52869070587743
 30
0.0
  0
VERTEX
  5
47E
330
45D
100
AcDbEntity
  8
LINEE VISIBILI 2D
100
AcDbVertex
100
AcDb2dVertex
 10
149.8179424690831
 20
99.52592466438686
 30
0.0
  0
VERTEX
  5
47F
330
45D
100
AcDbEntity
  8
LINEE VISIBILI 2D
100
AcDbVertex
100
AcDb2dVertex
 10
149.8184725714953
 20
99.52314378255797
 30
0.0
  0
VERTEX
  5
480
330
45D
100
AcDbEntity
  8
LINEE VISIBILI 2D
100
AcDbVertex
100
AcDb2dVertex
 10
149.8191350425926
 20
99.52034861462404
 30
0.0
  0
VERTEX
  5
481
330
45D
100
AcDbEntity
  8
LINEE VISIBILI 2D
100
AcDbVertex
100
AcDb2dVertex
 10
149.819930741977
 20
99.51753972752316
 30
0.0
  0
VERTEX
  5
482
330
45D
100
AcDbEntity
  8
LINEE VISIBILI 2D
100
AcDbVertex
100
AcDb2dVertex
 10
149.8208604732697
 20
99.51471770060296
 30
0.0
  0
VERTEX
  5
483
330
45D
100
AcDbEntity
  8
LINEE VISIBILI 2D
100
AcDbVertex
100
AcDb2dVertex
 10
149.8219249827593
 20
99.5118831253057
 30
0.0
  0
VERTEX
  5
484
330
45D
100
AcDbEntity
  8
LINEE VISIBILI 2D
100
AcDbVertex
100
AcDb2dVertex
 10
149.8231249581005
 20
99.50903660483421
 30
0.0
  0
VERTEX
  5
485
330
45D
100
AcDbEntity
  8
LINEE VISIBILI 2D
100
AcDbVertex
100
AcDb2dVertex
 10
149.8244610270651
 20
99.50617875379807
 30
0.0
  0
VERTEX
  5
486
330
45D
100
AcDbEntity
  8
LINEE VISIBILI 2D
100
AcDbVertex
100
AcDb2dVertex
 10
149.8259337563494
 20
99.50331019784167
 30
0.0
  0
VERTEX
  5
487
330
45D
100
AcDbEntity
  8
LINEE VISIBILI 2D
100
AcDbVertex
100
AcDb2dVertex
 10
149.8275436504404
 20
99.50043157325307
 30
0.0
  0
VERTEX
  5
488
330
45D
100
AcDbEntity
  8
LINEE VISIBILI 2D
100
AcDbVertex
100
AcDb2dVertex
 10
149.8292911505442
 20
99.49754352655522
 30
0.0
  0
VERTEX
  5
489
330
45D
100
AcDbEntity
  8
LINEE VISIBILI 2D
100
AcDbVertex
100
AcDb2dVertex
 10
149.8311766335785
 20
99.49464671407909
 30
0.0
  0
VERTEX
  5
48A
330
45D
100
AcDbEntity
  8
LINEE VISIBILI 2D
100
AcDbVertex
100
AcDb2dVertex
 10
149.8332004112327
 20
99.49174180151985
 30
0.0
  0
VERTEX
  5
48B
330
45D
100
AcDbEntity
  8
LINEE VISIBILI 2D
100
AcDbVertex
100
AcDb2dVertex
 10
149.8353627290974
 20
99.48882946347602
 30
0.0
  0
VERTEX
  5
48C
330
45D
100
AcDbEntity
  8
LINEE VISIBILI 2D
100
AcDbVertex
100
AcDb2dVertex
 10
149.8376637658669
 20
99.48591038297305
 30
0.0
  0
VERTEX
  5
48D
330
45D
100
AcDbEntity
  8
LINEE VISIBILI 2D
100
AcDbVertex
100
AcDb2dVertex
 10
149.8401036326151
 20
99.48298525097078
 30
0.0
  0
VERTEX
  5
48E
330
45D
100
AcDbEntity
  8
LINEE VISIBILI 2D
100
AcDbVertex
100
AcDb2dVertex
 10
149.8426823721494
 20
99.48005476585649
 30
0.0
  0
VERTEX
  5
48F
330
45D
100
AcDbEntity
  8
LINEE VISIBILI 2D
100
AcDbVertex
100
AcDb2dVertex
 10
149.8453999584423
 20
99.47711963292372
 30
0.0
  0
VERTEX
  5
490
330
45D
100
AcDbEntity
  8
LINEE VISIBILI 2D
100
AcDbVertex
100
AcDb2dVertex
 10
149.8482562961436
 20
99.47418056383771
 30
0.0
  0
VERTEX
  5
491
330
45D
100
AcDbEntity
  8
LINEE VISIBILI 2D
100
AcDbVertex
100
AcDb2dVertex
 10
149.8512512201758
 20
99.47123827608828
 30
0.0
  0
VERTEX
  5
492
330
45D
100
AcDbEntity
  8
LINEE VISIBILI 2D
100
AcDbVertex
100
AcDb2dVertex
 10
149.8543844954119
 20
99.46829349243106
 30
0.0
  0
VERTEX
  5
493
330
45D
100
AcDbEntity
  8
LINEE VISIBILI 2D
100
AcDbVertex
100
AcDb2dVertex
 10
149.8576558164394
 20
99.46534694031768
 30
0.0
  0
VERTEX
  5
494
330
45D
100
AcDbEntity
  8
LINEE VISIBILI 2D
100
AcDbVertex
100
AcDb2dVertex
 10
149.8610648074099
 20
99.46239935131625
 30
0.0
  0
VERTEX
  5
495
330
45D
100
AcDbEntity
  8
LINEE VISIBILI 2D
100
AcDbVertex
100
AcDb2dVertex
 10
149.8646110219761
 20
99.45945146052261
 30
0.0
  0
VERTEX
  5
496
330
45D
100
AcDbEntity
  8
LINEE VISIBILI 2D
100
AcDbVertex
100
AcDb2dVertex
 10
149.8682939433166
 20
99.45650400596369
 30
0.0
  0
VERTEX
  5
497
330
45D
100
AcDbEntity
  8
LINEE VISIBILI 2D
100
AcDbVertex
100
AcDb2dVertex
 10
149.8721129842498
 20
99.45355772799349
 30
0.0
  0
VERTEX
  5
498
330
45D
100
AcDbEntity
  8
LINEE VISIBILI 2D
100
AcDbVertex
100
AcDb2dVertex
 10
149.8801567256673
 20
99.44767167120813
 30
0.0
  0
VERTEX
  5
499
330
45D
100
AcDbEntity
  8
LINEE VISIBILI 2D
100
AcDbVertex
100
AcDb2dVertex
 10
149.888736151479
 20
99.44179923625384
 30
0.0
  0
VERTEX
  5
49A
330
45D
100
AcDbEntity
  8
LINEE VISIBILI 2D
100
AcDbVertex
100
AcDb2dVertex
 10
149.8978440633643
 20
99.43594636699682
 30
0.0
  0
VERTEX
  5
49B
330
45D
100
AcDbEntity
  8
LINEE VISIBILI 2D
100
AcDbVertex
100
AcDb2dVertex
 10
149.907472178656
 20
99.43011898513699
 30
0.0
  0
VERTEX
  5
49C
330
45D
100
AcDbEntity
  8
LINEE VISIBILI 2D
100
AcDbVertex
100
AcDb2dVertex
 10
149.917611155102
 20
99.42432297028743
 30
0.0
  0
VERTEX
  5
49D
330
45D
100
AcDbEntity
  8
LINEE VISIBILI 2D
100
AcDbVertex
100
AcDb2dVertex
 10
149.9282506210129
 20
99.41856414021927
 30
0.0
  0
VERTEX
  5
49E
330
45D
100
AcDbEntity
  8
LINEE VISIBILI 2D
100
AcDbVertex
100
AcDb2dVertex
 10
149.9393792105913
 20
99.41284823141103
 30
0.0
  0
VERTEX
  5
49F
330
45D
100
AcDbEntity
  8
LINEE VISIBILI 2D
100
AcDbVertex
100
AcDb2dVertex
 10
149.9509846041896
 20
99.40718088003855
 30
0.0
  0
VERTEX
  5
4A0
330
45D
100
AcDbEntity
  8
LINEE VISIBILI 2D
100
AcDbVertex
100
AcDb2dVertex
 10
149.9630535732
 20
99.4015676035382
 30
0.0
  0
VERTEX
  5
4A1
330
45D
100
AcDbEntity
  8
LINEE VISIBILI 2D
100
AcDbVertex
100
AcDb2dVertex
 10
149.9755720292356
 20
99.39601378286834
 30
0.0
  0
VERTEX
  5
4A2
330
45D
100
AcDbEntity
  8
LINEE VISIBILI 2D
100
AcDbVertex
100
AcDb2dVertex
 10
150.0018970720177
 20
99.38510524986641
 30
0.0
  0
VERTEX
  5
4A3
330
45D
100
AcDbEntity
  8
LINEE VISIBILI 2D
100
AcDbVertex
100
AcDb2dVertex
 10
150.0298319315986
 20
99.37449498011268
 30
0.0
  0
VERTEX
  5
4A4
330
45D
100
AcDbEntity
  8
LINEE VISIBILI 2D
100
AcDbVertex
100
AcDb2dVertex
 10
150.0592387739303
 20
99.36421951083353
 30
0.0
  0
VERTEX
  5
4A5
330
45D
100
AcDbEntity
  8
LINEE VISIBILI 2D
100
AcDbVertex
100
AcDb2dVertex
 10
150.0899718117286
 20
99.35431183333371
 30
0.0
  0
VERTEX
  5
4A6
330
45D
100
AcDbEntity
  8
LINEE VISIBILI 2D
100
AcDbVertex
100
AcDb2dVertex
 10
150.1218794588701
 20
99.34480109200281
 30
0.0
  0
VERTEX
  5
4A7
330
45D
100
AcDbEntity
  8
LINEE VISIBILI 2D
100
AcDbVertex
100
AcDb2dVertex
 10
150.1548064980926
 20
99.33571237043175
 30
0.0
  0
VERTEX
  5
4A8
330
45D
100
AcDbEntity
  8
LINEE VISIBILI 2D
100
AcDbVertex
100
AcDb2dVertex
 10
150.188596203955
 20
99.32706656536399
 30
0.0
  0
VERTEX
  5
4A9
330
45D
100
AcDbEntity
  8
LINEE VISIBILI 2D
100
AcDbVertex
100
AcDb2dVertex
 10
150.2581411849965
 20
99.31116619424464
 30
0.0
  0
VERTEX
  5
4AA
330
45D
100
AcDbEntity
  8
LINEE VISIBILI 2D
100
AcDbVertex
100
AcDb2dVertex
 10
150.3293035728747
 20
99.29718382041968
 30
0.0
  0
VERTEX
  5
4AB
330
45D
100
AcDbEntity
  8
LINEE VISIBILI 2D
100
AcDbVertex
100
AcDb2dVertex
 10
150.4009604353686
 20
99.28514133625149
 30
0.0
  0
SEQEND
  5
45E
330
45D
100
AcDbEntity
  8
LINEE VISIBILI 2D
  0
ARC
  5
4AC
330
1F
100
AcDbEntity
  8
LINEE VISIBILI 2D
100
AcDbCircle
 10
150.514946099332
 20
97.75620468271311
 30
0.0
 40
1.958980089417669
100
AcDbArc
 50
77.64785873856888
 51
109.5199743364186
  0
POLYLINE
  5
4AD
330
1F
100
AcDbEntity
  8
LINEE VISIBILI 2D
100
AcDb2dPolyline
 66
     1
 10
0.0
 20
0.0
 30
0.0
  0
VERTEX
  5
4AF
330
4AD
100
AcDbEntity
  8
LINEE VISIBILI 2D
100
AcDbVertex
100
AcDb2dVertex
 10
151.477363655408
 20
99.35277566016965
 30
0.0
  0
VERTEX
  5
4B0
330
4AD
100
AcDbEntity
  8
LINEE VISIBILI 2D
100
AcDbVertex
100
AcDb2dVertex
 10
151.4802529156947
 20
99.3549181162853
 30
0.0
  0
VERTEX
  5
4B1
330
4AD
100
AcDbEntity
  8
LINEE VISIBILI 2D
100
AcDbVertex
100
AcDb2dVertex
 10
151.4830547671991
 20
99.3570853963134
 30
0.0
  0
VERTEX
  5
4B2
330
4AD
100
AcDbEntity
  8
LINEE VISIBILI 2D
100
AcDbVertex
100
AcDb2dVertex
 10
151.4857674176783
 20
99.35927736456664
 30
0.0
  0
VERTEX
  5
4B3
330
4AD
100
AcDbEntity
  8
LINEE VISIBILI 2D
100
AcDbVertex
100
AcDb2dVertex
 10
151.4883890816631
 20
99.36149387212866
 30
0.0
  0
VERTEX
  5
4B4
330
4AD
100
AcDbEntity
  8
LINEE VISIBILI 2D
100
AcDbVertex
100
AcDb2dVertex
 10
151.4909179819165
 20
99.36373475666705
 30
0.0
  0
VERTEX
  5
4B5
330
4AD
100
AcDbEntity
  8
LINEE VISIBILI 2D
100
AcDbVertex
100
AcDb2dVertex
 10
151.4933523509212
 20
99.36599984225578
 30
0.0
  0
VERTEX
  5
4B6
330
4AD
100
AcDbEntity
  8
LINEE VISIBILI 2D
100
AcDbVertex
100
AcDb2dVertex
 10
151.4956904323957
 20
99.36828893920843
 30
0.0
  0
VERTEX
  5
4B7
330
4AD
100
AcDbEntity
  8
LINEE VISIBILI 2D
100
AcDbVertex
100
AcDb2dVertex
 10
151.4979304828381
 20
99.37060184392208
 30
0.0
  0
VERTEX
  5
4B8
330
4AD
100
AcDbEntity
  8
LINEE VISIBILI 2D
100
AcDbVertex
100
AcDb2dVertex
 10
151.5000707730948
 20
99.37293833873264
 30
0.0
  0
VERTEX
  5
4B9
330
4AD
100
AcDbEntity
  8
LINEE VISIBILI 2D
100
AcDbVertex
100
AcDb2dVertex
 10
151.502109589953
 20
99.37529819178248
 30
0.0
  0
VERTEX
  5
4BA
330
4AD
100
AcDbEntity
  8
LINEE VISIBILI 2D
100
AcDbVertex
100
AcDb2dVertex
 10
151.5040452377556
 20
99.37768115690069
 30
0.0
  0
VERTEX
  5
4BB
330
4AD
100
AcDbEntity
  8
LINEE VISIBILI 2D
100
AcDbVertex
100
AcDb2dVertex
 10
151.5058760400356
 20
99.3800869734963
 30
0.0
  0
VERTEX
  5
4BC
330
4AD
100
AcDbEntity
  8
LINEE VISIBILI 2D
100
AcDbVertex
100
AcDb2dVertex
 10
151.507600341169
 20
99.38251536646559
 30
0.0
  0
VERTEX
  5
4BD
330
4AD
100
AcDbEntity
  8
LINEE VISIBILI 2D
100
AcDbVertex
100
AcDb2dVertex
 10
151.5092165080433
 20
99.38496604611337
 30
0.0
  0
VERTEX
  5
4BE
330
4AD
100
AcDbEntity
  8
LINEE VISIBILI 2D
100
AcDbVertex
100
AcDb2dVertex
 10
151.5107229317401
 20
99.38743870808933
 30
0.0
  0
VERTEX
  5
4BF
330
4AD
100
AcDbEntity
  8
LINEE VISIBILI 2D
100
AcDbVertex
100
AcDb2dVertex
 10
151.5121180292284
 20
99.38993303333958
 30
0.0
  0
VERTEX
  5
4C0
330
4AD
100
AcDbEntity
  8
LINEE VISIBILI 2D
100
AcDbVertex
100
AcDb2dVertex
 10
151.5134002450674
 20
99.39244868807396
 30
0.0
  0
VERTEX
  5
4C1
330
4AD
100
AcDbEntity
  8
LINEE VISIBILI 2D
100
AcDbVertex
100
AcDb2dVertex
 10
151.5145680531158
 20
99.39498532374974
 30
0.0
  0
VERTEX
  5
4C2
330
4AD
100
AcDbEntity
  8
LINEE VISIBILI 2D
100
AcDbVertex
100
AcDb2dVertex
 10
151.5156199582442
 20
99.39754257707207
 30
0.0
  0
VERTEX
  5
4C3
330
4AD
100
AcDbEntity
  8
LINEE VISIBILI 2D
100
AcDbVertex
100
AcDb2dVertex
 10
151.5165544980496
 20
99.40012007001136
 30
0.0
  0
VERTEX
  5
4C4
330
4AD
100
AcDbEntity
  8
LINEE VISIBILI 2D
100
AcDbVertex
100
AcDb2dVertex
 10
151.5173702445673
 20
99.40271740983853
 30
0.0
  0
VERTEX
  5
4C5
330
4AD
100
AcDbEntity
  8
LINEE VISIBILI 2D
100
AcDbVertex
100
AcDb2dVertex
 10
151.5180658059791
 20
99.40533418917807
 30
0.0
  0
VERTEX
  5
4C6
330
4AD
100
AcDbEntity
  8
LINEE VISIBILI 2D
100
AcDbVertex
100
AcDb2dVertex
 10
151.518639828314
 20
99.40796998607927
 30
0.0
  0
VERTEX
  5
4C7
330
4AD
100
AcDbEntity
  8
LINEE VISIBILI 2D
100
AcDbVertex
100
AcDb2dVertex
 10
151.5190909971376
 20
99.41062436410616
 30
0.0
  0
VERTEX
  5
4C8
330
4AD
100
AcDbEntity
  8
LINEE VISIBILI 2D
100
AcDbVertex
100
AcDb2dVertex
 10
151.5194180392294
 20
99.4132968724465
 30
0.0
  0
VERTEX
  5
4C9
330
4AD
100
AcDbEntity
  8
LINEE VISIBILI 2D
100
AcDbVertex
100
AcDb2dVertex
 10
151.5196197242428
 20
99.4159870460396
 30
0.0
  0
VERTEX
  5
4CA
330
4AD
100
AcDbEntity
  8
LINEE VISIBILI 2D
100
AcDbVertex
100
AcDb2dVertex
 10
151.5196948663455
 20
99.41869440572361
 30
0.0
  0
VERTEX
  5
4CB
330
4AD
100
AcDbEntity
  8
LINEE VISIBILI 2D
100
AcDbVertex
100
AcDb2dVertex
 10
151.5196423258376
 20
99.42141845840248
 30
0.0
  0
VERTEX
  5
4CC
330
4AD
100
AcDbEntity
  8
LINEE VISIBILI 2D
100
AcDbVertex
100
AcDb2dVertex
 10
151.5194610107429
 20
99.42415869723237
 30
0.0
  0
VERTEX
  5
4CD
330
4AD
100
AcDbEntity
  8
LINEE VISIBILI 2D
100
AcDbVertex
100
AcDb2dVertex
 10
151.5191498783717
 20
99.42691460182791
 30
0.0
  0
VERTEX
  5
4CE
330
4AD
100
AcDbEntity
  8
LINEE VISIBILI 2D
100
AcDbVertex
100
AcDb2dVertex
 10
151.5187079368509
 20
99.42968563848831
 30
0.0
  0
VERTEX
  5
4CF
330
4AD
100
AcDbEntity
  8
LINEE VISIBILI 2D
100
AcDbVertex
100
AcDb2dVertex
 10
151.5181342466183
 20
99.43247126044326
 30
0.0
  0
VERTEX
  5
4D0
330
4AD
100
AcDbEntity
  8
LINEE VISIBILI 2D
100
AcDbVertex
100
AcDb2dVertex
 10
151.5174279218783
 20
99.43527090811855
 30
0.0
  0
VERTEX
  5
4D1
330
4AD
100
AcDbEntity
  8
LINEE VISIBILI 2D
100
AcDbVertex
100
AcDb2dVertex
 10
151.5165881320157
 20
99.43808400942165
 30
0.0
  0
VERTEX
  5
4D2
330
4AD
100
AcDbEntity
  8
LINEE VISIBILI 2D
100
AcDbVertex
100
AcDb2dVertex
 10
151.5156141029634
 20
99.44090998004638
 30
0.0
  0
VERTEX
  5
4D3
330
4AD
100
AcDbEntity
  8
LINEE VISIBILI 2D
100
AcDbVertex
100
AcDb2dVertex
 10
151.5145051185227
 20
99.44374822379751
 30
0.0
  0
VERTEX
  5
4D4
330
4AD
100
AcDbEntity
  8
LINEE VISIBILI 2D
100
AcDbVertex
100
AcDb2dVertex
 10
151.5132605216318
 20
99.44659813293442
 30
0.0
  0
VERTEX
  5
4D5
330
4AD
100
AcDbEntity
  8
LINEE VISIBILI 2D
100
AcDbVertex
100
AcDb2dVertex
 10
151.5118797155799
 20
99.44945908853343
 30
0.0
  0
VERTEX
  5
4D6
330
4AD
100
AcDbEntity
  8
LINEE VISIBILI 2D
100
AcDbVertex
100
AcDb2dVertex
 10
151.5103621651633
 20
99.45233046086897
 30
0.0
  0
VERTEX
  5
4D7
330
4AD
100
AcDbEntity
  8
LINEE VISIBILI 2D
100
AcDbVertex
100
AcDb2dVertex
 10
151.5087073977823
 20
99.45521160981289
 30
0.0
  0
VERTEX
  5
4D8
330
4AD
100
AcDbEntity
  8
LINEE VISIBILI 2D
100
AcDbVertex
100
AcDb2dVertex
 10
151.506915004474
 20
99.45810188525182
 30
0.0
  0
VERTEX
  5
4D9
330
4AD
100
AcDbEntity
  8
LINEE VISIBILI 2D
100
AcDbVertex
100
AcDb2dVertex
 10
151.5049846408797
 20
99.46100062752153
 30
0.0
  0
VERTEX
  5
4DA
330
4AD
100
AcDbEntity
  8
LINEE VISIBILI 2D
100
AcDbVertex
100
AcDb2dVertex
 10
151.502916028144
 20
99.46390716785835
 30
0.0
  0
VERTEX
  5
4DB
330
4AD
100
AcDbEntity
  8
LINEE VISIBILI 2D
100
AcDbVertex
100
AcDb2dVertex
 10
151.5007089537428
 20
99.46682082886706
 30
0.0
  0
VERTEX
  5
4DC
330
4AD
100
AcDbEntity
  8
LINEE VISIBILI 2D
100
AcDbVertex
100
AcDb2dVertex
 10
151.4983632722385
 20
99.46974092500406
 30
0.0
  0
VERTEX
  5
4DD
330
4AD
100
AcDbEntity
  8
LINEE VISIBILI 2D
100
AcDbVertex
100
AcDb2dVertex
 10
151.4958789059593
 20
99.472666763076
 30
0.0
  0
VERTEX
  5
4DE
330
4AD
100
AcDbEntity
  8
LINEE VISIBILI 2D
100
AcDbVertex
100
AcDb2dVertex
 10
151.4932558456014
 20
99.47559764275261
 30
0.0
  0
VERTEX
  5
4DF
330
4AD
100
AcDbEntity
  8
LINEE VISIBILI 2D
100
AcDbVertex
100
AcDb2dVertex
 10
151.4904941507516
 20
99.47853285709307
 30
0.0
  0
VERTEX
  5
4E0
330
4AD
100
AcDbEntity
  8
LINEE VISIBILI 2D
100
AcDbVertex
100
AcDb2dVertex
 10
151.487593950329
 20
99.48147169308541
 30
0.0
  0
VERTEX
  5
4E1
330
4AD
100
AcDbEntity
  8
LINEE VISIBILI 2D
100
AcDbVertex
100
AcDb2dVertex
 10
151.4845554429439
 20
99.48441343219784
 30
0.0
  0
VERTEX
  5
4E2
330
4AD
100
AcDbEntity
  8
LINEE VISIBILI 2D
100
AcDbVertex
100
AcDb2dVertex
 10
151.4813788971723
 20
99.48735735094139
 30
0.0
  0
VERTEX
  5
4E3
330
4AD
100
AcDbEntity
  8
LINEE VISIBILI 2D
100
AcDbVertex
100
AcDb2dVertex
 10
151.478064651746
 20
99.4903027214427
 30
0.0
  0
VERTEX
  5
4E4
330
4AD
100
AcDbEntity
  8
LINEE VISIBILI 2D
100
AcDbVertex
100
AcDb2dVertex
 10
151.4746131156548
 20
99.49324881202635
 30
0.0
  0
VERTEX
  5
4E5
330
4AD
100
AcDbEntity
  8
LINEE VISIBILI 2D
100
AcDbVertex
100
AcDb2dVertex
 10
151.4710247681631
 20
99.4961948878057
 30
0.0
  0
VERTEX
  5
4E6
330
4AD
100
AcDbEntity
  8
LINEE VISIBILI 2D
100
AcDbVertex
100
AcDb2dVertex
 10
151.4673001587374
 20
99.49914021128074
 30
0.0
  0
VERTEX
  5
4E7
330
4AD
100
AcDbEntity
  8
LINEE VISIBILI 2D
100
AcDbVertex
100
AcDb2dVertex
 10
151.4634399068865
 20
99.50208404294331
 30
0.0
  0
VERTEX
  5
4E8
330
4AD
100
AcDbEntity
  8
LINEE VISIBILI 2D
100
AcDbVertex
100
AcDb2dVertex
 10
151.4553153025713
 20
99.5079642664206
 30
0.0
  0
VERTEX
  5
4E9
330
4AD
100
AcDbEntity
  8
LINEE VISIBILI 2D
100
AcDbVertex
100
AcDb2dVertex
 10
151.4466573004562
 20
99.5138296252891
 30
0.0
  0
VERTEX
  5
4EA
330
4AD
100
AcDbEntity
  8
LINEE VISIBILI 2D
100
AcDbVertex
100
AcDb2dVertex
 10
151.4374733413339
 20
99.51967419387878
 30
0.0
  0
VERTEX
  5
4EB
330
4AD
100
AcDbEntity
  8
LINEE VISIBILI 2D
100
AcDbVertex
100
AcDb2dVertex
 10
151.4277719409341
 20
99.52549207366663
 30
0.0
  0
VERTEX
  5
4EC
330
4AD
100
AcDbEntity
  8
LINEE VISIBILI 2D
100
AcDbVertex
100
AcDb2dVertex
 10
151.4175626638319
 20
99.53127741308193
 30
0.0
  0
VERTEX
  5
4ED
330
4AD
100
AcDbEntity
  8
LINEE VISIBILI 2D
100
AcDbVertex
100
AcDb2dVertex
 10
151.4068560920499
 20
99.53702442711007
 30
0.0
  0
VERTEX
  5
4EE
330
4AD
100
AcDbEntity
  8
LINEE VISIBILI 2D
100
AcDbVertex
100
AcDb2dVertex
 10
151.3956637885681
 20
99.54272741655579
 30
0.0
  0
VERTEX
  5
4EF
330
4AD
100
AcDbEntity
  8
LINEE VISIBILI 2D
100
AcDbVertex
100
AcDb2dVertex
 10
151.3839982560062
 20
99.54838078683252
 30
0.0
  0
VERTEX
  5
4F0
330
4AD
100
AcDbEntity
  8
LINEE VISIBILI 2D
100
AcDbVertex
100
AcDb2dVertex
 10
151.3718728907865
 20
99.55397906614718
 30
0.0
  0
VERTEX
  5
4F1
330
4AD
100
AcDbEntity
  8
LINEE VISIBILI 2D
100
AcDbVertex
100
AcDb2dVertex
 10
151.3593019331247
 20
99.55951692295776
 30
0.0
  0
VERTEX
  5
4F2
330
4AD
100
AcDbEntity
  8
LINEE VISIBILI 2D
100
AcDbVertex
100
AcDb2dVertex
 10
151.3328840941541
 20
99.57039084289233
 30
0.0
  0
VERTEX
  5
4F3
330
4AD
100
AcDbEntity
  8
LINEE VISIBILI 2D
100
AcDbVertex
100
AcDb2dVertex
 10
151.3048734116555
 20
99.58096330618245
 30
0.0
  0
VERTEX
  5
4F4
330
4AD
100
AcDbEntity
  8
LINEE VISIBILI 2D
100
AcDbVertex
100
AcDb2dVertex
 10
151.2754083046905
 20
99.59119827298851
 30
0.0
  0
VERTEX
  5
4F5
330
4AD
100
AcDbEntity
  8
LINEE VISIBILI 2D
100
AcDbVertex
100
AcDb2dVertex
 10
151.2446348560779
 20
99.60106327612786
 30
0.0
  0
VERTEX
  5
4F6
330
4AD
100
AcDbEntity
  8
LINEE VISIBILI 2D
100
AcDbVertex
100
AcDb2dVertex
 10
151.2127046635852
 20
99.61052970980466
 30
0.0
  0
VERTEX
  5
4F7
330
4AD
100
AcDbEntity
  8
LINEE VISIBILI 2D
100
AcDbVertex
100
AcDb2dVertex
 10
151.1797726855989
 20
99.61957303146053
 30
0.0
  0
VERTEX
  5
4F8
330
4AD
100
AcDbEntity
  8
LINEE VISIBILI 2D
100
AcDbVertex
100
AcDb2dVertex
 10
151.1459951383265
 20
99.62817287644805
 30
0.0
  0
VERTEX
  5
4F9
330
4AD
100
AcDbEntity
  8
LINEE VISIBILI 2D
100
AcDbVertex
100
AcDb2dVertex
 10
151.0765226363302
 20
99.64398166979671
 30
0.0
  0
VERTEX
  5
4FA
330
4AD
100
AcDbEntity
  8
LINEE VISIBILI 2D
100
AcDbVertex
100
AcDb2dVertex
 10
151.0054899765061
 20
99.65787596685125
 30
0.0
  0
VERTEX
  5
4FB
330
4AD
100
AcDbEntity
  8
LINEE VISIBILI 2D
100
AcDbVertex
100
AcDb2dVertex
 10
150.9340100333329
 20
99.66983693838674
 30
0.0
  0
SEQEND
  5
4AE
330
4AD
100
AcDbEntity
  8
LINEE VISIBILI 2D
  0
POLYLINE
  5
4FC
330
1F
100
AcDbEntity
  8
LINEE VISIBILI 2D
100
AcDb2dPolyline
 66
     1
 10
0.0
 20
0.0
 30
0.0
  0
VERTEX
  5
4FE
330
4FC
100
AcDbEntity
  8
LINEE VISIBILI 2D
100
AcDbVertex
100
AcDb2dVertex
 10
102.1743928784858
 20
106.9698856184407
 30
0.0
  0
VERTEX
  5
4FF
330
4FC
100
AcDbEntity
  8
LINEE VISIBILI 2D
100
AcDbVertex
100
AcDb2dVertex
 10
102.2409013432103
 20
107.0048709071335
 30
0.0
  0
VERTEX
  5
500
330
4FC
100
AcDbEntity
  8
LINEE VISIBILI 2D
100
AcDbVertex
100
AcDb2dVertex
 10
102.3046437740938
 20
107.0406358154643
 30
0.0
  0
VERTEX
  5
501
330
4FC
100
AcDbEntity
  8
LINEE VISIBILI 2D
100
AcDbVertex
100
AcDb2dVertex
 10
102.3654923617051
 20
107.0771687812097
 30
0.0
  0
VERTEX
  5
502
330
4FC
100
AcDbEntity
  8
LINEE VISIBILI 2D
100
AcDbVertex
100
AcDb2dVertex
 10
102.4233201080958
 20
107.1144564766974
 30
0.0
  0
VERTEX
  5
503
330
4FC
100
AcDbEntity
  8
LINEE VISIBILI 2D
100
AcDbVertex
100
AcDb2dVertex
 10
102.4510618027055
 20
107.1333786918377
 30
0.0
  0
VERTEX
  5
504
330
4FC
100
AcDbEntity
  8
LINEE VISIBILI 2D
100
AcDbVertex
100
AcDb2dVertex
 10
102.4780012419325
 20
107.1524837743072
 30
0.0
  0
VERTEX
  5
505
330
4FC
100
AcDbEntity
  8
LINEE VISIBILI 2D
100
AcDbVertex
100
AcDb2dVertex
 10
102.5041229666314
 20
107.171769547305
 30
0.0
  0
VERTEX
  5
506
330
4FC
100
AcDbEntity
  8
LINEE VISIBILI 2D
100
AcDbVertex
100
AcDb2dVertex
 10
102.5294116488635
 20
107.1912337184026
 30
0.0
  0
VERTEX
  5
507
330
4FC
100
AcDbEntity
  8
LINEE VISIBILI 2D
100
AcDbVertex
100
AcDb2dVertex
 10
102.5538521060451
 20
107.2108738790568
 30
0.0
  0
VERTEX
  5
508
330
4FC
100
AcDbEntity
  8
LINEE VISIBILI 2D
100
AcDbVertex
100
AcDb2dVertex
 10
102.5774293152541
 20
107.2306875042447
 30
0.0
  0
VERTEX
  5
509
330
4FC
100
AcDbEntity
  8
LINEE VISIBILI 2D
100
AcDbVertex
100
AcDb2dVertex
 10
102.6001284276777
 20
107.2506719522229
 30
0.0
  0
VERTEX
  5
50A
330
4FC
100
AcDbEntity
  8
LINEE VISIBILI 2D
100
AcDbVertex
100
AcDb2dVertex
 10
102.6219347831794
 20
107.2708244644162
 30
0.0
  0
VERTEX
  5
50B
330
4FC
100
AcDbEntity
  8
LINEE VISIBILI 2D
100
AcDbVertex
100
AcDb2dVertex
 10
102.6428339249668
 20
107.2911421654386
 30
0.0
  0
VERTEX
  5
50C
330
4FC
100
AcDbEntity
  8
LINEE VISIBILI 2D
100
AcDbVertex
100
AcDb2dVertex
 10
102.6628116143382
 20
107.3116220632497
 30
0.0
  0
VERTEX
  5
50D
330
4FC
100
AcDbEntity
  8
LINEE VISIBILI 2D
100
AcDbVertex
100
AcDb2dVertex
 10
102.6818538454852
 20
107.33226104945
 30
0.0
  0
VERTEX
  5
50E
330
4FC
100
AcDbEntity
  8
LINEE VISIBILI 2D
100
AcDbVertex
100
AcDb2dVertex
 10
102.6999468603301
 20
107.3530558997179
 30
0.0
  0
VERTEX
  5
50F
330
4FC
100
AcDbEntity
  8
LINEE VISIBILI 2D
100
AcDbVertex
100
AcDb2dVertex
 10
102.7170771633734
 20
107.3740032743913
 30
0.0
  0
VERTEX
  5
510
330
4FC
100
AcDbEntity
  8
LINEE VISIBILI 2D
100
AcDbVertex
100
AcDb2dVertex
 10
102.7332315365278
 20
107.3950997191953
 30
0.0
  0
VERTEX
  5
511
330
4FC
100
AcDbEntity
  8
LINEE VISIBILI 2D
100
AcDbVertex
100
AcDb2dVertex
 10
102.7483970539137
 20
107.4163416661191
 30
0.0
  0
VERTEX
  5
512
330
4FC
100
AcDbEntity
  8
LINEE VISIBILI 2D
100
AcDbVertex
100
AcDb2dVertex
 10
102.7625610965917
 20
107.4377254344446
 30
0.0
  0
VERTEX
  5
513
330
4FC
100
AcDbEntity
  8
LINEE VISIBILI 2D
100
AcDbVertex
100
AcDb2dVertex
 10
102.7757113672044
 20
107.4592472319253
 30
0.0
  0
VERTEX
  5
514
330
4FC
100
AcDbEntity
  8
LINEE VISIBILI 2D
100
AcDbVertex
100
AcDb2dVertex
 10
102.7878359045041
 20
107.4809031561216
 30
0.0
  0
VERTEX
  5
515
330
4FC
100
AcDbEntity
  8
LINEE VISIBILI 2D
100
AcDbVertex
100
AcDb2dVertex
 10
102.7989230977367
 20
107.5026891958886
 30
0.0
  0
VERTEX
  5
516
330
4FC
100
AcDbEntity
  8
LINEE VISIBILI 2D
100
AcDbVertex
100
AcDb2dVertex
 10
102.8089617008578
 20
107.5246012330206
 30
0.0
  0
VERTEX
  5
517
330
4FC
100
AcDbEntity
  8
LINEE VISIBILI 2D
100
AcDbVertex
100
AcDb2dVertex
 10
102.8179408465511
 20
107.5466350440506
 30
0.0
  0
VERTEX
  5
518
330
4FC
100
AcDbEntity
  8
LINEE VISIBILI 2D
100
AcDbVertex
100
AcDb2dVertex
 10
102.8258500600243
 20
107.5687863022064
 30
0.0
  0
VERTEX
  5
519
330
4FC
100
AcDbEntity
  8
LINEE VISIBILI 2D
100
AcDbVertex
100
AcDb2dVertex
 10
102.8326792725526
 20
107.5910505795211
 30
0.0
  0
VERTEX
  5
51A
330
4FC
100
AcDbEntity
  8
LINEE VISIBILI 2D
100
AcDbVertex
100
AcDb2dVertex
 10
102.8384188347443
 20
107.6134233490995
 30
0.0
  0
VERTEX
  5
51B
330
4FC
100
AcDbEntity
  8
LINEE VISIBILI 2D
100
AcDbVertex
100
AcDb2dVertex
 10
102.8430595295005
 20
107.6358999875368
 30
0.0
  0
VERTEX
  5
51C
330
4FC
100
AcDbEntity
  8
LINEE VISIBILI 2D
100
AcDbVertex
100
AcDb2dVertex
 10
102.8465925846406
 20
107.6584757774908
 30
0.0
  0
VERTEX
  5
51D
330
4FC
100
AcDbEntity
  8
LINEE VISIBILI 2D
100
AcDbVertex
100
AcDb2dVertex
 10
102.8490096851684
 20
107.6811459104041
 30
0.0
  0
VERTEX
  5
51E
330
4FC
100
AcDbEntity
  8
LINEE VISIBILI 2D
100
AcDbVertex
100
AcDb2dVertex
 10
102.8503029851499
 20
107.7039054893739
 30
0.0
  0
VERTEX
  5
51F
330
4FC
100
AcDbEntity
  8
LINEE VISIBILI 2D
100
AcDbVertex
100
AcDb2dVertex
 10
102.850465119179
 20
107.7267495321685
 30
0.0
  0
VERTEX
  5
520
330
4FC
100
AcDbEntity
  8
LINEE VISIBILI 2D
100
AcDbVertex
100
AcDb2dVertex
 10
102.8494892134026
 20
107.7496729743862
 30
0.0
  0
VERTEX
  5
521
330
4FC
100
AcDbEntity
  8
LINEE VISIBILI 2D
100
AcDbVertex
100
AcDb2dVertex
 10
102.8473688960815
 20
107.772670672753
 30
0.0
  0
VERTEX
  5
522
330
4FC
100
AcDbEntity
  8
LINEE VISIBILI 2D
100
AcDbVertex
100
AcDb2dVertex
 10
102.8440983076619
 20
107.7957374085577
 30
0.0
  0
VERTEX
  5
523
330
4FC
100
AcDbEntity
  8
LINEE VISIBILI 2D
100
AcDbVertex
100
AcDb2dVertex
 10
102.8396721103335
 20
107.8188678912165
 30
0.0
  0
VERTEX
  5
524
330
4FC
100
AcDbEntity
  8
LINEE VISIBILI 2D
100
AcDbVertex
100
AcDb2dVertex
 10
102.834085497051
 20
107.8420567619671
 30
0.0
  0
VERTEX
  5
525
330
4FC
100
AcDbEntity
  8
LINEE VISIBILI 2D
100
AcDbVertex
100
AcDb2dVertex
 10
102.8273341999971
 20
107.8652985976839
 30
0.0
  0
VERTEX
  5
526
330
4FC
100
AcDbEntity
  8
LINEE VISIBILI 2D
100
AcDbVertex
100
AcDb2dVertex
 10
102.8194144984653
 20
107.888587914811
 30
0.0
  0
VERTEX
  5
527
330
4FC
100
AcDbEntity
  8
LINEE VISIBILI 2D
100
AcDbVertex
100
AcDb2dVertex
 10
102.8103232261423
 20
107.9119191734075
 30
0.0
  0
VERTEX
  5
528
330
4FC
100
AcDbEntity
  8
LINEE VISIBILI 2D
100
AcDbVertex
100
AcDb2dVertex
 10
102.8000577777717
 20
107.9352867812986
 30
0.0
  0
VERTEX
  5
529
330
4FC
100
AcDbEntity
  8
LINEE VISIBILI 2D
100
AcDbVertex
100
AcDb2dVertex
 10
102.7886161151797
 20
107.9586850983269
 30
0.0
  0
VERTEX
  5
52A
330
4FC
100
AcDbEntity
  8
LINEE VISIBILI 2D
100
AcDbVertex
100
AcDb2dVertex
 10
102.7759967726477
 20
107.9821084406973
 30
0.0
  0
VERTEX
  5
52B
330
4FC
100
AcDbEntity
  8
LINEE VISIBILI 2D
100
AcDbVertex
100
AcDb2dVertex
 10
102.7621988616153
 20
108.0055510854091
 30
0.0
  0
VERTEX
  5
52C
330
4FC
100
AcDbEntity
  8
LINEE VISIBILI 2D
100
AcDbVertex
100
AcDb2dVertex
 10
102.7472220747003
 20
108.0290072747679
 30
0.0
  0
VERTEX
  5
52D
330
4FC
100
AcDbEntity
  8
LINEE VISIBILI 2D
100
AcDbVertex
100
AcDb2dVertex
 10
102.7310666890238
 20
108.0524712209701
 30
0.0
  0
VERTEX
  5
52E
330
4FC
100
AcDbEntity
  8
LINEE VISIBILI 2D
100
AcDbVertex
100
AcDb2dVertex
 10
102.7137335688278
 20
108.0759371107538
 30
0.0
  0
VERTEX
  5
52F
330
4FC
100
AcDbEntity
  8
LINEE VISIBILI 2D
100
AcDbVertex
100
AcDb2dVertex
 10
102.6952241673787
 20
108.0993991101058
 30
0.0
  0
VERTEX
  5
530
330
4FC
100
AcDbEntity
  8
LINEE VISIBILI 2D
100
AcDbVertex
100
AcDb2dVertex
 10
102.6755405281454
 20
108.1228513690202
 30
0.0
  0
VERTEX
  5
531
330
4FC
100
AcDbEntity
  8
LINEE VISIBILI 2D
100
AcDbVertex
100
AcDb2dVertex
 10
102.6546852852493
 20
108.1462880262975
 30
0.0
  0
VERTEX
  5
532
330
4FC
100
AcDbEntity
  8
LINEE VISIBILI 2D
100
AcDbVertex
100
AcDb2dVertex
 10
102.6326616631789
 20
108.169703214378
 30
0.0
  0
VERTEX
  5
533
330
4FC
100
AcDbEntity
  8
LINEE VISIBILI 2D
100
AcDbVertex
100
AcDb2dVertex
 10
102.6094734757679
 20
108.1930910642009
 30
0.0
  0
VERTEX
  5
534
330
4FC
100
AcDbEntity
  8
LINEE VISIBILI 2D
100
AcDbVertex
100
AcDb2dVertex
 10
102.5851251244355
 20
108.2164457100798
 30
0.0
  0
VERTEX
  5
535
330
4FC
100
AcDbEntity
  8
LINEE VISIBILI 2D
100
AcDbVertex
100
AcDb2dVertex
 10
102.5596215956882
 20
108.2397612945874
 30
0.0
  0
VERTEX
  5
536
330
4FC
100
AcDbEntity
  8
LINEE VISIBILI 2D
100
AcDbVertex
100
AcDb2dVertex
 10
102.5329684578873
 20
108.2630319734395
 30
0.0
  0
VERTEX
  5
537
330
4FC
100
AcDbEntity
  8
LINEE VISIBILI 2D
100
AcDbVertex
100
AcDb2dVertex
 10
102.505171857285
 20
108.2862519203715
 30
0.0
  0
VERTEX
  5
538
330
4FC
100
AcDbEntity
  8
LINEE VISIBILI 2D
100
AcDbVertex
100
AcDb2dVertex
 10
102.4762385133342
 20
108.3094153319971
 30
0.0
  0
VERTEX
  5
539
330
4FC
100
AcDbEntity
  8
LINEE VISIBILI 2D
100
AcDbVertex
100
AcDb2dVertex
 10
102.446175713282
 20
108.332516432642
 30
0.0
  0
VERTEX
  5
53A
330
4FC
100
AcDbEntity
  8
LINEE VISIBILI 2D
100
AcDbVertex
100
AcDb2dVertex
 10
102.4149913060525
 20
108.3555494791437
 30
0.0
  0
VERTEX
  5
53B
330
4FC
100
AcDbEntity
  8
LINEE VISIBILI 2D
100
AcDbVertex
100
AcDb2dVertex
 10
102.3492918325729
 20
108.4013886281171
 30
0.0
  0
VERTEX
  5
53C
330
4FC
100
AcDbEntity
  8
LINEE VISIBILI 2D
100
AcDbVertex
100
AcDb2dVertex
 10
102.2792138418588
 20
108.4468876632943
 30
0.0
  0
VERTEX
  5
53D
330
4FC
100
AcDbEntity
  8
LINEE VISIBILI 2D
100
AcDbVertex
100
AcDb2dVertex
 10
102.2048395635684
 20
108.4920022877325
 30
0.0
  0
VERTEX
  5
53E
330
4FC
100
AcDbEntity
  8
LINEE VISIBILI 2D
100
AcDbVertex
100
AcDb2dVertex
 10
102.1262593954758
 20
108.5366891659494
 30
0.0
  0
VERTEX
  5
53F
330
4FC
100
AcDbEntity
  8
LINEE VISIBILI 2D
100
AcDbVertex
100
AcDb2dVertex
 10
102.0435715524922
 20
108.5809060609824
 30
0.0
  0
VERTEX
  5
540
330
4FC
100
AcDbEntity
  8
LINEE VISIBILI 2D
100
AcDbVertex
100
AcDb2dVertex
 10
101.9568816800606
 20
108.6246119648306
 30
0.0
  0
VERTEX
  5
541
330
4FC
100
AcDbEntity
  8
LINEE VISIBILI 2D
100
AcDbVertex
100
AcDb2dVertex
 10
101.8663024349928
 20
108.6677672214516
 30
0.0
  0
VERTEX
  5
542
330
4FC
100
AcDbEntity
  8
LINEE VISIBILI 2D
100
AcDbVertex
100
AcDb2dVertex
 10
101.7719530370743
 20
108.7103336415662
 30
0.0
  0
VERTEX
  5
543
330
4FC
100
AcDbEntity
  8
LINEE VISIBILI 2D
100
AcDbVertex
100
AcDb2dVertex
 10
101.6739587949738
 20
108.7522746086134
 30
0.0
  0
VERTEX
  5
544
330
4FC
100
AcDbEntity
  8
LINEE VISIBILI 2D
100
AcDbVertex
100
AcDb2dVertex
 10
101.5724506101623
 20
108.793555175288
 30
0.0
  0
VERTEX
  5
545
330
4FC
100
AcDbEntity
  8
LINEE VISIBILI 2D
100
AcDbVertex
100
AcDb2dVertex
 10
101.3594408825264
 20
108.8740041742481
 30
0.0
  0
VERTEX
  5
546
330
4FC
100
AcDbEntity
  8
LINEE VISIBILI 2D
100
AcDbVertex
100
AcDb2dVertex
 10
101.1340630549691
 20
108.9514374796386
 30
0.0
  0
VERTEX
  5
547
330
4FC
100
AcDbEntity
  8
LINEE VISIBILI 2D
100
AcDbVertex
100
AcDb2dVertex
 10
100.8975117602615
 20
109.0256431012038
 30
0.0
  0
VERTEX
  5
548
330
4FC
100
AcDbEntity
  8
LINEE VISIBILI 2D
100
AcDbVertex
100
AcDb2dVertex
 10
100.6510196045221
 20
109.0964414699665
 30
0.0
  0
VERTEX
  5
549
330
4FC
100
AcDbEntity
  8
LINEE VISIBILI 2D
100
AcDbVertex
100
AcDb2dVertex
 10
100.3958399998266
 20
109.163686018017
 30
0.0
  0
VERTEX
  5
54A
330
4FC
100
AcDbEntity
  8
LINEE VISIBILI 2D
100
AcDbVertex
100
AcDb2dVertex
 10
100.1332307075019
 20
109.227263117547
 30
0.0
  0
VERTEX
  5
54B
330
4FC
100
AcDbEntity
  8
LINEE VISIBILI 2D
100
AcDbVertex
100
AcDb2dVertex
 10
99.86443845260041
 20
109.2870914301949
 30
0.0
  0
VERTEX
  5
54C
330
4FC
100
AcDbEntity
  8
LINEE VISIBILI 2D
100
AcDbVertex
100
AcDb2dVertex
 10
99.31315422117021
 20
109.395330294744
 30
0.0
  0
VERTEX
  5
54D
330
4FC
100
AcDbEntity
  8
LINEE VISIBILI 2D
100
AcDbVertex
100
AcDb2dVertex
 10
98.75124815525236
 20
109.4883425447886
 30
0.0
  0
VERTEX
  5
54E
330
4FC
100
AcDbEntity
  8
LINEE VISIBILI 2D
100
AcDbVertex
100
AcDb2dVertex
 10
98.16569792842967
 20
109.5691539242373
 30
0.0
  0
VERTEX
  5
54F
330
4FC
100
AcDbEntity
  8
LINEE VISIBILI 2D
100
AcDbVertex
100
AcDb2dVertex
 10
97.54043120412347
 20
109.6392332519765
 30
0.0
  0
VERTEX
  5
550
330
4FC
100
AcDbEntity
  8
LINEE VISIBILI 2D
100
AcDbVertex
100
AcDb2dVertex
 10
96.88074912038786
 20
109.6965334280241
 30
0.0
  0
VERTEX
  5
551
330
4FC
100
AcDbEntity
  8
LINEE VISIBILI 2D
100
AcDbVertex
100
AcDb2dVertex
 10
96.19361661332124
 20
109.7391410347634
 30
0.0
  0
VERTEX
  5
552
330
4FC
100
AcDbEntity
  8
LINEE VISIBILI 2D
100
AcDbVertex
100
AcDb2dVertex
 10
95.48754480726575
 20
109.7653918228771
 30
0.0
  0
VERTEX
  5
553
330
4FC
100
AcDbEntity
  8
LINEE VISIBILI 2D
100
AcDbVertex
100
AcDb2dVertex
 10
94.77233636684358
 20
109.7739850622708
 30
0.0
  0
VERTEX
  5
554
330
4FC
100
AcDbEntity
  8
LINEE VISIBILI 2D
100
AcDbVertex
100
AcDb2dVertex
 10
94.0586987646059
 20
109.7640841793061
 30
0.0
  0
VERTEX
  5
555
330
4FC
100
AcDbEntity
  8
LINEE VISIBILI 2D
100
AcDbVertex
100
AcDb2dVertex
 10
93.35775039400841
 20
109.7353909672636
 30
0.0
  0
VERTEX
  5
556
330
4FC
100
AcDbEntity
  8
LINEE VISIBILI 2D
100
AcDbVertex
100
AcDb2dVertex
 10
92.68046311684566
 20
109.6881828636277
 30
0.0
  0
VERTEX
  5
557
330
4FC
100
AcDbEntity
  8
LINEE VISIBILI 2D
100
AcDbVertex
100
AcDb2dVertex
 10
92.03709766535865
 20
109.6233071954001
 30
0.0
  0
VERTEX
  5
558
330
4FC
100
AcDbEntity
  8
LINEE VISIBILI 2D
100
AcDbVertex
100
AcDb2dVertex
 10
91.73101971468177
 20
109.5846533838521
 30
0.0
  0
VERTEX
  5
559
330
4FC
100
AcDbEntity
  8
LINEE VISIBILI 2D
100
AcDbVertex
100
AcDb2dVertex
 10
91.43669178645543
 20
109.5421321290489
 30
0.0
  0
VERTEX
  5
55A
330
4FC
100
AcDbEntity
  8
LINEE VISIBILI 2D
100
AcDbVertex
100
AcDb2dVertex
 10
91.15498574710825
 20
109.4959815928324
 30
0.0
  0
VERTEX
  5
55B
330
4FC
100
AcDbEntity
  8
LINEE VISIBILI 2D
100
AcDbVertex
100
AcDb2dVertex
 10
90.88665384185299
 20
109.4464600942964
 30
0.0
  0
VERTEX
  5
55C
330
4FC
100
AcDbEntity
  8
LINEE VISIBILI 2D
100
AcDbVertex
100
AcDb2dVertex
 10
90.63232410987877
 20
109.3938421403759
 30
0.0
  0
VERTEX
  5
55D
330
4FC
100
AcDbEntity
  8
LINEE VISIBILI 2D
100
AcDbVertex
100
AcDb2dVertex
 10
90.39249829717094
 20
109.338414359505
 30
0.0
  0
VERTEX
  5
55E
330
4FC
100
AcDbEntity
  8
LINEE VISIBILI 2D
100
AcDbVertex
100
AcDb2dVertex
 10
90.16755216511327
 20
109.2804714470036
 30
0.0
  0
VERTEX
  5
55F
330
4FC
100
AcDbEntity
  8
LINEE VISIBILI 2D
100
AcDbVertex
100
AcDb2dVertex
 10
89.95773802105267
 20
109.2203122223713
 30
0.0
  0
VERTEX
  5
560
330
4FC
100
AcDbEntity
  8
LINEE VISIBILI 2D
100
AcDbVertex
100
AcDb2dVertex
 10
89.76318923866861
 20
109.15823588671
 30
0.0
  0
VERTEX
  5
561
330
4FC
100
AcDbEntity
  8
LINEE VISIBILI 2D
100
AcDbVertex
100
AcDb2dVertex
 10
89.58392649292413
 20
109.0945385540412
 30
0.0
  0
VERTEX
  5
562
330
4FC
100
AcDbEntity
  8
LINEE VISIBILI 2D
100
AcDbVertex
100
AcDb2dVertex
 10
89.5000048866489
 20
109.0621729258343
 30
0.0
  0
VERTEX
  5
563
330
4FC
100
AcDbEntity
  8
LINEE VISIBILI 2D
100
AcDbVertex
100
AcDb2dVertex
 10
89.41986540707265
 20
109.0295101143561
 30
0.0
  0
VERTEX
  5
564
330
4FC
100
AcDbEntity
  8
LINEE VISIBILI 2D
100
AcDbVertex
100
AcDb2dVertex
 10
89.34348252831965
 20
108.9965849298537
 30
0.0
  0
VERTEX
  5
565
330
4FC
100
AcDbEntity
  8
LINEE VISIBILI 2D
100
AcDbVertex
100
AcDb2dVertex
 10
89.27082529711434
 20
108.9634314697858
 30
0.0
  0
SEQEND
  5
4FD
330
4FC
100
AcDbEntity
  8
LINEE VISIBILI 2D
  0
LINE
  5
566
330
1F
100
AcDbEntity
  8
LINEE VISIBILI 2D
100
AcDbLine
 10
100.7142258196667
 20
105.5680568893739
 30
0.0
 11
100.3976544519692
 21
105.3592477005008
 31
0.0
  0
POLYLINE
  5
567
330
1F
100
AcDbEntity
  8
LINEE VISIBILI 2D
100
AcDb2dPolyline
 66
     1
 10
0.0
 20
0.0
 30
0.0
  0
VERTEX
  5
569
330
567
100
AcDbEntity
  8
LINEE VISIBILI 2D
100
AcDbVertex
100
AcDb2dVertex
 10
89.27082529711434
 20
108.9634314697858
 30
0.0
  0
VERTEX
  5
56A
330
567
100
AcDbEntity
  8
LINEE VISIBILI 2D
100
AcDbVertex
100
AcDb2dVertex
 10
89.20123763260297
 20
108.9297741930599
 30
0.0
  0
VERTEX
  5
56B
330
567
100
AcDbEntity
  8
LINEE VISIBILI 2D
100
AcDbVertex
100
AcDb2dVertex
 10
89.13417266636999
 20
108.8953196776864
 30
0.0
  0
VERTEX
  5
56C
330
567
100
AcDbEntity
  8
LINEE VISIBILI 2D
100
AcDbVertex
100
AcDb2dVertex
 10
89.06975966476112
 20
108.8600758616127
 30
0.0
  0
VERTEX
  5
56D
330
567
100
AcDbEntity
  8
LINEE VISIBILI 2D
100
AcDbVertex
100
AcDb2dVertex
 10
89.00812798367043
 20
108.824052372561
 30
0.0
  0
VERTEX
  5
56E
330
567
100
AcDbEntity
  8
LINEE VISIBILI 2D
100
AcDbVertex
100
AcDb2dVertex
 10
88.94940668801011
 20
108.7872605769308
 30
0.0
  0
VERTEX
  5
56F
330
567
100
AcDbEntity
  8
LINEE VISIBILI 2D
100
AcDbVertex
100
AcDb2dVertex
 10
88.92117758987613
 20
108.7685806024509
 30
0.0
  0
VERTEX
  5
570
330
567
100
AcDbEntity
  8
LINEE VISIBILI 2D
100
AcDbVertex
100
AcDb2dVertex
 10
88.89372415170468
 20
108.7497136235524
 30
0.0
  0
VERTEX
  5
571
330
567
100
AcDbEntity
  8
LINEE VISIBILI 2D
100
AcDbVertex
100
AcDb2dVertex
 10
88.86706224365815
 20
108.7306615685802
 30
0.0
  0
VERTEX
  5
572
330
567
100
AcDbEntity
  8
LINEE VISIBILI 2D
100
AcDbVertex
100
AcDb2dVertex
 10
88.8412076395187
 20
108.7114264816889
 30
0.0
  0
VERTEX
  5
573
330
567
100
AcDbEntity
  8
LINEE VISIBILI 2D
100
AcDbVertex
100
AcDb2dVertex
 10
88.81617600273857
 20
108.6920105236738
 30
0.0
  0
VERTEX
  5
574
330
567
100
AcDbEntity
  8
LINEE VISIBILI 2D
100
AcDbVertex
100
AcDb2dVertex
 10
88.79198287227463
 20
108.6724159726891
 30
0.0
  0
VERTEX
  5
575
330
567
100
AcDbEntity
  8
LINEE VISIBILI 2D
100
AcDbVertex
100
AcDb2dVertex
 10
88.76864364822262
 20
108.6526452248492
 30
0.0
  0
VERTEX
  5
576
330
567
100
AcDbEntity
  8
LINEE VISIBILI 2D
100
AcDbVertex
100
AcDb2dVertex
 10
88.74617357726945
 20
108.6327007947077
 30
0.0
  0
VERTEX
  5
577
330
567
100
AcDbEntity
  8
LINEE VISIBILI 2D
100
AcDbVertex
100
AcDb2dVertex
 10
88.72458773798159
 20
108.6125853156123
 30
0.0
  0
VERTEX
  5
578
330
567
100
AcDbEntity
  8
LINEE VISIBILI 2D
100
AcDbVertex
100
AcDb2dVertex
 10
88.70390102594914
 20
108.5923015399284
 30
0.0
  0
VERTEX
  5
579
330
567
100
AcDbEntity
  8
LINEE VISIBILI 2D
100
AcDbVertex
100
AcDb2dVertex
 10
88.68412813880576
 20
108.5718523391302
 30
0.0
  0
VERTEX
  5
57A
330
567
100
AcDbEntity
  8
LINEE VISIBILI 2D
100
AcDbVertex
100
AcDb2dVertex
 10
88.66528356114624
 20
108.5512407037553
 30
0.0
  0
VERTEX
  5
57B
330
567
100
AcDbEntity
  8
LINEE VISIBILI 2D
100
AcDbVertex
100
AcDb2dVertex
 10
88.64738154936281
 20
108.5304697432168
 30
0.0
  0
VERTEX
  5
57C
330
567
100
AcDbEntity
  8
LINEE VISIBILI 2D
100
AcDbVertex
100
AcDb2dVertex
 10
88.63043611642426
 20
108.5095426854739
 30
0.0
  0
VERTEX
  5
57D
330
567
100
AcDbEntity
  8
LINEE VISIBILI 2D
100
AcDbVertex
100
AcDb2dVertex
 10
88.61446101662068
 20
108.4884628765541
 30
0.0
  0
VERTEX
  5
57E
330
567
100
AcDbEntity
  8
LINEE VISIBILI 2D
100
AcDbVertex
100
AcDb2dVertex
 10
88.59946973029865
 20
108.4672337799263
 30
0.0
  0
VERTEX
  5
57F
330
567
100
AcDbEntity
  8
LINEE VISIBILI 2D
100
AcDbVertex
100
AcDb2dVertex
 10
88.58547544861206
 20
108.445858975722
 30
0.0
  0
VERTEX
  5
580
330
567
100
AcDbEntity
  8
LINEE VISIBILI 2D
100
AcDbVertex
100
AcDb2dVertex
 10
88.57249105831419
 20
108.4243421598013
 30
0.0
  0
VERTEX
  5
581
330
567
100
AcDbEntity
  8
LINEE VISIBILI 2D
100
AcDbVertex
100
AcDb2dVertex
 10
88.56052912661761
 20
108.4026871426633
 30
0.0
  0
VERTEX
  5
582
330
567
100
AcDbEntity
  8
LINEE VISIBILI 2D
100
AcDbVertex
100
AcDb2dVertex
 10
88.54960188614848
 20
108.3808978481976
 30
0.0
  0
VERTEX
  5
583
330
567
100
AcDbEntity
  8
LINEE VISIBILI 2D
100
AcDbVertex
100
AcDb2dVertex
 10
88.53972122002332
 20
108.3589783122772
 30
0.0
  0
VERTEX
  5
584
330
567
100
AcDbEntity
  8
LINEE VISIBILI 2D
100
AcDbVertex
100
AcDb2dVertex
 10
88.5308986470752
 20
108.3369326811898
 30
0.0
  0
VERTEX
  5
585
330
567
100
AcDbEntity
  8
LINEE VISIBILI 2D
100
AcDbVertex
100
AcDb2dVertex
 10
88.52314530725816
 20
108.3147652099089
 30
0.0
  0
VERTEX
  5
586
330
567
100
AcDbEntity
  8
LINEE VISIBILI 2D
100
AcDbVertex
100
AcDb2dVertex
 10
88.51647194725794
 20
108.2924802602021
 30
0.0
  0
VERTEX
  5
587
330
567
100
AcDbEntity
  8
LINEE VISIBILI 2D
100
AcDbVertex
100
AcDb2dVertex
 10
88.51088890633777
 20
108.2700822985789
 30
0.0
  0
VERTEX
  5
588
330
567
100
AcDbEntity
  8
LINEE VISIBILI 2D
100
AcDbVertex
100
AcDb2dVertex
 10
88.50640610244774
 20
108.2475758940765
 30
0.0
  0
VERTEX
  5
589
330
567
100
AcDbEntity
  8
LINEE VISIBILI 2D
100
AcDbVertex
100
AcDb2dVertex
 10
88.50303301862673
 20
108.224965715885
 30
0.0
  0
VERTEX
  5
58A
330
567
100
AcDbEntity
  8
LINEE VISIBILI 2D
100
AcDbVertex
100
AcDb2dVertex
 10
88.50077868972542
 20
108.2022565308137
 30
0.0
  0
VERTEX
  5
58B
330
567
100
AcDbEntity
  8
LINEE VISIBILI 2D
100
AcDbVertex
100
AcDb2dVertex
 10
88.49965168947875
 20
108.1794532005988
 30
0.0
  0
VERTEX
  5
58C
330
567
100
AcDbEntity
  8
LINEE VISIBILI 2D
100
AcDbVertex
100
AcDb2dVertex
 10
88.49966011795681
 20
108.1565606790555
 30
0.0
  0
VERTEX
  5
58D
330
567
100
AcDbEntity
  8
LINEE VISIBILI 2D
100
AcDbVertex
100
AcDb2dVertex
 10
88.5008115894211
 20
108.1335840090761
 30
0.0
  0
VERTEX
  5
58E
330
567
100
AcDbEntity
  8
LINEE VISIBILI 2D
100
AcDbVertex
100
AcDb2dVertex
 10
88.50311322061493
 20
108.1105283194772
 30
0.0
  0
VERTEX
  5
58F
330
567
100
AcDbEntity
  8
LINEE VISIBILI 2D
100
AcDbVertex
100
AcDb2dVertex
 10
88.50657161951398
 20
108.0873988216986
 30
0.0
  0
VERTEX
  5
590
330
567
100
AcDbEntity
  8
LINEE VISIBILI 2D
100
AcDbVertex
100
AcDb2dVertex
 10
88.51119287456441
 20
108.0642008063583
 30
0.0
  0
VERTEX
  5
591
330
567
100
AcDbEntity
  8
LINEE VISIBILI 2D
100
AcDbVertex
100
AcDb2dVertex
 10
88.51698254443375
 20
108.0409396396659
 30
0.0
  0
VERTEX
  5
592
330
567
100
AcDbEntity
  8
LINEE VISIBILI 2D
100
AcDbVertex
100
AcDb2dVertex
 10
88.52394564829969
 20
108.0176207597008
 30
0.0
  0
VERTEX
  5
593
330
567
100
AcDbEntity
  8
LINEE VISIBILI 2D
100
AcDbVertex
100
AcDb2dVertex
 10
88.53208665670171
 20
107.9942496725578
 30
0.0
  0
VERTEX
  5
594
330
567
100
AcDbEntity
  8
LINEE VISIBILI 2D
100
AcDbVertex
100
AcDb2dVertex
 10
88.54140948297741
 20
107.9708319483663
 30
0.0
  0
VERTEX
  5
595
330
567
100
AcDbEntity
  8
LINEE VISIBILI 2D
100
AcDbVertex
100
AcDb2dVertex
 10
88.5519174753073
 20
107.9473732171883
 30
0.0
  0
VERTEX
  5
596
330
567
100
AcDbEntity
  8
LINEE VISIBILI 2D
100
AcDbVertex
100
AcDb2dVertex
 10
88.56361340938805
 20
107.923879164801
 30
0.0
  0
VERTEX
  5
597
330
567
100
AcDbEntity
  8
LINEE VISIBILI 2D
100
AcDbVertex
100
AcDb2dVertex
 10
88.57649948175481
 20
107.9003555283694
 30
0.0
  0
VERTEX
  5
598
330
567
100
AcDbEntity
  8
LINEE VISIBILI 2D
100
AcDbVertex
100
AcDb2dVertex
 10
88.59057730377067
 20
107.8768080920168
 30
0.0
  0
VERTEX
  5
599
330
567
100
AcDbEntity
  8
LINEE VISIBILI 2D
100
AcDbVertex
100
AcDb2dVertex
 10
88.60584789630125
 20
107.8532426822981
 30
0.0
  0
VERTEX
  5
59A
330
567
100
AcDbEntity
  8
LINEE VISIBILI 2D
100
AcDbVertex
100
AcDb2dVertex
 10
88.62231168508964
 20
107.8296651635847
 30
0.0
  0
VERTEX
  5
59B
330
567
100
AcDbEntity
  8
LINEE VISIBILI 2D
100
AcDbVertex
100
AcDb2dVertex
 10
88.63996849684664
 20
107.8060814333671
 30
0.0
  0
VERTEX
  5
59C
330
567
100
AcDbEntity
  8
LINEE VISIBILI 2D
100
AcDbVertex
100
AcDb2dVertex
 10
88.65881755606896
 20
107.7824974174836
 30
0.0
  0
VERTEX
  5
59D
330
567
100
AcDbEntity
  8
LINEE VISIBILI 2D
100
AcDbVertex
100
AcDb2dVertex
 10
88.67885748259645
 20
107.7589190652823
 30
0.0
  0
VERTEX
  5
59E
330
567
100
AcDbEntity
  8
LINEE VISIBILI 2D
100
AcDbVertex
100
AcDb2dVertex
 10
88.70008628991863
 20
107.7353523447247
 30
0.0
  0
VERTEX
  5
59F
330
567
100
AcDbEntity
  8
LINEE VISIBILI 2D
100
AcDbVertex
100
AcDb2dVertex
 10
88.72250138423765
 20
107.7118032374398
 30
0.0
  0
VERTEX
  5
5A0
330
567
100
AcDbEntity
  8
LINEE VISIBILI 2D
100
AcDbVertex
100
AcDb2dVertex
 10
88.74609956429463
 20
107.6882777337363
 30
0.0
  0
VERTEX
  5
5A1
330
567
100
AcDbEntity
  8
LINEE VISIBILI 2D
100
AcDbVertex
100
AcDb2dVertex
 10
88.77087702196323
 20
107.6647818275813
 30
0.0
  0
VERTEX
  5
5A2
330
567
100
AcDbEntity
  8
LINEE VISIBILI 2D
100
AcDbVertex
100
AcDb2dVertex
 10
88.79682934361389
 20
107.641321511556
 30
0.0
  0
VERTEX
  5
5A3
330
567
100
AcDbEntity
  8
LINEE VISIBILI 2D
100
AcDbVertex
100
AcDb2dVertex
 10
88.82395151224846
 20
107.6179027717945
 30
0.0
  0
VERTEX
  5
5A4
330
567
100
AcDbEntity
  8
LINEE VISIBILI 2D
100
AcDbVertex
100
AcDb2dVertex
 10
88.85223791040578
 20
107.5945315829172
 30
0.0
  0
VERTEX
  5
5A5
330
567
100
AcDbEntity
  8
LINEE VISIBILI 2D
100
AcDbVertex
100
AcDb2dVertex
 10
88.88168232383376
 20
107.5712139029663
 30
0.0
  0
VERTEX
  5
5A6
330
567
100
AcDbEntity
  8
LINEE VISIBILI 2D
100
AcDbVertex
100
AcDb2dVertex
 10
88.91227794592492
 20
107.5479556683525
 30
0.0
  0
VERTEX
  5
5A7
330
567
100
AcDbEntity
  8
LINEE VISIBILI 2D
100
AcDbVertex
100
AcDb2dVertex
 10
88.94401738290778
 20
107.5247627888228
 30
0.0
  0
VERTEX
  5
5A8
330
567
100
AcDbEntity
  8
LINEE VISIBILI 2D
100
AcDbVertex
100
AcDb2dVertex
 10
88.97689265978668
 20
107.5016411424567
 30
0.0
  0
VERTEX
  5
5A9
330
567
100
AcDbEntity
  8
LINEE VISIBILI 2D
100
AcDbVertex
100
AcDb2dVertex
 10
89.04601596792229
 20
107.4556348734549
 30
0.0
  0
VERTEX
  5
5AA
330
567
100
AcDbEntity
  8
LINEE VISIBILI 2D
100
AcDbVertex
100
AcDb2dVertex
 10
89.11957271769063
 20
107.4099830652162
 30
0.0
  0
VERTEX
  5
5AB
330
567
100
AcDbEntity
  8
LINEE VISIBILI 2D
100
AcDbVertex
100
AcDb2dVertex
 10
89.19747895853857
 20
107.36473110283
 30
0.0
  0
VERTEX
  5
5AC
330
567
100
AcDbEntity
  8
LINEE VISIBILI 2D
100
AcDbVertex
100
AcDb2dVertex
 10
89.27964225617461
 20
107.3199234028255
 30
0.0
  0
VERTEX
  5
5AD
330
567
100
AcDbEntity
  8
LINEE VISIBILI 2D
100
AcDbVertex
100
AcDb2dVertex
 10
89.36596204782095
 20
107.2756032690696
 30
0.0
  0
VERTEX
  5
5AE
330
567
100
AcDbEntity
  8
LINEE VISIBILI 2D
100
AcDbVertex
100
AcDb2dVertex
 10
89.45633003573963
 20
107.2318127553142
 30
0.0
  0
VERTEX
  5
5AF
330
567
100
AcDbEntity
  8
LINEE VISIBILI 2D
100
AcDbVertex
100
AcDb2dVertex
 10
89.55063061589909
 20
107.188592535295
 30
0.0
  0
VERTEX
  5
5B0
330
567
100
AcDbEntity
  8
LINEE VISIBILI 2D
100
AcDbVertex
100
AcDb2dVertex
 10
89.64874133835591
 20
107.1459817811993
 30
0.0
  0
VERTEX
  5
5B1
330
567
100
AcDbEntity
  8
LINEE VISIBILI 2D
100
AcDbVertex
100
AcDb2dVertex
 10
89.75053339568457
 20
107.1040180512349
 30
0.0
  0
VERTEX
  5
5B2
330
567
100
AcDbEntity
  8
LINEE VISIBILI 2D
100
AcDbVertex
100
AcDb2dVertex
 10
89.85587213559092
 20
107.0627371869282
 30
0.0
  0
VERTEX
  5
5B3
330
567
100
AcDbEntity
  8
LINEE VISIBILI 2D
100
AcDbVertex
100
AcDb2dVertex
 10
90.07662504241761
 20
106.9823582940247
 30
0.0
  0
VERTEX
  5
5B4
330
567
100
AcDbEntity
  8
LINEE VISIBILI 2D
100
AcDbVertex
100
AcDb2dVertex
 10
90.30982655765489
 20
106.9050942577865
 30
0.0
  0
VERTEX
  5
5B5
330
567
100
AcDbEntity
  8
LINEE VISIBILI 2D
100
AcDbVertex
100
AcDb2dVertex
 10
90.55424506775498
 20
106.8311619845447
 30
0.0
  0
VERTEX
  5
5B6
330
567
100
AcDbEntity
  8
LINEE VISIBILI 2D
100
AcDbVertex
100
AcDb2dVertex
 10
90.80860909179394
 20
106.7607447669853
 30
0.0
  0
VERTEX
  5
5B7
330
567
100
AcDbEntity
  8
LINEE VISIBILI 2D
100
AcDbVertex
100
AcDb2dVertex
 10
91.07162527028187
 20
106.6939916304476
 30
0.0
  0
VERTEX
  5
5B8
330
567
100
AcDbEntity
  8
LINEE VISIBILI 2D
100
AcDbVertex
100
AcDb2dVertex
 10
91.34199564553808
 20
106.631017358882
 30
0.0
  0
VERTEX
  5
5B9
330
567
100
AcDbEntity
  8
LINEE VISIBILI 2D
100
AcDbVertex
100
AcDb2dVertex
 10
91.89967983168468
 20
106.5166978197018
 30
0.0
  0
VERTEX
  5
5BA
330
567
100
AcDbEntity
  8
LINEE VISIBILI 2D
100
AcDbVertex
100
AcDb2dVertex
 10
92.47176359831227
 20
106.4180577512647
 30
0.0
  0
VERTEX
  5
5BB
330
567
100
AcDbEntity
  8
LINEE VISIBILI 2D
100
AcDbVertex
100
AcDb2dVertex
 10
93.07108074783448
 20
106.3320529643284
 30
0.0
  0
VERTEX
  5
5BC
330
567
100
AcDbEntity
  8
LINEE VISIBILI 2D
100
AcDbVertex
100
AcDb2dVertex
 10
93.71387740754318
 20
106.2572400843062
 30
0.0
  0
VERTEX
  5
5BD
330
567
100
AcDbEntity
  8
LINEE VISIBILI 2D
100
AcDbVertex
100
AcDb2dVertex
 10
94.39448242222683
 20
106.1959102046305
 30
0.0
  0
VERTEX
  5
5BE
330
567
100
AcDbEntity
  8
LINEE VISIBILI 2D
100
AcDbVertex
100
AcDb2dVertex
 10
95.10529999751019
 20
106.150212921069
 30
0.0
  0
VERTEX
  5
5BF
330
567
100
AcDbEntity
  8
LINEE VISIBILI 2D
100
AcDbVertex
100
AcDb2dVertex
 10
95.8369383742994
 20
106.1220188681204
 30
0.0
  0
VERTEX
  5
5C0
330
567
100
AcDbEntity
  8
LINEE VISIBILI 2D
100
AcDbVertex
100
AcDb2dVertex
 10
96.57850753486162
 20
106.1127829115058
 30
0.0
  0
VERTEX
  5
5C1
330
567
100
AcDbEntity
  8
LINEE VISIBILI 2D
100
AcDbVertex
100
AcDb2dVertex
 10
97.31808033414504
 20
106.1234240298148
 30
0.0
  0
VERTEX
  5
5C2
330
567
100
AcDbEntity
  8
LINEE VISIBILI 2D
100
AcDbVertex
100
AcDb2dVertex
 10
98.04328505365191
 20
106.1542381217384
 30
0.0
  0
VERTEX
  5
5C3
330
567
100
AcDbEntity
  8
LINEE VISIBILI 2D
100
AcDbVertex
100
AcDb2dVertex
 10
98.74197284796371
 20
106.2048569769652
 30
0.0
  0
VERTEX
  5
5C4
330
567
100
AcDbEntity
  8
LINEE VISIBILI 2D
100
AcDbVertex
100
AcDb2dVertex
 10
99.402887255051
 20
106.2742606746489
 30
0.0
  0
VERTEX
  5
5C5
330
567
100
AcDbEntity
  8
LINEE VISIBILI 2D
100
AcDbVertex
100
AcDb2dVertex
 10
99.7160549797833
 20
106.315525008263
 30
0.0
  0
VERTEX
  5
5C6
330
567
100
AcDbEntity
  8
LINEE VISIBILI 2D
100
AcDbVertex
100
AcDb2dVertex
 10
100.0162596999087
 20
106.3608428679156
 30
0.0
  0
VERTEX
  5
5C7
330
567
100
AcDbEntity
  8
LINEE VISIBILI 2D
100
AcDbVertex
100
AcDb2dVertex
 10
100.3025878396317
 20
106.4099398882681
 30
0.0
  0
VERTEX
  5
5C8
330
567
100
AcDbEntity
  8
LINEE VISIBILI 2D
100
AcDbVertex
100
AcDb2dVertex
 10
100.5742661553859
 20
106.4625205510387
 30
0.0
  0
VERTEX
  5
5C9
330
567
100
AcDbEntity
  8
LINEE VISIBILI 2D
100
AcDbVertex
100
AcDb2dVertex
 10
100.8306657672603
 20
106.5182729858048
 30
0.0
  0
VERTEX
  5
5CA
330
567
100
AcDbEntity
  8
LINEE VISIBILI 2D
100
AcDbVertex
100
AcDb2dVertex
 10
101.0713031598485
 20
106.5768738220508
 30
0.0
  0
VERTEX
  5
5CB
330
567
100
AcDbEntity
  8
LINEE VISIBILI 2D
100
AcDbVertex
100
AcDb2dVertex
 10
101.2958383329308
 20
106.6379929586931
 30
0.0
  0
VERTEX
  5
5CC
330
567
100
AcDbEntity
  8
LINEE VISIBILI 2D
100
AcDbVertex
100
AcDb2dVertex
 10
101.5040703681237
 20
106.7012981311955
 30
0.0
  0
VERTEX
  5
5CD
330
567
100
AcDbEntity
  8
LINEE VISIBILI 2D
100
AcDbVertex
100
AcDb2dVertex
 10
101.695930743212
 20
106.7664591742933
 30
0.0
  0
VERTEX
  5
5CE
330
567
100
AcDbEntity
  8
LINEE VISIBILI 2D
100
AcDbVertex
100
AcDb2dVertex
 10
101.7857342720851
 20
106.7996340076973
 30
0.0
  0
VERTEX
  5
5CF
330
567
100
AcDbEntity
  8
LINEE VISIBILI 2D
100
AcDbVertex
100
AcDb2dVertex
 10
101.8714747699562
 20
106.833151898823
 30
0.0
  0
VERTEX
  5
5D0
330
567
100
AcDbEntity
  8
LINEE VISIBILI 2D
100
AcDbVertex
100
AcDb2dVertex
 10
101.9531768514747
 20
106.8669738207915
 30
0.0
  0
VERTEX
  5
5D1
330
567
100
AcDbEntity
  8
LINEE VISIBILI 2D
100
AcDbVertex
100
AcDb2dVertex
 10
102.0308715539819
 20
106.9010615228056
 30
0.0
  0
VERTEX
  5
5D2
330
567
100
AcDbEntity
  8
LINEE VISIBILI 2D
100
AcDbVertex
100
AcDb2dVertex
 10
102.1045959710904
 20
106.9353776105128
 30
0.0
  0
VERTEX
  5
5D3
330
567
100
AcDbEntity
  8
LINEE VISIBILI 2D
100
AcDbVertex
100
AcDb2dVertex
 10
102.1743928784858
 20
106.9698856184407
 30
0.0
  0
SEQEND
  5
568
330
567
100
AcDbEntity
  8
LINEE VISIBILI 2D
  0
POLYLINE
  5
5D4
330
1F
100
AcDbEntity
  8
LINEE VISIBILI 2D
100
AcDb2dPolyline
 66
     1
 10
0.0
 20
0.0
 30
0.0
  0
VERTEX
  5
5D6
330
5D4
100
AcDbEntity
  8
LINEE VISIBILI 2D
100
AcDbVertex
100
AcDb2dVertex
 10
100.3976544519691
 20
105.3592477005008
 30
0.0
  0
VERTEX
  5
5D7
330
5D4
100
AcDbEntity
  8
LINEE VISIBILI 2D
100
AcDbVertex
100
AcDb2dVertex
 10
100.3453398320587
 20
105.3331994133208
 30
0.0
  0
VERTEX
  5
5D8
330
5D4
100
AcDbEntity
  8
LINEE VISIBILI 2D
100
AcDbVertex
100
AcDb2dVertex
 10
100.2901182576426
 20
105.3073004729205
 30
0.0
  0
VERTEX
  5
5D9
330
5D4
100
AcDbEntity
  8
LINEE VISIBILI 2D
100
AcDbVertex
100
AcDb2dVertex
 10
100.2319590728802
 20
105.2815783172961
 30
0.0
  0
VERTEX
  5
5DA
330
5D4
100
AcDbEntity
  8
LINEE VISIBILI 2D
100
AcDbVertex
100
AcDb2dVertex
 10
100.1708358345574
 20
105.2560610669247
 30
0.0
  0
VERTEX
  5
5DB
330
5D4
100
AcDbEntity
  8
LINEE VISIBILI 2D
100
AcDbVertex
100
AcDb2dVertex
 10
100.1067265837803
 20
105.2307774698914
 30
0.0
  0
VERTEX
  5
5DC
330
5D4
100
AcDbEntity
  8
LINEE VISIBILI 2D
100
AcDbVertex
100
AcDb2dVertex
 10
100.0396141116252
 20
105.2057568411594
 30
0.0
  0
VERTEX
  5
5DD
330
5D4
100
AcDbEntity
  8
LINEE VISIBILI 2D
100
AcDbVertex
100
AcDb2dVertex
 10
99.89633595200004
 20
105.1566241777755
 30
0.0
  0
VERTEX
  5
5DE
330
5D4
100
AcDbEntity
  8
LINEE VISIBILI 2D
100
AcDbVertex
100
AcDb2dVertex
 10
99.74096819233805
 20
105.1089062626051
 30
0.0
  0
VERTEX
  5
5DF
330
5D4
100
AcDbEntity
  8
LINEE VISIBILI 2D
100
AcDbVertex
100
AcDb2dVertex
 10
99.57356887534006
 20
105.0628505096466
 30
0.0
  0
VERTEX
  5
5E0
330
5D4
100
AcDbEntity
  8
LINEE VISIBILI 2D
100
AcDbVertex
100
AcDb2dVertex
 10
99.39429338515168
 20
105.0187056594077
 30
0.0
  0
VERTEX
  5
5E1
330
5D4
100
AcDbEntity
  8
LINEE VISIBILI 2D
100
AcDbVertex
100
AcDb2dVertex
 10
99.2033991986106
 20
104.9767185964502
 30
0.0
  0
VERTEX
  5
5E2
330
5D4
100
AcDbEntity
  8
LINEE VISIBILI 2D
100
AcDbVertex
100
AcDb2dVertex
 10
99.00124898295802
 20
104.9371309472904
 30
0.0
  0
VERTEX
  5
5E3
330
5D4
100
AcDbEntity
  8
LINEE VISIBILI 2D
100
AcDbVertex
100
AcDb2dVertex
 10
98.78831180352845
 20
104.9001755347013
 30
0.0
  0
VERTEX
  5
5E4
330
5D4
100
AcDbEntity
  8
LINEE VISIBILI 2D
100
AcDbVertex
100
AcDb2dVertex
 10
98.56516225318648
 20
104.8660727773844
 30
0.0
  0
VERTEX
  5
5E5
330
5D4
100
AcDbEntity
  8
LINEE VISIBILI 2D
100
AcDbVertex
100
AcDb2dVertex
 10
98.33247737783516
 20
104.8350271339103
 30
0.0
  0
VERTEX
  5
5E6
330
5D4
100
AcDbEntity
  8
LINEE VISIBILI 2D
100
AcDbVertex
100
AcDb2dVertex
 10
97.8416879010453
 20
104.7828250360965
 30
0.0
  0
VERTEX
  5
5E7
330
5D4
100
AcDbEntity
  8
LINEE VISIBILI 2D
100
AcDbVertex
100
AcDb2dVertex
 10
97.32315175087972
 20
104.7447634384785
 30
0.0
  0
VERTEX
  5
5E8
330
5D4
100
AcDbEntity
  8
LINEE VISIBILI 2D
100
AcDbVertex
100
AcDb2dVertex
 10
96.78515827997857
 20
104.721598271527
 30
0.0
  0
VERTEX
  5
5E9
330
5D4
100
AcDbEntity
  8
LINEE VISIBILI 2D
100
AcDbVertex
100
AcDb2dVertex
 10
96.23664250554647
 20
104.7135994093292
 30
0.0
  0
VERTEX
  5
5EA
330
5D4
100
AcDbEntity
  8
LINEE VISIBILI 2D
100
AcDbVertex
100
AcDb2dVertex
 10
95.68669697967724
 20
104.7205419958075
 30
0.0
  0
VERTEX
  5
5EB
330
5D4
100
AcDbEntity
  8
LINEE VISIBILI 2D
100
AcDbVertex
100
AcDb2dVertex
 10
95.14408582084364
 20
104.7417372027614
 30
0.0
  0
VERTEX
  5
5EC
330
5D4
100
AcDbEntity
  8
LINEE VISIBILI 2D
100
AcDbVertex
100
AcDb2dVertex
 10
94.61681342754152
 20
104.77609702903
 30
0.0
  0
VERTEX
  5
5ED
330
5D4
100
AcDbEntity
  8
LINEE VISIBILI 2D
100
AcDbVertex
100
AcDb2dVertex
 10
94.11178861112786
 20
104.8222233896644
 30
0.0
  0
VERTEX
  5
5EE
330
5D4
100
AcDbEntity
  8
LINEE VISIBILI 2D
100
AcDbVertex
100
AcDb2dVertex
 10
93.63460723536155
 20
104.8785095560145
 30
0.0
  0
VERTEX
  5
5EF
330
5D4
100
AcDbEntity
  8
LINEE VISIBILI 2D
100
AcDbVertex
100
AcDb2dVertex
 10
93.18945747030317
 20
104.9432421536117
 30
0.0
  0
VERTEX
  5
5F0
330
5D4
100
AcDbEntity
  8
LINEE VISIBILI 2D
100
AcDbVertex
100
AcDb2dVertex
 10
92.72547963981729
 20
105.0249614271298
 30
0.0
  0
VERTEX
  5
5F1
330
5D4
100
AcDbEntity
  8
LINEE VISIBILI 2D
100
AcDbVertex
100
AcDb2dVertex
 10
92.49783883428042
 20
105.0711263719249
 30
0.0
  0
VERTEX
  5
5F2
330
5D4
100
AcDbEntity
  8
LINEE VISIBILI 2D
100
AcDbVertex
100
AcDb2dVertex
 10
92.27465804549719
 20
105.1208099778079
 30
0.0
  0
VERTEX
  5
5F3
330
5D4
100
AcDbEntity
  8
LINEE VISIBILI 2D
100
AcDbVertex
100
AcDb2dVertex
 10
92.05716088662095
 20
105.1739576425005
 30
0.0
  0
VERTEX
  5
5F4
330
5D4
100
AcDbEntity
  8
LINEE VISIBILI 2D
100
AcDbVertex
100
AcDb2dVertex
 10
91.84659500332566
 20
105.2304796539208
 30
0.0
  0
VERTEX
  5
5F5
330
5D4
100
AcDbEntity
  8
LINEE VISIBILI 2D
100
AcDbVertex
100
AcDb2dVertex
 10
91.6442146067421
 20
105.2902499501451
 30
0.0
  0
VERTEX
  5
5F6
330
5D4
100
AcDbEntity
  8
LINEE VISIBILI 2D
100
AcDbVertex
100
AcDb2dVertex
 10
91.45126135090654
 20
105.3531056234111
 30
0.0
  0
VERTEX
  5
5F7
330
5D4
100
AcDbEntity
  8
LINEE VISIBILI 2D
100
AcDbVertex
100
AcDb2dVertex
 10
91.26894402840692
 20
105.4188472557576
 30
0.0
  0
VERTEX
  5
5F8
330
5D4
100
AcDbEntity
  8
LINEE VISIBILI 2D
100
AcDbVertex
100
AcDb2dVertex
 10
91.18213746032942
 20
105.4527282883794
 30
0.0
  0
VERTEX
  5
5F9
330
5D4
100
AcDbEntity
  8
LINEE VISIBILI 2D
100
AcDbVertex
100
AcDb2dVertex
 10
91.09841765957346
 20
105.487240146076
 30
0.0
  0
VERTEX
  5
5FA
330
5D4
100
AcDbEntity
  8
LINEE VISIBILI 2D
100
AcDbVertex
100
AcDb2dVertex
 10
91.01791717697098
 20
105.522348330035
 30
0.0
  0
VERTEX
  5
5FB
330
5D4
100
AcDbEntity
  8
LINEE VISIBILI 2D
100
AcDbVertex
100
AcDb2dVertex
 10
90.94076263040149
 20
105.5580164540067
 30
0.0
  0
VERTEX
  5
5FC
330
5D4
100
AcDbEntity
  8
LINEE VISIBILI 2D
100
AcDbVertex
100
AcDb2dVertex
 10
90.86707410535877
 20
105.5942063600568
 30
0.0
  0
VERTEX
  5
5FD
330
5D4
100
AcDbEntity
  8
LINEE VISIBILI 2D
100
AcDbVertex
100
AcDb2dVertex
 10
90.79696458414359
 20
105.6308782470112
 30
0.0
  0
VERTEX
  5
5FE
330
5D4
100
AcDbEntity
  8
LINEE VISIBILI 2D
100
AcDbVertex
100
AcDb2dVertex
 10
90.73053940904284
 20
105.6679908107575
 30
0.0
  0
VERTEX
  5
5FF
330
5D4
100
AcDbEntity
  8
LINEE VISIBILI 2D
100
AcDbVertex
100
AcDb2dVertex
 10
90.66789578458331
 20
105.7055013954151
 30
0.0
  0
VERTEX
  5
600
330
5D4
100
AcDbEntity
  8
LINEE VISIBILI 2D
100
AcDbVertex
100
AcDb2dVertex
 10
90.60912232359553
 20
105.7433661542474
 30
0.0
  0
VERTEX
  5
601
330
5D4
100
AcDbEntity
  8
LINEE VISIBILI 2D
100
AcDbVertex
100
AcDb2dVertex
 10
90.58121214570249
 20
105.7624173627855
 30
0.0
  0
VERTEX
  5
602
330
5D4
100
AcDbEntity
  8
LINEE VISIBILI 2D
100
AcDbVertex
100
AcDb2dVertex
 10
90.55429864139794
 20
105.7815402190633
 30
0.0
  0
VERTEX
  5
603
330
5D4
100
AcDbEntity
  8
LINEE VISIBILI 2D
100
AcDbVertex
100
AcDb2dVertex
 10
90.52839029866783
 20
105.800728983921
 30
0.0
  0
VERTEX
  5
604
330
5D4
100
AcDbEntity
  8
LINEE VISIBILI 2D
100
AcDbVertex
100
AcDb2dVertex
 10
90.50349500191533
 20
105.8199778767461
 30
0.0
  0
VERTEX
  5
605
330
5D4
100
AcDbEntity
  8
LINEE VISIBILI 2D
100
AcDbVertex
100
AcDb2dVertex
 10
90.47962002396529
 20
105.839281081277
 30
0.0
  0
VERTEX
  5
606
330
5D4
100
AcDbEntity
  8
LINEE VISIBILI 2D
100
AcDbVertex
100
AcDb2dVertex
 10
90.45677201899152
 20
105.8586327514593
 30
0.0
  0
VERTEX
  5
607
330
5D4
100
AcDbEntity
  8
LINEE VISIBILI 2D
100
AcDbVertex
100
AcDb2dVertex
 10
90.43495701638134
 20
105.8780270173427
 30
0.0
  0
VERTEX
  5
608
330
5D4
100
AcDbEntity
  8
LINEE VISIBILI 2D
100
AcDbVertex
100
AcDb2dVertex
 10
90.41418041554896
 20
105.8974579910054
 30
0.0
  0
VERTEX
  5
609
330
5D4
100
AcDbEntity
  8
LINEE VISIBILI 2D
100
AcDbVertex
100
AcDb2dVertex
 10
90.39444698170703
 20
105.9169197724941
 30
0.0
  0
VERTEX
  5
60A
330
5D4
100
AcDbEntity
  8
LINEE VISIBILI 2D
100
AcDbVertex
100
AcDb2dVertex
 10
90.37576084260255
 20
105.9364064557673
 30
0.0
  0
SEQEND
  5
5D5
330
5D4
100
AcDbEntity
  8
LINEE VISIBILI 2D
  0
LINE
  5
60B
330
1F
100
AcDbEntity
  8
LINEE VISIBILI 2D
100
AcDbLine
 10
87.484188370062
 20
16.38877944809596
 30
0.0
 11
87.45344687890504
 21
16.44709388656435
 31
0.0
  0
ARC
  5
60C
330
1F
100
AcDbEntity
  8
LINEE VISIBILI 2D
100
AcDbCircle
 10
87.68590116051194
 20
16.63382580263713
 30
0.0
 40
0.3173889817007143
100
AcDbArc
 50
230.5400942137994
 51
297.0619935187492
  0
ARC
  5
60D
330
1F
100
AcDbEntity
  8
LINEE VISIBILI 2D
100
AcDbCircle
 10
87.7776740333474
 20
16.52165353039625
 30
0.0
 40
0.17840530554856
100
AcDbArc
 50
287.1558710630668
 51
3.795647869546515
  0
LINE
  5
60E
330
1F
100
AcDbEntity
  8
LINEE VISIBILI 2D
100
AcDbLine
 10
13.11003868995791
 20
117.6664109363813
 30
0.0
 11
12.97006978272784
 21
117.5683326282477
 31
0.0
  0
ARC
  5
60F
330
1F
100
AcDbEntity
  8
LINEE VISIBILI 2D
100
AcDbCircle
 10
12.01863823157262
 20
117.8198753816947
 30
0.0
 40
0.297449320723411
100
AcDbArc
 50
217.9233711584557
 51
273.7943449803623
  0
ARC
  5
610
330
1F
100
AcDbEntity
  8
LINEE VISIBILI 2D
100
AcDbCircle
 10
12.38882917580202
 20
119.9209953697382
 30
0.0
 40
2.423398980427597
100
AcDbArc
 50
261.6838852616469
 51
283.8774039735515
  0
ARC
  5
611
330
1F
100
AcDbEntity
  8
LINEE VISIBILI 2D
100
AcDbCircle
 10
12.26425157556401
 20
123.2203494813598
 30
0.0
 40
2.518395421741772
100
AcDbArc
 50
261.971534474506
 51
283.395408878208
  0
POLYLINE
  5
612
330
1F
100
AcDbEntity
  8
LINEE VISIBILI 2D
100
AcDb2dPolyline
 66
     1
 10
0.0
 20
0.0
 30
0.0
  0
VERTEX
  5
614
330
612
100
AcDbEntity
  8
LINEE VISIBILI 2D
100
AcDbVertex
100
AcDb2dVertex
 10
11.79919722793449
 20
120.9324557700908
 30
0.0
  0
VERTEX
  5
615
330
612
100
AcDbEntity
  8
LINEE VISIBILI 2D
100
AcDbVertex
100
AcDb2dVertex
 10
11.78142834540118
 20
120.9268250443473
 30
0.0
  0
VERTEX
  5
616
330
612
100
AcDbEntity
  8
LINEE VISIBILI 2D
100
AcDbVertex
100
AcDb2dVertex
 10
11.76444876502197
 20
120.9209408673209
 30
0.0
  0
VERTEX
  5
617
330
612
100
AcDbEntity
  8
LINEE VISIBILI 2D
100
AcDbVertex
100
AcDb2dVertex
 10
11.7483613027065
 20
120.9148111575638
 30
0.0
  0
VERTEX
  5
618
330
612
100
AcDbEntity
  8
LINEE VISIBILI 2D
100
AcDbVertex
100
AcDb2dVertex
 10
11.74068442288337
 20
120.9116573414355
 30
0.0
  0
VERTEX
  5
619
330
612
100
AcDbEntity
  8
LINEE VISIBILI 2D
100
AcDbVertex
100
AcDb2dVertex
 10
11.73326930122791
 20
120.9084461783626
 30
0.0
  0
VERTEX
  5
61A
330
612
100
AcDbEntity
  8
LINEE VISIBILI 2D
100
AcDbVertex
100
AcDb2dVertex
 10
11.72612873494835
 20
120.9051793291038
 30
0.0
  0
VERTEX
  5
61B
330
612
100
AcDbEntity
  8
LINEE VISIBILI 2D
100
AcDbVertex
100
AcDb2dVertex
 10
11.71927539348383
 20
120.9018586076297
 30
0.0
  0
VERTEX
  5
61C
330
612
100
AcDbEntity
  8
LINEE VISIBILI 2D
100
AcDbVertex
100
AcDb2dVertex
 10
11.71272177426795
 20
120.8984859811104
 30
0.0
  0
VERTEX
  5
61D
330
612
100
AcDbEntity
  8
LINEE VISIBILI 2D
100
AcDbVertex
100
AcDb2dVertex
 10
11.70648015737485
 20
120.895063569181
 30
0.0
  0
VERTEX
  5
61E
330
612
100
AcDbEntity
  8
LINEE VISIBILI 2D
100
AcDbVertex
100
AcDb2dVertex
 10
11.70056255929311
 20
120.8915936424538
 30
0.0
  0
VERTEX
  5
61F
330
612
100
AcDbEntity
  8
LINEE VISIBILI 2D
100
AcDbVertex
100
AcDb2dVertex
 10
11.69498068609376
 20
120.8880786202502
 30
0.0
  0
VERTEX
  5
620
330
612
100
AcDbEntity
  8
LINEE VISIBILI 2D
100
AcDbVertex
100
AcDb2dVertex
 10
11.69231920799045
 20
120.8863049943071
 30
0.0
  0
VERTEX
  5
621
330
612
100
AcDbEntity
  8
LINEE VISIBILI 2D
100
AcDbVertex
100
AcDb2dVertex
 10
11.68974588627899
 20
120.8845210675329
 30
0.0
  0
VERTEX
  5
622
330
612
100
AcDbEntity
  8
LINEE VISIBILI 2D
100
AcDbVertex
100
AcDb2dVertex
 10
11.6872620759128
 20
120.8827271826673
 30
0.0
  0
VERTEX
  5
623
330
612
100
AcDbEntity
  8
LINEE VISIBILI 2D
100
AcDbVertex
100
AcDb2dVertex
 10
11.68486910361543
 20
120.8809236910221
 30
0.0
  0
VERTEX
  5
624
330
612
100
AcDbEntity
  8
LINEE VISIBILI 2D
100
AcDbVertex
100
AcDb2dVertex
 10
11.68256826642838
 20
120.8791109523149
 30
0.0
  0
VERTEX
  5
625
330
612
100
AcDbEntity
  8
LINEE VISIBILI 2D
100
AcDbVertex
100
AcDb2dVertex
 10
11.68036083027144
 20
120.8772893344897
 30
0.0
  0
VERTEX
  5
626
330
612
100
AcDbEntity
  8
LINEE VISIBILI 2D
100
AcDbVertex
100
AcDb2dVertex
 10
11.67824802851823
 20
120.8754592135249
 30
0.0
  0
VERTEX
  5
627
330
612
100
AcDbEntity
  8
LINEE VISIBILI 2D
100
AcDbVertex
100
AcDb2dVertex
 10
11.67623106058977
 20
120.8736209732284
 30
0.0
  0
VERTEX
  5
628
330
612
100
AcDbEntity
  8
LINEE VISIBILI 2D
100
AcDbVertex
100
AcDb2dVertex
 10
11.67431109056855
 20
120.8717750050205
 30
0.0
  0
VERTEX
  5
629
330
612
100
AcDbEntity
  8
LINEE VISIBILI 2D
100
AcDbVertex
100
AcDb2dVertex
 10
11.67248924583614
 20
120.869921707704
 30
0.0
  0
VERTEX
  5
62A
330
612
100
AcDbEntity
  8
LINEE VISIBILI 2D
100
AcDbVertex
100
AcDb2dVertex
 10
11.67076661573674
 20
120.8680614872222
 30
0.0
  0
VERTEX
  5
62B
330
612
100
AcDbEntity
  8
LINEE VISIBILI 2D
100
AcDbVertex
100
AcDb2dVertex
 10
11.66914425026965
 20
120.8661947564049
 30
0.0
  0
VERTEX
  5
62C
330
612
100
AcDbEntity
  8
LINEE VISIBILI 2D
100
AcDbVertex
100
AcDb2dVertex
 10
11.66762315881314
 20
120.8643219347026
 30
0.0
  0
VERTEX
  5
62D
330
612
100
AcDbEntity
  8
LINEE VISIBILI 2D
100
AcDbVertex
100
AcDb2dVertex
 10
11.66620430888256
 20
120.8624434479098
 30
0.0
  0
VERTEX
  5
62E
330
612
100
AcDbEntity
  8
LINEE VISIBILI 2D
100
AcDbVertex
100
AcDb2dVertex
 10
11.6648886249252
 20
120.8605597278759
 30
0.0
  0
VERTEX
  5
62F
330
612
100
AcDbEntity
  8
LINEE VISIBILI 2D
100
AcDbVertex
100
AcDb2dVertex
 10
11.66367698715454
 20
120.8586712122067
 30
0.0
  0
VERTEX
  5
630
330
612
100
AcDbEntity
  8
LINEE VISIBILI 2D
100
AcDbVertex
100
AcDb2dVertex
 10
11.66257023042643
 20
120.8567783439545
 30
0.0
  0
VERTEX
  5
631
330
612
100
AcDbEntity
  8
LINEE VISIBILI 2D
100
AcDbVertex
100
AcDb2dVertex
 10
11.66156914315968
 20
120.8548815712985
 30
0.0
  0
VERTEX
  5
632
330
612
100
AcDbEntity
  8
LINEE VISIBILI 2D
100
AcDbVertex
100
AcDb2dVertex
 10
11.66067446630348
 20
120.8529813472158
 30
0.0
  0
VERTEX
  5
633
330
612
100
AcDbEntity
  8
LINEE VISIBILI 2D
100
AcDbVertex
100
AcDb2dVertex
 10
11.65988689235391
 20
120.8510781291432
 30
0.0
  0
VERTEX
  5
634
330
612
100
AcDbEntity
  8
LINEE VISIBILI 2D
100
AcDbVertex
100
AcDb2dVertex
 10
11.65920706442189
 20
120.8491723786299
 30
0.0
  0
VERTEX
  5
635
330
612
100
AcDbEntity
  8
LINEE VISIBILI 2D
100
AcDbVertex
100
AcDb2dVertex
 10
11.6586355753547
 20
120.8472645609828
 30
0.0
  0
VERTEX
  5
636
330
612
100
AcDbEntity
  8
LINEE VISIBILI 2D
100
AcDbVertex
100
AcDb2dVertex
 10
11.65817296691311
 20
120.8453551449036
 30
0.0
  0
VERTEX
  5
637
330
612
100
AcDbEntity
  8
LINEE VISIBILI 2D
100
AcDbVertex
100
AcDb2dVertex
 10
11.65781972900603
 20
120.8434446021197
 30
0.0
  0
VERTEX
  5
638
330
612
100
AcDbEntity
  8
LINEE VISIBILI 2D
100
AcDbVertex
100
AcDb2dVertex
 10
11.65757629898462
 20
120.8415334070076
 30
0.0
  0
VERTEX
  5
639
330
612
100
AcDbEntity
  8
LINEE VISIBILI 2D
100
AcDbVertex
100
AcDb2dVertex
 10
11.65744306099749
 20
120.8396220362113
 30
0.0
  0
VERTEX
  5
63A
330
612
100
AcDbEntity
  8
LINEE VISIBILI 2D
100
AcDbVertex
100
AcDb2dVertex
 10
11.65742034540861
 20
120.8377109682555
 30
0.0
  0
VERTEX
  5
63B
330
612
100
AcDbEntity
  8
LINEE VISIBILI 2D
100
AcDbVertex
100
AcDb2dVertex
 10
11.65750842827937
 20
120.8358006831534
 30
0.0
  0
VERTEX
  5
63C
330
612
100
AcDbEntity
  8
LINEE VISIBILI 2D
100
AcDbVertex
100
AcDb2dVertex
 10
11.65770753091612
 20
120.8338916620121
 30
0.0
  0
VERTEX
  5
63D
330
612
100
AcDbEntity
  8
LINEE VISIBILI 2D
100
AcDbVertex
100
AcDb2dVertex
 10
11.65801781948434
 20
120.831984386633
 30
0.0
  0
VERTEX
  5
63E
330
612
100
AcDbEntity
  8
LINEE VISIBILI 2D
100
AcDbVertex
100
AcDb2dVertex
 10
11.65843940469046
 20
120.8300793391115
 30
0.0
  0
VERTEX
  5
63F
330
612
100
AcDbEntity
  8
LINEE VISIBILI 2D
100
AcDbVertex
100
AcDb2dVertex
 10
11.65897234153228
 20
120.8281770014331
 30
0.0
  0
VERTEX
  5
640
330
612
100
AcDbEntity
  8
LINEE VISIBILI 2D
100
AcDbVertex
100
AcDb2dVertex
 10
11.6596166291185
 20
120.8262778550701
 30
0.0
  0
VERTEX
  5
641
330
612
100
AcDbEntity
  8
LINEE VISIBILI 2D
100
AcDbVertex
100
AcDb2dVertex
 10
11.66037221055816
 20
120.8243823805764
 30
0.0
  0
VERTEX
  5
642
330
612
100
AcDbEntity
  8
LINEE VISIBILI 2D
100
AcDbVertex
100
AcDb2dVertex
 10
11.6612389729202
 20
120.8224910571833
 30
0.0
  0
VERTEX
  5
643
330
612
100
AcDbEntity
  8
LINEE VISIBILI 2D
100
AcDbVertex
100
AcDb2dVertex
 10
11.66221674726341
 20
120.8206043623967
 30
0.0
  0
VERTEX
  5
644
330
612
100
AcDbEntity
  8
LINEE VISIBILI 2D
100
AcDbVertex
100
AcDb2dVertex
 10
11.66330530873694
 20
120.8187227715948
 30
0.0
  0
VERTEX
  5
645
330
612
100
AcDbEntity
  8
LINEE VISIBILI 2D
100
AcDbVertex
100
AcDb2dVertex
 10
11.66450437675104
 20
120.8168467576295
 30
0.0
  0
VERTEX
  5
646
330
612
100
AcDbEntity
  8
LINEE VISIBILI 2D
100
AcDbVertex
100
AcDb2dVertex
 10
11.66581361521797
 20
120.8149767904302
 30
0.0
  0
VERTEX
  5
647
330
612
100
AcDbEntity
  8
LINEE VISIBILI 2D
100
AcDbVertex
100
AcDb2dVertex
 10
11.66723263286259
 20
120.8131133366113
 30
0.0
  0
VERTEX
  5
648
330
612
100
AcDbEntity
  8
LINEE VISIBILI 2D
100
AcDbVertex
100
AcDb2dVertex
 10
11.66876098360194
 20
120.8112568590852
 30
0.0
  0
VERTEX
  5
649
330
612
100
AcDbEntity
  8
LINEE VISIBILI 2D
100
AcDbVertex
100
AcDb2dVertex
 10
11.67039816699318
 20
120.8094078166789
 30
0.0
  0
VERTEX
  5
64A
330
612
100
AcDbEntity
  8
LINEE VISIBILI 2D
100
AcDbVertex
100
AcDb2dVertex
 10
11.67214362874889
 20
120.8075666637582
 30
0.0
  0
VERTEX
  5
64B
330
612
100
AcDbEntity
  8
LINEE VISIBILI 2D
100
AcDbVertex
100
AcDb2dVertex
 10
11.6739967613187
 20
120.8057338498568
 30
0.0
  0
VERTEX
  5
64C
330
612
100
AcDbEntity
  8
LINEE VISIBILI 2D
100
AcDbVertex
100
AcDb2dVertex
 10
11.67595690453597
 20
120.8039098193137
 30
0.0
  0
VERTEX
  5
64D
330
612
100
AcDbEntity
  8
LINEE VISIBILI 2D
100
AcDbVertex
100
AcDb2dVertex
 10
11.67802334632827
 20
120.8020950109178
 30
0.0
  0
VERTEX
  5
64E
330
612
100
AcDbEntity
  8
LINEE VISIBILI 2D
100
AcDbVertex
100
AcDb2dVertex
 10
11.68019532348997
 20
120.8002898575607
 30
0.0
  0
VERTEX
  5
64F
330
612
100
AcDbEntity
  8
LINEE VISIBILI 2D
100
AcDbVertex
100
AcDb2dVertex
 10
11.68247202251543
 20
120.7984947858989
 30
0.0
  0
VERTEX
  5
650
330
612
100
AcDbEntity
  8
LINEE VISIBILI 2D
100
AcDbVertex
100
AcDb2dVertex
 10
11.68485258049096
 20
120.7967102160248
 30
0.0
  0
VERTEX
  5
651
330
612
100
AcDbEntity
  8
LINEE VISIBILI 2D
100
AcDbVertex
100
AcDb2dVertex
 10
11.68733608604365
 20
120.7949365611483
 30
0.0
  0
VERTEX
  5
652
330
612
100
AcDbEntity
  8
LINEE VISIBILI 2D
100
AcDbVertex
100
AcDb2dVertex
 10
11.68992158034495
 20
120.7931742272885
 30
0.0
  0
VERTEX
  5
653
330
612
100
AcDbEntity
  8
LINEE VISIBILI 2D
100
AcDbVertex
100
AcDb2dVertex
 10
11.69260805816711
 20
120.791423612976
 30
0.0
  0
VERTEX
  5
654
330
612
100
AcDbEntity
  8
LINEE VISIBILI 2D
100
AcDbVertex
100
AcDb2dVertex
 10
11.69539446898988
 20
120.7896851089671
 30
0.0
  0
VERTEX
  5
655
330
612
100
AcDbEntity
  8
LINEE VISIBILI 2D
100
AcDbVertex
100
AcDb2dVertex
 10
11.69827971815546
 20
120.7879590979697
 30
0.0
  0
VERTEX
  5
656
330
612
100
AcDbEntity
  8
LINEE VISIBILI 2D
100
AcDbVertex
100
AcDb2dVertex
 10
11.70434213944268
 20
120.7845460440364
 30
0.0
  0
VERTEX
  5
657
330
612
100
AcDbEntity
  8
LINEE VISIBILI 2D
100
AcDbVertex
100
AcDb2dVertex
 10
11.7107857286961
 20
120.7811873422179
 30
0.0
  0
VERTEX
  5
658
330
612
100
AcDbEntity
  8
LINEE VISIBILI 2D
100
AcDbVertex
100
AcDb2dVertex
 10
11.71760026748021
 20
120.7778857393204
 30
0.0
  0
VERTEX
  5
659
330
612
100
AcDbEntity
  8
LINEE VISIBILI 2D
100
AcDbVertex
100
AcDb2dVertex
 10
11.72477495617479
 20
120.7746438313934
 30
0.0
  0
VERTEX
  5
65A
330
612
100
AcDbEntity
  8
LINEE VISIBILI 2D
100
AcDbVertex
100
AcDb2dVertex
 10
11.73229845979411
 20
120.7714640580813
 30
0.0
  0
VERTEX
  5
65B
330
612
100
AcDbEntity
  8
LINEE VISIBILI 2D
100
AcDbVertex
100
AcDb2dVertex
 10
11.74015895534746
 20
120.7683486978634
 30
0.0
  0
VERTEX
  5
65C
330
612
100
AcDbEntity
  8
LINEE VISIBILI 2D
100
AcDbVertex
100
AcDb2dVertex
 10
11.74834418037792
 20
120.7652998641902
 30
0.0
  0
VERTEX
  5
65D
330
612
100
AcDbEntity
  8
LINEE VISIBILI 2D
100
AcDbVertex
100
AcDb2dVertex
 10
11.75684148231781
 20
120.7623195025151
 30
0.0
  0
VERTEX
  5
65E
330
612
100
AcDbEntity
  8
LINEE VISIBILI 2D
100
AcDbVertex
100
AcDb2dVertex
 10
11.76563786830487
 20
120.759409388212
 30
0.0
  0
VERTEX
  5
65F
330
612
100
AcDbEntity
  8
LINEE VISIBILI 2D
100
AcDbVertex
100
AcDb2dVertex
 10
11.78407451885882
 20
120.753806146395
 30
0.0
  0
VERTEX
  5
660
330
612
100
AcDbEntity
  8
LINEE VISIBILI 2D
100
AcDbVertex
100
AcDb2dVertex
 10
11.80354527256965
 20
120.7485009150081
 30
0.0
  0
VERTEX
  5
661
330
612
100
AcDbEntity
  8
LINEE VISIBILI 2D
100
AcDbVertex
100
AcDb2dVertex
 10
11.82393897072489
 20
120.7435017566841
 30
0.0
  0
VERTEX
  5
662
330
612
100
AcDbEntity
  8
LINEE VISIBILI 2D
100
AcDbVertex
100
AcDb2dVertex
 10
11.84514364063348
 20
120.7388140939575
 30
0.0
  0
VERTEX
  5
663
330
612
100
AcDbEntity
  8
LINEE VISIBILI 2D
100
AcDbVertex
100
AcDb2dVertex
 10
11.86704787971628
 20
120.7344408240736
 30
0.0
  0
VERTEX
  5
664
330
612
100
AcDbEntity
  8
LINEE VISIBILI 2D
100
AcDbVertex
100
AcDb2dVertex
 10
11.91251971298172
 20
120.7266373493978
 30
0.0
  0
SEQEND
  5
613
330
612
100
AcDbEntity
  8
LINEE VISIBILI 2D
  0
ARC
  5
665
330
1F
100
AcDbEntity
  8
LINEE VISIBILI 2D
100
AcDbCircle
 10
12.38144370702477
 20
118.4793676989458
 30
0.0
 40
2.52124018038884
100
AcDbArc
 50
82.00194316579572
 51
103.352215922643
  0
POLYLINE
  5
666
330
1F
100
AcDbEntity
  8
LINEE VISIBILI 2D
100
AcDb2dPolyline
 66
     1
 10
0.0
 20
0.0
 30
0.0
  0
VERTEX
  5
668
330
666
100
AcDbEntity
  8
LINEE VISIBILI 2D
100
AcDbVertex
100
AcDb2dVertex
 10
12.84768812715508
 20
120.7704684045486
 30
0.0
  0
VERTEX
  5
669
330
666
100
AcDbEntity
  8
LINEE VISIBILI 2D
100
AcDbVertex
100
AcDb2dVertex
 10
12.86542035782027
 20
120.7761190885626
 30
0.0
  0
VERTEX
  5
66A
330
666
100
AcDbEntity
  8
LINEE VISIBILI 2D
100
AcDbVertex
100
AcDb2dVertex
 10
12.88235430013829
 20
120.7820225809967
 30
0.0
  0
VERTEX
  5
66B
330
666
100
AcDbEntity
  8
LINEE VISIBILI 2D
100
AcDbVertex
100
AcDb2dVertex
 10
12.89838712160329
 20
120.7881707377035
 30
0.0
  0
VERTEX
  5
66C
330
666
100
AcDbEntity
  8
LINEE VISIBILI 2D
100
AcDbVertex
100
AcDb2dVertex
 10
12.90603333462291
 20
120.7913333795308
 30
0.0
  0
VERTEX
  5
66D
330
666
100
AcDbEntity
  8
LINEE VISIBILI 2D
100
AcDbVertex
100
AcDb2dVertex
 10
12.91341559140352
 20
120.7945530643384
 30
0.0
  0
VERTEX
  5
66E
330
666
100
AcDbEntity
  8
LINEE VISIBILI 2D
100
AcDbVertex
100
AcDb2dVertex
 10
12.92052113050799
 20
120.797828102326
 30
0.0
  0
VERTEX
  5
66F
330
666
100
AcDbEntity
  8
LINEE VISIBILI 2D
100
AcDbVertex
100
AcDb2dVertex
 10
12.92733732744191
 20
120.8011566506973
 30
0.0
  0
VERTEX
  5
670
330
666
100
AcDbEntity
  8
LINEE VISIBILI 2D
100
AcDbVertex
100
AcDb2dVertex
 10
12.93385173904984
 20
120.8045367138312
 30
0.0
  0
VERTEX
  5
671
330
666
100
AcDbEntity
  8
LINEE VISIBILI 2D
100
AcDbVertex
100
AcDb2dVertex
 10
12.94005214897086
 20
120.8079661441801
 30
0.0
  0
VERTEX
  5
672
330
666
100
AcDbEntity
  8
LINEE VISIBILI 2D
100
AcDbVertex
100
AcDb2dVertex
 10
12.94592661390425
 20
120.8114426439263
 30
0.0
  0
VERTEX
  5
673
330
666
100
AcDbEntity
  8
LINEE VISIBILI 2D
100
AcDbVertex
100
AcDb2dVertex
 10
12.95146351041499
 20
120.8149637674198
 30
0.0
  0
VERTEX
  5
674
330
666
100
AcDbEntity
  8
LINEE VISIBILI 2D
100
AcDbVertex
100
AcDb2dVertex
 10
12.95410183723162
 20
120.8167402591641
 30
0.0
  0
VERTEX
  5
675
330
666
100
AcDbEntity
  8
LINEE VISIBILI 2D
100
AcDbVertex
100
AcDb2dVertex
 10
12.9566515819896
 20
120.8185269244189
 30
0.0
  0
VERTEX
  5
676
330
666
100
AcDbEntity
  8
LINEE VISIBILI 2D
100
AcDbVertex
100
AcDb2dVertex
 10
12.95911140266804
 20
120.8203234174768
 30
0.0
  0
VERTEX
  5
677
330
666
100
AcDbEntity
  8
LINEE VISIBILI 2D
100
AcDbVertex
100
AcDb2dVertex
 10
12.9614799860355
 20
120.822129384145
 30
0.0
  0
VERTEX
  5
678
330
666
100
AcDbEntity
  8
LINEE VISIBILI 2D
100
AcDbVertex
100
AcDb2dVertex
 10
12.96375604909296
 20
120.8239444619173
 30
0.0
  0
VERTEX
  5
679
330
666
100
AcDbEntity
  8
LINEE VISIBILI 2D
100
AcDbVertex
100
AcDb2dVertex
 10
12.96593834050306
 20
120.8257682801582
 30
0.0
  0
VERTEX
  5
67A
330
666
100
AcDbEntity
  8
LINEE VISIBILI 2D
100
AcDbVertex
100
AcDb2dVertex
 10
12.96802564200288
 20
120.8276004603002
 30
0.0
  0
VERTEX
  5
67B
330
666
100
AcDbEntity
  8
LINEE VISIBILI 2D
100
AcDbVertex
100
AcDb2dVertex
 10
12.9700167697977
 20
120.8294406160539
 30
0.0
  0
VERTEX
  5
67C
330
666
100
AcDbEntity
  8
LINEE VISIBILI 2D
100
AcDbVertex
100
AcDb2dVertex
 10
12.97191057593294
 20
120.8312883536294
 30
0.0
  0
VERTEX
  5
67D
330
666
100
AcDbEntity
  8
LINEE VISIBILI 2D
100
AcDbVertex
100
AcDb2dVertex
 10
12.97370594964148
 20
120.8331432719714
 30
0.0
  0
VERTEX
  5
67E
330
666
100
AcDbEntity
  8
LINEE VISIBILI 2D
100
AcDbVertex
100
AcDb2dVertex
 10
12.97540181866391
 20
120.8350049630056
 30
0.0
  0
VERTEX
  5
67F
330
666
100
AcDbEntity
  8
LINEE VISIBILI 2D
100
AcDbVertex
100
AcDb2dVertex
 10
12.97699715053878
 20
120.8368730118972
 30
0.0
  0
VERTEX
  5
680
330
666
100
AcDbEntity
  8
LINEE VISIBILI 2D
100
AcDbVertex
100
AcDb2dVertex
 10
12.97849095386025
 20
120.8387469973209
 30
0.0
  0
VERTEX
  5
681
330
666
100
AcDbEntity
  8
LINEE VISIBILI 2D
100
AcDbVertex
100
AcDb2dVertex
 10
12.97988227950056
 20
120.8406264917418
 30
0.0
  0
VERTEX
  5
682
330
666
100
AcDbEntity
  8
LINEE VISIBILI 2D
100
AcDbVertex
100
AcDb2dVertex
 10
12.98117022179466
 20
120.8425110617082
 30
0.0
  0
VERTEX
  5
683
330
666
100
AcDbEntity
  8
LINEE VISIBILI 2D
100
AcDbVertex
100
AcDb2dVertex
 10
12.98235391968445
 20
120.8444002681541
 30
0.0
  0
VERTEX
  5
684
330
666
100
AcDbEntity
  8
LINEE VISIBILI 2D
100
AcDbVertex
100
AcDb2dVertex
 10
12.9834325578201
 20
120.8462936667125
 30
0.0
  0
VERTEX
  5
685
330
666
100
AcDbEntity
  8
LINEE VISIBILI 2D
100
AcDbVertex
100
AcDb2dVertex
 10
12.9844053676161
 20
120.8481908080378
 30
0.0
  0
VERTEX
  5
686
330
666
100
AcDbEntity
  8
LINEE VISIBILI 2D
100
AcDbVertex
100
AcDb2dVertex
 10
12.98527162825963
 20
120.8500912381383
 30
0.0
  0
VERTEX
  5
687
330
666
100
AcDbEntity
  8
LINEE VISIBILI 2D
100
AcDbVertex
100
AcDb2dVertex
 10
12.98603066766884
 20
120.8519944987174
 30
0.0
  0
VERTEX
  5
688
330
666
100
AcDbEntity
  8
LINEE VISIBILI 2D
100
AcDbVertex
100
AcDb2dVertex
 10
12.9866818633991
 20
120.8539001275225
 30
0.0
  0
VERTEX
  5
689
330
666
100
AcDbEntity
  8
LINEE VISIBILI 2D
100
AcDbVertex
100
AcDb2dVertex
 10
12.98722464349485
 20
120.8558076587028
 30
0.0
  0
VERTEX
  5
68A
330
666
100
AcDbEntity
  8
LINEE VISIBILI 2D
100
AcDbVertex
100
AcDb2dVertex
 10
12.98765848728527
 20
120.8577166231733
 30
0.0
  0
VERTEX
  5
68B
330
666
100
AcDbEntity
  8
LINEE VISIBILI 2D
100
AcDbVertex
100
AcDb2dVertex
 10
12.98798292612167
 20
120.8596265489869
 30
0.0
  0
VERTEX
  5
68C
330
666
100
AcDbEntity
  8
LINEE VISIBILI 2D
100
AcDbVertex
100
AcDb2dVertex
 10
12.98819754405504
 20
120.8615369617108
 30
0.0
  0
VERTEX
  5
68D
330
666
100
AcDbEntity
  8
LINEE VISIBILI 2D
100
AcDbVertex
100
AcDb2dVertex
 10
12.98830197845191
 20
120.8634473848101
 30
0.0
  0
VERTEX
  5
68E
330
666
100
AcDbEntity
  8
LINEE VISIBILI 2D
100
AcDbVertex
100
AcDb2dVertex
 10
12.98829592054717
 20
120.8653573400356
 30
0.0
  0
VERTEX
  5
68F
330
666
100
AcDbEntity
  8
LINEE VISIBILI 2D
100
AcDbVertex
100
AcDb2dVertex
 10
12.98817911593235
 20
120.8672663478154
 30
0.0
  0
VERTEX
  5
690
330
666
100
AcDbEntity
  8
LINEE VISIBILI 2D
100
AcDbVertex
100
AcDb2dVertex
 10
12.98795136497814
 20
120.8691739276509
 30
0.0
  0
VERTEX
  5
691
330
666
100
AcDbEntity
  8
LINEE VISIBILI 2D
100
AcDbVertex
100
AcDb2dVertex
 10
12.98761252319013
 20
120.8710795985153
 30
0.0
  0
VERTEX
  5
692
330
666
100
AcDbEntity
  8
LINEE VISIBILI 2D
100
AcDbVertex
100
AcDb2dVertex
 10
12.98716250149671
 20
120.872982879254
 30
0.0
  0
VERTEX
  5
693
330
666
100
AcDbEntity
  8
LINEE VISIBILI 2D
100
AcDbVertex
100
AcDb2dVertex
 10
12.9866012664684
 20
120.8748832889873
 30
0.0
  0
VERTEX
  5
694
330
666
100
AcDbEntity
  8
LINEE VISIBILI 2D
100
AcDbVertex
100
AcDb2dVertex
 10
12.98592884046795
 20
120.8767803475129
 30
0.0
  0
VERTEX
  5
695
330
666
100
AcDbEntity
  8
LINEE VISIBILI 2D
100
AcDbVertex
100
AcDb2dVertex
 10
12.98514530173079
 20
120.8786735757097
 30
0.0
  0
VERTEX
  5
696
330
666
100
AcDbEntity
  8
LINEE VISIBILI 2D
100
AcDbVertex
100
AcDb2dVertex
 10
12.98425078437543
 20
120.8805624959398
 30
0.0
  0
VERTEX
  5
697
330
666
100
AcDbEntity
  8
LINEE VISIBILI 2D
100
AcDbVertex
100
AcDb2dVertex
 10
12.98324547834368
 20
120.8824466324501
 30
0.0
  0
VERTEX
  5
698
330
666
100
AcDbEntity
  8
LINEE VISIBILI 2D
100
AcDbVertex
100
AcDb2dVertex
 10
12.98212962927079
 20
120.8843255117716
 30
0.0
  0
VERTEX
  5
699
330
666
100
AcDbEntity
  8
LINEE VISIBILI 2D
100
AcDbVertex
100
AcDb2dVertex
 10
12.98090353828556
 20
120.8861986631155
 30
0.0
  0
VERTEX
  5
69A
330
666
100
AcDbEntity
  8
LINEE VISIBILI 2D
100
AcDbVertex
100
AcDb2dVertex
 10
12.97956756174084
 20
120.8880656187668
 30
0.0
  0
VERTEX
  5
69B
330
666
100
AcDbEntity
  8
LINEE VISIBILI 2D
100
AcDbVertex
100
AcDb2dVertex
 10
12.97812211087489
 20
120.889925914473
 30
0.0
  0
VERTEX
  5
69C
330
666
100
AcDbEntity
  8
LINEE VISIBILI 2D
100
AcDbVertex
100
AcDb2dVertex
 10
12.97656765140431
 20
120.8917790898284
 30
0.0
  0
VERTEX
  5
69D
330
666
100
AcDbEntity
  8
LINEE VISIBILI 2D
100
AcDbVertex
100
AcDb2dVertex
 10
12.97490470304932
 20
120.893624688653
 30
0.0
  0
VERTEX
  5
69E
330
666
100
AcDbEntity
  8
LINEE VISIBILI 2D
100
AcDbVertex
100
AcDb2dVertex
 10
12.97313383899235
 20
120.895462259365
 30
0.0
  0
VERTEX
  5
69F
330
666
100
AcDbEntity
  8
LINEE VISIBILI 2D
100
AcDbVertex
100
AcDb2dVertex
 10
12.97125568527117
 20
120.8972913553468
 30
0.0
  0
VERTEX
  5
6A0
330
666
100
AcDbEntity
  8
LINEE VISIBILI 2D
100
AcDbVertex
100
AcDb2dVertex
 10
12.96927092010775
 20
120.8991115353035
 30
0.0
  0
VERTEX
  5
6A1
330
666
100
AcDbEntity
  8
LINEE VISIBILI 2D
100
AcDbVertex
100
AcDb2dVertex
 10
12.96718027317431
 20
120.9009223636137
 30
0.0
  0
VERTEX
  5
6A2
330
666
100
AcDbEntity
  8
LINEE VISIBILI 2D
100
AcDbVertex
100
AcDb2dVertex
 10
12.96498452479813
 20
120.9027234106714
 30
0.0
  0
VERTEX
  5
6A3
330
666
100
AcDbEntity
  8
LINEE VISIBILI 2D
100
AcDbVertex
100
AcDb2dVertex
 10
12.96268450510685
 20
120.9045142532193
 30
0.0
  0
VERTEX
  5
6A4
330
666
100
AcDbEntity
  8
LINEE VISIBILI 2D
100
AcDbVertex
100
AcDb2dVertex
 10
12.96028109311599
 20
120.9062944746716
 30
0.0
  0
VERTEX
  5
6A5
330
666
100
AcDbEntity
  8
LINEE VISIBILI 2D
100
AcDbVertex
100
AcDb2dVertex
 10
12.9577752157608
 20
120.908063665428
 30
0.0
  0
VERTEX
  5
6A6
330
666
100
AcDbEntity
  8
LINEE VISIBILI 2D
100
AcDbVertex
100
AcDb2dVertex
 10
12.95516784687436
 20
120.9098214231757
 30
0.0
  0
VERTEX
  5
6A7
330
666
100
AcDbEntity
  8
LINEE VISIBILI 2D
100
AcDbVertex
100
AcDb2dVertex
 10
12.95246000611413
 20
120.9115673531815
 30
0.0
  0
VERTEX
  5
6A8
330
666
100
AcDbEntity
  8
LINEE VISIBILI 2D
100
AcDbVertex
100
AcDb2dVertex
 10
12.94965275783936
 20
120.9133010685717
 30
0.0
  0
VERTEX
  5
6A9
330
666
100
AcDbEntity
  8
LINEE VISIBILI 2D
100
AcDbVertex
100
AcDb2dVertex
 10
12.94674720994154
 20
120.9150221906005
 30
0.0
  0
VERTEX
  5
6AA
330
666
100
AcDbEntity
  8
LINEE VISIBILI 2D
100
AcDbVertex
100
AcDb2dVertex
 10
12.94064585717811
 20
120.9184251817543
 30
0.0
  0
VERTEX
  5
6AB
330
666
100
AcDbEntity
  8
LINEE VISIBILI 2D
100
AcDbVertex
100
AcDb2dVertex
 10
12.9341656344431
 20
120.9217734686502
 30
0.0
  0
VERTEX
  5
6AC
330
666
100
AcDbEntity
  8
LINEE VISIBILI 2D
100
AcDbVertex
100
AcDb2dVertex
 10
12.92731684305108
 20
120.9250643384046
 30
0.0
  0
VERTEX
  5
6AD
330
666
100
AcDbEntity
  8
LINEE VISIBILI 2D
100
AcDbVertex
100
AcDb2dVertex
 10
12.92011035485242
 20
120.9282952295626
 30
0.0
  0
VERTEX
  5
6AE
330
666
100
AcDbEntity
  8
LINEE VISIBILI 2D
100
AcDbVertex
100
AcDb2dVertex
 10
12.91255756625591
 20
120.9314637375461
 30
0.0
  0
VERTEX
  5
6AF
330
666
100
AcDbEntity
  8
LINEE VISIBILI 2D
100
AcDbVertex
100
AcDb2dVertex
 10
12.90467035079277
 20
120.9345676192139
 30
0.0
  0
VERTEX
  5
6B0
330
666
100
AcDbEntity
  8
LINEE VISIBILI 2D
100
AcDbVertex
100
AcDb2dVertex
 10
12.89646101058292
 20
120.9376047965307
 30
0.0
  0
VERTEX
  5
6B1
330
666
100
AcDbEntity
  8
LINEE VISIBILI 2D
100
AcDbVertex
100
AcDb2dVertex
 10
12.88794222706241
 20
120.9405733593453
 30
0.0
  0
VERTEX
  5
6B2
330
666
100
AcDbEntity
  8
LINEE VISIBILI 2D
100
AcDbVertex
100
AcDb2dVertex
 10
12.87912701132426
 20
120.94347156729
 30
0.0
  0
VERTEX
  5
6B3
330
666
100
AcDbEntity
  8
LINEE VISIBILI 2D
100
AcDbVertex
100
AcDb2dVertex
 10
12.8606606779182
 20
120.9490508114058
 30
0.0
  0
VERTEX
  5
6B4
330
666
100
AcDbEntity
  8
LINEE VISIBILI 2D
100
AcDbVertex
100
AcDb2dVertex
 10
12.84117081313062
 20
120.9543320203666
 30
0.0
  0
VERTEX
  5
6B5
330
666
100
AcDbEntity
  8
LINEE VISIBILI 2D
100
AcDbVertex
100
AcDb2dVertex
 10
12.82076836954469
 20
120.9593073845008
 30
0.0
  0
VERTEX
  5
6B6
330
666
100
AcDbEntity
  8
LINEE VISIBILI 2D
100
AcDbVertex
100
AcDb2dVertex
 10
12.79956497932058
 20
120.9639717155022
 30
0.0
  0
VERTEX
  5
6B7
330
666
100
AcDbEntity
  8
LINEE VISIBILI 2D
100
AcDbVertex
100
AcDb2dVertex
 10
12.77767158733573
 20
120.9683223285286
 30
0.0
  0
VERTEX
  5
6B8
330
666
100
AcDbEntity
  8
LINEE VISIBILI 2D
100
AcDbVertex
100
AcDb2dVertex
 10
12.73224784618492
 20
120.9760832420454
 30
0.0
  0
SEQEND
  5
667
330
666
100
AcDbEntity
  8
LINEE VISIBILI 2D
  0
ARC
  5
6B9
330
1F
100
AcDbEntity
  8
LINEE VISIBILI 2D
100
AcDbCircle
 10
83.0842977468807
 20
4.379311897391009
 30
0.0
 40
0.7068866972292179
100
AcDbArc
 50
165.7904653354175
 51
270.4436978643868
  0
LINE
  5
6BA
330
1F
100
AcDbEntity
  8
LINEE VISIBILI 2D
100
AcDbLine
 10
87.91980041739861
 20
13.03188545945886
 30
0.0
 11
139.254095619342
 21
5.511798195578357
 31
0.0
  0
POLYLINE
  5
6BB
330
1F
100
AcDbEntity
  8
LINEE VISIBILI 2D
100
AcDb2dPolyline
 66
     1
 10
0.0
 20
0.0
 30
0.0
  0
VERTEX
  5
6BD
330
6BB
100
AcDbEntity
  8
LINEE VISIBILI 2D
100
AcDbVertex
100
AcDb2dVertex
 10
82.39903859130889
 20
4.55283046246297
 30
0.0
  0
VERTEX
  5
6BE
330
6BB
100
AcDbEntity
  8
LINEE VISIBILI 2D
100
AcDbVertex
100
AcDb2dVertex
 10
82.40182115856226
 20
4.595061426441462
 30
0.0
  0
VERTEX
  5
6BF
330
6BB
100
AcDbEntity
  8
LINEE VISIBILI 2D
100
AcDbVertex
100
AcDb2dVertex
 10
82.40536086175387
 20
4.637208988694109
 30
0.0
  0
VERTEX
  5
6C0
330
6BB
100
AcDbEntity
  8
LINEE VISIBILI 2D
100
AcDbVertex
100
AcDb2dVertex
 10
82.4146115492836
 20
4.721243813580667
 30
0.0
  0
VERTEX
  5
6C1
330
6BB
100
AcDbEntity
  8
LINEE VISIBILI 2D
100
AcDbVertex
100
AcDb2dVertex
 10
82.42659040056155
 20
4.804914748240262
 30
0.0
  0
VERTEX
  5
6C2
330
6BB
100
AcDbEntity
  8
LINEE VISIBILI 2D
100
AcDbVertex
100
AcDb2dVertex
 10
82.44109716225118
 20
4.888201603790516
 30
0.0
  0
VERTEX
  5
6C3
330
6BB
100
AcDbEntity
  8
LINEE VISIBILI 2D
100
AcDbVertex
100
AcDb2dVertex
 10
82.45793158101598
 20
4.971084191349047
 30
0.0
  0
VERTEX
  5
6C4
330
6BB
100
AcDbEntity
  8
LINEE VISIBILI 2D
100
AcDbVertex
100
AcDb2dVertex
 10
82.47689340351943
 20
5.053542322033472
 30
0.0
  0
VERTEX
  5
6C5
330
6BB
100
AcDbEntity
  8
LINEE VISIBILI 2D
100
AcDbVertex
100
AcDb2dVertex
 10
82.497782376425
 20
5.135555806961411
 30
0.0
  0
VERTEX
  5
6C6
330
6BB
100
AcDbEntity
  8
LINEE VISIBILI 2D
100
AcDbVertex
100
AcDb2dVertex
 10
82.52039824639615
 20
5.217104457250485
 30
0.0
  0
VERTEX
  5
6C7
330
6BB
100
AcDbEntity
  8
LINEE VISIBILI 2D
100
AcDbVertex
100
AcDb2dVertex
 10
82.55284305556449
 20
5.324792129252748
 30
0.0
  0
VERTEX
  5
6C8
330
6BB
100
AcDbEntity
  8
LINEE VISIBILI 2D
100
AcDbVertex
100
AcDb2dVertex
 10
82.58778233230474
 20
5.431664136552237
 30
0.0
  0
VERTEX
  5
6C9
330
6BB
100
AcDbEntity
  8
LINEE VISIBILI 2D
100
AcDbVertex
100
AcDb2dVertex
 10
82.62501167241424
 20
5.537762261581033
 30
0.0
  0
VERTEX
  5
6CA
330
6BB
100
AcDbEntity
  8
LINEE VISIBILI 2D
100
AcDbVertex
100
AcDb2dVertex
 10
82.66432667169047
 20
5.643128286771211
 30
0.0
  0
VERTEX
  5
6CB
330
6BB
100
AcDbEntity
  8
LINEE VISIBILI 2D
100
AcDbVertex
100
AcDb2dVertex
 10
82.74839603093274
 20
5.851831167364027
 30
0.0
  0
VERTEX
  5
6CC
330
6BB
100
AcDbEntity
  8
LINEE VISIBILI 2D
100
AcDbVertex
100
AcDb2dVertex
 10
82.83835517641096
 20
6.058107037787308
 30
0.0
  0
VERTEX
  5
6CD
330
6BB
100
AcDbEntity
  8
LINEE VISIBILI 2D
100
AcDbVertex
100
AcDb2dVertex
 10
82.96323445166637
 20
6.325813380493432
 30
0.0
  0
VERTEX
  5
6CE
330
6BB
100
AcDbEntity
  8
LINEE VISIBILI 2D
100
AcDbVertex
100
AcDb2dVertex
 10
83.0948826607708
 20
6.590120448922199
 30
0.0
  0
VERTEX
  5
6CF
330
6BB
100
AcDbEntity
  8
LINEE VISIBILI 2D
100
AcDbVertex
100
AcDb2dVertex
 10
83.23272949699457
 20
6.851239031320311
 30
0.0
  0
VERTEX
  5
6D0
330
6BB
100
AcDbEntity
  8
LINEE VISIBILI 2D
100
AcDbVertex
100
AcDb2dVertex
 10
83.37620465360798
 20
7.10937991593447
 30
0.0
  0
VERTEX
  5
6D1
330
6BB
100
AcDbEntity
  8
LINEE VISIBILI 2D
100
AcDbVertex
100
AcDb2dVertex
 10
83.52473782388129
 20
7.364753891011378
 30
0.0
  0
VERTEX
  5
6D2
330
6BB
100
AcDbEntity
  8
LINEE VISIBILI 2D
100
AcDbVertex
100
AcDb2dVertex
 10
83.67775870108479
 20
7.617571744797741
 30
0.0
  0
VERTEX
  5
6D3
330
6BB
100
AcDbEntity
  8
LINEE VISIBILI 2D
100
AcDbVertex
100
AcDb2dVertex
 10
83.99498234936364
 20
8.116382241485634
 30
0.0
  0
VERTEX
  5
6D4
330
6BB
100
AcDbEntity
  8
LINEE VISIBILI 2D
100
AcDbVertex
100
AcDb2dVertex
 10
84.40829793336408
 20
8.729577945295309
 30
0.0
  0
VERTEX
  5
6D5
330
6BB
100
AcDbEntity
  8
LINEE VISIBILI 2D
100
AcDbVertex
100
AcDb2dVertex
 10
84.83735298486868
 20
9.331608038250365
 30
0.0
  0
VERTEX
  5
6D6
330
6BB
100
AcDbEntity
  8
LINEE VISIBILI 2D
100
AcDbVertex
100
AcDb2dVertex
 10
85.28049153609124
 20
9.923358458897666
 30
0.0
  0
VERTEX
  5
6D7
330
6BB
100
AcDbEntity
  8
LINEE VISIBILI 2D
100
AcDbVertex
100
AcDb2dVertex
 10
85.73605761924561
 20
10.50571514578407
 30
0.0
  0
VERTEX
  5
6D8
330
6BB
100
AcDbEntity
  8
LINEE VISIBILI 2D
100
AcDbVertex
100
AcDb2dVertex
 10
86.2636023445345
 20
11.1529633381245
 30
0.0
  0
VERTEX
  5
6D9
330
6BB
100
AcDbEntity
  8
LINEE VISIBILI 2D
100
AcDbVertex
100
AcDb2dVertex
 10
86.80399735422595
 20
11.78958974982023
 30
0.0
  0
VERTEX
  5
6DA
330
6BB
100
AcDbEntity
  8
LINEE VISIBILI 2D
100
AcDbVertex
100
AcDb2dVertex
 10
87.35635786585879
 20
12.41582108374743
 30
0.0
  0
VERTEX
  5
6DB
330
6BB
100
AcDbEntity
  8
LINEE VISIBILI 2D
100
AcDbVertex
100
AcDb2dVertex
 10
87.91979909697182
 20
13.0318840427823
 30
0.0
  0
SEQEND
  5
6BC
330
6BB
100
AcDbEntity
  8
LINEE VISIBILI 2D
  0
LINE
  5
6DC
330
1F
100
AcDbEntity
  8
LINEE VISIBILI 2D
100
AcDbLine
 10
15.23020735604223
 20
47.07612622970191
 30
0.0
 11
13.35524787604629
 21
47.78214923788426
 31
0.0
  0
LINE
  5
6DD
330
1F
100
AcDbEntity
  8
LINEE VISIBILI 2D
100
AcDbLine
 10
86.98136772630096
 20
20.03124192112591
 30
0.0
 11
15.2612063741836
 21
47.06445296585805
 31
0.0
  0
LINE
  5
6DE
330
1F
100
AcDbEntity
  8
LINEE VISIBILI 2D
100
AcDbLine
 10
93.06929995564861
 20
17.73490812914679
 30
0.0
 11
87.51960979573484
 21
19.82822830760332
 31
0.0
  0
POLYLINE
  5
6DF
330
1F
100
AcDbEntity
  8
LINEE VISIBILI 2D
100
AcDb2dPolyline
 66
     1
 10
0.0
 20
0.0
 30
0.0
  0
VERTEX
  5
6E1
330
6DF
100
AcDbEntity
  8
LINEE VISIBILI 2D
100
AcDbVertex
100
AcDb2dVertex
 10
97.13473012820369
 20
19.68220484411691
 30
0.0
  0
VERTEX
  5
6E2
330
6DF
100
AcDbEntity
  8
LINEE VISIBILI 2D
100
AcDbVertex
100
AcDb2dVertex
 10
97.11542862593923
 20
19.68517298652549
 30
0.0
  0
VERTEX
  5
6E3
330
6DF
100
AcDbEntity
  8
LINEE VISIBILI 2D
100
AcDbVertex
100
AcDb2dVertex
 10
97.09602373612874
 20
19.68776879999771
 30
0.0
  0
VERTEX
  5
6E4
330
6DF
100
AcDbEntity
  8
LINEE VISIBILI 2D
100
AcDbVertex
100
AcDb2dVertex
 10
97.07651851546994
 20
19.69000131210481
 30
0.0
  0
VERTEX
  5
6E5
330
6DF
100
AcDbEntity
  8
LINEE VISIBILI 2D
100
AcDbVertex
100
AcDb2dVertex
 10
97.05691602258255
 20
19.69187955501519
 30
0.0
  0
VERTEX
  5
6E6
330
6DF
100
AcDbEntity
  8
LINEE VISIBILI 2D
100
AcDbVertex
100
AcDb2dVertex
 10
97.01743146424409
 20
19.69460938501885
 30
0.0
  0
VERTEX
  5
6E7
330
6DF
100
AcDbEntity
  8
LINEE VISIBILI 2D
100
AcDbVertex
100
AcDb2dVertex
 10
96.97759456871867
 20
19.69603064000473
 30
0.0
  0
VERTEX
  5
6E8
330
6DF
100
AcDbEntity
  8
LINEE VISIBILI 2D
100
AcDbVertex
100
AcDb2dVertex
 10
96.93742987469811
 20
19.69621574466264
 30
0.0
  0
VERTEX
  5
6E9
330
6DF
100
AcDbEntity
  8
LINEE VISIBILI 2D
100
AcDbVertex
100
AcDb2dVertex
 10
96.89696195210329
 20
19.69523719887196
 30
0.0
  0
VERTEX
  5
6EA
330
6DF
100
AcDbEntity
  8
LINEE VISIBILI 2D
100
AcDbVertex
100
AcDb2dVertex
 10
96.85621540220914
 20
19.69316757814583
 30
0.0
  0
VERTEX
  5
6EB
330
6DF
100
AcDbEntity
  8
LINEE VISIBILI 2D
100
AcDbVertex
100
AcDb2dVertex
 10
96.81521485775228
 20
19.69007953402358
 30
0.0
  0
VERTEX
  5
6EC
330
6DF
100
AcDbEntity
  8
LINEE VISIBILI 2D
100
AcDbVertex
100
AcDb2dVertex
 10
96.76222344422953
 20
19.68472195079127
 30
0.0
  0
VERTEX
  5
6ED
330
6DF
100
AcDbEntity
  8
LINEE VISIBILI 2D
100
AcDbVertex
100
AcDb2dVertex
 10
96.70887147326348
 20
19.6778688559094
 30
0.0
  0
VERTEX
  5
6EE
330
6DF
100
AcDbEntity
  8
LINEE VISIBILI 2D
100
AcDbVertex
100
AcDb2dVertex
 10
96.65517661682294
 20
19.66958443065451
 30
0.0
  0
VERTEX
  5
6EF
330
6DF
100
AcDbEntity
  8
LINEE VISIBILI 2D
100
AcDbVertex
100
AcDb2dVertex
 10
96.60115657214749
 20
19.6599329445982
 30
0.0
  0
VERTEX
  5
6F0
330
6DF
100
AcDbEntity
  8
LINEE VISIBILI 2D
100
AcDbVertex
100
AcDb2dVertex
 10
96.54682906173341
 20
19.64897875555898
 30
0.0
  0
VERTEX
  5
6F1
330
6DF
100
AcDbEntity
  8
LINEE VISIBILI 2D
100
AcDbVertex
100
AcDb2dVertex
 10
96.49221183331713
 20
19.63678630954677
 30
0.0
  0
VERTEX
  5
6F2
330
6DF
100
AcDbEntity
  8
LINEE VISIBILI 2D
100
AcDbVertex
100
AcDb2dVertex
 10
96.43732265985661
 20
19.62342014069975
 30
0.0
  0
VERTEX
  5
6F3
330
6DF
100
AcDbEntity
  8
LINEE VISIBILI 2D
100
AcDbVertex
100
AcDb2dVertex
 10
96.382179339511
 20
19.60894487121388
 30
0.0
  0
VERTEX
  5
6F4
330
6DF
100
AcDbEntity
  8
LINEE VISIBILI 2D
100
AcDbVertex
100
AcDb2dVertex
 10
96.27118677241639
 20
19.57687543460388
 30
0.0
  0
VERTEX
  5
6F5
330
6DF
100
AcDbEntity
  8
LINEE VISIBILI 2D
100
AcDbVertex
100
AcDb2dVertex
 10
96.1593029126201
 20
19.540843846863
 30
0.0
  0
VERTEX
  5
6F6
330
6DF
100
AcDbEntity
  8
LINEE VISIBILI 2D
100
AcDbVertex
100
AcDb2dVertex
 10
96.0465819001638
 20
19.50106610051063
 30
0.0
  0
VERTEX
  5
6F7
330
6DF
100
AcDbEntity
  8
LINEE VISIBILI 2D
100
AcDbVertex
100
AcDb2dVertex
 10
95.9330780164959
 20
19.4577587884538
 30
0.0
  0
VERTEX
  5
6F8
330
6DF
100
AcDbEntity
  8
LINEE VISIBILI 2D
100
AcDbVertex
100
AcDb2dVertex
 10
95.81884568383049
 20
19.41113910146829
 30
0.0
  0
VERTEX
  5
6F9
330
6DF
100
AcDbEntity
  8
LINEE VISIBILI 2D
100
AcDbVertex
100
AcDb2dVertex
 10
95.70393946452128
 20
19.36142482573912
 30
0.0
  0
VERTEX
  5
6FA
330
6DF
100
AcDbEntity
  8
LINEE VISIBILI 2D
100
AcDbVertex
100
AcDb2dVertex
 10
95.47232431243651
 20
19.25358661550018
 30
0.0
  0
VERTEX
  5
6FB
330
6DF
100
AcDbEntity
  8
LINEE VISIBILI 2D
100
AcDbVertex
100
AcDb2dVertex
 10
95.23862160224574
 20
19.13581318242992
 30
0.0
  0
VERTEX
  5
6FC
330
6DF
100
AcDbEntity
  8
LINEE VISIBILI 2D
100
AcDbVertex
100
AcDb2dVertex
 10
95.00302109510615
 20
19.0089406861077
 30
0.0
  0
VERTEX
  5
6FD
330
6DF
100
AcDbEntity
  8
LINEE VISIBILI 2D
100
AcDbVertex
100
AcDb2dVertex
 10
94.76566302550207
 20
18.87362427049828
 30
0.0
  0
VERTEX
  5
6FE
330
6DF
100
AcDbEntity
  8
LINEE VISIBILI 2D
100
AcDbVertex
100
AcDb2dVertex
 10
94.52668819381218
 20
18.73052263011317
 30
0.0
  0
VERTEX
  5
6FF
330
6DF
100
AcDbEntity
  8
LINEE VISIBILI 2D
100
AcDbVertex
100
AcDb2dVertex
 10
94.16681318448206
 20
18.50337145246738
 30
0.0
  0
VERTEX
  5
700
330
6DF
100
AcDbEntity
  8
LINEE VISIBILI 2D
100
AcDbVertex
100
AcDb2dVertex
 10
93.80383084930576
 20
18.26115288576593
 30
0.0
  0
VERTEX
  5
701
330
6DF
100
AcDbEntity
  8
LINEE VISIBILI 2D
100
AcDbVertex
100
AcDb2dVertex
 10
93.4379299445448
 20
18.00471387059186
 30
0.0
  0
VERTEX
  5
702
330
6DF
100
AcDbEntity
  8
LINEE VISIBILI 2D
100
AcDbVertex
100
AcDb2dVertex
 10
93.06930042364177
 20
17.73490847856944
 30
0.0
  0
SEQEND
  5
6E0
330
6DF
100
AcDbEntity
  8
LINEE VISIBILI 2D
  0
LINE
  5
703
330
1F
100
AcDbEntity
  8
LINEE VISIBILI 2D
100
AcDbLine
 10
7.080843486633966
 20
44.27590470749419
 30
0.0
 11
87.91979696395859
 21
13.03188679520427
 31
0.0
  0
LINE
  5
704
330
1F
100
AcDbEntity
  8
LINEE VISIBILI 2D
100
AcDbLine
 10
143.9468486077803
 20
10.7284834781218
 30
0.0
 11
143.8337949847085
 21
10.77136927690307
 31
0.0
  0
LINE
  5
705
330
1F
100
AcDbEntity
  8
LINEE VISIBILI 2D
100
AcDbLine
 10
143.8830945322118
 20
10.58118815419099
 30
0.0
 11
143.9551609520744
 21
10.67090649380501
 31
0.0
  0
ARC
  5
706
330
1F
100
AcDbEntity
  8
LINEE VISIBILI 2D
100
AcDbCircle
 10
146.4618725602027
 20
15.19580435848742
 30
0.0
 40
12.07193903924048
100
AcDbArc
 50
233.3416694916005
 51
256.8798716260211
  0
LINE
  5
707
330
1F
100
AcDbEntity
  8
LINEE VISIBILI 2D
100
AcDbLine
 10
139.8374406114606
 20
5.521578803306552
 30
0.0
 11
139.9135381261152
 21
5.617194346817493
 31
0.0
  0
ARC
  5
708
330
1F
100
AcDbEntity
  8
LINEE VISIBILI 2D
100
AcDbCircle
 10
139.6483605322422
 20
5.754511319055737
 30
0.0
 40
0.3000147217229439
100
AcDbArc
 50
257.3756189035849
 51
309.0675365952723
  0
LINE
  5
709
330
1F
100
AcDbEntity
  8
LINEE VISIBILI 2D
100
AcDbLine
 10
139.2540956193434
 20
5.511798195589513
 30
0.0
 11
139.5827897635171
 21
5.461749799146973
 31
0.0
  0
LINE
  5
70A
330
1F
100
AcDbEntity
  8
LINEE VISIBILI 2D
100
AcDbLine
 10
12.15055642848285
 20
48.22189261613551
 30
0.0
 11
12.03495357933773
 21
48.23861974677481
 31
0.0
  0
LINE
  5
70B
330
1F
100
AcDbEntity
  8
LINEE VISIBILI 2D
100
AcDbLine
 10
13.35524787604653
 20
47.78214923788051
 30
0.0
 11
12.1520084010361
 21
48.2213865073457
 31
0.0
  0
LINE
  5
70C
330
1F
100
AcDbEntity
  8
LINEE VISIBILI 2D
100
AcDbLine
 10
11.94049972667185
 20
48.22069400701296
 30
0.0
 11
11.6728319389735
 21
48.08613702160313
 31
0.0
  0
LINE
  5
70D
330
1F
100
AcDbEntity
  8
LINEE VISIBILI 2D
100
AcDbLine
 10
5.839523116069783
 20
44.84279052754827
 30
0.0
 11
5.805297000720512
 21
44.78829532136897
 31
0.0
  0
LINE
  5
70E
330
1F
100
AcDbEntity
  8
LINEE VISIBILI 2D
100
AcDbLine
 10
6.113324484313954
 20
45.00827503282363
 30
0.0
 11
5.839523116069783
 21
44.84279052754827
 31
0.0
  0
LINE
  5
70F
330
1F
100
AcDbEntity
  8
LINEE VISIBILI 2D
100
AcDbLine
 10
5.862510379500985
 20
44.73658284200154
 30
0.0
 11
7.080843486634829
 21
44.27590470750287
 31
0.0
  0
LINE
  5
710
330
1F
100
AcDbEntity
  8
LINEE VISIBILI 2D
100
AcDbLine
 10
11.67283193897356
 20
48.086137021603
 30
0.0
 11
6.113324484314012
 21
45.00827503282333
 31
0.0
  0
POLYLINE
  5
711
330
1F
100
AcDbEntity
  8
LINEE VISIBILI 2D
100
AcDb2dPolyline
 66
     1
 10
0.0
 20
0.0
 30
0.0
  0
VERTEX
  5
713
330
711
100
AcDbEntity
  8
LINEE VISIBILI 2D
100
AcDbVertex
100
AcDb2dVertex
 10
9.554989267711423
 20
49.44336513958177
 30
0.0
  0
VERTEX
  5
714
330
711
100
AcDbEntity
  8
LINEE VISIBILI 2D
100
AcDbVertex
100
AcDb2dVertex
 10
9.68202664698969
 20
49.43056069208528
 30
0.0
  0
VERTEX
  5
715
330
711
100
AcDbEntity
  8
LINEE VISIBILI 2D
100
AcDbVertex
100
AcDb2dVertex
 10
9.808840117103716
 20
49.41533941331108
 30
0.0
  0
VERTEX
  5
716
330
711
100
AcDbEntity
  8
LINEE VISIBILI 2D
100
AcDbVertex
100
AcDb2dVertex
 10
10.06162226165531
 20
49.37840914022994
 30
0.0
  0
VERTEX
  5
717
330
711
100
AcDbEntity
  8
LINEE VISIBILI 2D
100
AcDbVertex
100
AcDb2dVertex
 10
10.35824519064387
 20
49.3256207636861
 30
0.0
  0
VERTEX
  5
718
330
711
100
AcDbEntity
  8
LINEE VISIBILI 2D
100
AcDbVertex
100
AcDb2dVertex
 10
10.65365056896802
 20
49.26600163427615
 30
0.0
  0
VERTEX
  5
719
330
711
100
AcDbEntity
  8
LINEE VISIBILI 2D
100
AcDbVertex
100
AcDb2dVertex
 10
10.92544535407797
 20
49.20653049201649
 30
0.0
  0
VERTEX
  5
71A
330
711
100
AcDbEntity
  8
LINEE VISIBILI 2D
100
AcDbVertex
100
AcDb2dVertex
 10
11.06062791729792
 20
49.1740009201912
 30
0.0
  0
VERTEX
  5
71B
330
711
100
AcDbEntity
  8
LINEE VISIBILI 2D
100
AcDbVertex
100
AcDb2dVertex
 10
11.19503198454538
 20
49.13869589998862
 30
0.0
  0
VERTEX
  5
71C
330
711
100
AcDbEntity
  8
LINEE VISIBILI 2D
100
AcDbVertex
100
AcDb2dVertex
 10
11.28535772437939
 20
49.11282712878351
 30
0.0
  0
VERTEX
  5
71D
330
711
100
AcDbEntity
  8
LINEE VISIBILI 2D
100
AcDbVertex
100
AcDb2dVertex
 10
11.37524246251252
 20
49.08467550541042
 30
0.0
  0
VERTEX
  5
71E
330
711
100
AcDbEntity
  8
LINEE VISIBILI 2D
100
AcDbVertex
100
AcDb2dVertex
 10
11.3995338031202
 20
49.07641933768918
 30
0.0
  0
VERTEX
  5
71F
330
711
100
AcDbEntity
  8
LINEE VISIBILI 2D
100
AcDbVertex
100
AcDb2dVertex
 10
11.4115399058346
 20
49.07198428732058
 30
0.0
  0
VERTEX
  5
720
330
711
100
AcDbEntity
  8
LINEE VISIBILI 2D
100
AcDbVertex
100
AcDb2dVertex
 10
11.42338477380194
 20
49.06722497914
 30
0.0
  0
VERTEX
  5
721
330
711
100
AcDbEntity
  8
LINEE VISIBILI 2D
100
AcDbVertex
100
AcDb2dVertex
 10
11.42923076279746
 20
49.06469569396242
 30
0.0
  0
VERTEX
  5
722
330
711
100
AcDbEntity
  8
LINEE VISIBILI 2D
100
AcDbVertex
100
AcDb2dVertex
 10
11.43501726475662
 20
49.06205170304248
 30
0.0
  0
VERTEX
  5
723
330
711
100
AcDbEntity
  8
LINEE VISIBILI 2D
100
AcDbVertex
100
AcDb2dVertex
 10
11.44073788689623
 20
49.05928179261706
 30
0.0
  0
VERTEX
  5
724
330
711
100
AcDbEntity
  8
LINEE VISIBILI 2D
100
AcDbVertex
100
AcDb2dVertex
 10
11.44638623643307
 20
49.05637474892303
 30
0.0
  0
VERTEX
  5
725
330
711
100
AcDbEntity
  8
LINEE VISIBILI 2D
100
AcDbVertex
100
AcDb2dVertex
 10
11.45195592058397
 20
49.05331935819728
 30
0.0
  0
VERTEX
  5
726
330
711
100
AcDbEntity
  8
LINEE VISIBILI 2D
100
AcDbVertex
100
AcDb2dVertex
 10
11.45744054656571
 20
49.05010440667668
 30
0.0
  0
VERTEX
  5
727
330
711
100
AcDbEntity
  8
LINEE VISIBILI 2D
100
AcDbVertex
100
AcDb2dVertex
 10
11.46283372159511
 20
49.0467186805981
 30
0.0
  0
VERTEX
  5
728
330
711
100
AcDbEntity
  8
LINEE VISIBILI 2D
100
AcDbVertex
100
AcDb2dVertex
 10
11.46812905288896
 20
49.04315096619843
 30
0.0
  0
VERTEX
  5
729
330
711
100
AcDbEntity
  8
LINEE VISIBILI 2D
100
AcDbVertex
100
AcDb2dVertex
 10
11.47197987645228
 20
49.04038871749109
 30
0.0
  0
VERTEX
  5
72A
330
711
100
AcDbEntity
  8
LINEE VISIBILI 2D
100
AcDbVertex
100
AcDb2dVertex
 10
11.4757685057317
 20
49.03752344508408
 30
0.0
  0
VERTEX
  5
72B
330
711
100
AcDbEntity
  8
LINEE VISIBILI 2D
100
AcDbVertex
100
AcDb2dVertex
 10
11.4794898100176
 20
49.03455789244658
 30
0.0
  0
VERTEX
  5
72C
330
711
100
AcDbEntity
  8
LINEE VISIBILI 2D
100
AcDbVertex
100
AcDb2dVertex
 10
11.4831386586003
 20
49.03149480304779
 30
0.0
  0
VERTEX
  5
72D
330
711
100
AcDbEntity
  8
LINEE VISIBILI 2D
100
AcDbVertex
100
AcDb2dVertex
 10
11.48670992077019
 20
49.02833692035691
 30
0.0
  0
VERTEX
  5
72E
330
711
100
AcDbEntity
  8
LINEE VISIBILI 2D
100
AcDbVertex
100
AcDb2dVertex
 10
11.49019846581762
 20
49.0250869878431
 30
0.0
  0
VERTEX
  5
72F
330
711
100
AcDbEntity
  8
LINEE VISIBILI 2D
100
AcDbVertex
100
AcDb2dVertex
 10
11.49359916303293
 20
49.02174774897559
 30
0.0
  0
VERTEX
  5
730
330
711
100
AcDbEntity
  8
LINEE VISIBILI 2D
100
AcDbVertex
100
AcDb2dVertex
 10
11.49690688170651
 20
49.01832194722351
 30
0.0
  0
VERTEX
  5
731
330
711
100
AcDbEntity
  8
LINEE VISIBILI 2D
100
AcDbVertex
100
AcDb2dVertex
 10
11.5001164911287
 20
49.0148123260561
 30
0.0
  0
VERTEX
  5
732
330
711
100
AcDbEntity
  8
LINEE VISIBILI 2D
100
AcDbVertex
100
AcDb2dVertex
 10
11.50322286058986
 20
49.01122162894252
 30
0.0
  0
VERTEX
  5
733
330
711
100
AcDbEntity
  8
LINEE VISIBILI 2D
100
AcDbVertex
100
AcDb2dVertex
 10
11.50622085938034
 20
49.00755259935198
 30
0.0
  0
VERTEX
  5
734
330
711
100
AcDbEntity
  8
LINEE VISIBILI 2D
100
AcDbVertex
100
AcDb2dVertex
 10
11.50910535679052
 20
49.00380798075364
 30
0.0
  0
VERTEX
  5
735
330
711
100
AcDbEntity
  8
LINEE VISIBILI 2D
100
AcDbVertex
100
AcDb2dVertex
 10
11.51187122211074
 20
48.99999051661671
 30
0.0
  0
VERTEX
  5
736
330
711
100
AcDbEntity
  8
LINEE VISIBILI 2D
100
AcDbVertex
100
AcDb2dVertex
 10
11.51451332463136
 20
48.99610295041038
 30
0.0
  0
VERTEX
  5
737
330
711
100
AcDbEntity
  8
LINEE VISIBILI 2D
100
AcDbVertex
100
AcDb2dVertex
 10
11.51702653364275
 20
48.99214802560383
 30
0.0
  0
VERTEX
  5
738
330
711
100
AcDbEntity
  8
LINEE VISIBILI 2D
100
AcDbVertex
100
AcDb2dVertex
 10
11.51940571843525
 20
48.98812848566624
 30
0.0
  0
VERTEX
  5
739
330
711
100
AcDbEntity
  8
LINEE VISIBILI 2D
100
AcDbVertex
100
AcDb2dVertex
 10
11.52086449109045
 20
48.98550809317773
 30
0.0
  0
VERTEX
  5
73A
330
711
100
AcDbEntity
  8
LINEE VISIBILI 2D
100
AcDbVertex
100
AcDb2dVertex
 10
11.52226734479964
 20
48.98286286490256
 30
0.0
  0
VERTEX
  5
73B
330
711
100
AcDbEntity
  8
LINEE VISIBILI 2D
100
AcDbVertex
100
AcDb2dVertex
 10
11.52361602478338
 20
48.98019360394338
 30
0.0
  0
VERTEX
  5
73C
330
711
100
AcDbEntity
  8
LINEE VISIBILI 2D
100
AcDbVertex
100
AcDb2dVertex
 10
11.52491227626223
 20
48.97750111340287
 30
0.0
  0
VERTEX
  5
73D
330
711
100
AcDbEntity
  8
LINEE VISIBILI 2D
100
AcDbVertex
100
AcDb2dVertex
 10
11.52615784445675
 20
48.97478619638372
 30
0.0
  0
VERTEX
  5
73E
330
711
100
AcDbEntity
  8
LINEE VISIBILI 2D
100
AcDbVertex
100
AcDb2dVertex
 10
11.52735447458751
 20
48.97204965598859
 30
0.0
  0
VERTEX
  5
73F
330
711
100
AcDbEntity
  8
LINEE VISIBILI 2D
100
AcDbVertex
100
AcDb2dVertex
 10
11.52960790154
 20
48.96651491748112
 30
0.0
  0
VERTEX
  5
740
330
711
100
AcDbEntity
  8
LINEE VISIBILI 2D
100
AcDbVertex
100
AcDb2dVertex
 10
11.5316865188842
 20
48.96090332270187
 30
0.0
  0
VERTEX
  5
741
330
711
100
AcDbEntity
  8
LINEE VISIBILI 2D
100
AcDbVertex
100
AcDb2dVertex
 10
11.53360428838462
 20
48.95522129647223
 30
0.0
  0
VERTEX
  5
742
330
711
100
AcDbEntity
  8
LINEE VISIBILI 2D
100
AcDbVertex
100
AcDb2dVertex
 10
11.53537517180576
 20
48.9494752636136
 30
0.0
  0
VERTEX
  5
743
330
711
100
AcDbEntity
  8
LINEE VISIBILI 2D
100
AcDbVertex
100
AcDb2dVertex
 10
11.53701313091214
 20
48.94367164894742
 30
0.0
  0
VERTEX
  5
744
330
711
100
AcDbEntity
  8
LINEE VISIBILI 2D
100
AcDbVertex
100
AcDb2dVertex
 10
11.53853212746825
 20
48.93781687729505
 30
0.0
  0
VERTEX
  5
745
330
711
100
AcDbEntity
  8
LINEE VISIBILI 2D
100
AcDbVertex
100
AcDb2dVertex
 10
11.53994612323861
 20
48.93191737347791
 30
0.0
  0
VERTEX
  5
746
330
711
100
AcDbEntity
  8
LINEE VISIBILI 2D
100
AcDbVertex
100
AcDb2dVertex
 10
11.5425149594801
 20
48.92000986863497
 30
0.0
  0
VERTEX
  5
747
330
711
100
AcDbEntity
  8
LINEE VISIBILI 2D
100
AcDbVertex
100
AcDb2dVertex
 10
11.5470069401723
 20
48.89594076511368
 30
0.0
  0
VERTEX
  5
748
330
711
100
AcDbEntity
  8
LINEE VISIBILI 2D
100
AcDbVertex
100
AcDb2dVertex
 10
11.57967643163406
 20
48.69306659585242
 30
0.0
  0
VERTEX
  5
749
330
711
100
AcDbEntity
  8
LINEE VISIBILI 2D
100
AcDbVertex
100
AcDb2dVertex
 10
11.65456574072694
 20
48.18711180426716
 30
0.0
  0
VERTEX
  5
74A
330
711
100
AcDbEntity
  8
LINEE VISIBILI 2D
100
AcDbVertex
100
AcDb2dVertex
 10
11.6728319389735
 20
48.08613702160314
 30
0.0
  0
SEQEND
  5
712
330
711
100
AcDbEntity
  8
LINEE VISIBILI 2D
  0
POLYLINE
  5
74B
330
1F
100
AcDbEntity
  8
LINEE VISIBILI 2D
100
AcDb2dPolyline
 66
     1
 10
0.0
 20
0.0
 30
0.0
  0
VERTEX
  5
74D
330
74B
100
AcDbEntity
  8
LINEE VISIBILI 2D
100
AcDbVertex
100
AcDb2dVertex
 10
6.113324484313955
 20
45.00827503282363
 30
0.0
  0
VERTEX
  5
74E
330
74B
100
AcDbEntity
  8
LINEE VISIBILI 2D
100
AcDbVertex
100
AcDb2dVertex
 10
5.567153129482075
 20
44.95358035493397
 30
0.0
  0
VERTEX
  5
74F
330
74B
100
AcDbEntity
  8
LINEE VISIBILI 2D
100
AcDbVertex
100
AcDb2dVertex
 10
5.022330161428157
 20
44.88733444174984
 30
0.0
  0
VERTEX
  5
750
330
74B
100
AcDbEntity
  8
LINEE VISIBILI 2D
100
AcDbVertex
100
AcDb2dVertex
 10
3.715006599830334
 20
44.68693579048667
 30
0.0
  0
VERTEX
  5
751
330
74B
100
AcDbEntity
  8
LINEE VISIBILI 2D
100
AcDbVertex
100
AcDb2dVertex
 10
3.660491133510903
 20
44.68022289974614
 30
0.0
  0
VERTEX
  5
752
330
74B
100
AcDbEntity
  8
LINEE VISIBILI 2D
100
AcDbVertex
100
AcDb2dVertex
 10
3.633269850241569
 20
44.67765268121107
 30
0.0
  0
VERTEX
  5
753
330
74B
100
AcDbEntity
  8
LINEE VISIBILI 2D
100
AcDbVertex
100
AcDb2dVertex
 10
3.619684325753132
 20
44.67668028402134
 30
0.0
  0
VERTEX
  5
754
330
74B
100
AcDbEntity
  8
LINEE VISIBILI 2D
100
AcDbVertex
100
AcDb2dVertex
 10
3.606121643047377
 20
44.67596061121454
 30
0.0
  0
VERTEX
  5
755
330
74B
100
AcDbEntity
  8
LINEE VISIBILI 2D
100
AcDbVertex
100
AcDb2dVertex
 10
3.592586374888197
 20
44.67552685003896
 30
0.0
  0
VERTEX
  5
756
330
74B
100
AcDbEntity
  8
LINEE VISIBILI 2D
100
AcDbVertex
100
AcDb2dVertex
 10
3.57908309403949
 20
44.67541218774289
 30
0.0
  0
VERTEX
  5
757
330
74B
100
AcDbEntity
  8
LINEE VISIBILI 2D
100
AcDbVertex
100
AcDb2dVertex
 10
3.565616373265151
 20
44.67564981157459
 30
0.0
  0
VERTEX
  5
758
330
74B
100
AcDbEntity
  8
LINEE VISIBILI 2D
100
AcDbVertex
100
AcDb2dVertex
 10
3.552190785329075
 20
44.67627290878238
 30
0.0
  0
VERTEX
  5
759
330
74B
100
AcDbEntity
  8
LINEE VISIBILI 2D
100
AcDbVertex
100
AcDb2dVertex
 10
3.538810902995158
 20
44.67731466661454
 30
0.0
  0
VERTEX
  5
75A
330
74B
100
AcDbEntity
  8
LINEE VISIBILI 2D
100
AcDbVertex
100
AcDb2dVertex
 10
3.532139530417727
 20
44.67800291427984
 30
0.0
  0
VERTEX
  5
75B
330
74B
100
AcDbEntity
  8
LINEE VISIBILI 2D
100
AcDbVertex
100
AcDb2dVertex
 10
3.525481299027297
 20
44.67880827231934
 30
0.0
  0
VERTEX
  5
75C
330
74B
100
AcDbEntity
  8
LINEE VISIBILI 2D
100
AcDbVertex
100
AcDb2dVertex
 10
3.518836780419354
 20
44.67973488913908
 30
0.0
  0
VERTEX
  5
75D
330
74B
100
AcDbEntity
  8
LINEE VISIBILI 2D
100
AcDbVertex
100
AcDb2dVertex
 10
3.512206546189386
 20
44.68078691314509
 30
0.0
  0
VERTEX
  5
75E
330
74B
100
AcDbEntity
  8
LINEE VISIBILI 2D
100
AcDbVertex
100
AcDb2dVertex
 10
3.505591167932879
 20
44.68196849274342
 30
0.0
  0
VERTEX
  5
75F
330
74B
100
AcDbEntity
  8
LINEE VISIBILI 2D
100
AcDbVertex
100
AcDb2dVertex
 10
3.49899121724532
 20
44.68328377634009
 30
0.0
  0
VERTEX
  5
760
330
74B
100
AcDbEntity
  8
LINEE VISIBILI 2D
100
AcDbVertex
100
AcDb2dVertex
 10
3.492091090261605
 20
44.68480859332925
 30
0.0
  0
VERTEX
  5
761
330
74B
100
AcDbEntity
  8
LINEE VISIBILI 2D
100
AcDbVertex
100
AcDb2dVertex
 10
3.485209713128216
 20
44.6864790710645
 30
0.0
  0
VERTEX
  5
762
330
74B
100
AcDbEntity
  8
LINEE VISIBILI 2D
100
AcDbVertex
100
AcDb2dVertex
 10
3.478348260463937
 20
44.68828943813831
 30
0.0
  0
VERTEX
  5
763
330
74B
100
AcDbEntity
  8
LINEE VISIBILI 2D
100
AcDbVertex
100
AcDb2dVertex
 10
3.471507906887553
 20
44.69023392314324
 30
0.0
  0
VERTEX
  5
764
330
74B
100
AcDbEntity
  8
LINEE VISIBILI 2D
100
AcDbVertex
100
AcDb2dVertex
 10
3.457895195473603
 20
44.69450216131639
 30
0.0
  0
VERTEX
  5
765
330
74B
100
AcDbEntity
  8
LINEE VISIBILI 2D
100
AcDbVertex
100
AcDb2dVertex
 10
3.444380975836638
 20
44.69923761432407
 30
0.0
  0
VERTEX
  5
766
330
74B
100
AcDbEntity
  8
LINEE VISIBILI 2D
100
AcDbVertex
100
AcDb2dVertex
 10
3.430974644926928
 20
44.70439411090633
 30
0.0
  0
VERTEX
  5
767
330
74B
100
AcDbEntity
  8
LINEE VISIBILI 2D
100
AcDbVertex
100
AcDb2dVertex
 10
3.417685599694746
 20
44.70992547980325
 30
0.0
  0
VERTEX
  5
768
330
74B
100
AcDbEntity
  8
LINEE VISIBILI 2D
100
AcDbVertex
100
AcDb2dVertex
 10
3.404523237090363
 20
44.71578554975494
 30
0.0
  0
VERTEX
  5
769
330
74B
100
AcDbEntity
  8
LINEE VISIBILI 2D
100
AcDbVertex
100
AcDb2dVertex
 10
3.391496954064049
 20
44.72192814950143
 30
0.0
  0
VERTEX
  5
76A
330
74B
100
AcDbEntity
  8
LINEE VISIBILI 2D
100
AcDbVertex
100
AcDb2dVertex
 10
3.372976929835521
 20
44.73120033285624
 30
0.0
  0
VERTEX
  5
76B
330
74B
100
AcDbEntity
  8
LINEE VISIBILI 2D
100
AcDbVertex
100
AcDb2dVertex
 10
3.354740692244811
 20
44.74092771177341
 30
0.0
  0
VERTEX
  5
76C
330
74B
100
AcDbEntity
  8
LINEE VISIBILI 2D
100
AcDbVertex
100
AcDb2dVertex
 10
3.336769958489225
 20
44.7510747037412
 30
0.0
  0
VERTEX
  5
76D
330
74B
100
AcDbEntity
  8
LINEE VISIBILI 2D
100
AcDbVertex
100
AcDb2dVertex
 10
3.319046445766071
 20
44.76160572624791
 30
0.0
  0
VERTEX
  5
76E
330
74B
100
AcDbEntity
  8
LINEE VISIBILI 2D
100
AcDbVertex
100
AcDb2dVertex
 10
3.301551871272657
 20
44.77248519678183
 30
0.0
  0
VERTEX
  5
76F
330
74B
100
AcDbEntity
  8
LINEE VISIBILI 2D
100
AcDbVertex
100
AcDb2dVertex
 10
3.284267952206288
 20
44.78367753283122
 30
0.0
  0
VERTEX
  5
770
330
74B
100
AcDbEntity
  8
LINEE VISIBILI 2D
100
AcDbVertex
100
AcDb2dVertex
 10
3.250258949143922
 20
44.80685847142964
 30
0.0
  0
VERTEX
  5
771
330
74B
100
AcDbEntity
  8
LINEE VISIBILI 2D
100
AcDbVertex
100
AcDb2dVertex
 10
3.211757177925083
 20
44.83471334297881
 30
0.0
  0
VERTEX
  5
772
330
74B
100
AcDbEntity
  8
LINEE VISIBILI 2D
100
AcDbVertex
100
AcDb2dVertex
 10
3.174041091365609
 20
44.86359133356221
 30
0.0
  0
VERTEX
  5
773
330
74B
100
AcDbEntity
  8
LINEE VISIBILI 2D
100
AcDbVertex
100
AcDb2dVertex
 10
3.137064212070071
 20
44.89341469035863
 30
0.0
  0
VERTEX
  5
774
330
74B
100
AcDbEntity
  8
LINEE VISIBILI 2D
100
AcDbVertex
100
AcDb2dVertex
 10
3.100780062643043
 20
44.92410566054693
 30
0.0
  0
VERTEX
  5
775
330
74B
100
AcDbEntity
  8
LINEE VISIBILI 2D
100
AcDbVertex
100
AcDb2dVertex
 10
3.065142165689096
 20
44.95558649130591
 30
0.0
  0
VERTEX
  5
776
330
74B
100
AcDbEntity
  8
LINEE VISIBILI 2D
100
AcDbVertex
100
AcDb2dVertex
 10
3.030104043812806
 20
44.98777942981442
 30
0.0
  0
VERTEX
  5
777
330
74B
100
AcDbEntity
  8
LINEE VISIBILI 2D
100
AcDbVertex
100
AcDb2dVertex
 10
2.961641215711482
 20
45.05399061879533
 30
0.0
  0
VERTEX
  5
778
330
74B
100
AcDbEntity
  8
LINEE VISIBILI 2D
100
AcDbVertex
100
AcDb2dVertex
 10
2.891656791528863
 20
45.1260516830251
 30
0.0
  0
VERTEX
  5
779
330
74B
100
AcDbEntity
  8
LINEE VISIBILI 2D
100
AcDbVertex
100
AcDb2dVertex
 10
2.857685043247497
 20
45.16301706230436
 30
0.0
  0
VERTEX
  5
77A
330
74B
100
AcDbEntity
  8
LINEE VISIBILI 2D
100
AcDbVertex
100
AcDb2dVertex
 10
2.824528516010417
 20
45.20067846682226
 30
0.0
  0
VERTEX
  5
77B
330
74B
100
AcDbEntity
  8
LINEE VISIBILI 2D
100
AcDbVertex
100
AcDb2dVertex
 10
2.792288393695868
 20
45.23909049192556
 30
0.0
  0
VERTEX
  5
77C
330
74B
100
AcDbEntity
  8
LINEE VISIBILI 2D
100
AcDbVertex
100
AcDb2dVertex
 10
2.761065860182093
 20
45.27830773296106
 30
0.0
  0
VERTEX
  5
77D
330
74B
100
AcDbEntity
  8
LINEE VISIBILI 2D
100
AcDbVertex
100
AcDb2dVertex
 10
2.730962099347338
 20
45.31838478527555
 30
0.0
  0
VERTEX
  5
77E
330
74B
100
AcDbEntity
  8
LINEE VISIBILI 2D
100
AcDbVertex
100
AcDb2dVertex
 10
2.702078295069844
 20
45.35937624421579
 30
0.0
  0
VERTEX
  5
77F
330
74B
100
AcDbEntity
  8
LINEE VISIBILI 2D
100
AcDbVertex
100
AcDb2dVertex
 10
2.680813287107224
 20
45.39149900871962
 30
0.0
  0
VERTEX
  5
780
330
74B
100
AcDbEntity
  8
LINEE VISIBILI 2D
100
AcDbVertex
100
AcDb2dVertex
 10
2.660475676291461
 20
45.42421887319986
 30
0.0
  0
VERTEX
  5
781
330
74B
100
AcDbEntity
  8
LINEE VISIBILI 2D
100
AcDbVertex
100
AcDb2dVertex
 10
2.641214287352192
 20
45.45756188690449
 30
0.0
  0
VERTEX
  5
782
330
74B
100
AcDbEntity
  8
LINEE VISIBILI 2D
100
AcDbVertex
100
AcDb2dVertex
 10
2.632033683814255
 20
45.47447521510595
 30
0.0
  0
VERTEX
  5
783
330
74B
100
AcDbEntity
  8
LINEE VISIBILI 2D
100
AcDbVertex
100
AcDb2dVertex
 10
2.623177945019056
 20
45.49155409908149
 30
0.0
  0
VERTEX
  5
784
330
74B
100
AcDbEntity
  8
LINEE VISIBILI 2D
100
AcDbVertex
100
AcDb2dVertex
 10
2.614665674057801
 20
45.50880179498713
 30
0.0
  0
VERTEX
  5
785
330
74B
100
AcDbEntity
  8
LINEE VISIBILI 2D
100
AcDbVertex
100
AcDb2dVertex
 10
2.606515474021692
 20
45.52622155897885
 30
0.0
  0
VERTEX
  5
786
330
74B
100
AcDbEntity
  8
LINEE VISIBILI 2D
100
AcDbVertex
100
AcDb2dVertex
 10
2.598745948001936
 20
45.54381664721264
 30
0.0
  0
VERTEX
  5
787
330
74B
100
AcDbEntity
  8
LINEE VISIBILI 2D
100
AcDbVertex
100
AcDb2dVertex
 10
2.591375699089737
 20
45.56159031584452
 30
0.0
  0
VERTEX
  5
788
330
74B
100
AcDbEntity
  8
LINEE VISIBILI 2D
100
AcDbVertex
100
AcDb2dVertex
 10
2.5844233303763
 20
45.57954582103048
 30
0.0
  0
VERTEX
  5
789
330
74B
100
AcDbEntity
  8
LINEE VISIBILI 2D
100
AcDbVertex
100
AcDb2dVertex
 10
2.577907444952829
 20
45.59768641892651
 30
0.0
  0
VERTEX
  5
78A
330
74B
100
AcDbEntity
  8
LINEE VISIBILI 2D
100
AcDbVertex
100
AcDb2dVertex
 10
2.571846645910531
 20
45.61601536568862
 30
0.0
  0
VERTEX
  5
78B
330
74B
100
AcDbEntity
  8
LINEE VISIBILI 2D
100
AcDbVertex
100
AcDb2dVertex
 10
2.566259536340609
 20
45.6345359174728
 30
0.0
  0
SEQEND
  5
74C
330
74B
100
AcDbEntity
  8
LINEE VISIBILI 2D
  0
POLYLINE
  5
78C
330
1F
100
AcDbEntity
  8
LINEE VISIBILI 2D
100
AcDb2dPolyline
 66
     1
 10
0.0
 20
0.0
 30
0.0
  0
VERTEX
  5
78E
330
78C
100
AcDbEntity
  8
LINEE VISIBILI 2D
100
AcDbVertex
100
AcDb2dVertex
 10
149.3277165130528
 20
10.69392945025822
 30
0.0
  0
VERTEX
  5
78F
330
78C
100
AcDbEntity
  8
LINEE VISIBILI 2D
100
AcDbVertex
100
AcDb2dVertex
 10
149.1936576875454
 20
10.5889481825569
 30
0.0
  0
VERTEX
  5
790
330
78C
100
AcDbEntity
  8
LINEE VISIBILI 2D
100
AcDbVertex
100
AcDb2dVertex
 10
149.062810961472
 20
10.4800425622327
 30
0.0
  0
VERTEX
  5
791
330
78C
100
AcDbEntity
  8
LINEE VISIBILI 2D
100
AcDbVertex
100
AcDb2dVertex
 10
148.9348102549832
 20
10.36778236633465
 30
0.0
  0
VERTEX
  5
792
330
78C
100
AcDbEntity
  8
LINEE VISIBILI 2D
100
AcDbVertex
100
AcDb2dVertex
 10
148.8092894882294
 20
10.2527373719118
 30
0.0
  0
VERTEX
  5
793
330
78C
100
AcDbEntity
  8
LINEE VISIBILI 2D
100
AcDbVertex
100
AcDb2dVertex
 10
148.6374975071827
 20
10.08830649999626
 30
0.0
  0
VERTEX
  5
794
330
78C
100
AcDbEntity
  8
LINEE VISIBILI 2D
100
AcDbVertex
100
AcDb2dVertex
 10
148.4693030402573
 20
9.920183032332992
 30
0.0
  0
VERTEX
  5
795
330
78C
100
AcDbEntity
  8
LINEE VISIBILI 2D
100
AcDbVertex
100
AcDb2dVertex
 10
148.141599630739
 20
9.575374490839038
 30
0.0
  0
VERTEX
  5
796
330
78C
100
AcDbEntity
  8
LINEE VISIBILI 2D
100
AcDbVertex
100
AcDb2dVertex
 10
147.7464822103198
 20
9.136259877977277
 30
0.0
  0
VERTEX
  5
797
330
78C
100
AcDbEntity
  8
LINEE VISIBILI 2D
100
AcDbVertex
100
AcDb2dVertex
 10
147.3625122682424
 20
8.687408823046425
 30
0.0
  0
VERTEX
  5
798
330
78C
100
AcDbEntity
  8
LINEE VISIBILI 2D
100
AcDbVertex
100
AcDb2dVertex
 10
146.9883903404468
 20
8.230225024879356
 30
0.0
  0
VERTEX
  5
799
330
78C
100
AcDbEntity
  8
LINEE VISIBILI 2D
100
AcDbVertex
100
AcDb2dVertex
 10
146.6228169628732
 20
7.766112182308945
 30
0.0
  0
VERTEX
  5
79A
330
78C
100
AcDbEntity
  8
LINEE VISIBILI 2D
100
AcDbVertex
100
AcDb2dVertex
 10
145.8162669759366
 20
6.686241315299609
 30
0.0
  0
VERTEX
  5
79B
330
78C
100
AcDbEntity
  8
LINEE VISIBILI 2D
100
AcDbVertex
100
AcDb2dVertex
 10
145.0470921350194
 20
5.579455266493386
 30
0.0
  0
VERTEX
  5
79C
330
78C
100
AcDbEntity
  8
LINEE VISIBILI 2D
100
AcDbVertex
100
AcDb2dVertex
 10
144.3636081448992
 20
4.52202188367102
 30
0.0
  0
VERTEX
  5
79D
330
78C
100
AcDbEntity
  8
LINEE VISIBILI 2D
100
AcDbVertex
100
AcDb2dVertex
 10
144.0368525098325
 20
3.983937997677785
 30
0.0
  0
VERTEX
  5
79E
330
78C
100
AcDbEntity
  8
LINEE VISIBILI 2D
100
AcDbVertex
100
AcDb2dVertex
 10
143.7216213797605
 20
3.43898779807348
 30
0.0
  0
SEQEND
  5
78D
330
78C
100
AcDbEntity
  8
LINEE VISIBILI 2D
  0
LINE
  5
79F
330
1F
100
AcDbEntity
  8
LINEE VISIBILI 2D
100
AcDbLine
 10
139.9135381261152
 20
5.617194346817484
 30
0.0
 11
143.8830945322118
 21
10.581188154191
 31
0.0
  0
LINE
  5
7A0
330
1F
100
AcDbEntity
  8
LINEE VISIBILI 2D
100
AcDbLine
 10
143.9551609520744
 20
10.67090649380492
 30
0.0
 11
143.9468486079979
 21
10.72848347836845
 31
0.0
  0
ARC
  5
7A1
330
1F
100
AcDbEntity
  8
LINEE VISIBILI 2D
100
AcDbCircle
 10
139.9559821243509
 20
8.426802493569514
 30
0.0
 40
0.0911691942731667
100
AcDbArc
 50
338.3634151345062
 51
102.4848954640694
  0
ARC
  5
7A2
330
1F
100
AcDbEntity
  8
LINEE VISIBILI 2D
100
AcDbCircle
 10
139.8154612206184
 20
8.147040007503662
 30
0.0
 40
0.3852461078036344
100
AcDbArc
 50
77.52229243081164
 51
126.2528826610442
  0
ARC
  5
7A3
330
1F
100
AcDbEntity
  8
LINEE VISIBILI 2D
100
AcDbCircle
 10
139.8376721090527
 20
8.590366136118362
 30
0.0
 40
0.2830393274360148
100
AcDbArc
 50
207.9493507759224
 51
315.8411435292517
  0
LINE
  5
7A4
330
1F
100
AcDbEntity
  8
LINEE VISIBILI 2D
100
AcDbLine
 10
140.2262255415917
 20
11.26864475586626
 30
0.0
 11
93.06930102659919
 21
17.73490767104663
 31
0.0
  0
LINE
  5
7A5
330
1F
100
AcDbEntity
  8
LINEE VISIBILI 2D
100
AcDbLine
 10
143.8337949847073
 20
10.77136927689935
 30
0.0
 11
140.2641919439736
 21
11.26341357972783
 31
0.0
  0
LINE
  5
7A6
330
1F
100
AcDbEntity
  8
LINEE VISIBILI 2D
100
AcDbLine
 10
139.5827897635171
 20
5.461749799146886
 30
0.0
 11
143.8337949847085
 21
10.77136927690298
 31
0.0
  0
ARC
  5
7A7
330
1F
100
AcDbEntity
  8
LINEE VISIBILI 2D
100
AcDbCircle
 10
15.31493970644302
 20
44.15087002965661
 30
0.0
 40
0.1665018208868493
100
AcDbArc
 50
173.009956007354
 51
325.2837795412481
  0
ARC
  5
7A8
330
1F
100
AcDbEntity
  8
LINEE VISIBILI 2D
100
AcDbCircle
 10
15.40615058513058
 20
44.1210998680857
 30
0.0
 40
0.0794739044656839
100
AcDbArc
 50
305.058462212062
 51
115.158153355547
  0
LINE
  5
7A9
330
1F
100
AcDbEntity
  8
LINEE VISIBILI 2D
100
AcDbLine
 10
15.14967544142642
 20
44.17113278038693
 30
0.0
 11
15.34172252265176
 21
44.19826845874221
 31
0.0
  0
POLYLINE
  5
7AA
330
1F
100
AcDbEntity
  8
LINEE VISIBILI 2D
100
AcDb2dPolyline
 66
     1
 10
0.0
 20
0.0
 30
0.0
  0
VERTEX
  5
7AC
330
7AA
100
AcDbEntity
  8
LINEE VISIBILI 2D
100
AcDbVertex
100
AcDb2dVertex
 10
88.08101707488068
 20
16.3456250161532
 30
0.0
  0
VERTEX
  5
7AD
330
7AA
100
AcDbEntity
  8
LINEE VISIBILI 2D
100
AcDbVertex
100
AcDb2dVertex
 10
88.07582096458871
 20
16.34111702600069
 30
0.0
  0
VERTEX
  5
7AE
330
7AA
100
AcDbEntity
  8
LINEE VISIBILI 2D
100
AcDbVertex
100
AcDb2dVertex
 10
88.07041143060509
 20
16.33673646892799
 30
0.0
  0
VERTEX
  5
7AF
330
7AA
100
AcDbEntity
  8
LINEE VISIBILI 2D
100
AcDbVertex
100
AcDb2dVertex
 10
88.06479306464806
 20
16.33248339761654
 30
0.0
  0
VERTEX
  5
7B0
330
7AA
100
AcDbEntity
  8
LINEE VISIBILI 2D
100
AcDbVertex
100
AcDb2dVertex
 10
88.05897045955829
 20
16.3283578643797
 30
0.0
  0
VERTEX
  5
7B1
330
7AA
100
AcDbEntity
  8
LINEE VISIBILI 2D
100
AcDbVertex
100
AcDb2dVertex
 10
88.05294820927839
 20
16.32435992116008
 30
0.0
  0
VERTEX
  5
7B2
330
7AA
100
AcDbEntity
  8
LINEE VISIBILI 2D
100
AcDbVertex
100
AcDb2dVertex
 10
88.04673090883264
 20
16.3204896195267
 30
0.0
  0
VERTEX
  5
7B3
330
7AA
100
AcDbEntity
  8
LINEE VISIBILI 2D
100
AcDbVertex
100
AcDb2dVertex
 10
88.04032315430601
 20
16.31674701067232
 30
0.0
  0
VERTEX
  5
7B4
330
7AA
100
AcDbEntity
  8
LINEE VISIBILI 2D
100
AcDbVertex
100
AcDb2dVertex
 10
88.03372954282343
 20
16.31313214541066
 30
0.0
  0
VERTEX
  5
7B5
330
7AA
100
AcDbEntity
  8
LINEE VISIBILI 2D
100
AcDbVertex
100
AcDb2dVertex
 10
88.0269546725286
 20
16.30964507417369
 30
0.0
  0
VERTEX
  5
7B6
330
7AA
100
AcDbEntity
  8
LINEE VISIBILI 2D
100
AcDbVertex
100
AcDb2dVertex
 10
88.02000314256273
 20
16.30628584700884
 30
0.0
  0
VERTEX
  5
7B7
330
7AA
100
AcDbEntity
  8
LINEE VISIBILI 2D
100
AcDbVertex
100
AcDb2dVertex
 10
88.01287955304308
 20
16.30305451357633
 30
0.0
  0
VERTEX
  5
7B8
330
7AA
100
AcDbEntity
  8
LINEE VISIBILI 2D
100
AcDbVertex
100
AcDb2dVertex
 10
88.00558850504142
 20
16.29995112314634
 30
0.0
  0
VERTEX
  5
7B9
330
7AA
100
AcDbEntity
  8
LINEE VISIBILI 2D
100
AcDbVertex
100
AcDb2dVertex
 10
87.99813460056203
 20
16.29697572459637
 30
0.0
  0
VERTEX
  5
7BA
330
7AA
100
AcDbEntity
  8
LINEE VISIBILI 2D
100
AcDbVertex
100
AcDb2dVertex
 10
87.99052244251971
 20
16.29412836640842
 30
0.0
  0
VERTEX
  5
7BB
330
7AA
100
AcDbEntity
  8
LINEE VISIBILI 2D
100
AcDbVertex
100
AcDb2dVertex
 10
87.98275663471768
 20
16.29140909666633
 30
0.0
  0
VERTEX
  5
7BC
330
7AA
100
AcDbEntity
  8
LINEE VISIBILI 2D
100
AcDbVertex
100
AcDb2dVertex
 10
87.97484178182509
 20
16.28881796305298
 30
0.0
  0
VERTEX
  5
7BD
330
7AA
100
AcDbEntity
  8
LINEE VISIBILI 2D
100
AcDbVertex
100
AcDb2dVertex
 10
87.96678248935448
 20
16.28635501284756
 30
0.0
  0
VERTEX
  5
7BE
330
7AA
100
AcDbEntity
  8
LINEE VISIBILI 2D
100
AcDbVertex
100
AcDb2dVertex
 10
87.95858336363911
 20
16.28402029292291
 30
0.0
  0
VERTEX
  5
7BF
330
7AA
100
AcDbEntity
  8
LINEE VISIBILI 2D
100
AcDbVertex
100
AcDb2dVertex
 10
87.95024901180983
 20
16.28181384974272
 30
0.0
  0
VERTEX
  5
7C0
330
7AA
100
AcDbEntity
  8
LINEE VISIBILI 2D
100
AcDbVertex
100
AcDb2dVertex
 10
87.941784041772
 20
16.2797357293588
 30
0.0
  0
VERTEX
  5
7C1
330
7AA
100
AcDbEntity
  8
LINEE VISIBILI 2D
100
AcDbVertex
100
AcDb2dVertex
 10
87.92448068242558
 20
16.27596463911143
 30
0.0
  0
VERTEX
  5
7C2
330
7AA
100
AcDbEntity
  8
LINEE VISIBILI 2D
100
AcDbVertex
100
AcDb2dVertex
 10
87.90671016344443
 20
16.27270738225464
 30
0.0
  0
VERTEX
  5
7C3
330
7AA
100
AcDbEntity
  8
LINEE VISIBILI 2D
100
AcDbVertex
100
AcDb2dVertex
 10
87.88850937355531
 20
16.26996431209805
 30
0.0
  0
VERTEX
  5
7C4
330
7AA
100
AcDbEntity
  8
LINEE VISIBILI 2D
100
AcDbVertex
100
AcDb2dVertex
 10
87.86991521159491
 20
16.26773577510011
 30
0.0
  0
VERTEX
  5
7C5
330
7AA
100
AcDbEntity
  8
LINEE VISIBILI 2D
100
AcDbVertex
100
AcDb2dVertex
 10
87.85096458572587
 20
16.26602211078109
 30
0.0
  0
VERTEX
  5
7C6
330
7AA
100
AcDbEntity
  8
LINEE VISIBILI 2D
100
AcDbVertex
100
AcDb2dVertex
 10
87.83169441264119
 20
16.26482365163633
 30
0.0
  0
VERTEX
  5
7C7
330
7AA
100
AcDbEntity
  8
LINEE VISIBILI 2D
100
AcDbVertex
100
AcDb2dVertex
 10
87.81214161675697
 20
16.26414072304953
 30
0.0
  0
VERTEX
  5
7C8
330
7AA
100
AcDbEntity
  8
LINEE VISIBILI 2D
100
AcDbVertex
100
AcDb2dVertex
 10
87.79234312939363
 20
16.26397364320624
 30
0.0
  0
VERTEX
  5
7C9
330
7AA
100
AcDbEntity
  8
LINEE VISIBILI 2D
100
AcDbVertex
100
AcDb2dVertex
 10
87.77233588794572
 20
16.26432272300744
 30
0.0
  0
VERTEX
  5
7CA
330
7AA
100
AcDbEntity
  8
LINEE VISIBILI 2D
100
AcDbVertex
100
AcDb2dVertex
 10
87.75215683503985
 20
16.26518826598337
 30
0.0
  0
VERTEX
  5
7CB
330
7AA
100
AcDbEntity
  8
LINEE VISIBILI 2D
100
AcDbVertex
100
AcDb2dVertex
 10
87.73184291768146
 20
16.26657056820743
 30
0.0
  0
VERTEX
  5
7CC
330
7AA
100
AcDbEntity
  8
LINEE VISIBILI 2D
100
AcDbVertex
100
AcDb2dVertex
 10
87.71143108639021
 20
16.26846991821031
 30
0.0
  0
VERTEX
  5
7CD
330
7AA
100
AcDbEntity
  8
LINEE VISIBILI 2D
100
AcDbVertex
100
AcDb2dVertex
 10
87.69095829432364
 20
16.2708865968943
 30
0.0
  0
VERTEX
  5
7CE
330
7AA
100
AcDbEntity
  8
LINEE VISIBILI 2D
100
AcDbVertex
100
AcDb2dVertex
 10
87.67046149638982
 20
16.27382087744774
 30
0.0
  0
VERTEX
  5
7CF
330
7AA
100
AcDbEntity
  8
LINEE VISIBILI 2D
100
AcDbVertex
100
AcDb2dVertex
 10
87.64997764834861
 20
16.27727302525977
 30
0.0
  0
VERTEX
  5
7D0
330
7AA
100
AcDbEntity
  8
LINEE VISIBILI 2D
100
AcDbVertex
100
AcDb2dVertex
 10
87.62954370590147
 20
16.28124329783516
 30
0.0
  0
VERTEX
  5
7D1
330
7AA
100
AcDbEntity
  8
LINEE VISIBILI 2D
100
AcDbVertex
100
AcDb2dVertex
 10
87.60919662377052
 20
16.2857319447095
 30
0.0
  0
VERTEX
  5
7D2
330
7AA
100
AcDbEntity
  8
LINEE VISIBILI 2D
100
AcDbVertex
100
AcDb2dVertex
 10
87.58897335476573
 20
16.29073920736444
 30
0.0
  0
VERTEX
  5
7D3
330
7AA
100
AcDbEntity
  8
LINEE VISIBILI 2D
100
AcDbVertex
100
AcDb2dVertex
 10
87.56891084884189
 20
16.29626531914338
 30
0.0
  0
VERTEX
  5
7D4
330
7AA
100
AcDbEntity
  8
LINEE VISIBILI 2D
100
AcDbVertex
100
AcDb2dVertex
 10
87.54904605214361
 20
16.30231050516719
 30
0.0
  0
VERTEX
  5
7D5
330
7AA
100
AcDbEntity
  8
LINEE VISIBILI 2D
100
AcDbVertex
100
AcDb2dVertex
 10
87.52941590604013
 20
16.30887498225032
 30
0.0
  0
VERTEX
  5
7D6
330
7AA
100
AcDbEntity
  8
LINEE VISIBILI 2D
100
AcDbVertex
100
AcDb2dVertex
 10
87.51005734614857
 20
16.31595895881712
 30
0.0
  0
VERTEX
  5
7D7
330
7AA
100
AcDbEntity
  8
LINEE VISIBILI 2D
100
AcDbVertex
100
AcDb2dVertex
 10
87.49119541624486
 20
16.32348591584205
 30
0.0
  0
VERTEX
  5
7D8
330
7AA
100
AcDbEntity
  8
LINEE VISIBILI 2D
100
AcDbVertex
100
AcDb2dVertex
 10
87.4730389016082
 20
16.33136638912592
 30
0.0
  0
VERTEX
  5
7D9
330
7AA
100
AcDbEntity
  8
LINEE VISIBILI 2D
100
AcDbVertex
100
AcDb2dVertex
 10
87.45560216728284
 20
16.33958046255311
 30
0.0
  0
VERTEX
  5
7DA
330
7AA
100
AcDbEntity
  8
LINEE VISIBILI 2D
100
AcDbVertex
100
AcDb2dVertex
 10
87.43889956210885
 20
16.34810822167088
 30
0.0
  0
VERTEX
  5
7DB
330
7AA
100
AcDbEntity
  8
LINEE VISIBILI 2D
100
AcDbVertex
100
AcDb2dVertex
 10
87.4229454191121
 20
16.35692975433953
 30
0.0
  0
VERTEX
  5
7DC
330
7AA
100
AcDbEntity
  8
LINEE VISIBILI 2D
100
AcDbVertex
100
AcDb2dVertex
 10
87.41525349577837
 20
16.36144446399618
 30
0.0
  0
VERTEX
  5
7DD
330
7AA
100
AcDbEntity
  8
LINEE VISIBILI 2D
100
AcDbVertex
100
AcDb2dVertex
 10
87.40775405592012
 20
16.36602515134681
 30
0.0
  0
VERTEX
  5
7DE
330
7AA
100
AcDbEntity
  8
LINEE VISIBILI 2D
100
AcDbVertex
100
AcDb2dVertex
 10
87.40044888690723
 20
16.37066932829226
 30
0.0
  0
VERTEX
  5
7DF
330
7AA
100
AcDbEntity
  8
LINEE VISIBILI 2D
100
AcDbVertex
100
AcDb2dVertex
 10
87.39333977520399
 20
16.37537450698671
 30
0.0
  0
VERTEX
  5
7E0
330
7AA
100
AcDbEntity
  8
LINEE VISIBILI 2D
100
AcDbVertex
100
AcDb2dVertex
 10
87.38642850638395
 20
16.38013819985386
 30
0.0
  0
VERTEX
  5
7E1
330
7AA
100
AcDbEntity
  8
LINEE VISIBILI 2D
100
AcDbVertex
100
AcDb2dVertex
 10
87.3797168651459
 20
16.38495791960244
 30
0.0
  0
VERTEX
  5
7E2
330
7AA
100
AcDbEntity
  8
LINEE VISIBILI 2D
100
AcDbVertex
100
AcDb2dVertex
 10
87.3732066353296
 20
16.38983117924128
 30
0.0
  0
VERTEX
  5
7E3
330
7AA
100
AcDbEntity
  8
LINEE VISIBILI 2D
100
AcDbVertex
100
AcDb2dVertex
 10
87.3668995999324
 20
16.39475549209376
 30
0.0
  0
VERTEX
  5
7E4
330
7AA
100
AcDbEntity
  8
LINEE VISIBILI 2D
100
AcDbVertex
100
AcDb2dVertex
 10
87.36079754112591
 20
16.39972837181169
 30
0.0
  0
VERTEX
  5
7E5
330
7AA
100
AcDbEntity
  8
LINEE VISIBILI 2D
100
AcDbVertex
100
AcDb2dVertex
 10
87.35490224027328
 20
16.40474733238867
 30
0.0
  0
VERTEX
  5
7E6
330
7AA
100
AcDbEntity
  8
LINEE VISIBILI 2D
100
AcDbVertex
100
AcDb2dVertex
 10
87.34921547794689
 20
16.40980988817288
 30
0.0
  0
VERTEX
  5
7E7
330
7AA
100
AcDbEntity
  8
LINEE VISIBILI 2D
100
AcDbVertex
100
AcDb2dVertex
 10
87.34373903394613
 20
16.41491355387929
 30
0.0
  0
VERTEX
  5
7E8
330
7AA
100
AcDbEntity
  8
LINEE VISIBILI 2D
100
AcDbVertex
100
AcDb2dVertex
 10
87.33847468731607
 20
16.42005584460137
 30
0.0
  0
VERTEX
  5
7E9
330
7AA
100
AcDbEntity
  8
LINEE VISIBILI 2D
100
AcDbVertex
100
AcDb2dVertex
 10
87.33342421636614
 20
16.42523427582219
 30
0.0
  0
VERTEX
  5
7EA
330
7AA
100
AcDbEntity
  8
LINEE VISIBILI 2D
100
AcDbVertex
100
AcDb2dVertex
 10
87.32858939868933
 20
16.43044636342495
 30
0.0
  0
VERTEX
  5
7EB
330
7AA
100
AcDbEntity
  8
LINEE VISIBILI 2D
100
AcDbVertex
100
AcDb2dVertex
 10
87.32397201118182
 20
16.43568962370303
 30
0.0
  0
VERTEX
  5
7EC
330
7AA
100
AcDbEntity
  8
LINEE VISIBILI 2D
100
AcDbVertex
100
AcDb2dVertex
 10
87.31957383006296
 20
16.44096157336939
 30
0.0
  0
VERTEX
  5
7ED
330
7AA
100
AcDbEntity
  8
LINEE VISIBILI 2D
100
AcDbVertex
100
AcDb2dVertex
 10
87.31539663089566
 20
16.44625972956552
 30
0.0
  0
VERTEX
  5
7EE
330
7AA
100
AcDbEntity
  8
LINEE VISIBILI 2D
100
AcDbVertex
100
AcDb2dVertex
 10
87.31144218860718
 20
16.45158160986971
 30
0.0
  0
VERTEX
  5
7EF
330
7AA
100
AcDbEntity
  8
LINEE VISIBILI 2D
100
AcDbVertex
100
AcDb2dVertex
 10
87.30771227751031
 20
16.4569247323049
 30
0.0
  0
VERTEX
  5
7F0
330
7AA
100
AcDbEntity
  8
LINEE VISIBILI 2D
100
AcDbVertex
100
AcDb2dVertex
 10
87.30420867132494
 20
16.46228661534582
 30
0.0
  0
VERTEX
  5
7F1
330
7AA
100
AcDbEntity
  8
LINEE VISIBILI 2D
100
AcDbVertex
100
AcDb2dVertex
 10
87.30093314320004
 20
16.46766477792572
 30
0.0
  0
VERTEX
  5
7F2
330
7AA
100
AcDbEntity
  8
LINEE VISIBILI 2D
100
AcDbVertex
100
AcDb2dVertex
 10
87.29788746573603
 20
16.47305673944248
 30
0.0
  0
VERTEX
  5
7F3
330
7AA
100
AcDbEntity
  8
LINEE VISIBILI 2D
100
AcDbVertex
100
AcDb2dVertex
 10
87.29507341100747
 20
16.47846001976415
 30
0.0
  0
VERTEX
  5
7F4
330
7AA
100
AcDbEntity
  8
LINEE VISIBILI 2D
100
AcDbVertex
100
AcDb2dVertex
 10
87.29375379580423
 20
16.48116512956538
 30
0.0
  0
VERTEX
  5
7F5
330
7AA
100
AcDbEntity
  8
LINEE VISIBILI 2D
100
AcDbVertex
100
AcDb2dVertex
 10
87.29249275058631
 20
16.48387213923394
 30
0.0
  0
VERTEX
  5
7F6
330
7AA
100
AcDbEntity
  8
LINEE VISIBILI 2D
100
AcDbVertex
100
AcDb2dVertex
 10
87.29129049672554
 20
16.48658073888767
 30
0.0
  0
VERTEX
  5
7F7
330
7AA
100
AcDbEntity
  8
LINEE VISIBILI 2D
100
AcDbVertex
100
AcDb2dVertex
 10
87.29014725556529
 20
16.4892906186747
 30
0.0
  0
VERTEX
  5
7F8
330
7AA
100
AcDbEntity
  8
LINEE VISIBILI 2D
100
AcDbVertex
100
AcDb2dVertex
 10
87.28906324842125
 20
16.49200146877346
 30
0.0
  0
VERTEX
  5
7F9
330
7AA
100
AcDbEntity
  8
LINEE VISIBILI 2D
100
AcDbVertex
100
AcDb2dVertex
 10
87.28803869658207
 20
16.49471297939283
 30
0.0
  0
VERTEX
  5
7FA
330
7AA
100
AcDbEntity
  8
LINEE VISIBILI 2D
100
AcDbVertex
100
AcDb2dVertex
 10
87.28707382131045
 20
16.4974248407722
 30
0.0
  0
VERTEX
  5
7FB
330
7AA
100
AcDbEntity
  8
LINEE VISIBILI 2D
100
AcDbVertex
100
AcDb2dVertex
 10
87.28616884384344
 20
16.50013674318157
 30
0.0
  0
VERTEX
  5
7FC
330
7AA
100
AcDbEntity
  8
LINEE VISIBILI 2D
100
AcDbVertex
100
AcDb2dVertex
 10
87.28532398539369
 20
16.50284837692164
 30
0.0
  0
VERTEX
  5
7FD
330
7AA
100
AcDbEntity
  8
LINEE VISIBILI 2D
100
AcDbVertex
100
AcDb2dVertex
 10
87.28453946714989
 20
16.50555943232383
 30
0.0
  0
VERTEX
  5
7FE
330
7AA
100
AcDbEntity
  8
LINEE VISIBILI 2D
100
AcDbVertex
100
AcDb2dVertex
 10
87.28381551027782
 20
16.5082695997504
 30
0.0
  0
VERTEX
  5
7FF
330
7AA
100
AcDbEntity
  8
LINEE VISIBILI 2D
100
AcDbVertex
100
AcDb2dVertex
 10
87.28315233592097
 20
16.51097856959443
 30
0.0
  0
VERTEX
  5
800
330
7AA
100
AcDbEntity
  8
LINEE VISIBILI 2D
100
AcDbVertex
100
AcDb2dVertex
 10
87.28255016520144
 20
16.51368603227991
 30
0.0
  0
VERTEX
  5
801
330
7AA
100
AcDbEntity
  8
LINEE VISIBILI 2D
100
AcDbVertex
100
AcDb2dVertex
 10
87.28200921922072
 20
16.51639167826174
 30
0.0
  0
VERTEX
  5
802
330
7AA
100
AcDbEntity
  8
LINEE VISIBILI 2D
100
AcDbVertex
100
AcDb2dVertex
 10
87.28152971906045
 20
16.51909519802578
 30
0.0
  0
VERTEX
  5
803
330
7AA
100
AcDbEntity
  8
LINEE VISIBILI 2D
100
AcDbVertex
100
AcDb2dVertex
 10
87.28111188578337
 20
16.52179628208886
 30
0.0
  0
VERTEX
  5
804
330
7AA
100
AcDbEntity
  8
LINEE VISIBILI 2D
100
AcDbVertex
100
AcDb2dVertex
 10
87.28075594043408
 20
16.52449462099874
 30
0.0
  0
VERTEX
  5
805
330
7AA
100
AcDbEntity
  8
LINEE VISIBILI 2D
100
AcDbVertex
100
AcDb2dVertex
 10
87.28046210403988
 20
16.52718990533417
 30
0.0
  0
VERTEX
  5
806
330
7AA
100
AcDbEntity
  8
LINEE VISIBILI 2D
100
AcDbVertex
100
AcDb2dVertex
 10
87.28023059761161
 20
16.52988182570485
 30
0.0
  0
VERTEX
  5
807
330
7AA
100
AcDbEntity
  8
LINEE VISIBILI 2D
100
AcDbVertex
100
AcDb2dVertex
 10
87.28006164214448
 20
16.53257007275138
 30
0.0
  0
VERTEX
  5
808
330
7AA
100
AcDbEntity
  8
LINEE VISIBILI 2D
100
AcDbVertex
100
AcDb2dVertex
 10
87.27995545861897
 20
16.53525433714529
 30
0.0
  0
VERTEX
  5
809
330
7AA
100
AcDbEntity
  8
LINEE VISIBILI 2D
100
AcDbVertex
100
AcDb2dVertex
 10
87.2799122680017
 20
16.53793430958896
 30
0.0
  0
VERTEX
  5
80A
330
7AA
100
AcDbEntity
  8
LINEE VISIBILI 2D
100
AcDbVertex
100
AcDb2dVertex
 10
87.27993229124619
 20
16.5406096808156
 30
0.0
  0
VERTEX
  5
80B
330
7AA
100
AcDbEntity
  8
LINEE VISIBILI 2D
100
AcDbVertex
100
AcDb2dVertex
 10
87.2800157492939
 20
16.54328014158914
 30
0.0
  0
VERTEX
  5
80C
330
7AA
100
AcDbEntity
  8
LINEE VISIBILI 2D
100
AcDbVertex
100
AcDb2dVertex
 10
87.28016286307489
 20
16.54594538270426
 30
0.0
  0
VERTEX
  5
80D
330
7AA
100
AcDbEntity
  8
LINEE VISIBILI 2D
100
AcDbVertex
100
AcDb2dVertex
 10
87.28037385350896
 20
16.54860509498622
 30
0.0
  0
VERTEX
  5
80E
330
7AA
100
AcDbEntity
  8
LINEE VISIBILI 2D
100
AcDbVertex
100
AcDb2dVertex
 10
87.28064894150636
 20
16.55125896929083
 30
0.0
  0
VERTEX
  5
80F
330
7AA
100
AcDbEntity
  8
LINEE VISIBILI 2D
100
AcDbVertex
100
AcDb2dVertex
 10
87.28098834796874
 20
16.55390669650438
 30
0.0
  0
VERTEX
  5
810
330
7AA
100
AcDbEntity
  8
LINEE VISIBILI 2D
100
AcDbVertex
100
AcDb2dVertex
 10
87.28139229379006
 20
16.55654796754348
 30
0.0
  0
VERTEX
  5
811
330
7AA
100
AcDbEntity
  8
LINEE VISIBILI 2D
100
AcDbVertex
100
AcDb2dVertex
 10
87.28186099985746
 20
16.55918247335502
 30
0.0
  0
VERTEX
  5
812
330
7AA
100
AcDbEntity
  8
LINEE VISIBILI 2D
100
AcDbVertex
100
AcDb2dVertex
 10
87.28239468705231
 20
16.561809904916
 30
0.0
  0
VERTEX
  5
813
330
7AA
100
AcDbEntity
  8
LINEE VISIBILI 2D
100
AcDbVertex
100
AcDb2dVertex
 10
87.28299357625095
 20
16.56442995323343
 30
0.0
  0
VERTEX
  5
814
330
7AA
100
AcDbEntity
  8
LINEE VISIBILI 2D
100
AcDbVertex
100
AcDb2dVertex
 10
87.28365788832565
 20
16.56704230934422
 30
0.0
  0
VERTEX
  5
815
330
7AA
100
AcDbEntity
  8
LINEE VISIBILI 2D
100
AcDbVertex
100
AcDb2dVertex
 10
87.28438784414569
 20
16.56964666431498
 30
0.0
  0
VERTEX
  5
816
330
7AA
100
AcDbEntity
  8
LINEE VISIBILI 2D
100
AcDbVertex
100
AcDb2dVertex
 10
87.28518366457821
 20
16.57224270924193
 30
0.0
  0
VERTEX
  5
817
330
7AA
100
AcDbEntity
  8
LINEE VISIBILI 2D
100
AcDbVertex
100
AcDb2dVertex
 10
87.286045570489
 20
16.57483013525072
 30
0.0
  0
VERTEX
  5
818
330
7AA
100
AcDbEntity
  8
LINEE VISIBILI 2D
100
AcDbVertex
100
AcDb2dVertex
 10
87.28697378274375
 20
16.57740863349624
 30
0.0
  0
VERTEX
  5
819
330
7AA
100
AcDbEntity
  8
LINEE VISIBILI 2D
100
AcDbVertex
100
AcDb2dVertex
 10
87.2879685222089
 20
16.57997789516249
 30
0.0
  0
VERTEX
  5
81A
330
7AA
100
AcDbEntity
  8
LINEE VISIBILI 2D
100
AcDbVertex
100
AcDb2dVertex
 10
87.28903000975238
 20
16.58253761146236
 30
0.0
  0
VERTEX
  5
81B
330
7AA
100
AcDbEntity
  8
LINEE VISIBILI 2D
100
AcDbVertex
100
AcDb2dVertex
 10
87.29015846624484
 20
16.58508747363742
 30
0.0
  0
VERTEX
  5
81C
330
7AA
100
AcDbEntity
  8
LINEE VISIBILI 2D
100
AcDbVertex
100
AcDb2dVertex
 10
87.29135411256061
 20
16.5876271729578
 30
0.0
  0
VERTEX
  5
81D
330
7AA
100
AcDbEntity
  8
LINEE VISIBILI 2D
100
AcDbVertex
100
AcDb2dVertex
 10
87.29261716957861
 20
16.59015640072191
 30
0.0
  0
VERTEX
  5
81E
330
7AA
100
AcDbEntity
  8
LINEE VISIBILI 2D
100
AcDbVertex
100
AcDb2dVertex
 10
87.29394785818325
 20
16.5926748482562
 30
0.0
  0
VERTEX
  5
81F
330
7AA
100
AcDbEntity
  8
LINEE VISIBILI 2D
100
AcDbVertex
100
AcDb2dVertex
 10
87.2953463992656
 20
16.59518220691503
 30
0.0
  0
VERTEX
  5
820
330
7AA
100
AcDbEntity
  8
LINEE VISIBILI 2D
100
AcDbVertex
100
AcDb2dVertex
 10
87.2968130137243
 20
16.59767816808033
 30
0.0
  0
VERTEX
  5
821
330
7AA
100
AcDbEntity
  8
LINEE VISIBILI 2D
100
AcDbVertex
100
AcDb2dVertex
 10
87.29834792246665
 20
16.60016242316145
 30
0.0
  0
VERTEX
  5
822
330
7AA
100
AcDbEntity
  8
LINEE VISIBILI 2D
100
AcDbVertex
100
AcDb2dVertex
 10
87.29995134640942
 20
16.60263466359482
 30
0.0
  0
VERTEX
  5
823
330
7AA
100
AcDbEntity
  8
LINEE VISIBILI 2D
100
AcDbVertex
100
AcDb2dVertex
 10
87.30162350648006
 20
16.60509458084374
 30
0.0
  0
VERTEX
  5
824
330
7AA
100
AcDbEntity
  8
LINEE VISIBILI 2D
100
AcDbVertex
100
AcDb2dVertex
 10
87.30336462361776
 20
16.60754186639812
 30
0.0
  0
VERTEX
  5
825
330
7AA
100
AcDbEntity
  8
LINEE VISIBILI 2D
100
AcDbVertex
100
AcDb2dVertex
 10
87.30517491877424
 20
16.60997621177415
 30
0.0
  0
VERTEX
  5
826
330
7AA
100
AcDbEntity
  8
LINEE VISIBILI 2D
100
AcDbVertex
100
AcDb2dVertex
 10
87.30705461291504
 20
16.61239730851407
 30
0.0
  0
VERTEX
  5
827
330
7AA
100
AcDbEntity
  8
LINEE VISIBILI 2D
100
AcDbVertex
100
AcDb2dVertex
 10
87.30900392702036
 20
16.61480484818583
 30
0.0
  0
VERTEX
  5
828
330
7AA
100
AcDbEntity
  8
LINEE VISIBILI 2D
100
AcDbVertex
100
AcDb2dVertex
 10
87.31102308208635
 20
16.61719852238284
 30
0.0
  0
VERTEX
  5
829
330
7AA
100
AcDbEntity
  8
LINEE VISIBILI 2D
100
AcDbVertex
100
AcDb2dVertex
 10
87.31311229912588
 20
16.61957802272358
 30
0.0
  0
VERTEX
  5
82A
330
7AA
100
AcDbEntity
  8
LINEE VISIBILI 2D
100
AcDbVertex
100
AcDb2dVertex
 10
87.31527179916984
 20
16.62194304085135
 30
0.0
  0
VERTEX
  5
82B
330
7AA
100
AcDbEntity
  8
LINEE VISIBILI 2D
100
AcDbVertex
100
AcDb2dVertex
 10
87.31750180326807
 20
16.62429326843392
 30
0.0
  0
VERTEX
  5
82C
330
7AA
100
AcDbEntity
  8
LINEE VISIBILI 2D
100
AcDbVertex
100
AcDb2dVertex
 10
87.3198025324905
 20
16.62662839716314
 30
0.0
  0
VERTEX
  5
82D
330
7AA
100
AcDbEntity
  8
LINEE VISIBILI 2D
100
AcDbVertex
100
AcDb2dVertex
 10
87.32217420792819
 20
16.6289481187547
 30
0.0
  0
VERTEX
  5
82E
330
7AA
100
AcDbEntity
  8
LINEE VISIBILI 2D
100
AcDbVertex
100
AcDb2dVertex
 10
87.32461705069443
 20
16.63125212494767
 30
0.0
  0
VERTEX
  5
82F
330
7AA
100
AcDbEntity
  8
LINEE VISIBILI 2D
100
AcDbVertex
100
AcDb2dVertex
 10
87.32713128192576
 20
16.63354010750419
 30
0.0
  0
SEQEND
  5
7AB
330
7AA
100
AcDbEntity
  8
LINEE VISIBILI 2D
  0
ARC
  5
830
330
1F
100
AcDbEntity
  8
LINEE VISIBILI 2D
100
AcDbCircle
 10
87.92938854304781
 20
16.45757016697288
 30
0.0
 40
0.1884752728021062
100
AcDbArc
 50
323.5620846703485
 51
87.2616258197188
  0
LINE
  5
831
330
1F
100
AcDbEntity
  8
LINEE VISIBILI 2D
100
AcDbLine
 10
87.32713128192576
 20
16.63354010750419
 30
0.0
 11
87.41626637421491
 21
16.68435598220631
 31
0.0
  0
LINE
  5
832
330
1F
100
AcDbEntity
  8
LINEE VISIBILI 2D
100
AcDbLine
 10
15.23061845103075
 20
47.06551710335043
 30
0.0
 11
12.15119484546421
 21
48.22374219625226
 31
0.0
  0
LINE
  5
833
330
1F
100
AcDbEntity
  8
LINEE VISIBILI 2D
100
AcDbLine
 10
50.61569748272813
 20
33.74226946206182
 30
0.0
 11
15.26161656327967
 21
47.05385699619163
 31
0.0
  0
LINE
  5
834
330
1F
100
AcDbEntity
  8
LINEE VISIBILI 2D
100
AcDbLine
 10
87.91979674673951
 20
13.03188623356125
 30
0.0
 11
93.06930102659997
 21
17.7349076710554
 31
0.0
  0
LINE
  5
835
330
1F
100
AcDbEntity
  8
LINEE VISIBILI 2D
100
AcDbLine
 10
5.86251037950097
 20
44.73658284200172
 30
0.0
 11
12.15119484545958
 21
48.22374219624567
 31
0.0
  0
LINE
  5
836
330
1F
100
AcDbEntity
  8
LINEE VISIBILI 2D
100
AcDbLine
 10
5.805616739292013
 20
44.78833624465297
 30
0.0
 11
5.862510379500968
 21
44.73658284200172
 31
0.0
  0
LINE
  5
837
330
1F
100
AcDbEntity
  8
LINEE VISIBILI 2D
100
AcDbLine
 10
11.94049972667187
 20
48.220694007013
 30
0.0
 11
5.839523116069814
 21
44.84279052754823
 31
0.0
  0
LINE
  5
838
330
1F
100
AcDbEntity
  8
LINEE VISIBILI 2D
100
AcDbLine
 10
12.03495039525052
 20
48.2387639816375
 30
0.0
 11
11.94049972667187
 21
48.220694007013
 31
0.0
  0
ARC
  5
841
330
1F
100
AcDbEntity
  8
LINEE VISIBILI 2D
100
AcDbCircle
 10
38.54522179956808
 20
200.7517002788304
 30
0.0
 40
1.455135275406744
100
AcDbArc
 50
1.191428360327591
 51
31.04991149215897
  0
POLYLINE
  5
842
330
1F
100
AcDbEntity
  8
LINEE VISIBILI 2D
100
AcDb2dPolyline
 66
     1
 10
0.0
 20
0.0
 30
0.0
  0
VERTEX
  5
845
330
842
100
AcDbEntity
  8
LINEE VISIBILI 2D
100
AcDbVertex
100
AcDb2dVertex
 10
17.1014592026386
 20
216.3802385391992
 30
0.0
  0
VERTEX
  5
846
330
842
100
AcDbEntity
  8
LINEE VISIBILI 2D
100
AcDbVertex
100
AcDb2dVertex
 10
16.62782659064453
 20
218.8954340660847
 30
0.0
  0
VERTEX
  5
847
330
842
100
AcDbEntity
  8
LINEE VISIBILI 2D
100
AcDbVertex
100
AcDb2dVertex
 10
16.21205909099861
 20
221.4370726589605
 30
0.0
  0
VERTEX
  5
848
330
842
100
AcDbEntity
  8
LINEE VISIBILI 2D
100
AcDbVertex
100
AcDb2dVertex
 10
15.86441640030723
 20
223.9887108524684
 30
0.0
  0
VERTEX
  5
849
330
842
100
AcDbEntity
  8
LINEE VISIBILI 2D
100
AcDbVertex
100
AcDb2dVertex
 10
15.59223123021122
 20
226.5494487466769
 30
0.0
  0
VERTEX
  5
84A
330
842
100
AcDbEntity
  8
LINEE VISIBILI 2D
100
AcDbVertex
100
AcDb2dVertex
 10
15.4160304117878
 20
228.8902477253353
 30
0.0
  0
VERTEX
  5
84B
330
842
100
AcDbEntity
  8
LINEE VISIBILI 2D
100
AcDbVertex
100
AcDb2dVertex
 10
15.31385842505017
 20
231.2353046900439
 30
0.0
  0
VERTEX
  5
84C
330
842
100
AcDbEntity
  8
LINEE VISIBILI 2D
100
AcDbVertex
100
AcDb2dVertex
 10
15.2909691685169
 20
233.5820659446696
 30
0.0
  0
VERTEX
  5
84D
330
842
100
AcDbEntity
  8
LINEE VISIBILI 2D
100
AcDbVertex
100
AcDb2dVertex
 10
15.31089740736396
 20
234.7552876506599
 30
0.0
  0
VERTEX
  5
84E
330
842
100
AcDbEntity
  8
LINEE VISIBILI 2D
100
AcDbVertex
100
AcDb2dVertex
 10
15.35261654070659
 20
235.9279777930795
 30
0.0
  0
VERTEX
  5
84F
330
842
100
AcDbEntity
  8
LINEE VISIBILI 2D
100
AcDbVertex
100
AcDb2dVertex
 10
15.46749389645004
 20
237.8250114113984
 30
0.0
  0
VERTEX
  5
850
330
842
100
AcDbEntity
  8
LINEE VISIBILI 2D
100
AcDbVertex
100
AcDb2dVertex
 10
15.6405413648828
 20
239.717895425174
 30
0.0
  0
VERTEX
  5
851
330
842
100
AcDbEntity
  8
LINEE VISIBILI 2D
100
AcDbVertex
100
AcDb2dVertex
 10
15.87106005465587
 20
241.6047113922373
 30
0.0
  0
VERTEX
  5
852
330
842
100
AcDbEntity
  8
LINEE VISIBILI 2D
100
AcDbVertex
100
AcDb2dVertex
 10
16.15835107442028
 20
243.4835408704187
 30
0.0
  0
VERTEX
  5
853
330
842
100
AcDbEntity
  8
LINEE VISIBILI 2D
100
AcDbVertex
100
AcDb2dVertex
 10
16.4700568671505
 20
245.2006235278842
 30
0.0
  0
VERTEX
  5
854
330
842
100
AcDbEntity
  8
LINEE VISIBILI 2D
100
AcDbVertex
100
AcDb2dVertex
 10
18.32569659252112
 20
253.6248017281525
 30
0.0
  0
VERTEX
  5
855
330
842
100
AcDbEntity
  8
LINEE VISIBILI 2D
100
AcDbVertex
100
AcDb2dVertex
 10
18.57504466149345
 20
254.9045794453931
 30
0.0
  0
VERTEX
  5
856
330
842
100
AcDbEntity
  8
LINEE VISIBILI 2D
100
AcDbVertex
100
AcDb2dVertex
 10
18.78682353593012
 20
256.1910236598897
 30
0.0
  0
VERTEX
  5
857
330
842
100
AcDbEntity
  8
LINEE VISIBILI 2D
100
AcDbVertex
100
AcDb2dVertex
 10
18.87724984738663
 20
256.8500774622605
 30
0.0
  0
VERTEX
  5
858
330
842
100
AcDbEntity
  8
LINEE VISIBILI 2D
100
AcDbVertex
100
AcDb2dVertex
 10
18.95449659054395
 20
257.5107994967471
 30
0.0
  0
VERTEX
  5
859
330
842
100
AcDbEntity
  8
LINEE VISIBILI 2D
100
AcDbVertex
100
AcDb2dVertex
 10
19.0177807896925
 20
258.1729637962059
 30
0.0
  0
VERTEX
  5
85A
330
842
100
AcDbEntity
  8
LINEE VISIBILI 2D
100
AcDbVertex
100
AcDb2dVertex
 10
19.06631946912268
 20
258.8363443934939
 30
0.0
  0
VERTEX
  5
85B
330
842
100
AcDbEntity
  8
LINEE VISIBILI 2D
100
AcDbVertex
100
AcDb2dVertex
 10
19.10034413400446
 20
259.5193962104052
 30
0.0
  0
VERTEX
  5
85C
330
842
100
AcDbEntity
  8
LINEE VISIBILI 2D
100
AcDbVertex
100
AcDb2dVertex
 10
19.1190114133198
 20
260.2031138769332
 30
0.0
  0
VERTEX
  5
85D
330
842
100
AcDbEntity
  8
LINEE VISIBILI 2D
100
AcDbVertex
100
AcDb2dVertex
 10
19.12337846217579
 20
260.8871164044228
 30
0.0
  0
VERTEX
  5
85E
330
842
100
AcDbEntity
  8
LINEE VISIBILI 2D
100
AcDbVertex
100
AcDb2dVertex
 10
19.11450243567956
 20
261.5710228042184
 30
0.0
  0
VERTEX
  5
85F
330
842
100
AcDbEntity
  8
LINEE VISIBILI 2D
100
AcDbVertex
100
AcDb2dVertex
 10
19.08849810228517
 20
262.3737699626173
 30
0.0
  0
VERTEX
  5
860
330
842
100
AcDbEntity
  8
LINEE VISIBILI 2D
100
AcDbVertex
100
AcDb2dVertex
 10
19.04682603450357
 20
263.1757724512098
 30
0.0
  0
VERTEX
  5
861
330
842
100
AcDbEntity
  8
LINEE VISIBILI 2D
100
AcDbVertex
100
AcDb2dVertex
 10
18.92105531705965
 20
264.7771976890143
 30
0.0
  0
VERTEX
  5
862
330
842
100
AcDbEntity
  8
LINEE VISIBILI 2D
100
AcDbVertex
100
AcDb2dVertex
 10
18.74634352590953
 20
266.3746070577108
 30
0.0
  0
VERTEX
  5
863
330
842
100
AcDbEntity
  8
LINEE VISIBILI 2D
100
AcDbVertex
100
AcDb2dVertex
 10
18.53184390361496
 20
267.9673090973777
 30
0.0
  0
VERTEX
  5
864
330
842
100
AcDbEntity
  8
LINEE VISIBILI 2D
100
AcDbVertex
100
AcDb2dVertex
 10
16.1108598780783
 20
281.9365062086699
 30
0.0
  0
VERTEX
  5
865
330
842
100
AcDbEntity
  8
LINEE VISIBILI 2D
100
AcDbVertex
100
AcDb2dVertex
 10
15.81687213959484
 20
284.1293250140442
 30
0.0
  0
VERTEX
  5
866
330
842
100
AcDbEntity
  8
LINEE VISIBILI 2D
100
AcDbVertex
100
AcDb2dVertex
 10
15.60458990009093
 20
286.1326525782235
 30
0.0
  0
VERTEX
  5
867
330
842
100
AcDbEntity
  8
LINEE VISIBILI 2D
100
AcDbVertex
100
AcDb2dVertex
 10
15.45398907225818
 20
288.1415888110336
 30
0.0
  0
VERTEX
  5
868
330
842
100
AcDbEntity
  8
LINEE VISIBILI 2D
100
AcDbVertex
100
AcDb2dVertex
 10
15.4044392484533
 20
289.1473320170764
 30
0.0
  0
VERTEX
  5
869
330
842
100
AcDbEntity
  8
LINEE VISIBILI 2D
100
AcDbVertex
100
AcDb2dVertex
 10
15.37345385044799
 20
290.1534835969585
 30
0.0
  0
VERTEX
  5
86A
330
842
100
AcDbEntity
  8
LINEE VISIBILI 2D
100
AcDbVertex
100
AcDb2dVertex
 10
15.36208090253616
 20
291.1597122862401
 30
0.0
  0
VERTEX
  5
86B
330
842
100
AcDbEntity
  8
LINEE VISIBILI 2D
100
AcDbVertex
100
AcDb2dVertex
 10
15.37136842901175
 20
292.1656868204822
 30
0.0
  0
VERTEX
  5
86C
330
842
100
AcDbEntity
  8
LINEE VISIBILI 2D
100
AcDbVertex
100
AcDb2dVertex
 10
15.40962671087461
 20
293.3495763742809
 30
0.0
  0
VERTEX
  5
86D
330
842
100
AcDbEntity
  8
LINEE VISIBILI 2D
100
AcDbVertex
100
AcDb2dVertex
 10
15.47614891568702
 20
294.532344895189
 30
0.0
  0
VERTEX
  5
86E
330
842
100
AcDbEntity
  8
LINEE VISIBILI 2D
100
AcDbVertex
100
AcDb2dVertex
 10
15.56909533898176
 20
295.7136831637051
 30
0.0
  0
VERTEX
  5
86F
330
842
100
AcDbEntity
  8
LINEE VISIBILI 2D
100
AcDbVertex
100
AcDb2dVertex
 10
15.68662627629161
 20
296.8932819603277
 30
0.0
  0
VERTEX
  5
870
330
842
100
AcDbEntity
  8
LINEE VISIBILI 2D
100
AcDbVertex
100
AcDb2dVertex
 10
15.82690202314933
 20
298.0708320655554
 30
0.0
  0
VERTEX
  5
871
330
842
100
AcDbEntity
  8
LINEE VISIBILI 2D
100
AcDbVertex
100
AcDb2dVertex
 10
15.98808287508771
 20
299.2460242598867
 30
0.0
  0
VERTEX
  5
872
330
842
100
AcDbEntity
  8
LINEE VISIBILI 2D
100
AcDbVertex
100
AcDb2dVertex
 10
16.36580107633752
 20
301.5880980378544
 30
0.0
  0
VERTEX
  5
873
330
842
100
AcDbEntity
  8
LINEE VISIBILI 2D
100
AcDbVertex
100
AcDb2dVertex
 10
16.89580204807416
 20
304.3599787244762
 30
0.0
  0
VERTEX
  5
874
330
842
100
AcDbEntity
  8
LINEE VISIBILI 2D
100
AcDbVertex
100
AcDb2dVertex
 10
17.49633535602888
 20
307.1166987559044
 30
0.0
  0
VERTEX
  5
875
330
842
100
AcDbEntity
  8
LINEE VISIBILI 2D
100
AcDbVertex
100
AcDb2dVertex
 10
19.19995797318255
 20
313.9476575391435
 30
0.0
  0
SEQEND
  5
876
330
842
100
AcDbEntity
  8
LINEE VISIBILI 2D
  0
POLYLINE
  5
877
330
1F
100
AcDbEntity
  8
LINEE VISIBILI 2D
100
AcDb2dPolyline
 66
     1
 10
0.0
 20
0.0
 30
0.0
  0
VERTEX
  5
878
330
877
100
AcDbEntity
  8
LINEE VISIBILI 2D
100
AcDbVertex
100
AcDb2dVertex
 10
19.54013240196179
 20
312.8821005040351
 30
0.0
  0
VERTEX
  5
879
330
877
100
AcDbEntity
  8
LINEE VISIBILI 2D
100
AcDbVertex
100
AcDb2dVertex
 10
17.95590359167604
 20
306.4322863489032
 30
0.0
  0
VERTEX
  5
87A
330
877
100
AcDbEntity
  8
LINEE VISIBILI 2D
100
AcDbVertex
100
AcDb2dVertex
 10
17.38398944449269
 20
303.7521898374241
 30
0.0
  0
VERTEX
  5
87B
330
877
100
AcDbEntity
  8
LINEE VISIBILI 2D
100
AcDbVertex
100
AcDb2dVertex
 10
16.88234219315543
 20
301.0576505638293
 30
0.0
  0
VERTEX
  5
87C
330
877
100
AcDbEntity
  8
LINEE VISIBILI 2D
100
AcDbVertex
100
AcDb2dVertex
 10
16.53202702498507
 20
298.81114310848
 30
0.0
  0
VERTEX
  5
87D
330
877
100
AcDbEntity
  8
LINEE VISIBILI 2D
100
AcDbVertex
100
AcDb2dVertex
 10
16.38329299789315
 20
297.6841472928425
 30
0.0
  0
VERTEX
  5
87E
330
877
100
AcDbEntity
  8
LINEE VISIBILI 2D
100
AcDbVertex
100
AcDb2dVertex
 10
16.25434606359987
 20
296.5550046209488
 30
0.0
  0
VERTEX
  5
87F
330
877
100
AcDbEntity
  8
LINEE VISIBILI 2D
100
AcDbVertex
100
AcDb2dVertex
 10
16.14681476320756
 20
295.4239759945878
 30
0.0
  0
VERTEX
  5
880
330
877
100
AcDbEntity
  8
LINEE VISIBILI 2D
100
AcDbVertex
100
AcDb2dVertex
 10
16.06232763781858
 20
294.2913223155486
 30
0.0
  0
VERTEX
  5
881
330
877
100
AcDbEntity
  8
LINEE VISIBILI 2D
100
AcDbVertex
100
AcDb2dVertex
 10
16.00251322853527
 20
293.1573044856204
 30
0.0
  0
VERTEX
  5
882
330
877
100
AcDbEntity
  8
LINEE VISIBILI 2D
100
AcDbVertex
100
AcDb2dVertex
 10
15.96900007645998
 20
292.0221834065923
 30
0.0
  0
VERTEX
  5
883
330
877
100
AcDbEntity
  8
LINEE VISIBILI 2D
100
AcDbVertex
100
AcDb2dVertex
 10
15.9621567655923
 20
291.0343616992098
 30
0.0
  0
VERTEX
  5
884
330
877
100
AcDbEntity
  8
LINEE VISIBILI 2D
100
AcDbVertex
100
AcDb2dVertex
 10
15.97542459376721
 20
290.0462665781914
 30
0.0
  0
VERTEX
  5
885
330
877
100
AcDbEntity
  8
LINEE VISIBILI 2D
100
AcDbVertex
100
AcDb2dVertex
 10
16.00779157097566
 20
289.0582616918216
 30
0.0
  0
VERTEX
  5
886
330
877
100
AcDbEntity
  8
LINEE VISIBILI 2D
100
AcDbVertex
100
AcDb2dVertex
 10
16.05824570720859
 20
288.0707106883849
 30
0.0
  0
VERTEX
  5
887
330
877
100
AcDbEntity
  8
LINEE VISIBILI 2D
100
AcDbVertex
100
AcDb2dVertex
 10
16.20936749671172
 20
286.0984249234491
 30
0.0
  0
VERTEX
  5
888
330
877
100
AcDbEntity
  8
LINEE VISIBILI 2D
100
AcDbVertex
100
AcDb2dVertex
 10
16.4206940422042
 20
284.1323184696606
 30
0.0
  0
VERTEX
  5
889
330
877
100
AcDbEntity
  8
LINEE VISIBILI 2D
100
AcDbVertex
100
AcDb2dVertex
 10
16.7158772873468
 20
281.9554197048129
 30
0.0
  0
VERTEX
  5
88A
330
877
100
AcDbEntity
  8
LINEE VISIBILI 2D
100
AcDbVertex
100
AcDb2dVertex
 10
19.11724226865643
 20
268.1151168102385
 30
0.0
  0
VERTEX
  5
88B
330
877
100
AcDbEntity
  8
LINEE VISIBILI 2D
100
AcDbVertex
100
AcDb2dVertex
 10
19.33673408382343
 20
266.4959659551024
 30
0.0
  0
VERTEX
  5
88C
330
877
100
AcDbEntity
  8
LINEE VISIBILI 2D
100
AcDbVertex
100
AcDb2dVertex
 10
19.5152256055665
 20
264.8717624400108
 30
0.0
  0
VERTEX
  5
88D
330
877
100
AcDbEntity
  8
LINEE VISIBILI 2D
100
AcDbVertex
100
AcDb2dVertex
 10
19.64378254380027
 20
263.2433174418935
 30
0.0
  0
VERTEX
  5
88E
330
877
100
AcDbEntity
  8
LINEE VISIBILI 2D
100
AcDbVertex
100
AcDb2dVertex
 10
19.68654357844948
 20
262.4277578794906
 30
0.0
  0
VERTEX
  5
88F
330
877
100
AcDbEntity
  8
LINEE VISIBILI 2D
100
AcDbVertex
100
AcDb2dVertex
 10
19.71347060843934
 20
261.6114421376799
 30
0.0
  0
VERTEX
  5
890
330
877
100
AcDbEntity
  8
LINEE VISIBILI 2D
100
AcDbVertex
100
AcDb2dVertex
 10
19.72304801796408
 20
260.9083739691635
 30
0.0
  0
VERTEX
  5
891
330
877
100
AcDbEntity
  8
LINEE VISIBILI 2D
100
AcDbVertex
100
AcDb2dVertex
 10
19.71895574379899
 20
260.2052109427047
 30
0.0
  0
VERTEX
  5
892
330
877
100
AcDbEntity
  8
LINEE VISIBILI 2D
100
AcDbVertex
100
AcDb2dVertex
 10
19.70008101644219
 20
259.5023432541311
 30
0.0
  0
VERTEX
  5
893
330
877
100
AcDbEntity
  8
LINEE VISIBILI 2D
100
AcDbVertex
100
AcDb2dVertex
 10
19.66531106639179
 20
258.8001610992705
 30
0.0
  0
VERTEX
  5
894
330
877
100
AcDbEntity
  8
LINEE VISIBILI 2D
100
AcDbVertex
100
AcDb2dVertex
 10
19.61637733257454
 20
258.1287690290172
 30
0.0
  0
VERTEX
  5
895
330
877
100
AcDbEntity
  8
LINEE VISIBILI 2D
100
AcDbVertex
100
AcDb2dVertex
 10
19.55258809839138
 20
257.4585994288796
 30
0.0
  0
VERTEX
  5
896
330
877
100
AcDbEntity
  8
LINEE VISIBILI 2D
100
AcDbVertex
100
AcDb2dVertex
 10
19.474682657202
 20
256.7898884220781
 30
0.0
  0
VERTEX
  5
897
330
877
100
AcDbEntity
  8
LINEE VISIBILI 2D
100
AcDbVertex
100
AcDb2dVertex
 10
19.38340030236612
 20
256.1228721318332
 30
0.0
  0
VERTEX
  5
898
330
877
100
AcDbEntity
  8
LINEE VISIBILI 2D
100
AcDbVertex
100
AcDb2dVertex
 10
19.16954451362226
 20
254.8216923230425
 30
0.0
  0
VERTEX
  5
899
330
877
100
AcDbEntity
  8
LINEE VISIBILI 2D
100
AcDbVertex
100
AcDb2dVertex
 10
18.91808147692523
 20
253.5271226064116
 30
0.0
  0
VERTEX
  5
89A
330
877
100
AcDbEntity
  8
LINEE VISIBILI 2D
100
AcDbVertex
100
AcDb2dVertex
 10
17.06734926159402
 20
245.1291717904334
 30
0.0
  0
VERTEX
  5
89B
330
877
100
AcDbEntity
  8
LINEE VISIBILI 2D
100
AcDbVertex
100
AcDb2dVertex
 10
16.75563499181869
 20
243.4137495708866
 30
0.0
  0
VERTEX
  5
89C
330
877
100
AcDbEntity
  8
LINEE VISIBILI 2D
100
AcDbVertex
100
AcDb2dVertex
 10
16.4681250345731
 20
241.5358749299231
 30
0.0
  0
VERTEX
  5
89D
330
877
100
AcDbEntity
  8
LINEE VISIBILI 2D
100
AcDbVertex
100
AcDb2dVertex
 10
16.23744697073693
 20
239.6500695841455
 30
0.0
  0
VERTEX
  5
89E
330
877
100
AcDbEntity
  8
LINEE VISIBILI 2D
100
AcDbVertex
100
AcDb2dVertex
 10
16.06451970275269
 20
237.7582232990873
 30
0.0
  0
VERTEX
  5
89F
330
877
100
AcDbEntity
  8
LINEE VISIBILI 2D
100
AcDbVertex
100
AcDb2dVertex
 10
15.95026213306289
 20
235.8622258402816
 30
0.0
  0
VERTEX
  5
8A0
330
877
100
AcDbEntity
  8
LINEE VISIBILI 2D
100
AcDbVertex
100
AcDb2dVertex
 10
15.90981924121704
 20
234.7120856023025
 30
0.0
  0
VERTEX
  5
8A1
330
877
100
AcDbEntity
  8
LINEE VISIBILI 2D
100
AcDbVertex
100
AcDb2dVertex
 10
15.89060394979663
 20
233.561423085288
 30
0.0
  0
VERTEX
  5
8A2
330
877
100
AcDbEntity
  8
LINEE VISIBILI 2D
100
AcDbVertex
100
AcDb2dVertex
 10
15.91324553824039
 20
231.2597635517366
 30
0.0
  0
VERTEX
  5
8A3
330
877
100
AcDbEntity
  8
LINEE VISIBILI 2D
100
AcDbVertex
100
AcDb2dVertex
 10
16.01296563841077
 20
228.9597119147966
 30
0.0
  0
VERTEX
  5
8A4
330
877
100
AcDbEntity
  8
LINEE VISIBILI 2D
100
AcDbVertex
100
AcDb2dVertex
 10
16.18454299032437
 20
226.6637328496369
 30
0.0
  0
VERTEX
  5
8A5
330
877
100
AcDbEntity
  8
LINEE VISIBILI 2D
100
AcDbVertex
100
AcDb2dVertex
 10
16.45789478564671
 20
224.0804525646617
 30
0.0
  0
VERTEX
  5
8A6
330
877
100
AcDbEntity
  8
LINEE VISIBILI 2D
100
AcDbVertex
100
AcDb2dVertex
 10
16.80851815020461
 20
221.5064649319247
 30
0.0
  0
VERTEX
  5
8A7
330
877
100
AcDbEntity
  8
LINEE VISIBILI 2D
100
AcDbVertex
100
AcDb2dVertex
 10
17.22883493892586
 20
218.9427385205166
 30
0.0
  0
VERTEX
  5
8A8
330
877
100
AcDbEntity
  8
LINEE VISIBILI 2D
100
AcDbVertex
100
AcDb2dVertex
 10
17.70828518896402
 20
216.4060183793708
 30
0.0
  0
SEQEND
  5
8A9
330
877
100
AcDbEntity
  8
LINEE VISIBILI 2D
  0
ARC
  5
8AA
330
1F
100
AcDbEntity
  8
LINEE VISIBILI 2D
100
AcDbCircle
 10
269.2859819170678
 20
32.02835078023276
 30
0.0
 40
0.5000692658918644
100
AcDbArc
 50
93.55951188553799
 51
179.9921930658627
  0
ARC
  5
8AB
330
1F
100
AcDbEntity
  8
LINEE VISIBILI 2D
100
AcDbCircle
 10
463.8601423813997
 20
17.0397825205361
 30
0.0
 40
12.12595460341282
100
AcDbArc
 50
97.79465996303798
 51
127.0893348945398
  0
ENDSEC
  0
SECTION
  2
OBJECTS
  0
DICTIONARY
  5
C
330
0
100
AcDbDictionary
281
     1
  3
ACAD_COLOR
350
83B
  3
ACAD_GROUP
350
D
  3
ACAD_LAYOUT
350
1A
  3
ACAD_MATERIAL
350
83A
  3
ACAD_MLINESTYLE
350
17
  3
ACAD_PLOTSETTINGS
350
19
  3
ACAD_PLOTSTYLENAME
350
E
  3
ACAD_TABLESTYLE
350
83C
  3
AcDbVariableDictionary
350
8AD
  0
DICTIONARY
  5
843
330
1F
100
AcDbDictionary
280
     1
281
     1
  3
ACAD_SORTENTS
360
844
  0
DICTIONARY
  5
83B
102
{ACAD_REACTORS
330
C
102
}
330
C
100
AcDbDictionary
281
     1
  0
DICTIONARY
  5
D
102
{ACAD_REACTORS
330
C
102
}
330
C
100
AcDbDictionary
281
     1
  0
DICTIONARY
  5
1A
102
{ACAD_REACTORS
330
C
102
}
330
C
100
AcDbDictionary
281
     1
  3
Layout1
350
1E
  3
Layout2
350
26
  3
Model
350
22
  0
DICTIONARY
  5
83A
102
{ACAD_REACTORS
330
C
102
}
330
C
100
AcDbDictionary
281
     1
  0
DICTIONARY
  5
17
102
{ACAD_REACTORS
330
C
102
}
330
C
100
AcDbDictionary
281
     1
  3
Standard
350
18
  0
DICTIONARY
  5
19
102
{ACAD_REACTORS
330
C
102
}
330
C
100
AcDbDictionary
281
     1
  0
ACDBDICTIONARYWDFLT
  5
E
102
{ACAD_REACTORS
330
C
102
}
330
C
100
AcDbDictionary
281
     1
  3
Normal
350
F
100
AcDbDictionaryWithDefault
340
F
  0
DICTIONARY
  5
83C
102
{ACAD_REACTORS
330
C
102
}
330
C
100
AcDbDictionary
281
     1
  3
Standard
350
83D
  0
DICTIONARY
  5
8AD
102
{ACAD_REACTORS
330
C
102
}
330
C
100
AcDbDictionary
281
     1
  3
CTABLESTYLE
350
8AE
  0
SORTENTSTABLE
  5
844
102
{ACAD_REACTORS
330
843
102
}
330
843
100
AcDbSortentsTable
330
1F
331
453
  5
455
331
45B
  5
45D
331
79F
  5
7A1
331
7A7
  5
7A9
331
338
  5
33A
331
424
  5
426
331
2AC
  5
2EF
331
265
  5
281
331
236
  5
239
331
285
  5
287
331
23E
  5
240
331
6B9
  5
6BB
331
60C
  5
60E
331
2C
  5
2C
331
340
  5
342
331
70A
  5
70C
331
835
  5
837
331
246
  5
248
331
28D
  5
28F
331
24E
  5
250
331
295
  5
297
331
256
  5
262
331
29D
  5
29F
331
12B
  5
1AD
331
567
  5
60B
331
2A5
  5
2A7
331
454
  5
456
331
3DE
  5
3E0
331
45C
  5
4AC
331
7A0
  5
7A2
331
425
  5
427
331
7A8
  5
7AA
331
1B1
  5
232
331
2AD
  5
333
331
286
  5
288
331
237
  5
23B
331
6BA
  5
6DC
331
23F
  5
241
331
2D
  5
2D
331
60D
  5
60F
331
95
  5
BB
331
341
  5
343
331
703
  5
705
331
70B
  5
70D
331
836
  5
838
331
247
  5
249
331
28E
  5
290
331
6DC
  5
6DE
331
24F
  5
251
331
296
  5
298
331
124
  5
126
331
257
  5
265
331
29E
  5
2A0
331
12C
  5
1B1
331
2A6
  5
2A8
331
3DF
  5
3E1
331
455
  5
457
331
45D
  5
4AD
331
7A1
  5
7A3
331
7A9
  5
830
331
33A
  5
33C
331
426
  5
428
331
287
  5
289
331
6BB
  5
6DD
331
2E
  5
2E
331
60E
  5
610
331
96
  5
E0
331
342
  5
344
331
704
  5
706
331
4AC
  5
4FC
331
70C
  5
70E
331
240
  5
242
331
74B
  5
79F
331
837
  5
841
331
6DD
  5
6DF
331
248
  5
24A
331
28F
  5
291
331
297
  5
299
331
125
  5
127
331
250
  5
252
331
29F
  5
2A1
331
2A7
  5
2A9
331
665
  5
6B9
331
456
  5
458
331
3E0
  5
3E2
331
7A2
  5
7A4
331
333
  5
335
331
7AA
  5
831
331
33B
  5
33D
331
427
  5
429
331
268
  5
282
331
239
  5
23C
331
60F
  5
611
331
343
  5
345
331
705
  5
707
331
4AD
  5
566
331
830
  5
832
331
70D
  5
70F
331
241
  5
243
331
288
  5
28A
331
838
  5
842
331
877
  5
96
331
249
  5
24B
331
290
  5
292
331
6DE
  5
703
331
251
  5
253
331
298
  5
29A
331
126
  5
128
331
2A0
  5
2A2
331
4FC
  5
567
331
666
  5
6BA
331
3E1
  5
3E3
331
457
  5
459
331
7A3
  5
7A5
331
334
  5
336
331
2A8
  5
2AA
331
428
  5
42A
331
1F3
  5
233
331
2EF
  5
334
331
232
  5
234
331
281
  5
283
331
344
  5
346
331
706
  5
708
331
70E
  5
710
331
831
  5
833
331
78C
  5
7A0
331
242
  5
244
331
289
  5
28B
331
393
  5
3DF
331
610
  5
612
331
6DF
  5
704
331
841
  5
877
331
24A
  5
24C
331
291
  5
293
331
252
  5
254
331
299
  5
29B
331
127
  5
129
331
2A1
  5
2A3
331
458
  5
45A
331
3E2
  5
3E4
331
7A4
  5
7A6
331
335
  5
337
331
2A9
  5
2AB
331
1AD
  5
1F3
331
33D
  5
33F
331
429
  5
451
331
262
  5
268
331
233
  5
235
331
282
  5
284
331
E0
  5
E2
331
23B
  5
23D
331
345
  5
347
331
707
  5
709
331
832
  5
834
331
70F
  5
711
331
243
  5
245
331
28A
  5
28C
331
24B
  5
24D
331
292
  5
294
331
842
  5
62
331
611
  5
665
331
253
  5
255
331
29A
  5
29C
331
128
  5
12A
331
2A2
  5
2A4
331
451
  5
453
331
459
  5
45B
331
3E3
  5
424
331
7A5
  5
7A7
331
336
  5
338
331
2AA
  5
2AC
331
42A
  5
452
331
33E
  5
340
331
234
  5
236
331
283
  5
285
331
23C
  5
23E
331
E1
  5
102
331
346
  5
393
331
708
  5
70A
331
710
  5
74B
331
833
  5
835
331
244
  5
246
331
28B
  5
28D
331
612
  5
666
331
24C
  5
24E
331
293
  5
295
331
254
  5
256
331
29B
  5
29D
331
129
  5
12B
331
2A3
  5
2A5
331
452
  5
454
331
3E4
  5
425
331
45A
  5
45C
331
7A6
  5
7A8
331
337
  5
339
331
33F
  5
341
331
2AB
  5
2AD
331
235
  5
237
331
284
  5
286
331
E2
  5
124
331
23D
  5
23F
331
2B
  5
2B
331
60B
  5
60D
331
102
  5
125
331
BB
  5
E1
331
347
  5
3DE
331
709
  5
70B
331
834
  5
836
331
711
  5
78C
331
245
  5
247
331
28C
  5
28E
331
5D4
  5
60C
331
24D
  5
24F
331
294
  5
296
331
255
  5
257
331
29C
  5
29E
331
12A
  5
12C
331
566
  5
5D4
331
2A4
  5
2A6
  0
LAYOUT
  5
1E
102
{ACAD_REACTORS
330
1A
102
}
330
1A
100
AcDbPlotSettings
  1

  2
none_device
  4

  6

 40
0.0
 41
0.0
 42
0.0
 43
0.0
 44
0.0
 45
0.0
 46
0.0
 47
0.0
 48
0.0
 49
0.0
140
0.0
141
0.0
142
1.0
143
1.0
 70
   688
 72
     0
 73
     0
 74
     5
  7

 75
    16
147
1.0
 76
     0
 77
     2
 78
   300
148
0.0
149
0.0
100
AcDbLayout
  1
Layout1
 70
     1
 71
     1
 10
0.0
 20
0.0
 11
12.0
 21
9.0
 12
0.0
 22
0.0
 32
0.0
 14
1.000000000000000E+20
 24
1.000000000000000E+20
 34
1.000000000000000E+20
 15
-1.000000000000000E+20
 25
-1.000000000000000E+20
 35
-1.000000000000000E+20
146
0.0
 13
0.0
 23
0.0
 33
0.0
 16
1.0
 26
0.0
 36
0.0
 17
0.0
 27
1.0
 37
0.0
 76
     0
330
1B
  0
LAYOUT
  5
26
102
{ACAD_REACTORS
330
1A
102
}
330
1A
100
AcDbPlotSettings
  1

  2
none_device
  4

  6

 40
0.0
 41
0.0
 42
0.0
 43
0.0
 44
0.0
 45
0.0
 46
0.0
 47
0.0
 48
0.0
 49
0.0
140
0.0
141
0.0
142
1.0
143
1.0
 70
   688
 72
     0
 73
     0
 74
     5
  7

 75
    16
147
1.0
 76
     0
 77
     2
 78
   300
148
0.0
149
0.0
100
AcDbLayout
  1
Layout2
 70
     1
 71
     2
 10
0.0
 20
0.0
 11
0.0
 21
0.0
 12
0.0
 22
0.0
 32
0.0
 14
0.0
 24
0.0
 34
0.0
 15
0.0
 25
0.0
 35
0.0
146
0.0
 13
0.0
 23
0.0
 33
0.0
 16
1.0
 26
0.0
 36
0.0
 17
0.0
 27
1.0
 37
0.0
 76
     0
330
23
  0
LAYOUT
  5
22
102
{ACAD_REACTORS
330
1A
102
}
330
1A
100
AcDbPlotSettings
  1

  2
none_device
  4

  6

 40
0.0
 41
0.0
 42
0.0
 43
0.0
 44
0.0
 45
0.0
 46
0.0
 47
0.0
 48
0.0
 49
0.0
140
0.0
141
0.0
142
1.0
143
1.0
 70
  1712
 72
     0
 73
     0
 74
     0
  7

 75
     0
147
1.0
 76
     0
 77
     2
 78
   300
148
0.0
149
0.0
100
AcDbLayout
  1
Model
 70
     1
 71
     0
 10
0.0
 20
0.0
 11
12.0
 21
9.0
 12
0.0
 22
0.0
 32
0.0
 14
-0.0000000000000001
 24
-0.0003109295068784
 34
0.0
 15
462.7897126608782
 25
316.7821127176285
 35
0.0
146
0.0
 13
0.0
 23
0.0
 33
0.0
 16
1.0
 26
0.0
 36
0.0
 17
0.0
 27
1.0
 37
0.0
 76
     0
330
1F
  0
MLINESTYLE
  5
18
102
{ACAD_REACTORS
330
17
102
}
330
17
100
AcDbMlineStyle
  2
STANDARD
 70
     0
  3

 62
   256
 51
90.0
 52
90.0
 71
     2
 49
0.5
 62
   256
  6
BYLAYER
 49
-0.5
 62
   256
  6
BYLAYER
  0
ACDBPLACEHOLDER
  5
F
102
{ACAD_REACTORS
330
E
102
}
330
E
  0
TABLESTYLE
  5
83D
102
{ACAD_REACTORS
330
83C
102
}
330
83C
100
AcDbTableStyle
  3
Standard
 70
     0
 71
     0
 40
0.06
 41
0.06
280
     0
281
     0
  7
Standard
140
0.18
170
     2
 62
     0
 63
     7
283
     0
274
    -2
284
     1
 64
     0
275
    -2
285
     1
 65
     0
276
    -2
286
     1
 66
     0
277
    -2
287
     1
 67
     0
278
    -2
288
     1
 68
     0
279
    -2
289
     1
 69
     0
  7
Standard
140
0.25
170
     5
 62
     0
 63
     7
283
     0
274
    -2
284
     1
 64
     0
275
    -2
285
     1
 65
     0
276
    -2
286
     1
 66
     0
277
    -2
287
     1
 67
     0
278
    -2
288
     1
 68
     0
279
    -2
289
     1
 69
     0
  7
Standard
140
0.18
170
     5
 62
     0
 63
     7
283
     0
274
    -2
284
     1
 64
     0
275
    -2
285
     1
 65
     0
276
    -2
286
     1
 66
     0
277
    -2
287
     1
 67
     0
278
    -2
288
     1
 68
     0
279
    -2
289
     1
 69
     0
  0
DICTIONARYVAR
  5
8AE
102
{ACAD_REACTORS
330
8AD
102
}
330
8AD
100
DictionaryVariables
280
     0
  1
STANDARD
  0
ENDSEC
  0
EOF
