  0
SECTION
  2
HEADER
  9
$ACADVER
  1
AC1018
  9
$ACADMAINTVER
 70
     0
  9
$DWGCODEPAGE
  3
ANSI_1252
  9
$INSBASE
 10
0.0
 20
0.0
 30
0.0
  9
$EXTMIN
 10
543.9952837066799
 20
0.0000000219650644
 30
0.0
  9
$EXTMAX
 10
1622.293399236085
 20
1475.297103699243
 30
0.0
  9
$LIMMIN
 10
0.0
 20
0.0
  9
$LIMMAX
 10
12.0
 20
9.0
  9
$ORTHOMODE
 70
     0
  9
$REGENMODE
 70
     1
  9
$FILLMODE
 70
     1
  9
$QTEXTMODE
 70
     0
  9
$MIRRTEXT
 70
     1
  9
$LTSCALE
 40
1.0
  9
$ATTMODE
 70
     1
  9
$TEXTSIZE
 40
0.2
  9
$TRACEWID
 40
0.05
  9
$TEXTSTYLE
  7
Standard
  9
$CLAYER
  8
Predefinito
  9
$CELTYPE
  6
ByLayer
  9
$CECOLOR
 62
   256
  9
$CELTSCALE
 40
1.0
  9
$DISPSILH
 70
     0
  9
$DIMSCALE
 40
1.0
  9
$DIMASZ
 40
0.18
  9
$DIMEXO
 40
0.0625
  9
$DIMDLI
 40
0.38
  9
$DIMRND
 40
0.0
  9
$DIMDLE
 40
0.0
  9
$DIMEXE
 40
0.18
  9
$DIMTP
 40
0.0
  9
$DIMTM
 40
0.0
  9
$DIMTXT
 40
0.18
  9
$DIMCEN
 40
0.09
  9
$DIMTSZ
 40
0.0
  9
$DIMTOL
 70
     0
  9
$DIMLIM
 70
     0
  9
$DIMTIH
 70
     1
  9
$DIMTOH
 70
     1
  9
$DIMSE1
 70
     0
  9
$DIMSE2
 70
     0
  9
$DIMTAD
 70
     0
  9
$DIMZIN
 70
     0
  9
$DIMBLK
  1

  9
$DIMASO
 70
     1
  9
$DIMSHO
 70
     1
  9
$DIMPOST
  1

  9
$DIMAPOST
  1

  9
$DIMALT
 70
     0
  9
$DIMALTD
 70
     2
  9
$DIMALTF
 40
25.4
  9
$DIMLFAC
 40
1.0
  9
$DIMTOFL
 70
     0
  9
$DIMTVP
 40
0.0
  9
$DIMTIX
 70
     0
  9
$DIMSOXD
 70
     0
  9
$DIMSAH
 70
     0
  9
$DIMBLK1
  1

  9
$DIMBLK2
  1

  9
$DIMSTYLE
  2
Standard
  9
$DIMCLRD
 70
     0
  9
$DIMCLRE
 70
     0
  9
$DIMCLRT
 70
     0
  9
$DIMTFAC
 40
1.0
  9
$DIMGAP
 40
0.09
  9
$DIMJUST
 70
     0
  9
$DIMSD1
 70
     0
  9
$DIMSD2
 70
     0
  9
$DIMTOLJ
 70
     1
  9
$DIMTZIN
 70
     0
  9
$DIMALTZ
 70
     0
  9
$DIMALTTZ
 70
     0
  9
$DIMUPT
 70
     0
  9
$DIMDEC
 70
     4
  9
$DIMTDEC
 70
     4
  9
$DIMALTU
 70
     2
  9
$DIMALTTD
 70
     2
  9
$DIMTXSTY
  7
Standard
  9
$DIMAUNIT
 70
     0
  9
$DIMADEC
 70
     0
  9
$DIMALTRND
 40
0.0
  9
$DIMAZIN
 70
     0
  9
$DIMDSEP
 70
    46
  9
$DIMATFIT
 70
     3
  9
$DIMFRAC
 70
     0
  9
$DIMLDRBLK
  1

  9
$DIMLUNIT
 70
     2
  9
$DIMLWD
 70
    -2
  9
$DIMLWE
 70
    -2
  9
$DIMTMOVE
 70
     2
  9
$LUNITS
 70
     2
  9
$LUPREC
 70
     3
  9
$SKETCHINC
 40
0.1
  9
$FILLETRAD
 40
0.5
  9
$AUNITS
 70
     0
  9
$AUPREC
 70
     0
  9
$MENU
  1
.
  9
$ELEVATION
 40
0.0
  9
$PELEVATION
 40
0.0
  9
$THICKNESS
 40
0.0
  9
$LIMCHECK
 70
     0
  9
$CHAMFERA
 40
0.5
  9
$CHAMFERB
 40
0.5
  9
$CHAMFERC
 40
1.0
  9
$CHAMFERD
 40
0.0
  9
$SKPOLY
 70
     0
  9
$TDCREATE
 40
2458261.601085058
  9
$TDUCREATE
 40
2458261.517751724
  9
$TDUPDATE
 40
2458261.60108507
  9
$TDUUPDATE
 40
2458261.517751736
  9
$TDINDWG
 40
0.0000000116
  9
$TDUSRTIMER
 40
0.0000000116
  9
$USRTIMER
 70
     1
  9
$ANGBASE
 50
0.0
  9
$ANGDIR
 70
     0
  9
$PDMODE
 70
     0
  9
$PDSIZE
 40
0.0
  9
$PLINEWID
 40
0.0
  9
$SPLFRAME
 70
     0
  9
$SPLINETYPE
 70
     6
  9
$SPLINESEGS
 70
     8
  9
$HANDSEED
  5
218
  9
$SURFTAB1
 70
     6
  9
$SURFTAB2
 70
     6
  9
$SURFTYPE
 70
     6
  9
$SURFU
 70
     6
  9
$SURFV
 70
     6
  9
$UCSBASE
  2

  9
$UCSNAME
  2

  9
$UCSORG
 10
0.0
 20
0.0
 30
0.0
  9
$UCSXDIR
 10
1.0
 20
0.0
 30
0.0
  9
$UCSYDIR
 10
0.0
 20
1.0
 30
0.0
  9
$UCSORTHOREF
  2

  9
$UCSORTHOVIEW
 70
     0
  9
$UCSORGTOP
 10
0.0
 20
0.0
 30
0.0
  9
$UCSORGBOTTOM
 10
0.0
 20
0.0
 30
0.0
  9
$UCSORGLEFT
 10
0.0
 20
0.0
 30
0.0
  9
$UCSORGRIGHT
 10
0.0
 20
0.0
 30
0.0
  9
$UCSORGFRONT
 10
0.0
 20
0.0
 30
0.0
  9
$UCSORGBACK
 10
0.0
 20
0.0
 30
0.0
  9
$PUCSBASE
  2

  9
$PUCSNAME
  2

  9
$PUCSORG
 10
0.0
 20
0.0
 30
0.0
  9
$PUCSXDIR
 10
1.0
 20
0.0
 30
0.0
  9
$PUCSYDIR
 10
0.0
 20
1.0
 30
0.0
  9
$PUCSORTHOREF
  2

  9
$PUCSORTHOVIEW
 70
     0
  9
$PUCSORGTOP
 10
0.0
 20
0.0
 30
0.0
  9
$PUCSORGBOTTOM
 10
0.0
 20
0.0
 30
0.0
  9
$PUCSORGLEFT
 10
0.0
 20
0.0
 30
0.0
  9
$PUCSORGRIGHT
 10
0.0
 20
0.0
 30
0.0
  9
$PUCSORGFRONT
 10
0.0
 20
0.0
 30
0.0
  9
$PUCSORGBACK
 10
0.0
 20
0.0
 30
0.0
  9
$USERI1
 70
     0
  9
$USERI2
 70
     0
  9
$USERI3
 70
     0
  9
$USERI4
 70
     0
  9
$USERI5
 70
     0
  9
$USERR1
 40
0.0
  9
$USERR2
 40
0.0
  9
$USERR3
 40
0.0
  9
$USERR4
 40
0.0
  9
$USERR5
 40
0.0
  9
$WORLDVIEW
 70
     1
  9
$SHADEDGE
 70
     3
  9
$SHADEDIF
 70
    70
  9
$TILEMODE
 70
     0
  9
$MAXACTVP
 70
    64
  9
$PINSBASE
 10
0.0
 20
0.0
 30
0.0
  9
$PLIMCHECK
 70
     0
  9
$PEXTMIN
 10
0.0
 20
0.0
 30
0.0
  9
$PEXTMAX
 10
0.0
 20
0.0
 30
0.0
  9
$PLIMMIN
 10
0.0
 20
0.0
  9
$PLIMMAX
 10
12.0
 20
9.0
  9
$UNITMODE
 70
     0
  9
$VISRETAIN
 70
     1
  9
$PLINEGEN
 70
     0
  9
$PSLTSCALE
 70
     1
  9
$TREEDEPTH
 70
  3020
  9
$CMLSTYLE
  2
Standard
  9
$CMLJUST
 70
     0
  9
$CMLSCALE
 40
1.0
  9
$PROXYGRAPHICS
 70
     1
  9
$MEASUREMENT
 70
     0
  9
$CELWEIGHT
370
    -1
  9
$ENDCAPS
280
     0
  9
$JOINSTYLE
280
     0
  9
$LWDISPLAY
290
     0
  9
$INSUNITS
 70
     4
  9
$HYPERLINKBASE
  1

  9
$STYLESHEET
  1

  9
$XEDIT
290
     1
  9
$CEPSNTYPE
380
     0
  9
$PSTYLEMODE
290
     1
  9
$FINGERPRINTGUID
  2
{96ADE83E-EB32-4882-B397-A8C3C5638CCA}
  9
$VERSIONGUID
  2
{FAEB1C32-E019-11D5-929B-00C0DF256EC4}
  9
$EXTNAMES
290
     1
  9
$PSVPSCALE
 40
0.0
  9
$OLESTARTUP
290
     0
  9
$SORTENTS
280
   127
  9
$INDEXCTL
280
     0
  9
$HIDETEXT
280
     1
  9
$XCLIPFRAME
290
     0
  9
$HALOGAP
280
     0
  9
$OBSCOLOR
 70
   257
  9
$OBSLTYPE
280
     0
  9
$INTERSECTIONDISPLAY
280
     0
  9
$INTERSECTIONCOLOR
 70
   257
  9
$DIMASSOC
280
     2
  9
$PROJECTNAME
  1

  0
ENDSEC
  0
SECTION
  2
CLASSES
  0
CLASS
  1
ACDBDICTIONARYWDFLT
  2
AcDbDictionaryWithDefault
  3
ObjectDBX Classes
 90
        0
 91
        4
280
     0
281
     0
  0
CLASS
  1
VISUALSTYLE
  2
AcDbVisualStyle
  3
ObjectDBX Classes
 90
     4095
 91
        4
280
     0
281
     0
  0
CLASS
  1
SCALE
  2
AcDbScale
  3
ObjectDBX Classes
 90
     1153
 91
        4
280
     0
281
     0
  0
CLASS
  1
DICTIONARYVAR
  2
AcDbDictionaryVar
  3
ObjectDBX Classes
 90
        0
 91
        4
280
     0
281
     0
  0
ENDSEC
  0
SECTION
  2
TABLES
  0
TABLE
  2
VPORT
  5
8
330
0
100
AcDbSymbolTable
 70
     1
  0
VPORT
  5
29
330
8
100
AcDbSymbolTableRecord
100
AcDbViewportTableRecord
  2
*Active
 70
     0
 10
0.0
 20
0.0
 11
1.0
 21
1.0
 12
1083.144341471382
 22
737.6485518606041
 13
0.0
 23
0.0
 14
0.5
 24
0.5
 15
0.5
 25
0.5
 16
0.0
 26
0.0
 36
1.0
 17
0.0
 27
0.0
 37
0.0
 40
1504.803045750824
 41
0.7309023469521316
 42
50.0
 43
0.0
 44
0.0
 50
0.0
 51
0.0
 71
     0
 72
   100
 73
     1
 74
     3
 75
     0
 76
     0
 77
     0
 78
     0
281
     0
 65
     1
110
0.0
120
0.0
130
0.0
111
1.0
121
0.0
131
0.0
112
0.0
122
1.0
132
0.0
 79
     0
146
0.0
  0
ENDTAB
  0
TABLE
  2
LTYPE
  5
5
330
0
100
AcDbSymbolTable
 70
     1
  0
LTYPE
  5
14
330
5
100
AcDbSymbolTableRecord
100
AcDbLinetypeTableRecord
  2
ByBlock
 70
     0
  3

 72
    65
 73
     0
 40
0.0
  0
LTYPE
  5
15
330
5
100
AcDbSymbolTableRecord
100
AcDbLinetypeTableRecord
  2
ByLayer
 70
     0
  3

 72
    65
 73
     0
 40
0.0
  0
LTYPE
  5
16
330
5
100
AcDbSymbolTableRecord
100
AcDbLinetypeTableRecord
  2
Continuous
 70
     0
  3
Solid line
 72
    65
 73
     0
 40
0.0
  0
ENDTAB
  0
TABLE
  2
LAYER
  5
2
330
0
100
AcDbSymbolTable
 70
     2
  0
LAYER
  5
10
330
2
100
AcDbSymbolTableRecord
100
AcDbLayerTableRecord
  2
0
 70
     0
 62
     7
  6
Continuous
370
    -3
390
F
  0
LAYER
  5
3B
330
2
100
AcDbSymbolTableRecord
100
AcDbLayerTableRecord
  2
Predefinito
 70
     0
 62
     7
  6
Continuous
370
    -3
390
F
  0
ENDTAB
  0
TABLE
  2
STYLE
  5
3
330
0
100
AcDbSymbolTable
 70
     1
  0
STYLE
  5
11
330
3
100
AcDbSymbolTableRecord
100
AcDbTextStyleTableRecord
  2
Standard
 70
     0
 40
0.0
 41
1.0
 50
0.0
 71
     0
 42
0.2
  3
txt
  4

  0
ENDTAB
  0
TABLE
  2
VIEW
  5
6
330
0
100
AcDbSymbolTable
 70
     0
  0
ENDTAB
  0
TABLE
  2
UCS
  5
7
330
0
100
AcDbSymbolTable
 70
     0
  0
ENDTAB
  0
TABLE
  2
APPID
  5
9
330
0
100
AcDbSymbolTable
 70
     1
  0
APPID
  5
12
330
9
100
AcDbSymbolTableRecord
100
AcDbRegAppTableRecord
  2
ACAD
 70
     0
  0
ENDTAB
  0
TABLE
  2
DIMSTYLE
  5
A
330
0
100
AcDbSymbolTable
 70
     1
100
AcDbDimStyleTable
  0
DIMSTYLE
105
27
330
A
100
AcDbSymbolTableRecord
100
AcDbDimStyleTableRecord
  2
Standard
 70
     0
340
11
  0
ENDTAB
  0
TABLE
  2
BLOCK_RECORD
  5
1
330
0
100
AcDbSymbolTable
 70
     3
  0
BLOCK_RECORD
  5
1F
330
1
100
AcDbSymbolTableRecord
100
AcDbBlockTableRecord
  2
*Model_Space
340
22
  0
BLOCK_RECORD
  5
1ED
330
1
100
AcDbSymbolTableRecord
100
AcDbBlockTableRecord
  2
*Paper_Space
340
1EE
  0
BLOCK_RECORD
  5
23
330
1
100
AcDbSymbolTableRecord
100
AcDbBlockTableRecord
  2
*Paper_Space0
340
26
  0
BLOCK_RECORD
  5
1B
330
1
100
AcDbSymbolTableRecord
100
AcDbBlockTableRecord
  2
*Paper_Space1
340
1E
  0
BLOCK_RECORD
  5
1E8
330
1
100
AcDbSymbolTableRecord
100
AcDbBlockTableRecord
  2
*Paper_Space2
340
1E9
  0
ENDTAB
  0
ENDSEC
  0
SECTION
  2
BLOCKS
  0
BLOCK
  5
20
330
1F
100
AcDbEntity
  8
0
100
AcDbBlockBegin
  2
*Model_Space
 70
     0
 10
0.0
 20
0.0
 30
0.0
  3
*Model_Space
  1

  0
ENDBLK
  5
21
330
1F
100
AcDbEntity
  8
0
100
AcDbBlockEnd
  0
BLOCK
  5
1EF
330
1ED
100
AcDbEntity
 67
     1
  8
0
100
AcDbBlockBegin
  2
*Paper_Space
 70
     0
 10
0.0
 20
0.0
 30
0.0
  3
*Paper_Space
  1

  0
ENDBLK
  5
1F0
330
1ED
100
AcDbEntity
 67
     1
  8
0
100
AcDbBlockEnd
  0
BLOCK
  5
24
330
23
100
AcDbEntity
  8
0
100
AcDbBlockBegin
  2
*Paper_Space0
 70
     0
 10
0.0
 20
0.0
 30
0.0
  3
*Paper_Space0
  1

  0
ENDBLK
  5
25
330
23
100
AcDbEntity
  8
0
100
AcDbBlockEnd
  0
BLOCK
  5
1C
330
1B
100
AcDbEntity
  8
0
100
AcDbBlockBegin
  2
*Paper_Space1
 70
     0
 10
0.0
 20
0.0
 30
0.0
  3
*Paper_Space1
  1

  0
ENDBLK
  5
1D
330
1B
100
AcDbEntity
  8
0
100
AcDbBlockEnd
  0
BLOCK
  5
1EA
330
1E8
100
AcDbEntity
  8
0
100
AcDbBlockBegin
  2
*Paper_Space2
 70
     0
 10
0.0
 20
0.0
 30
0.0
  3
*Paper_Space2
  1

  0
VIEWPORT
  5
1EC
330
1E8
100
AcDbEntity
  8
0
100
AcDbViewport
 10
6.0
 20
4.5
 30
0.0
 40
12.696
 41
9.522
 68
     1
 69
     1
 12
6.0
 22
4.5
 13
0.0
 23
0.0
 14
0.5
 24
0.5
 15
0.5
 25
0.5
 16
0.0
 26
0.0
 36
1.0
 17
0.0
 27
0.0
 37
0.0
 42
50.0
 43
0.0
 44
0.0
 45
9.522
 50
0.0
 51
0.0
 72
   100
 90
   557152
  1

281
     0
 71
     1
 74
     0
110
0.0
120
0.0
130
0.0
111
1.0
121
0.0
131
0.0
112
0.0
122
1.0
132
0.0
 79
     0
146
0.0
170
     0
  0
ENDBLK
  5
1EB
330
1E8
100
AcDbEntity
  8
0
100
AcDbBlockEnd
  0
ENDSEC
  0
SECTION
  2
ENTITIES
  0
SPLINE
  5
3C
330
1F
100
AcDbEntity
  8
Predefinito
100
AcDbSpline
210
0.0
220
0.0
230
1.0
 70
    24
 71
     2
 72
     6
 73
     3
 74
     0
 42
0.0000000001
 43
0.0000000001
 40
0.0
 40
0.0
 40
0.0
 40
14.0
 40
14.0
 40
14.0
 10
1559.293392780555
 20
576.1969201646448
 30
0.0
 10
1552.293392780555
 20
576.1969201646448
 30
0.0
 10
1545.293392780555
 20
576.1969201646448
 30
0.0
  0
SPLINE
  5
3D
330
1F
100
AcDbEntity
  8
Predefinito
100
AcDbSpline
210
0.0
220
0.0
230
1.0
 70
    24
 71
     2
 72
     6
 73
     3
 74
     0
 42
0.0000000001
 43
0.0000000001
 40
0.0
 40
0.0
 40
0.0
 40
6.800000000000068
 40
6.800000000000068
 40
6.800000000000068
 10
1545.493392780555
 20
576.3969201646448
 30
0.0
 10
1548.893392780555
 20
576.3969201646448
 30
0.0
 10
1552.293392780555
 20
576.3969201646448
 30
0.0
  0
SPLINE
  5
3E
330
1F
100
AcDbEntity
  8
Predefinito
100
AcDbSpline
210
0.0
220
0.0
230
1.0
 70
    24
 71
     2
 72
     6
 73
     3
 74
     0
 42
0.0000000001
 43
0.0000000001
 40
0.0
 40
0.0
 40
0.0
 40
6.799999999999955
 40
6.799999999999955
 40
6.799999999999955
 10
1552.293392780555
 20
576.3969201646448
 30
0.0
 10
1555.693392780555
 20
576.3969201646448
 30
0.0
 10
1559.093392780555
 20
576.3969201646448
 30
0.0
  0
SPLINE
  5
3F
330
1F
100
AcDbEntity
  8
Predefinito
100
AcDbSpline
210
0.0
220
0.0
230
1.0
 70
    24
 71
     2
 72
     6
 73
     3
 74
     0
 42
0.0000000001
 43
0.0000000001
 40
0.0
 40
0.0
 40
0.0
 40
6.5
 40
6.5
 40
6.5
 10
1558.793392780555
 20
579.8969201646448
 30
0.0
 10
1555.543392780555
 20
579.8969201646448
 30
0.0
 10
1552.293392780555
 20
579.8969201646448
 30
0.0
  0
SPLINE
  5
40
330
1F
100
AcDbEntity
  8
Predefinito
100
AcDbSpline
210
0.0
220
0.0
230
1.0
 70
    24
 71
     2
 72
     6
 73
     3
 74
     0
 42
0.0000000001
 43
0.0000000001
 40
0.0
 40
0.0
 40
0.0
 40
6.5
 40
6.5
 40
6.5
 10
1552.293392780555
 20
579.8969201646448
 30
0.0
 10
1549.043392780555
 20
579.8969201646448
 30
0.0
 10
1545.793392780555
 20
579.8969201646448
 30
0.0
  0
SPLINE
  5
41
330
1F
100
AcDbEntity
  8
Predefinito
100
AcDbSpline
210
0.0
220
0.0
230
1.0
 70
    24
 71
     2
 72
     6
 73
     3
 74
     0
 42
0.0000000001
 43
0.0000000001
 40
0.0
 40
0.0
 40
0.0
 40
7.0
 40
7.0
 40
7.0
 10
1545.293392780555
 20
576.5969201646449
 30
0.0
 10
1548.793392780555
 20
576.5969201646449
 30
0.0
 10
1552.293392780555
 20
576.5969201646449
 30
0.0
  0
SPLINE
  5
42
330
1F
100
AcDbEntity
  8
Predefinito
100
AcDbSpline
210
0.0
220
0.0
230
1.0
 70
    24
 71
     2
 72
     6
 73
     3
 74
     0
 42
0.0000000001
 43
0.0000000001
 40
0.0
 40
0.0
 40
0.0
 40
7.0
 40
7.0
 40
7.0
 10
1552.293392780555
 20
576.5969201646449
 30
0.0
 10
1555.793392780555
 20
576.5969201646449
 30
0.0
 10
1559.293392780555
 20
576.5969201646449
 30
0.0
  0
SPLINE
  5
43
330
1F
100
AcDbEntity
  8
Predefinito
100
AcDbSpline
210
0.0
220
0.0
230
1.0
 70
    24
 71
     2
 72
     6
 73
     3
 74
     0
 42
0.0000000001
 43
0.0000000001
 40
0.0
 40
0.0
 40
0.0
 40
7.0
 40
7.0
 40
7.0
 10
1559.293392780555
 20
579.3969201646448
 30
0.0
 10
1555.793392780555
 20
579.3969201646448
 30
0.0
 10
1552.293392780555
 20
579.3969201646448
 30
0.0
  0
SPLINE
  5
44
330
1F
100
AcDbEntity
  8
Predefinito
100
AcDbSpline
210
0.0
220
0.0
230
1.0
 70
    24
 71
     2
 72
     6
 73
     3
 74
     0
 42
0.0000000001
 43
0.0000000001
 40
0.0
 40
0.0
 40
0.0
 40
7.0
 40
7.0
 40
7.0
 10
1552.293392780555
 20
579.3969201646448
 30
0.0
 10
1548.793392780555
 20
579.3969201646448
 30
0.0
 10
1545.293392780555
 20
579.3969201646448
 30
0.0
  0
SPLINE
  5
45
330
1F
100
AcDbEntity
  8
Predefinito
100
AcDbSpline
210
0.0
220
0.0
230
1.0
 70
    12
 71
     2
 72
     8
 73
     5
 74
     0
 42
0.0000000001
 43
0.0000000001
 40
0.0
 40
0.0
 40
0.0
 40
12.56637061435919
 40
12.56637061435919
 40
25.13274122871846
 40
25.13274122871846
 40
25.13274122871846
 10
1544.293392780555
 20
563.8469201646449
 30
0.0
 41
1.0
 10
1544.293392780555
 20
571.8469201646448
 30
0.0
 41
0.7071067811865627
 10
1552.293392780555
 20
571.8469201646449
 30
0.0
 41
1.0
 10
1560.293392780555
 20
571.846920164645
 30
0.0
 41
0.7071067811865275
 10
1560.293392780555
 20
563.8469201646449
 30
0.0
 41
1.0
  0
SPLINE
  5
46
330
1F
100
AcDbEntity
  8
Predefinito
100
AcDbSpline
210
0.0
220
0.0
230
1.0
 70
    12
 71
     2
 72
     8
 73
     5
 74
     0
 42
0.0000000001
 43
0.0000000001
 40
0.0
 40
0.0
 40
0.0
 40
12.56637061435919
 40
12.56637061435919
 40
25.13274122871856
 40
25.13274122871856
 40
25.13274122871856
 10
1560.293392780555
 20
563.8469201646449
 30
0.0
 41
1.0
 10
1560.293392780555
 20
555.8469201646449
 30
0.0
 41
0.7071067811865627
 10
1552.293392780555
 20
555.8469201646448
 30
0.0
 41
1.0
 10
1544.293392780555
 20
555.8469201646449
 30
0.0
 41
0.7071067811865627
 10
1544.293392780555
 20
563.8469201646449
 30
0.0
 41
1.0
  0
SPLINE
  5
47
330
1F
100
AcDbEntity
  8
Predefinito
100
AcDbSpline
210
0.0
220
0.0
230
1.0
 70
    12
 71
     2
 72
     8
 73
     5
 74
     0
 42
0.0000000001
 43
0.0000000001
 40
0.0
 40
0.0
 40
0.0
 40
58.9406263981584
 40
58.9406263981584
 40
117.8812527963167
 40
117.8812527963167
 40
117.8812527963167
 10
1559.293392780555
 20
546.7094786463422
 30
0.0
 41
1.0
 10
1594.293392780555
 20
540.7933988632423
 30
0.0
 41
0.7637626158259739
 10
1594.293392780555
 20
505.2969201646447
 30
0.0
 41
1.0
 10
1594.293392780555
 20
469.8004414660475
 30
0.0
 41
0.7637626158259763
 10
1559.293392780555
 20
463.8843616829475
 30
0.0
 41
1.0
  0
SPLINE
  5
48
330
1F
100
AcDbEntity
  8
Predefinito
100
AcDbSpline
210
0.0
220
0.0
230
1.0
 70
    12
 71
     2
 72
     8
 73
     5
 74
     0
 42
0.0000000001
 43
0.0000000001
 40
0.0
 40
0.0
 40
0.0
 40
58.94062639815962
 40
58.94062639815962
 40
117.881252796319
 40
117.881252796319
 40
117.881252796319
 10
1545.293392780555
 20
463.8843616829471
 30
0.0
 41
1.0
 10
1510.293392780554
 20
469.8004414660464
 30
0.0
 41
0.7637626158259678
 10
1510.293392780554
 20
505.2969201646448
 30
0.0
 41
1.0
 10
1510.293392780554
 20
540.793398863243
 30
0.0
 41
0.7637626158259647
 10
1545.293392780555
 20
546.7094786463422
 30
0.0
 41
1.0
  0
SPLINE
  5
49
330
1F
100
AcDbEntity
  8
Predefinito
100
AcDbSpline
210
0.0
220
0.0
230
1.0
 70
    12
 71
     2
 72
     6
 73
     3
 74
     0
 42
0.0000000001
 43
0.0000000001
 40
0.0
 40
0.0
 40
0.0
 40
4.784328791573278
 40
4.784328791573278
 40
4.784328791573278
 10
1545.293392780575
 20
513.2080209556034
 30
0.0
 41
1.0
 10
1543.434849663194
 20
511.6339426164199
 30
0.0
 41
0.9734925702799836
 10
1542.471711206103
 20
509.3969201646947
 30
0.0
 41
1.0
  0
SPLINE
  5
4A
330
1F
100
AcDbEntity
  8
Predefinito
100
AcDbSpline
210
0.0
220
0.0
230
1.0
 70
    12
 71
     2
 72
     6
 73
     3
 74
     0
 42
0.0000000001
 43
0.0000000001
 40
0.0
 40
0.0
 40
0.0
 40
4.999812858893082
 40
4.999812858893082
 40
4.999812858893082
 10
1542.388561137735
 20
501.3969201751252
 30
0.0
 41
1.0
 10
1543.347878976171
 20
499.0347660681538
 30
0.0
 41
0.9710628733231699
 10
1545.293392780576
 20
497.3870285960141
 30
0.0
 41
1.0
  0
SPLINE
  5
4B
330
1F
100
AcDbEntity
  8
Predefinito
100
AcDbSpline
210
0.0
220
0.0
230
1.0
 70
    12
 71
     2
 72
     6
 73
     3
 74
     0
 42
0.0000000001
 43
0.0000000001
 40
0.0
 40
0.0
 40
0.0
 40
4.184878471170308
 40
4.184878471170308
 40
4.184878471170308
 10
1559.293392772212
 20
497.9376032881689
 30
0.0
 41
1.0
 10
1560.799488854736
 20
499.4314922012008
 30
0.0
 41
0.9796977429630767
 10
1561.597688307794
 20
501.3969201768361
 30
0.0
 41
1.0
  0
SPLINE
  5
4C
330
1F
100
AcDbEntity
  8
Predefinito
100
AcDbSpline
210
0.0
220
0.0
230
1.0
 70
    12
 71
     2
 72
     6
 73
     3
 74
     0
 42
0.0000000001
 43
0.0000000001
 40
0.0
 40
0.0
 40
0.0
 40
3.969394402058292
 40
3.969394402058292
 40
3.969394402058292
 10
1561.514538238753
 20
509.3969201646448
 30
0.0
 41
1.0
 10
1560.719957411499
 20
511.2424441775368
 30
0.0
 41
0.9817284596032805
 10
1559.293392772212
 20
512.6574462634487
 30
0.0
 41
1.0
  0
SPLINE
  5
4D
330
1F
100
AcDbEntity
  8
Predefinito
100
AcDbSpline
210
0.0
220
0.0
230
1.0
 70
    12
 71
     2
 72
     8
 73
     5
 74
     0
 42
0.0000000001
 43
0.0000000001
 40
0.0
 40
0.0
 40
0.0
 40
55.4597486291749
 40
55.4597486291749
 40
110.9194972583501
 40
110.9194972583501
 40
110.9194972583501
 10
1545.293392780555
 20
544.3191302359764
 30
0.0
 41
1.0
 10
1512.400548388188
 20
538.6716629512384
 30
0.0
 41
0.764596910963308
 10
1512.400548388188
 20
505.2975247758088
 30
0.0
 41
1.0
 10
1512.400548388188
 20
471.9233866003788
 30
0.0
 41
0.7645969109633
 10
1545.293392780555
 20
466.2759193156411
 30
0.0
 41
1.0
  0
SPLINE
  5
4E
330
1F
100
AcDbEntity
  8
Predefinito
100
AcDbSpline
210
0.0
220
0.0
230
1.0
 70
    12
 71
     2
 72
     8
 73
     5
 74
     0
 42
0.0000000001
 43
0.0000000001
 40
0.0
 40
0.0
 40
0.0
 40
54.84959401610449
 40
54.84959401610449
 40
109.6991880322091
 40
109.6991880322091
 40
109.6991880322091
 10
1559.293392780715
 20
466.3837972871863
 30
0.0
 41
1.0
 10
1591.585701056646
 20
472.441878120086
 30
0.0
 41
0.7695403723730965
 10
1591.585701056646
 20
505.2975247758088
 30
0.0
 41
1.0
 10
1591.585701056646
 20
538.1531714315317
 30
0.0
 41
0.7695403723730933
 10
1559.293392780715
 20
544.2112522644314
 30
0.0
 41
1.0
  0
SPLINE
  5
4F
330
1F
100
AcDbEntity
  8
Predefinito
100
AcDbSpline
210
0.0
220
0.0
230
1.0
 70
    12
 71
     2
 72
     6
 73
     3
 74
     0
 42
0.0000000001
 43
0.0000000001
 40
0.0
 40
0.0
 40
0.0
 40
2.261380259315796
 40
2.261380259315796
 40
2.261380259315796
 10
1559.293392780555
 20
511.2982402564269
 30
0.0
 41
1.0
 10
1560.014822852172
 20
510.4205727641058
 30
0.0
 41
0.9928505042562289
 10
1560.507668600086
 20
509.396920164796
 30
0.0
 41
1.0
  0
SPLINE
  5
50
330
1F
100
AcDbEntity
  8
Predefinito
100
AcDbSpline
210
0.0
220
0.0
230
1.0
 70
    12
 71
     2
 72
     6
 73
     3
 74
     0
 42
0.0000000001
 43
0.0000000001
 40
0.0
 40
0.0
 40
0.0
 40
2.480804595657601
 40
2.480804595657601
 40
2.480804595657601
 10
1560.600550799176
 20
501.3969201645804
 30
0.0
 41
1.0
 10
1560.085598596062
 20
500.2605801703626
 30
0.0
 41
0.9913978327619835
 10
1559.293392780555
 20
499.2968092951907
 30
0.0
 41
1.0
  0
SPLINE
  5
51
330
1F
100
AcDbEntity
  8
Predefinito
100
AcDbSpline
210
0.0
220
0.0
230
1.0
 70
    12
 71
     2
 72
     6
 73
     3
 74
     0
 42
0.0000000001
 43
0.0000000001
 40
0.0
 40
0.0
 40
0.0
 40
3.37629684252445
 40
3.37629684252445
 40
3.37629684252445
 10
1545.293392781875
 20
498.6329848873485
 30
0.0
 41
1.0
 10
1544.090010881487
 20
499.8427212366887
 30
0.0
 41
0.9840862551533079
 10
1543.385698645647
 20
501.3969201646064
 30
0.0
 41
1.0
  0
SPLINE
  5
52
330
1F
100
AcDbEntity
  8
Predefinito
100
AcDbSpline
210
0.0
220
0.0
230
1.0
 70
    12
 71
     2
 72
     6
 73
     3
 74
     0
 42
0.0000000001
 43
0.0000000001
 40
0.0
 40
0.0
 40
0.0
 40
3.156872506321497
 40
3.156872506321497
 40
3.156872506321497
 10
1543.478580844676
 20
509.3969201646453
 30
0.0
 41
1.0
 10
1544.169743648548
 20
510.8324821102588
 30
0.0
 41
0.9860828424418654
 10
1545.293392781875
 20
511.9620646642691
 30
0.0
 41
1.0
  0
SPLINE
  5
53
330
1F
100
AcDbEntity
  8
Predefinito
100
AcDbSpline
210
0.0
220
0.0
230
1.0
 70
    12
 71
     2
 72
     6
 73
     3
 74
     0
 42
0.0000000001
 43
0.0000000001
 40
0.0
 40
0.0
 40
0.0
 40
4.271061390689466
 40
4.271061390689466
 40
4.271061390689466
 10
1545.293392780688
 20
497.9411607344514
 30
0.0
 41
1.0
 10
1543.689825917228
 20
499.4015925558548
 30
0.0
 41
0.9770560751045779
 10
1542.839558004063
 20
501.3969201646448
 30
0.0
 41
1.0
  0
SPLINE
  5
54
330
1F
100
AcDbEntity
  8
Predefinito
100
AcDbSpline
210
0.0
220
0.0
230
1.0
 70
    12
 71
     2
 72
     6
 73
     3
 74
     0
 42
0.0000000001
 43
0.0000000001
 40
0.0
 40
0.0
 40
0.0
 40
4.053947641940785
 40
4.053947641940785
 40
4.053947641940785
 10
1542.926843376425
 20
509.3969201648051
 30
0.0
 41
1.0
 10
1543.773703139381
 20
511.2698473023448
 30
0.0
 41
0.9793215653204131
 10
1545.293392780688
 20
512.6538888171663
 30
0.0
 41
1.0
  0
SPLINE
  5
55
330
1F
100
AcDbEntity
  8
Predefinito
100
AcDbSpline
210
0.0
220
0.0
230
1.0
 70
    12
 71
     2
 72
     6
 73
     3
 74
     0
 42
0.0000000001
 43
0.0000000001
 40
0.0
 40
0.0
 40
0.0
 40
3.207923806536555
 40
3.207923806536555
 40
3.207923806536555
 10
1559.293392780246
 20
512.0583373219343
 30
0.0
 41
1.0
 10
1560.392790219708
 20
510.8712172893331
 30
0.0
 41
0.9870350374475345
 10
1561.059406068481
 20
509.3969201646448
 30
0.0
 41
1.0
  0
SPLINE
  5
56
330
1F
100
AcDbEntity
  8
Predefinito
100
AcDbSpline
210
0.0
220
0.0
230
1.0
 70
    12
 71
     2
 72
     6
 73
     3
 74
     0
 42
0.0000000001
 43
0.0000000001
 40
0.0
 40
0.0
 40
0.0
 40
3.425037565453635
 40
3.425037565453635
 40
3.425037565453635
 10
1561.146691444827
 20
501.396920174161
 30
0.0
 41
1.0
 10
1560.46864037534
 20
499.805734617151
 30
0.0
 41
0.9852251804952594
 10
1559.293392780246
 20
498.5367122296832
 30
0.0
 41
1.0
  0
SPLINE
  5
57
330
1F
100
AcDbEntity
  8
Predefinito
100
AcDbSpline
210
0.0
220
0.0
230
1.0
 70
    12
 71
     2
 72
     6
 73
     3
 74
     0
 42
0.0000000001
 43
0.0000000001
 40
0.0
 40
0.0
 40
0.0
 40
6.260738779921387
 40
6.260738779921387
 40
6.260738779921387
 10
1577.300305774606
 20
505.3744737551949
 30
0.0
 41
1.0
 10
1577.277984974036
 20
501.3969201646446
 30
0.0
 41
0.7090880066544358
 10
1573.300368755264
 20
501.3969201646449
 30
0.0
 41
1.0
  0
SPLINE
  5
58
330
1F
100
AcDbEntity
  8
Predefinito
100
AcDbSpline
210
0.0
220
0.0
230
1.0
 70
    12
 71
     2
 72
     8
 73
     5
 74
     0
 42
0.0000000001
 43
0.0000000001
 40
0.0
 40
0.0
 40
0.0
 40
1.569851705040341
 40
1.569851705040341
 40
6.28224068542505
 40
6.28224068542505
 40
6.28224068542505
 10
1573.30131337701
 20
509.396920053106
 30
0.0
 41
1.0
 10
1574.096471837494
 20
509.3967322721076
 30
0.0
 41
0.9808083093862132
 10
1574.831102484724
 20
509.0924382946899
 30
0.0
 41
1.0
 10
1577.300368755264
 20
508.0696347163221
 30
0.0
 41
0.8314696123025191
 10
1577.300368755264
 20
505.3969201646448
 30
0.0
 41
1.0
  0
SPLINE
  5
59
330
1F
100
AcDbEntity
  8
Predefinito
100
AcDbSpline
210
0.0
220
0.0
230
1.0
 70
    12
 71
     2
 72
     6
 73
     3
 74
     0
 42
0.0000000001
 43
0.0000000001
 40
0.0
 40
0.0
 40
0.0
 40
6.259590569615447
 40
6.259590569615447
 40
6.259590569615447
 10
1527.300438344017
 20
505.3733255639083
 30
0.0
 41
1.0
 10
1527.323894176524
 20
501.3969201646451
 30
0.0
 41
0.7091892026054343
 10
1531.300368755264
 20
501.3969201646448
 30
0.0
 41
1.0
  0
SPLINE
  5
5A
330
1F
100
AcDbEntity
  8
Predefinito
100
AcDbSpline
210
0.0
220
0.0
230
1.0
 70
    12
 71
     2
 72
     6
 73
     3
 74
     0
 42
0.0000000001
 43
0.0000000001
 40
0.0
 40
0.0
 40
0.0
 40
6.2831853071797
 40
6.2831853071797
 40
6.2831853071797
 10
1527.300368755264
 20
505.3969201646448
 30
0.0
 41
1.0
 10
1527.300368755264
 20
509.3969201646449
 30
0.0
 41
0.7071067811865375
 10
1531.300368755264
 20
509.3969201646449
 30
0.0
 41
1.0
  0
SPLINE
  5
5B
330
1F
100
AcDbEntity
  8
Predefinito
100
AcDbSpline
210
0.0
220
0.0
230
1.0
 70
    24
 71
     2
 72
     6
 73
     3
 74
     0
 42
0.0000000001
 43
0.0000000001
 40
0.0
 40
0.0
 40
0.0
 40
365.1652941921017
 40
365.1652941921017
 40
365.1652941921017
 10
1545.293392780555
 20
136.2316259725432
 30
0.0
 10
1545.293392780555
 20
318.814273068594
 30
0.0
 10
1545.293392780555
 20
501.3969201646449
 30
0.0
  0
SPLINE
  5
5C
330
1F
100
AcDbEntity
  8
Predefinito
100
AcDbSpline
210
0.0
220
0.0
230
1.0
 70
    24
 71
     2
 72
     6
 73
     3
 74
     0
 42
0.0000000001
 43
0.0000000001
 40
0.0
 40
0.0
 40
0.0
 40
50.57701665378988
 40
50.57701665378988
 40
50.57701665378988
 10
1545.293392780555
 20
509.3969201646452
 30
0.0
 10
1545.293392780555
 20
534.68542849154
 30
0.0
 10
1545.293392780555
 20
559.973936818435
 30
0.0
  0
SPLINE
  5
5D
330
1F
100
AcDbEntity
  8
Predefinito
100
AcDbSpline
210
0.0
220
0.0
230
1.0
 70
    24
 71
     2
 72
     6
 73
     3
 74
     0
 42
0.0000000001
 43
0.0000000001
 40
0.0
 40
0.0
 40
0.0
 40
8.477016653790315
 40
8.477016653790315
 40
8.477016653790315
 10
1545.293392780555
 20
567.7199035108545
 30
0.0
 10
1545.293392780555
 20
571.9584118377496
 30
0.0
 10
1545.293392780555
 20
576.1969201646448
 30
0.0
  0
SPLINE
  5
5E
330
1F
100
AcDbEntity
  8
Predefinito
100
AcDbSpline
210
0.0
220
0.0
230
1.0
 70
    24
 71
     2
 72
     6
 73
     3
 74
     0
 42
0.0000000001
 43
0.0000000001
 40
0.0
 40
0.0
 40
0.0
 40
8.477016653790315
 40
8.477016653790315
 40
8.477016653790315
 10
1559.293392780555
 20
576.1969201646448
 30
0.0
 10
1559.293392780555
 20
571.9584118377496
 30
0.0
 10
1559.293392780555
 20
567.7199035108545
 30
0.0
  0
SPLINE
  5
5F
330
1F
100
AcDbEntity
  8
Predefinito
100
AcDbSpline
210
0.0
220
0.0
230
1.0
 70
    24
 71
     2
 72
     6
 73
     3
 74
     0
 42
0.0000000001
 43
0.0000000001
 40
0.0
 40
0.0
 40
0.0
 40
50.57701665379022
 40
50.57701665379022
 40
50.57701665379022
 10
1559.293392780555
 20
559.973936818435
 30
0.0
 10
1559.293392780555
 20
534.6854284915399
 30
0.0
 10
1559.293392780555
 20
509.3969201646448
 30
0.0
  0
SPLINE
  5
60
330
1F
100
AcDbEntity
  8
Predefinito
100
AcDbSpline
210
0.0
220
0.0
230
1.0
 70
    24
 71
     2
 72
     6
 73
     3
 74
     0
 42
0.0000000001
 43
0.0000000001
 40
0.0
 40
0.0
 40
0.0
 40
365.1630992351162
 40
365.1630992351162
 40
365.1630992351162
 10
1559.293392780555
 20
501.3969201646447
 30
0.0
 10
1559.293392780555
 20
318.8153705470866
 30
0.0
 10
1559.293392780555
 20
136.2338209295285
 30
0.0
  0
SPLINE
  5
61
330
1F
100
AcDbEntity
  8
Predefinito
100
AcDbSpline
210
0.0
220
0.0
230
1.0
 70
    24
 71
     2
 72
     6
 73
     3
 74
     0
 42
0.0000000001
 43
0.0000000001
 40
0.0
 40
0.0
 40
0.0
 40
0.2002085020604141
 40
0.2002085020604141
 40
0.2002085020604141
 10
1559.093392780555
 20
576.3969201646448
 30
0.0
 10
1559.164177175284
 20
576.3261357699157
 30
0.0
 10
1559.234961570013
 20
576.2553513751867
 30
0.0
  0
SPLINE
  5
62
330
1F
100
AcDbEntity
  8
Predefinito
100
AcDbSpline
210
0.0
220
0.0
230
1.0
 70
    24
 71
     2
 72
     6
 73
     3
 74
     0
 42
0.0000000001
 43
0.0000000001
 40
0.0
 40
0.0
 40
0.0
 40
0.2002085020603337
 40
0.2002085020603337
 40
0.2002085020603337
 10
1545.351823991097
 20
576.2553513751867
 30
0.0
 10
1545.422608385826
 20
576.3261357699157
 30
0.0
 10
1545.493392780555
 20
576.3969201646448
 30
0.0
  0
SPLINE
  5
63
330
1F
100
AcDbEntity
  8
Predefinito
100
AcDbSpline
210
0.0
220
0.0
230
1.0
 70
    24
 71
     2
 72
     6
 73
     3
 74
     0
 42
0.0000000001
 43
0.0000000001
 40
0.0
 40
0.0
 40
0.0
 40
2.799999999999955
 40
2.799999999999955
 40
2.799999999999955
 10
1545.293392780555
 20
576.5969201646449
 30
0.0
 10
1545.293392780555
 20
577.9969201646448
 30
0.0
 10
1545.293392780555
 20
579.3969201646448
 30
0.0
  0
SPLINE
  5
64
330
1F
100
AcDbEntity
  8
Predefinito
100
AcDbSpline
210
0.0
220
0.0
230
1.0
 70
    24
 71
     2
 72
     6
 73
     3
 74
     0
 42
0.0000000001
 43
0.0000000001
 40
0.0
 40
0.0
 40
0.0
 40
2.799999999999955
 40
2.799999999999955
 40
2.799999999999955
 10
1559.293392780555
 20
579.3969201646448
 30
0.0
 10
1559.293392780555
 20
577.9969201646448
 30
0.0
 10
1559.293392780555
 20
576.5969201646449
 30
0.0
  0
SPLINE
  5
65
330
1F
100
AcDbEntity
  8
Predefinito
100
AcDbSpline
210
0.0
220
0.0
230
1.0
 70
    24
 71
     2
 72
     6
 73
     3
 74
     0
 42
0.0000000001
 43
0.0000000001
 40
0.0
 40
0.0
 40
0.0
 40
0.6244725707722784
 40
0.6244725707722784
 40
0.6244725707722784
 10
1558.793392780555
 20
579.8969201646448
 30
0.0
 10
1559.014177175284
 20
579.6761357699158
 30
0.0
 10
1559.234961570013
 20
579.4553513751868
 30
0.0
  0
SPLINE
  5
66
330
1F
100
AcDbEntity
  8
Predefinito
100
AcDbSpline
210
0.0
220
0.0
230
1.0
 70
    24
 71
     2
 72
     6
 73
     3
 74
     0
 42
0.0000000001
 43
0.0000000001
 40
0.0
 40
0.0
 40
0.0
 40
0.6244725707722784
 40
0.6244725707722784
 40
0.6244725707722784
 10
1545.351823991097
 20
579.4553513751868
 30
0.0
 10
1545.572608385826
 20
579.6761357699158
 30
0.0
 10
1545.793392780555
 20
579.8969201646448
 30
0.0
  0
SPLINE
  5
67
330
1F
100
AcDbEntity
  8
Predefinito
100
AcDbSpline
210
0.0
220
0.0
230
1.0
 70
    24
 71
     2
 72
     6
 73
     3
 74
     0
 42
0.0000000001
 43
0.0000000001
 40
0.0
 40
0.0
 40
0.0
 40
0.2002085020604141
 40
0.2002085020604141
 40
0.2002085020604141
 10
1559.234961570013
 20
576.538488954103
 30
0.0
 10
1559.164177175284
 20
576.4677045593739
 30
0.0
 10
1559.093392780555
 20
576.3969201646448
 30
0.0
  0
SPLINE
  5
68
330
1F
100
AcDbEntity
  8
Predefinito
100
AcDbSpline
210
0.0
220
0.0
230
1.0
 70
    24
 71
     2
 72
     6
 73
     3
 74
     0
 42
0.0000000001
 43
0.0000000001
 40
0.0
 40
0.0
 40
0.0
 40
0.2002085020604141
 40
0.2002085020604141
 40
0.2002085020604141
 10
1545.493392780555
 20
576.3969201646448
 30
0.0
 10
1545.422608385826
 20
576.4677045593739
 30
0.0
 10
1545.351823991097
 20
576.538488954103
 30
0.0
  0
SPLINE
  5
69
330
1F
100
AcDbEntity
  8
Predefinito
100
AcDbSpline
210
0.0
220
0.0
230
1.0
 70
    15
 71
     2
 72
    12
 73
     9
 74
     0
 42
0.0000000001
 43
0.0000000001
 40
0.0
 40
0.0
 40
0.0
 40
107.281074636804
 40
107.281074636804
 40
214.5621492736081
 40
214.5621492736081
 40
321.8432239104121
 40
321.8432239104121
 40
429.1242985472162
 40
429.1242985472162
 40
429.1242985472162
 10
1620.59075187418
 20
68.29692016464469
 30
0.0
 41
1.0
 10
1620.590418703041
 20
-0.0003331491743592
 30
0.0
 41
0.7071067811865476
 10
1552.293165389221
 20
0.0000000219650644
 30
0.0
 41
1.0
 10
1483.995912075402
 20
0.0003331931045084
 30
0.0
 41
0.7071067811865476
 10
1483.996245246542
 20
68.29758650692354
 30
0.0
 41
1.0
 10
1483.996578417681
 20
136.5948398207426
 30
0.0
 41
0.7071067811865476
 10
1552.293831731501
 20
136.5945066496032
 30
0.0
 41
1.0
 10
1620.591085045319
 20
136.5941734784637
 30
0.0
 41
0.7071067811865476
 10
1620.59075187418
 20
68.29692016464469
 30
0.0
 41
1.0
  0
SPLINE
  5
6A
330
1F
100
AcDbEntity
  8
Predefinito
100
AcDbSpline
210
0.0
220
0.0
230
1.0
 70
    12
 71
     2
 72
     8
 73
     5
 74
     0
 42
0.0000000001
 43
0.0000000001
 40
0.0
 40
0.0
 40
0.0
 40
102.944026634713
 40
102.944026634713
 40
205.8880532694261
 40
205.8880532694261
 40
205.8880532694261
 10
1559.293392780555
 20
574.9460617117496
 30
0.0
 41
1.0
 10
1622.293399236086
 20
568.6143334425785
 30
0.0
 41
0.7416197927567088
 10
1622.293399236085
 20
505.2969456547718
 30
0.0
 41
1.0
 10
1622.293399236086
 20
441.9795578669651
 30
0.0
 41
0.7416197927567088
 10
1559.293392780555
 20
435.647829597794
 30
0.0
 41
1.0
  0
SPLINE
  5
6B
330
1F
100
AcDbEntity
  8
Predefinito
100
AcDbSpline
210
0.0
220
0.0
230
1.0
 70
    12
 71
     2
 72
     8
 73
     5
 74
     0
 42
0.0000000001
 43
0.0000000001
 40
0.0
 40
0.0
 40
0.0
 40
102.9440497427013
 40
102.9440497427013
 40
205.8880994854026
 40
205.8880994854026
 40
205.8880994854026
 10
1545.293392780555
 20
435.6477637215839
 30
0.0
 41
1.0
 10
1482.293398394094
 20
441.9795529910448
 30
0.0
 41
0.7416201206661363
 10
1482.293398394094
 20
505.2969348703283
 30
0.0
 41
1.0
 10
1482.293398394094
 20
568.6143167496117
 30
0.0
 41
0.7416201206661363
 10
1545.293392780555
 20
574.9461060190727
 30
0.0
 41
1.0
  0
SPLINE
  5
6C
330
1F
100
AcDbEntity
  8
Predefinito
100
AcDbSpline
210
0.0
220
0.0
230
1.0
 70
    24
 71
     2
 72
     6
 73
     3
 74
     0
 42
0.0000000001
 43
0.0000000001
 40
0.0
 40
0.0
 40
0.0
 40
41.99999998507724
 40
41.99999998507724
 40
41.99999998507724
 10
1531.300368757962
 20
509.3969201646448
 30
0.0
 10
1552.300368750501
 20
509.3969201646448
 30
0.0
 10
1573.300368743039
 20
509.3969201646448
 30
0.0
  0
SPLINE
  5
6D
330
1F
100
AcDbEntity
  8
Predefinito
100
AcDbSpline
210
0.0
220
0.0
230
1.0
 70
    24
 71
     2
 72
     6
 73
     3
 74
     0
 42
0.0000000001
 43
0.0000000001
 40
0.0
 40
0.0
 40
0.0
 40
41.99999988804529
 40
41.99999988804529
 40
41.99999988804529
 10
1573.300368714136
 20
501.3969201646448
 30
0.0
 10
1552.300368770113
 20
501.3969201646448
 30
0.0
 10
1531.30036882609
 20
501.3969201646448
 30
0.0
  0
SPLINE
  5
6E
330
1F
100
AcDbEntity
  8
Predefinito
100
AcDbSpline
210
0.0
220
0.0
230
1.0
 70
    28
 71
     2
 72
     6
 73
     3
 74
     0
 42
0.0000000001
 43
0.0000000001
 40
0.3765607489510682
 40
0.3765607489510682
 40
0.3765607489510682
 40
1.506242995804273
 40
1.506242995804273
 40
1.506242995804273
 10
1554.724581838271
 20
1247.29292679778
 30
0.0
 41
0.8985840901285895
 10
1554.479713612348
 20
1247.292926797779
 30
0.0
 41
0.7971681802571791
 10
1554.919782996333
 20
1247.292926797779
 30
0.0
 41
1.0
  0
SPLINE
  5
6F
330
1F
100
AcDbEntity
  8
Predefinito
100
AcDbSpline
210
0.0
220
0.0
230
1.0
 70
    24
 71
     2
 72
     6
 73
     3
 74
     0
 42
0.0000000001
 43
0.0000000001
 40
0.0
 40
0.0
 40
0.0
 40
0.863452200614347
 40
0.863452200614347
 40
0.863452200614347
 10
1554.919782996333
 20
1247.292926797779
 30
0.0
 10
1555.35150909664
 20
1247.292926797779
 30
0.0
 10
1555.783235196948
 20
1247.292926797779
 30
0.0
  0
SPLINE
  5
70
330
1F
100
AcDbEntity
  8
Predefinito
100
AcDbSpline
210
0.0
220
0.0
230
1.0
 70
    24
 71
     2
 72
     6
 73
     3
 74
     0
 42
0.0000000001
 43
0.0000000001
 40
0.0
 40
0.0
 40
0.0
 40
0.1952011580622184
 40
0.1952011580622184
 40
0.1952011580622184
 10
1554.919782996333
 20
1243.292926797779
 30
0.0
 10
1554.822182417302
 20
1243.292926797779
 30
0.0
 10
1554.724581838271
 20
1243.29292679778
 30
0.0
  0
SPLINE
  5
71
330
1F
100
AcDbEntity
  8
Predefinito
100
AcDbSpline
210
0.0
220
0.0
230
1.0
 70
    24
 71
     2
 72
     6
 73
     3
 74
     0
 42
0.0000000001
 43
0.0000000001
 40
0.0
 40
0.0
 40
0.0
 40
4.0
 40
4.0
 40
4.0
 10
1554.919782996333
 20
1243.292926797779
 30
0.0
 10
1554.919782996333
 20
1245.292926797779
 30
0.0
 10
1554.919782996333
 20
1247.292926797779
 30
0.0
  0
SPLINE
  5
72
330
1F
100
AcDbEntity
  8
Predefinito
100
AcDbSpline
210
0.0
220
0.0
230
1.0
 70
    12
 71
     2
 72
     6
 73
     3
 74
     0
 42
0.0000000001
 43
0.0000000001
 40
0.0
 40
0.0
 40
0.0
 40
0.3397385644266512
 40
0.3397385644266512
 40
0.3397385644266512
 10
1555.882159665526
 20
1251.293529705619
 30
0.0
 41
1.0
 10
1555.893282237525
 20
1251.12396507968
 30
0.0
 41
0.9994727095916338
 10
1555.893375626049
 20
1250.954036079047
 30
0.0
 41
1.0
  0
SPLINE
  5
73
330
1F
100
AcDbEntity
  8
Predefinito
100
AcDbSpline
210
0.0
220
0.0
230
1.0
 70
    12
 71
     2
 72
     6
 73
     3
 74
     0
 42
0.0000000001
 43
0.0000000001
 40
0.0
 40
0.0
 40
0.0
 40
0.3398475769360488
 40
0.3398475769360488
 40
0.3398475769360488
 10
1555.893375647077
 20
1239.631926529021
 30
0.0
 41
1.0
 10
1555.893285846892
 20
1239.461942961415
 30
0.0
 41
0.9994723603265876
 10
1555.882159665526
 20
1239.29232388994
 30
0.0
 41
1.0
  0
SPLINE
  5
74
330
1F
100
AcDbEntity
  8
Predefinito
100
AcDbSpline
210
0.0
220
0.0
230
1.0
 70
    24
 71
     2
 72
     6
 73
     3
 74
     0
 42
0.0000000001
 43
0.0000000001
 40
0.0
 40
0.0
 40
0.0
 40
0.8634522006228735
 40
0.8634522006228735
 40
0.8634522006228735
 10
1555.783235196956
 20
1243.292926797779
 30
0.0
 10
1555.351509096645
 20
1243.292926797779
 30
0.0
 10
1554.919782996333
 20
1243.292926797779
 30
0.0
  0
SPLINE
  5
75
330
1F
100
AcDbEntity
  8
Predefinito
100
AcDbSpline
210
0.0
220
0.0
230
1.0
 70
    28
 71
     2
 72
     6
 73
     3
 74
     0
 42
0.0000000001
 43
0.0000000001
 40
0.3765607489510647
 40
0.3765607489510647
 40
0.3765607489510647
 40
1.506242995804259
 40
1.506242995804259
 40
1.506242995804259
 10
1549.862169623928
 20
1243.292926797779
 30
0.0
 41
0.8985840901285913
 10
1550.107037849852
 20
1243.292926797779
 30
0.0
 41
0.7971681802571826
 10
1549.666968465866
 20
1243.292926797779
 30
0.0
 41
1.0
  0
SPLINE
  5
76
330
1F
100
AcDbEntity
  8
Predefinito
100
AcDbSpline
210
0.0
220
0.0
230
1.0
 70
    24
 71
     2
 72
     6
 73
     3
 74
     0
 42
0.0000000001
 43
0.0000000001
 40
0.0
 40
0.0
 40
0.0
 40
0.1952011580621047
 40
0.1952011580621047
 40
0.1952011580621047
 10
1549.666968465866
 20
1247.292926797779
 30
0.0
 10
1549.764569044897
 20
1247.292926797779
 30
0.0
 10
1549.862169623928
 20
1247.292926797779
 30
0.0
  0
SPLINE
  5
77
330
1F
100
AcDbEntity
  8
Predefinito
100
AcDbSpline
210
0.0
220
0.0
230
1.0
 70
    24
 71
     2
 72
     6
 73
     3
 74
     0
 42
0.0000000001
 43
0.0000000001
 40
0.0
 40
0.0
 40
0.0
 40
4.0
 40
4.0
 40
4.0
 10
1549.666968465866
 20
1247.292926797779
 30
0.0
 10
1549.666968465866
 20
1245.292926797779
 30
0.0
 10
1549.666968465866
 20
1243.292926797779
 30
0.0
  0
SPLINE
  5
78
330
1F
100
AcDbEntity
  8
Predefinito
100
AcDbSpline
210
0.0
220
0.0
230
1.0
 70
    24
 71
     2
 72
     6
 73
     3
 74
     0
 42
0.0000000001
 43
0.0000000001
 40
0.0
 40
0.0
 40
0.0
 40
0.8634522006142333
 40
0.8634522006142333
 40
0.8634522006142333
 10
1548.803516265252
 20
1247.29292679778
 30
0.0
 10
1549.235242365559
 20
1247.292926797779
 30
0.0
 10
1549.666968465866
 20
1247.292926797779
 30
0.0
  0
SPLINE
  5
79
330
1F
100
AcDbEntity
  8
Predefinito
100
AcDbSpline
210
0.0
220
0.0
230
1.0
 70
    24
 71
     2
 72
     6
 73
     3
 74
     0
 42
0.0000000001
 43
0.0000000001
 40
0.0
 40
0.0
 40
0.0
 40
0.9617262105930422
 40
0.9617262105930422
 40
0.9617262105930422
 10
1549.666968465866
 20
1243.292926797779
 30
0.0
 10
1549.18610536057
 20
1243.292926797779
 30
0.0
 10
1548.705242255273
 20
1243.292926797779
 30
0.0
  0
SPLINE
  5
7A
330
1F
100
AcDbEntity
  8
Predefinito
100
AcDbSpline
210
0.0
220
0.0
230
1.0
 70
    24
 71
     2
 72
     6
 73
     3
 74
     0
 42
0.0000000001
 43
0.0000000001
 40
0.0
 40
0.0
 40
0.0
 40
0.2196068564946927
 40
0.2196068564946927
 40
0.2196068564946927
 10
1548.6933757311
 20
1250.733397621486
 30
0.0
 10
1548.6933757311
 20
1250.843201049734
 30
0.0
 10
1548.6933757311
 20
1250.953004477981
 30
0.0
  0
SPLINE
  5
7B
330
1F
100
AcDbEntity
  8
Predefinito
100
AcDbSpline
210
0.0
220
0.0
230
1.0
 70
    24
 71
     2
 72
     6
 73
     3
 74
     0
 42
0.0000000001
 43
0.0000000001
 40
0.0
 40
0.0
 40
0.0
 40
10.82404730218832
 40
10.82404730218832
 40
10.82404730218832
 10
1548.6933757311
 20
1250.704950448873
 30
0.0
 10
1548.6933757311
 20
1245.292926797779
 30
0.0
 10
1548.6933757311
 20
1239.880903146685
 30
0.0
  0
SPLINE
  5
7C
330
1F
100
AcDbEntity
  8
Predefinito
100
AcDbSpline
210
0.0
220
0.0
230
1.0
 70
    24
 71
     2
 72
     6
 73
     3
 74
     0
 42
0.0000000001
 43
0.0000000001
 40
0.0
 40
0.0
 40
0.0
 40
0.2196068564946927
 40
0.2196068564946927
 40
0.2196068564946927
 10
1548.6933757311
 20
1239.632849117578
 30
0.0
 10
1548.6933757311
 20
1239.742652545825
 30
0.0
 10
1548.6933757311
 20
1239.852455974072
 30
0.0
  0
SPLINE
  5
7D
330
1F
100
AcDbEntity
  8
Predefinito
100
AcDbSpline
210
0.0
220
0.0
230
1.0
 70
    24
 71
     2
 72
     6
 73
     3
 74
     0
 42
0.0000000001
 43
0.0000000001
 40
0.0
 40
0.0
 40
0.0
 40
0.2196068564946927
 40
0.2196068564946927
 40
0.2196068564946927
 10
1555.8933757311
 20
1239.852455974072
 30
0.0
 10
1555.8933757311
 20
1239.742652545825
 30
0.0
 10
1555.8933757311
 20
1239.632849117578
 30
0.0
  0
SPLINE
  5
7E
330
1F
100
AcDbEntity
  8
Predefinito
100
AcDbSpline
210
0.0
220
0.0
230
1.0
 70
    24
 71
     2
 72
     6
 73
     3
 74
     0
 42
0.0000000001
 43
0.0000000001
 40
0.0
 40
0.0
 40
0.0
 40
10.82404730218832
 40
10.82404730218832
 40
10.82404730218832
 10
1555.8933757311
 20
1239.880903146685
 30
0.0
 10
1555.8933757311
 20
1245.292926797779
 30
0.0
 10
1555.8933757311
 20
1250.704950448873
 30
0.0
  0
SPLINE
  5
7F
330
1F
100
AcDbEntity
  8
Predefinito
100
AcDbSpline
210
0.0
220
0.0
230
1.0
 70
    24
 71
     2
 72
     6
 73
     3
 74
     0
 42
0.0000000001
 43
0.0000000001
 40
0.0
 40
0.0
 40
0.0
 40
0.2196068564946927
 40
0.2196068564946927
 40
0.2196068564946927
 10
1555.8933757311
 20
1250.953004477981
 30
0.0
 10
1555.8933757311
 20
1250.843201049734
 30
0.0
 10
1555.8933757311
 20
1250.733397621486
 30
0.0
  0
SPLINE
  5
80
330
1F
100
AcDbEntity
  8
Predefinito
100
AcDbSpline
210
0.0
220
0.0
230
1.0
 70
    12
 71
     2
 72
     6
 73
     3
 74
     0
 42
0.0000000001
 43
0.0000000001
 40
0.0
 40
0.0
 40
0.0
 40
0.2361495182957355
 40
0.2361495182957355
 40
0.2361495182957355
 10
1548.704109381354
 20
1239.299796208601
 30
0.0
 41
1.0
 10
1548.696564063565
 20
1239.417649407086
 30
0.0
 41
0.9997494226792771
 10
1548.694301292241
 20
1239.53572221547
 30
0.0
 41
1.0
  0
SPLINE
  5
81
330
1F
100
AcDbEntity
  8
Predefinito
100
AcDbSpline
210
0.0
220
0.0
230
1.0
 70
    12
 71
     2
 72
     6
 73
     3
 74
     0
 42
0.0000000001
 43
0.0000000001
 40
0.0
 40
0.0
 40
0.0
 40
0.3397385644266638
 40
0.3397385644266638
 40
0.3397385644266638
 10
1548.693375836151
 20
1250.954036079047
 30
0.0
 41
1.0
 10
1548.693469224675
 20
1251.12396507968
 30
0.0
 41
0.9994727095915905
 10
1548.704591796673
 20
1251.293529705619
 30
0.0
 41
1.0
  0
SPLINE
  5
82
330
1F
100
AcDbEntity
  8
Predefinito
100
AcDbSpline
210
0.0
220
0.0
230
1.0
 70
    12
 71
     2
 72
     6
 73
     3
 74
     0
 42
0.0000000001
 43
0.0000000001
 40
0.0
 40
0.0
 40
0.0
 40
0.4284904895953497
 40
0.4284904895953497
 40
0.4284904895953497
 10
1548.704044392706
 20
1251.30323879293
 30
0.0
 41
1.0
 10
1548.886328876499
 20
1251.416114434549
 30
0.0
 41
0.9988983596392025
 10
1549.078392531704
 20
1251.511403971497
 30
0.0
 41
1.0
  0
SPLINE
  5
83
330
1F
100
AcDbEntity
  8
Predefinito
100
AcDbSpline
210
0.0
220
0.0
230
1.0
 70
    12
 71
     2
 72
     6
 73
     3
 74
     0
 42
0.0000000001
 43
0.0000000001
 40
0.0
 40
0.0
 40
0.0
 40
0.6848965112150629
 40
0.6848965112150629
 40
0.6848965112150629
 10
1555.27840973666
 20
1251.624748375281
 30
0.0
 41
1.0
 10
1555.5899913101
 20
1251.481721280901
 30
0.0
 41
0.9982833414658897
 10
1555.882709952899
 20
1251.303239845472
 30
0.0
 41
1.0
  0
SPLINE
  5
84
330
1F
100
AcDbEntity
  8
Predefinito
100
AcDbSpline
210
0.0
220
0.0
230
1.0
 70
    12
 71
     2
 72
     6
 73
     3
 74
     0
 42
0.0000000001
 43
0.0000000001
 40
0.0
 40
0.0
 40
0.0
 40
0.6981151348726322
 40
0.6981151348726322
 40
0.6981151348726322
 10
1555.8933757311
 20
1239.289594389858
 30
0.0
 41
1.0
 10
1555.596421424015
 20
1239.105190482564
 30
0.0
 41
0.9978792650737028
 10
1555.278027953378
 20
1238.960925936062
 30
0.0
 41
1.0
  0
SPLINE
  5
85
330
1F
100
AcDbEntity
  8
Predefinito
100
AcDbSpline
210
0.0
220
0.0
230
1.0
 70
    12
 71
     2
 72
     6
 73
     3
 74
     0
 42
0.0000000001
 43
0.0000000001
 40
0.0
 40
0.0
 40
0.0
 40
0.4408352380446075
 40
0.4408352380446075
 40
0.4408352380446075
 10
1549.078007436921
 20
1239.074642324215
 30
0.0
 41
1.0
 10
1548.879867653171
 20
1239.171697110574
 30
0.0
 41
0.9985350458943012
 10
1548.6933757311
 20
1239.289594389858
 30
0.0
 41
1.0
  0
SPLINE
  5
86
330
1F
100
AcDbEntity
  8
Predefinito
100
AcDbSpline
210
0.0
220
0.0
230
1.0
 70
    12
 71
     2
 72
     8
 73
     5
 74
     0
 42
0.0000000001
 43
0.0000000001
 40
0.0
 40
0.0
 40
0.0
 40
6.394828723899456
 40
6.394828723899456
 40
12.78965744779875
 40
12.78965744779875
 40
12.78965744779875
 10
1555.8933757311
 20
1250.704950448873
 30
0.0
 41
1.0
 10
1558.7933757311
 20
1248.77591231581
 30
0.0
 41
0.8814324006542213
 10
1558.7933757311
 20
1245.292926797779
 30
0.0
 41
1.0
 10
1558.793375731099
 20
1241.809941279749
 30
0.0
 41
0.8814324006542668
 10
1555.8933757311
 20
1239.880903146685
 30
0.0
 41
1.0
  0
SPLINE
  5
87
330
1F
100
AcDbEntity
  8
Predefinito
100
AcDbSpline
210
0.0
220
0.0
230
1.0
 70
    12
 71
     2
 72
     8
 73
     5
 74
     0
 42
0.0000000001
 43
0.0000000001
 40
0.0
 40
0.0
 40
0.0
 40
6.394828723899477
 40
6.394828723899477
 40
12.78965744779903
 40
12.78965744779903
 40
12.78965744779903
 10
1548.6933757311
 20
1239.880903146685
 30
0.0
 41
1.0
 10
1545.7933757311
 20
1241.809941279749
 30
0.0
 41
0.8814324006542319
 10
1545.7933757311
 20
1245.292926797779
 30
0.0
 41
1.0
 10
1545.7933757311
 20
1248.77591231581
 30
0.0
 41
0.8814324006542004
 10
1548.6933757311
 20
1250.704950448873
 30
0.0
 41
1.0
  0
SPLINE
  5
88
330
1F
100
AcDbEntity
  8
Predefinito
100
AcDbSpline
210
0.0
220
0.0
230
1.0
 70
    12
 71
     2
 72
     8
 73
     5
 74
     0
 42
0.0000000001
 43
0.0000000001
 40
0.0
 40
0.0
 40
0.0
 40
7.213662413293142
 40
7.213662413293142
 40
14.4280147087117
 40
14.4280147087117
 40
14.4280147087117
 10
1548.692784092624
 20
1239.289949215534
 30
0.0
 41
1.0
 10
1545.2933757311
 20
1241.328917569917
 30
0.0
 41
0.870163844936104
 10
1545.2933757311
 20
1245.292926797779
 30
0.0
 41
1.0
 10
1545.2933757311
 20
1249.257391595463
 30
0.0
 41
0.8701395618766136
 10
1548.6933757311
 20
1251.296259205701
 30
0.0
 41
1.0
  0
SPLINE
  5
89
330
1F
100
AcDbEntity
  8
Predefinito
100
AcDbSpline
210
0.0
220
0.0
230
1.0
 70
    12
 71
     2
 72
     8
 73
     5
 74
     0
 42
0.0000000001
 43
0.0000000001
 40
0.0
 40
0.0
 40
0.0
 40
7.221266501183651
 40
7.221266501183651
 40
14.44183948611291
 40
14.44183948611291
 40
14.44183948611291
 10
1555.8933757311
 20
1251.296259205701
 30
0.0
 41
1.0
 10
1559.297292702067
 20
1249.255042717453
 30
0.0
 41
0.8698960730688005
 10
1559.293372316369
 20
1245.286012593138
 30
0.0
 41
1.0
 10
1559.289452383279
 20
1241.317440694582
 30
0.0
 41
0.8699205053249963
 10
1555.882104665401
 20
1239.28284987347
 30
0.0
 41
1.0
  0
SPLINE
  5
8A
330
1F
100
AcDbEntity
  8
Predefinito
100
AcDbSpline
210
0.0
220
0.0
230
1.0
 70
    24
 71
     2
 72
     6
 73
     3
 74
     0
 42
0.0000000001
 43
0.0000000001
 40
0.0
 40
0.0
 40
0.0
 40
135.9118369917483
 40
135.9118369917483
 40
135.9118369917483
 10
1620.290746247247
 20
1475.292926797779
 30
0.0
 10
1552.334827751373
 20
1475.292926797779
 30
0.0
 10
1484.378909255499
 20
1475.292926797779
 30
0.0
  0
SPLINE
  5
8B
330
1F
100
AcDbEntity
  8
Predefinito
100
AcDbSpline
210
0.0
220
0.0
230
1.0
 70
    24
 71
     3
 72
     9
 73
     5
 74
     0
 42
0.0000000001
 43
0.0000000001
 40
0.0
 40
0.0
 40
0.0
 40
0.0
 40
0.0762537321057835
 40
136.6710016648134
 40
136.6710016648134
 40
136.6710016648134
 40
136.6710016648134
 10
1484.072240623565
 20
1474.99030883713
 30
0.0
 10
1483.957342631305
 20
1474.99030883713
 30
0.0
 10
1529.483256002639
 20
1474.990308837129
 30
0.0
 10
1575.068625828609
 20
1474.990308837128
 30
0.0
 10
1620.590734824166
 20
1474.99030883713
 30
0.0
  0
SPLINE
  5
8C
330
1F
100
AcDbEntity
  8
Predefinito
100
AcDbSpline
210
0.0
220
0.0
230
1.0
 70
    12
 71
     2
 72
     8
 73
     5
 74
     0
 42
0.0000000001
 43
0.0000000001
 40
0.0
 40
0.0
 40
0.0
 40
0.2509938844028559
 40
0.2509938844028559
 40
0.5019877688057117
 40
0.5019877688057117
 40
0.5019877688057117
 10
1620.590734824166
 20
1474.99030883713
 30
0.0
 41
1.0
 10
1620.617078623856
 20
1475.124233282738
 30
0.0
 41
0.8834454091605124
 10
1620.520987053691
 20
1475.221167090344
 30
0.0
 41
1.0
 10
1620.424895483526
 20
1475.31810089795
 30
0.0
 41
0.8834454091605124
 10
1620.290746247247
 20
1475.292926797779
 30
0.0
 41
1.0
  0
SPLINE
  5
8D
330
1F
100
AcDbEntity
  8
Predefinito
100
AcDbSpline
210
0.0
220
0.0
230
1.0
 70
    24
 71
     2
 72
     6
 73
     3
 74
     0
 42
0.0000000001
 43
0.0000000001
 40
0.0
 40
0.0
 40
0.0
 40
136.1112954037176
 40
136.1112954037176
 40
136.1112954037176
 10
1620.349023432959
 20
1447.292926797779
 30
0.0
 10
1552.2933757311
 20
1447.292926797779
 30
0.0
 10
1484.237728029241
 20
1447.292926797779
 30
0.0
  0
SPLINE
  5
8E
330
1F
100
AcDbEntity
  8
Predefinito
100
AcDbSpline
210
0.0
220
0.0
230
1.0
 70
    24
 71
     2
 72
     6
 73
     3
 74
     0
 42
0.0000000001
 43
0.0000000001
 40
0.0
 40
0.0
 40
0.0
 40
35.61228822062935
 40
35.61228822062935
 40
35.61228822062935
 10
1594.293375731099
 20
1064.292926797779
 30
0.0
 10
1576.487231620785
 20
1064.292926797779
 30
0.0
 10
1558.68108751047
 20
1064.292926797779
 30
0.0
  0
SPLINE
  5
8F
330
1F
100
AcDbEntity
  8
Predefinito
100
AcDbSpline
210
0.0
220
0.0
230
1.0
 70
    24
 71
     2
 72
     6
 73
     3
 74
     0
 42
0.0000000001
 43
0.0000000001
 40
0.0
 40
0.0
 40
0.0
 40
40.78609117821463
 40
40.78609117821463
 40
40.78609117821463
 10
1551.079466909313
 20
1064.292926797779
 30
0.0
 10
1530.686421320206
 20
1064.292926797779
 30
0.0
 10
1510.293375731099
 20
1064.292926797779
 30
0.0
  0
SPLINE
  5
90
330
1F
100
AcDbEntity
  8
Predefinito
100
AcDbSpline
210
0.0
220
0.0
230
1.0
 70
    24
 71
     2
 72
     6
 73
     3
 74
     0
 42
0.0000000001
 43
0.0000000001
 40
0.0
 40
0.0
 40
0.0
 40
7.269519095497003
 40
7.269519095497003
 40
7.269519095497003
 10
1541.626702418338
 20
1077.058946689981
 30
0.0
 10
1545.261461966087
 20
1077.058946689981
 30
0.0
 10
1548.896221513835
 20
1077.058946689981
 30
0.0
  0
SPLINE
  5
91
330
1F
100
AcDbEntity
  8
Predefinito
100
AcDbSpline
210
0.0
220
0.0
230
1.0
 70
    24
 71
     2
 72
     6
 73
     3
 74
     0
 42
0.0000000001
 43
0.0000000001
 40
0.0
 40
0.0
 40
0.0
 40
4.559204426713222
 40
4.559204426713222
 40
4.559204426713222
 10
1557.800308500871
 20
1077.058946689981
 30
0.0
 10
1560.079910714228
 20
1077.058946689981
 30
0.0
 10
1562.359512927585
 20
1077.058946689981
 30
0.0
  0
SPLINE
  5
92
330
1F
100
AcDbEntity
  8
Predefinito
100
AcDbSpline
210
0.0
220
0.0
230
1.0
 70
    24
 71
     2
 72
     6
 73
     3
 74
     0
 42
0.0000000001
 43
0.0000000001
 40
0.0
 40
0.0
 40
0.0
 40
38.65491127014127
 40
38.65491127014127
 40
38.65491127014127
 10
1512.400531338732
 20
1065.470936802164
 30
0.0
 10
1531.727986973803
 20
1065.470936802164
 30
0.0
 10
1551.055442608873
 20
1065.470936802164
 30
0.0
  0
SPLINE
  5
93
330
1F
100
AcDbEntity
  8
Predefinito
100
AcDbSpline
210
0.0
220
0.0
230
1.0
 70
    24
 71
     2
 72
     6
 73
     3
 74
     0
 42
0.0000000001
 43
0.0000000001
 40
0.0
 40
0.0
 40
0.0
 40
32.97905059050595
 40
32.97905059050595
 40
32.97905059050595
 10
1558.606633416685
 20
1065.470936802164
 30
0.0
 10
1575.096158711938
 20
1065.470936802164
 30
0.0
 10
1591.585684007191
 20
1065.470936802164
 30
0.0
  0
SPLINE
  5
94
330
1F
100
AcDbEntity
  8
Predefinito
100
AcDbSpline
210
0.0
220
0.0
230
1.0
 70
    24
 71
     2
 72
     6
 73
     3
 74
     0
 42
0.0000000001
 43
0.0000000001
 40
0.0
 40
0.0
 40
0.0
 40
4.943717158723416
 40
4.943717158723416
 40
4.943717158723416
 10
1561.443107672962
 20
1107.058946689587
 30
0.0
 10
1558.9712490936
 20
1107.058946689587
 30
0.0
 10
1556.499390514238
 20
1107.058946689587
 30
0.0
  0
SPLINE
  5
95
330
1F
100
AcDbEntity
  8
Predefinito
100
AcDbSpline
210
0.0
220
0.0
230
1.0
 70
    24
 71
     2
 72
     6
 73
     3
 74
     0
 42
0.0000000001
 43
0.0000000001
 40
0.0
 40
0.0
 40
0.0
 40
7.755464773389463
 40
7.755464773389463
 40
7.755464773389463
 10
1550.298572446351
 20
1107.058946689587
 30
0.0
 10
1546.420840059656
 20
1107.058946689587
 30
0.0
 10
1542.543107672962
 20
1107.058946689587
 30
0.0
  0
SPLINE
  5
96
330
1F
100
AcDbEntity
  8
Predefinito
100
AcDbSpline
210
0.0
220
0.0
230
1.0
 70
    12
 71
     2
 72
     6
 73
     3
 74
     0
 42
0.0000000001
 43
0.0000000001
 40
0.0
 40
0.0
 40
0.0
 40
8.263575858708585
 40
8.263575858708585
 40
8.263575858708585
 10
1550.30668353167
 20
1106.558946222067
 30
0.0
 41
1.0
 10
1546.174895602316
 20
1106.558946121253
 30
0.0
 41
0.9999999999999987
 10
1542.043107672962
 20
1106.558946453403
 30
0.0
 41
1.0
  0
SPLINE
  5
97
330
1F
100
AcDbEntity
  8
Predefinito
100
AcDbSpline
210
0.0
220
0.0
230
1.0
 70
    12
 71
     2
 72
     6
 73
     3
 74
     0
 42
0.0000000001
 43
0.0000000001
 40
0.0
 40
0.0
 40
0.0
 40
5.435601024159163
 40
5.435601024159163
 40
5.435601024159163
 10
1561.943107672962
 20
1106.558946453035
 30
0.0
 41
1.0
 10
1559.225307160882
 20
1106.558946171781
 30
0.0
 41
0.9999999999999979
 10
1556.507506648803
 20
1106.558946237885
 30
0.0
 41
1.0
  0
SPLINE
  5
98
330
1F
100
AcDbEntity
  8
Predefinito
100
AcDbSpline
210
0.0
220
0.0
230
1.0
 70
    12
 71
     3
 72
    12
 73
     8
 74
     0
 42
0.0000000001
 43
0.0000000001
 40
0.1523798421778473
 40
0.1523798421778473
 40
0.1523798421778473
 40
0.1523798421778473
 40
0.249313244465465
 40
0.249313244465465
 40
0.3747656229442701
 40
0.3747656229442701
 40
0.5
 40
0.5
 40
0.5
 40
0.5
 10
1560.839268735628
 20
1092.933901291301
 30
0.0
 41
1.0
 10
1560.458891096915
 20
1093.825389877247
 30
0.0
 41
1.0
 10
1560.109921576548
 20
1094.963131162284
 30
0.0
 41
1.0
 10
1560.010013111147
 20
1097.927908448793
 30
0.0
 41
1.0
 10
1560.488182306397
 20
1099.406272156551
 30
0.0
 41
1.0
 10
1561.474916359869
 20
1101.55777380953
 30
0.0
 41
1.0
 10
1561.898791526569
 20
1102.232306549507
 30
0.0
 41
1.0
 10
1561.939199521639
 20
1102.300087360708
 30
0.0
 41
1.0
  0
SPLINE
  5
99
330
1F
100
AcDbEntity
  8
Predefinito
100
AcDbSpline
210
0.0
220
0.0
230
1.0
 70
     8
 71
     3
 72
    11
 73
     7
 74
     0
 42
0.0000000001
 43
0.0000000001
 40
0.0
 40
0.0
 40
0.0
 40
0.0
 40
0.007890716730698
 40
3.273209302287496
 40
6.102837106733977
 40
12.24515135125087
 40
12.24515135125087
 40
12.24515135125087
 40
12.24515135125087
 10
1542.047015824284
 20
1102.300087360708
 30
0.0
 10
1542.03868130931
 20
1102.311542029878
 30
0.0
 10
1542.593250308515
 20
1101.365027226986
 30
0.0
 10
1543.526266496679
 20
1099.566965458145
 30
0.0
 10
1544.31975647095
 20
1095.454651839746
 30
0.0
 10
1543.086243238531
 20
1092.555619682576
 30
0.0
 10
1542.046494968737
 20
1090.816981122762
 30
0.0
  0
SPLINE
  5
9A
330
1F
100
AcDbEntity
  8
Predefinito
100
AcDbSpline
210
0.0
220
0.0
230
1.0
 70
    24
 71
     2
 72
     6
 73
     3
 74
     0
 42
0.0000000001
 43
0.0000000001
 40
0.0
 40
0.0
 40
0.0
 40
3.933221473666208
 40
3.933221473666208
 40
3.933221473666208
 10
1573.300351705809
 20
1150.573074758016
 30
0.0
 10
1575.266962442642
 20
1150.573074758016
 30
0.0
 10
1577.233573179475
 20
1150.573074758016
 30
0.0
  0
SPLINE
  5
9B
330
1F
100
AcDbEntity
  8
Predefinito
100
AcDbSpline
210
0.0
220
0.0
230
1.0
 70
    24
 71
     2
 72
     6
 73
     3
 74
     0
 42
0.0000000001
 43
0.0000000001
 40
0.0
 40
0.0
 40
0.0
 40
84.5
 40
84.5
 40
84.5
 10
1577.300351705809
 20
1235.073074758016
 30
0.0
 10
1577.300351705809
 20
1192.823074758016
 30
0.0
 10
1577.300351705809
 20
1150.573074758016
 30
0.0
  0
SPLINE
  5
9C
330
1F
100
AcDbEntity
  8
Predefinito
100
AcDbSpline
210
0.0
220
0.0
230
1.0
 70
    24
 71
     2
 72
     6
 73
     3
 74
     0
 42
0.0000000001
 43
0.0000000001
 40
0.0
 40
0.0
 40
0.0
 40
4.0
 40
4.0
 40
4.0
 10
1577.300351705809
 20
1235.073074758016
 30
0.0
 10
1575.300351705809
 20
1235.073074758016
 30
0.0
 10
1573.300351705809
 20
1235.073074758016
 30
0.0
  0
SPLINE
  5
9D
330
1F
100
AcDbEntity
  8
Predefinito
100
AcDbSpline
210
0.0
220
0.0
230
1.0
 70
    24
 71
     2
 72
     6
 73
     3
 74
     0
 42
0.0000000001
 43
0.0000000001
 40
0.0
 40
0.0
 40
0.0
 40
3.978094758534326
 40
3.978094758534326
 40
3.978094758534326
 10
1573.300351705809
 20
1235.073074758016
 30
0.0
 10
1571.311304326542
 20
1235.073074758016
 30
0.0
 10
1569.322256947274
 20
1235.073074758016
 30
0.0
  0
SPLINE
  5
9E
330
1F
100
AcDbEntity
  8
Predefinito
100
AcDbSpline
210
0.0
220
0.0
230
1.0
 70
    12
 71
     2
 72
     6
 73
     3
 74
     0
 42
0.0000000001
 43
0.0000000001
 40
0.0
 40
0.0
 40
0.0
 40
36.04385834386341
 40
36.04385834386341
 40
36.04385834386341
 10
1527.300351705809
 20
1235.073074758016
 30
0.0
 41
1.0
 10
1527.300351705809
 20
1257.038600282399
 30
0.0
 41
0.7512270495936288
 10
1549.083247703752
 20
1259.86521548527
 30
0.0
 41
1.0
  0
SPLINE
  5
9F
330
1F
100
AcDbEntity
  8
Predefinito
100
AcDbSpline
210
0.0
220
0.0
230
1.0
 70
    12
 71
     2
 72
     6
 73
     3
 74
     0
 42
0.0000000001
 43
0.0000000001
 40
0.0
 40
0.0
 40
0.0
 40
36.27986468831573
 40
36.27986468831573
 40
36.27986468831573
 10
1555.283271733452
 20
1259.894480602744
 30
0.0
 41
1.0
 10
1577.300351705809
 20
1257.24857129323
 30
0.0
 41
0.7481032018063172
 10
1577.300351705809
 20
1235.073074758016
 30
0.0
 41
1.0
  0
SPLINE
  5
A0
330
1F
100
AcDbEntity
  8
Predefinito
100
AcDbSpline
210
0.0
220
0.0
230
1.0
 70
    24
 71
     2
 72
     6
 73
     3
 74
     0
 42
0.0000000001
 43
0.0000000001
 40
0.0
 40
0.0
 40
0.0
 40
4.0
 40
4.0
 40
4.0
 10
1527.300351705809
 20
1235.073074758016
 30
0.0
 10
1529.300351705809
 20
1235.073074758016
 30
0.0
 10
1531.300351705809
 20
1235.073074758016
 30
0.0
  0
SPLINE
  5
A1
330
1F
100
AcDbEntity
  8
Predefinito
100
AcDbSpline
210
0.0
220
0.0
230
1.0
 70
    24
 71
     2
 72
     6
 73
     3
 74
     0
 42
0.0000000001
 43
0.0000000001
 40
0.0
 40
0.0
 40
0.0
 40
3.933221473666322
 40
3.933221473666322
 40
3.933221473666322
 10
1531.300351705809
 20
1115.073074758016
 30
0.0
 10
1533.266962442642
 20
1115.073074758016
 30
0.0
 10
1535.233573179475
 20
1115.073074758016
 30
0.0
  0
SPLINE
  5
A2
330
1F
100
AcDbEntity
  8
Predefinito
100
AcDbSpline
210
0.0
220
0.0
230
1.0
 70
    28
 71
     2
 72
     8
 73
     5
 74
     0
 42
0.0000000001
 43
0.0000000001
 40
-7.068583470577035
 40
-7.068583470577035
 40
-7.068583470577035
 40
-6.283185307179586
 40
-6.283185307179586
 40
0.0
 40
0.0
 40
0.0
 10
1535.233573179475
 20
1235.073074758016
 30
0.0
 41
0.9359296083845573
 10
1535.300351705809
 20
1235.073074758016
 30
0.0
 41
0.9633883476483185
 10
1535.300351705809
 20
1235.073074758016
 30
0.0
 41
1.0
 10
1535.300351705809
 20
1235.073074758016
 30
0.0
 41
0.7071067811865476
 10
1531.300351705809
 20
1235.073074758016
 30
0.0
 41
1.0
  0
SPLINE
  5
A3
330
1F
100
AcDbEntity
  8
Predefinito
100
AcDbSpline
210
0.0
220
0.0
230
1.0
 70
    24
 71
     2
 72
     6
 73
     3
 74
     0
 42
0.0000000001
 43
0.0000000001
 40
0.0
 40
0.0
 40
0.0
 40
4.0
 40
4.0
 40
4.0
 10
1531.300351705809
 20
1115.073074758016
 30
0.0
 10
1529.300351705809
 20
1115.073074758016
 30
0.0
 10
1527.300351705809
 20
1115.073074758016
 30
0.0
  0
SPLINE
  5
A4
330
1F
100
AcDbEntity
  8
Predefinito
100
AcDbSpline
210
0.0
220
0.0
230
1.0
 70
    12
 71
     2
 72
     6
 73
     3
 74
     0
 42
0.0000000001
 43
0.0000000001
 40
0.0
 40
0.0
 40
0.0
 40
29.40863662902255
 40
29.40863662902255
 40
29.40863662902255
 10
1542.692819756096
 20
1091.992881304857
 30
0.0
 41
1.0
 10
1527.300351705809
 20
1098.400263846004
 30
0.0
 41
0.8319559116889926
 10
1527.300351705809
 20
1115.073074758016
 30
0.0
 41
1.0
  0
SPLINE
  5
A5
330
1F
100
AcDbEntity
  8
Predefinito
100
AcDbSpline
210
0.0
220
0.0
230
1.0
 70
    12
 71
     2
 72
     6
 73
     3
 74
     0
 42
0.0000000001
 43
0.0000000001
 40
0.0
 40
0.0
 40
0.0
 40
29.98213569372072
 40
29.98213569372072
 40
29.98213569372072
 10
1577.300351705809
 20
1115.073074758016
 30
0.0
 41
1.0
 10
1577.300351705808
 20
1097.982764132055
 30
0.0
 41
0.8255373011486085
 10
1561.375943485195
 20
1091.77857682709
 30
0.0
 41
1.0
  0
SPLINE
  5
A6
330
1F
100
AcDbEntity
  8
Predefinito
100
AcDbSpline
210
0.0
220
0.0
230
1.0
 70
    24
 71
     2
 72
     6
 73
     3
 74
     0
 42
0.0000000001
 43
0.0000000001
 40
0.0
 40
0.0
 40
0.0
 40
4.000000000000227
 40
4.000000000000227
 40
4.000000000000227
 10
1577.300351705809
 20
1115.073074758016
 30
0.0
 10
1575.300351705809
 20
1115.073074758016
 30
0.0
 10
1573.300351705809
 20
1115.073074758016
 30
0.0
  0
SPLINE
  5
A7
330
1F
100
AcDbEntity
  8
Predefinito
100
AcDbSpline
210
0.0
220
0.0
230
1.0
 70
    24
 71
     2
 72
     6
 73
     3
 74
     0
 42
0.0000000001
 43
0.0000000001
 40
0.0
 40
0.0
 40
0.0
 40
3.933221473666208
 40
3.933221473666208
 40
3.933221473666208
 10
1573.300351705809
 20
1132.573074758016
 30
0.0
 10
1571.333740968976
 20
1132.573074758016
 30
0.0
 10
1569.367130232142
 20
1132.573074758016
 30
0.0
  0
SPLINE
  5
A8
330
1F
100
AcDbEntity
  8
Predefinito
100
AcDbSpline
210
0.0
220
0.0
230
1.0
 70
    12
 71
     2
 72
     8
 73
     5
 74
     0
 42
0.0000000001
 43
0.0000000001
 40
0.0
 40
0.0
 40
0.0
 40
0.0667785263335645
 40
0.0667785263335645
 40
6.349963833513151
 40
6.349963833513151
 40
6.349963833513151
 10
1577.233573179475
 20
1132.57307434082
 30
0.0
 41
1.0
 10
1577.266962442642
 20
1132.57307434082
 30
0.0
 41
1.0
 10
1577.300351705809
 20
1132.57307434082
 30
0.0
 41
1.0
 10
1577.300351705809
 20
1132.573074758016
 30
0.0
 41
0.7071067811865476
 10
1573.300351705809
 20
1132.573074758016
 30
0.0
 41
1.0
  0
SPLINE
  5
A9
330
1F
100
AcDbEntity
  8
Predefinito
100
AcDbSpline
210
0.0
220
0.0
230
1.0
 70
    28
 71
     2
 72
     8
 73
     5
 74
     0
 42
0.0000000001
 43
0.0000000001
 40
-7.068583470577035
 40
-7.068583470577035
 40
-7.068583470577035
 40
-6.283185307179586
 40
-6.283185307179586
 40
0.0
 40
0.0
 40
0.0
 10
1569.367130232142
 20
1115.073074758016
 30
0.0
 41
0.9359296083845573
 10
1569.300351705808
 20
1115.073074758016
 30
0.0
 41
0.9633883476483185
 10
1569.300351705809
 20
1115.073074758016
 30
0.0
 41
1.0
 10
1569.300351705809
 20
1115.073074758016
 30
0.0
 41
0.7071067811865476
 10
1573.300351705809
 20
1115.073074758016
 30
0.0
 41
1.0
  0
SPLINE
  5
AA
330
1F
100
AcDbEntity
  8
Predefinito
100
AcDbSpline
210
0.0
220
0.0
230
1.0
 70
    24
 71
     2
 72
     6
 73
     3
 74
     0
 42
0.0000000001
 43
0.0000000001
 40
0.0
 40
0.0
 40
0.0
 40
6.941568789458188
 40
6.941568789458188
 40
6.941568789458188
 10
1576.800351705809
 20
1150.073074758016
 30
0.0
 10
1573.32956731108
 20
1150.073074758016
 30
0.0
 10
1569.85878291635
 20
1150.073074758016
 30
0.0
  0
SPLINE
  5
AB
330
1F
100
AcDbEntity
  8
Predefinito
100
AcDbSpline
210
0.0
220
0.0
230
1.0
 70
    12
 71
     2
 72
     8
 73
     5
 74
     0
 42
0.0000000001
 43
0.0000000001
 40
0.0
 40
0.0
 40
0.0
 40
0.0584312105418121
 40
0.0584312105418121
 40
5.55621835432395
 40
5.55621835432395
 40
5.55621835432395
 10
1576.741920495267
 20
1133.073074817657
 30
0.0
 41
1.0
 10
1576.771136100538
 20
1133.073074817658
 30
0.0
 41
1.0
 10
1576.800351705809
 20
1133.073074817659
 30
0.0
 41
1.0
 10
1576.800351705809
 20
1133.073074758016
 30
0.0
 41
0.7071067811865476
 10
1573.300351705809
 20
1133.073074758016
 30
0.0
 41
1.0
  0
SPLINE
  5
AC
330
1F
100
AcDbEntity
  8
Predefinito
100
AcDbSpline
210
0.0
220
0.0
230
1.0
 70
    24
 71
     2
 72
     6
 73
     3
 74
     0
 42
0.0000000001
 43
0.0000000001
 40
0.0
 40
0.0
 40
0.0
 40
3.441568789458188
 40
3.441568789458188
 40
3.441568789458188
 10
1573.300351705809
 20
1133.073074758016
 30
0.0
 10
1571.57956731108
 20
1133.073074758016
 30
0.0
 10
1569.85878291635
 20
1133.073074758016
 30
0.0
  0
SPLINE
  5
AD
330
1F
100
AcDbEntity
  8
Predefinito
100
AcDbSpline
210
0.0
220
0.0
230
1.0
 70
    24
 71
     2
 72
     6
 73
     3
 74
     0
 42
0.0000000001
 43
0.0000000001
 40
0.0
 40
0.0
 40
0.0
 40
3.933221473666208
 40
3.933221473666208
 40
3.933221473666208
 10
1573.300351705809
 20
1150.573074758016
 30
0.0
 10
1571.333740968976
 20
1150.573074758016
 30
0.0
 10
1569.367130232142
 20
1150.573074758016
 30
0.0
  0
SPLINE
  5
AE
330
1F
100
AcDbEntity
  8
Predefinito
100
AcDbSpline
210
0.0
220
0.0
230
1.0
 70
    24
 71
     2
 72
     6
 73
     3
 74
     0
 42
0.0000000001
 43
0.0000000001
 40
0.0
 40
0.0
 40
0.0
 40
4.0
 40
4.0
 40
4.0
 10
1554.64934057001
 20
1243.292926797779
 30
0.0
 10
1554.64934057001
 20
1245.292926797779
 30
0.0
 10
1554.64934057001
 20
1247.292926797779
 30
0.0
  0
SPLINE
  5
AF
330
1F
100
AcDbEntity
  8
Predefinito
100
AcDbSpline
210
0.0
220
0.0
230
1.0
 70
    24
 71
     2
 72
     6
 73
     3
 74
     0
 42
0.0000000001
 43
0.0000000001
 40
0.0
 40
0.0
 40
0.0
 40
4.0
 40
4.0
 40
4.0
 10
1549.93741089219
 20
1247.292926797779
 30
0.0
 10
1549.93741089219
 20
1245.292926797779
 30
0.0
 10
1549.93741089219
 20
1243.292926797779
 30
0.0
  0
SPLINE
  5
B0
330
1F
100
AcDbEntity
  8
Predefinito
100
AcDbSpline
210
0.0
220
0.0
230
1.0
 70
    24
 71
     2
 72
     6
 73
     3
 74
     0
 42
0.0000000001
 43
0.0000000001
 40
0.0
 40
0.0
 40
0.0
 40
0.7820383260363997
 40
0.7820383260363997
 40
0.7820383260363997
 10
1555.393375731436
 20
1447.292846167881
 30
0.0
 10
1555.393375731181
 20
1446.901827004863
 30
0.0
 10
1555.393375730925
 20
1446.510807841845
 30
0.0
  0
SPLINE
  5
B1
330
1F
100
AcDbEntity
  8
Predefinito
100
AcDbSpline
210
0.0
220
0.0
230
1.0
 70
    24
 71
     2
 72
     6
 73
     3
 74
     0
 42
0.0000000001
 43
0.0000000001
 40
0.0
 40
0.0
 40
0.0
 40
0.6118949536603395
 40
0.6118949536603395
 40
0.6118949536603395
 10
1549.19337573128
 20
1446.510809854077
 30
0.0
 10
1549.193375731219
 20
1446.816757330907
 30
0.0
 10
1549.193375731157
 20
1447.122704807738
 30
0.0
  0
SPLINE
  5
B2
330
1F
100
AcDbEntity
  8
Predefinito
100
AcDbSpline
210
0.0
220
0.0
230
1.0
 70
    24
 71
     2
 72
     6
 73
     3
 74
     0
 42
0.0000000001
 43
0.0000000001
 40
0.0
 40
0.0
 40
0.0
 40
2.302963505895832
 40
2.302963505895832
 40
2.302963505895832
 10
1555.393375731184
 20
1405.988211482931
 30
0.0
 10
1555.393375730559
 20
1404.836729729983
 30
0.0
 10
1555.393375729933
 20
1403.685247977035
 30
0.0
  0
SPLINE
  5
B3
330
1F
100
AcDbEntity
  8
Predefinito
100
AcDbSpline
210
0.0
220
0.0
230
1.0
 70
    24
 71
     2
 72
     6
 73
     3
 74
     0
 42
0.0000000001
 43
0.0000000001
 40
0.0
 40
0.0
 40
0.0
 40
42.80767941753675
 40
42.80767941753675
 40
42.80767941753675
 10
1549.193375729865
 20
1403.685247379657
 30
0.0
 10
1549.193375730575
 20
1425.089087088425
 30
0.0
 10
1549.193375731285
 20
1446.492926797194
 30
0.0
  0
SPLINE
  5
B4
330
1F
100
AcDbEntity
  8
Predefinito
100
AcDbSpline
210
0.0
220
0.0
230
1.0
 70
    24
 71
     2
 72
     6
 73
     3
 74
     0
 42
0.0000000001
 43
0.0000000001
 40
0.0
 40
0.0
 40
0.0
 40
0.1701954876707532
 40
0.1701954876707532
 40
0.1701954876707532
 10
1549.193375730784
 20
1447.122704809596
 30
0.0
 10
1549.193375730775
 20
1447.207802553431
 30
0.0
 10
1549.193375730766
 20
1447.292900297267
 30
0.0
  0
SPLINE
  5
B5
330
1F
100
AcDbEntity
  8
Predefinito
100
AcDbSpline
210
0.0
220
0.0
230
1.0
 70
    24
 71
     2
 72
     6
 73
     3
 74
     0
 42
0.0000000001
 43
0.0000000001
 40
0.0
 40
0.0
 40
0.0
 40
40.50471531429275
 40
40.50471531429275
 40
40.50471531429275
 10
1555.393375730911
 20
1446.492926797285
 30
0.0
 10
1555.393375731005
 20
1426.240569140139
 30
0.0
 10
1555.393375731098
 20
1405.988211482992
 30
0.0
  0
SPLINE
  5
B6
330
1F
100
AcDbEntity
  8
Predefinito
100
AcDbSpline
210
0.0
220
0.0
230
1.0
 70
    24
 71
     2
 72
     6
 73
     3
 74
     0
 42
0.0000000001
 43
0.0000000001
 40
0.0
 40
0.0
 40
0.0
 40
1.88860374768683
 40
1.88860374768683
 40
1.88860374768683
 10
1555.393375729933
 20
1403.681530545466
 30
0.0
 10
1555.393375730953
 20
1402.737228671623
 30
0.0
 10
1555.393375731972
 20
1401.792926797779
 30
0.0
  0
SPLINE
  5
B7
330
1F
100
AcDbEntity
  8
Predefinito
100
AcDbSpline
210
0.0
220
0.0
230
1.0
 70
    24
 71
     2
 72
     6
 73
     3
 74
     0
 42
0.0000000001
 43
0.0000000001
 40
0.0
 40
0.0
 40
0.0
 40
1.88772635745454
 40
1.88772635745454
 40
1.88772635745454
 10
1549.193375731978
 20
1401.792926797779
 30
0.0
 10
1549.193375730921
 20
1402.736789976507
 30
0.0
 10
1549.193375729864
 20
1403.680653155234
 30
0.0
  0
SPLINE
  5
B8
330
1F
100
AcDbEntity
  8
Predefinito
100
AcDbSpline
210
0.0
220
0.0
230
1.0
 70
    24
 71
     2
 72
     6
 73
     3
 74
     0
 42
0.0000000001
 43
0.0000000001
 40
0.0
 40
0.0
 40
0.0
 40
2.666687388892342
 40
2.666687388892342
 40
2.666687388892342
 10
1555.39337573149
 20
1398.792926797779
 30
0.0
 10
1555.393375731015
 20
1397.459583103333
 30
0.0
 10
1555.393375730541
 20
1396.126239408887
 30
0.0
  0
SPLINE
  5
B9
330
1F
100
AcDbEntity
  8
Predefinito
100
AcDbSpline
210
0.0
220
0.0
230
1.0
 70
    24
 71
     2
 72
     6
 73
     3
 74
     0
 42
0.0000000001
 43
0.0000000001
 40
0.0
 40
0.0
 40
0.0
 40
2.666689398832887
 40
2.666689398832887
 40
2.666689398832887
 10
1549.193375730455
 20
1396.126237398946
 30
0.0
 10
1549.193375730978
 20
1397.459582098363
 30
0.0
 10
1549.1933757315
 20
1398.792926797779
 30
0.0
  0
SPLINE
  5
BA
330
1F
100
AcDbEntity
  8
Predefinito
100
AcDbSpline
210
0.0
220
0.0
230
1.0
 70
    24
 71
     2
 72
     6
 73
     3
 74
     0
 42
0.0000000001
 43
0.0000000001
 40
0.0
 40
0.0
 40
0.0
 40
10.19085581008858
 40
10.19085581008858
 40
10.19085581008858
 10
1555.393375719212
 20
1366.246870242362
 30
0.0
 10
1555.393375728322
 20
1361.151442337318
 30
0.0
 10
1555.393375737431
 20
1356.056014432274
 30
0.0
  0
SPLINE
  5
BB
330
1F
100
AcDbEntity
  8
Predefinito
100
AcDbSpline
210
0.0
220
0.0
230
1.0
 70
    28
 71
     2
 72
     6
 73
     3
 74
     0
 42
0.0000000001
 43
0.0000000001
 40
0.0
 40
0.0
 40
0.0
 40
20.37139048860035
 40
20.37139048860035
 40
20.37139048860035
 10
1549.193375587463
 20
1356.056016089762
 30
0.0
 41
1.0
 10
1549.193375555104
 20
1366.241711334062
 30
0.0
 41
1.0
 10
1549.193375522744
 20
1376.427406578362
 30
0.0
 41
1.0
  0
SPLINE
  5
BC
330
1F
100
AcDbEntity
  8
Predefinito
100
AcDbSpline
210
0.0
220
0.0
230
1.0
 70
    12
 71
     2
 72
     6
 73
     3
 74
     0
 42
0.0000000001
 43
0.0000000001
 40
0.0
 40
0.0
 40
0.0
 40
98.75311677528708
 40
98.75311677528708
 40
98.75311677528708
 10
1555.393347155346
 20
1348.792926797779
 30
0.0
 41
1.0
 10
1555.360445434994
 20
1299.416375280285
 30
0.0
 41
0.9999998756971308
 10
1555.278305067328
 20
1250.039881123216
 30
0.0
 41
1.0
  0
SPLINE
  5
BD
330
1F
100
AcDbEntity
  8
Predefinito
100
AcDbSpline
210
0.0
220
0.0
230
1.0
 70
    12
 71
     2
 72
     6
 73
     3
 74
     0
 42
0.0000000001
 43
0.0000000001
 40
0.0
 40
0.0
 40
0.0
 40
2.034978417843111
 40
2.034978417843111
 40
2.034978417843111
 10
1555.278305067335
 20
1250.039881123216
 30
0.0
 41
1.0
 10
1555.278235975905
 20
1249.022391915036
 30
0.0
 41
0.9999999976340611
 10
1555.278306867884
 20
1248.004902706979
 30
0.0
 41
1.0
  0
SPLINE
  5
BE
330
1F
100
AcDbEntity
  8
Predefinito
100
AcDbSpline
210
0.0
220
0.0
230
1.0
 70
    12
 71
     2
 72
     6
 73
     3
 74
     0
 42
0.0000000001
 43
0.0000000001
 40
0.0
 40
0.0
 40
0.0
 40
0.7119445237479514
 40
0.7119445237479514
 40
0.7119445237479514
 10
1555.278306867873
 20
1248.004871321349
 30
0.0
 41
1.0
 10
1555.278307144144
 20
1247.648899059428
 30
0.0
 41
0.9999999998012439
 10
1555.278293225866
 20
1247.292926797779
 30
0.0
 41
1.0
  0
SPLINE
  5
BF
330
1F
100
AcDbEntity
  8
Predefinito
100
AcDbSpline
210
0.0
220
0.0
230
1.0
 70
    12
 71
     2
 72
     6
 73
     3
 74
     0
 42
0.0000000001
 43
0.0000000001
 40
0.0
 40
0.0
 40
0.0
 40
7.138642155162216
 40
7.138642155162216
 40
7.138642155162216
 10
1555.277939583557
 20
1243.292926797779
 30
0.0
 41
1.0
 10
1555.277341913955
 20
1239.723605648144
 30
0.0
 41
0.9999999486906532
 10
1555.2790310479
 20
1236.15428484815
 30
0.0
 41
1.0
  0
SPLINE
  5
C0
330
1F
100
AcDbEntity
  8
Predefinito
100
AcDbSpline
210
0.0
220
0.0
230
1.0
 70
    12
 71
     2
 72
     6
 73
     3
 74
     0
 42
0.0000000001
 43
0.0000000001
 40
0.0
 40
0.0
 40
0.0
 40
7.141395631425201
 40
7.141395631425201
 40
7.141395631425201
 10
1549.079031959538
 20
1236.151531371981
 30
0.0
 41
1.0
 10
1549.077342149725
 20
1239.722228909971
 30
0.0
 41
0.9999999486980414
 10
1549.077939860801
 20
1243.29292679778
 30
0.0
 41
1.0
  0
SPLINE
  5
C1
330
1F
100
AcDbEntity
  8
Predefinito
100
AcDbSpline
210
0.0
220
0.0
230
1.0
 70
    12
 71
     2
 72
     6
 73
     3
 74
     0
 42
0.0000000001
 43
0.0000000001
 40
0.0
 40
0.0
 40
0.0
 40
4.898125212141728
 40
4.898125212141728
 40
4.898125212141728
 10
1550.379016852083
 20
1102.16148215379
 30
0.0
 41
1.0
 10
1550.338238837703
 20
1104.610205292081
 30
0.0
 41
0.9999999742402015
 10
1550.298572446356
 20
1107.058946689587
 30
0.0
 41
1.0
  0
SPLINE
  5
C2
330
1F
100
AcDbEntity
  8
Predefinito
100
AcDbSpline
210
0.0
220
0.0
230
1.0
 70
    12
 71
     2
 72
     8
 73
     5
 74
     0
 42
0.0000000001
 43
0.0000000001
 40
0.0
 40
0.0
 40
0.0
 40
0.2509670224983571
 40
0.2509670224983571
 40
0.5019340449967141
 40
0.5019340449967141
 40
0.5019340449967141
 10
1483.995986662497
 20
1474.99030883713
 30
0.0
 41
1.0
 10
1483.969686910252
 20
1475.12421943909
 30
0.0
 41
0.8835156548032107
 10
1484.06576266741
 20
1475.221137833483
 30
0.0
 41
1.0
 10
1484.161838424569
 20
1475.318056227876
 30
0.0
 41
0.8835156548032107
 10
1484.295973572939
 20
1475.292926797777
 30
0.0
 41
1.0
  0
SPLINE
  5
C3
330
1F
100
AcDbEntity
  8
Predefinito
100
AcDbSpline
210
0.0
220
0.0
230
1.0
 70
    24
 71
     2
 72
     6
 73
     3
 74
     0
 42
0.0000000001
 43
0.0000000001
 40
0.0
 40
0.0
 40
0.0
 40
27.69777153962654
 40
27.69777153962654
 40
27.69777153962654
 10
1484.237728028554
 20
1447.292926797779
 30
0.0
 10
1484.11687523527
 20
1461.141285244458
 30
0.0
 10
1483.996022441985
 20
1474.989643691136
 30
0.0
  0
SPLINE
  5
C4
330
1F
100
AcDbEntity
  8
Predefinito
100
AcDbSpline
210
0.0
220
0.0
230
1.0
 70
    24
 71
     2
 72
     6
 73
     3
 74
     0
 42
0.0000000001
 43
0.0000000001
 40
0.0
 40
0.0
 40
0.0
 40
27.69843671094723
 40
27.69843671094723
 40
27.69843671094723
 10
1620.590734824249
 20
1474.990308837129
 30
0.0
 10
1620.469879128645
 20
1461.141617817454
 30
0.0
 10
1620.349023433041
 20
1447.292926797779
 30
0.0
  0
SPLINE
  5
C5
330
1F
100
AcDbEntity
  8
Predefinito
100
AcDbSpline
210
0.0
220
0.0
230
1.0
 70
    12
 71
     2
 72
     8
 73
     5
 74
     0
 42
0.0000000001
 43
0.0000000001
 40
0.0
 40
0.0
 40
0.0
 40
87.43319280069107
 40
87.43319280069107
 40
174.8663856013821
 40
174.8663856013821
 40
174.8663856013821
 10
1552.293371561278
 20
938.2929267977797
 30
0.0
 41
1.0
 10
1501.840235914275
 20
938.2929411425364
 30
0.0
 41
0.8112422595898797
 10
1485.885554965681
 20
986.1569887403284
 30
0.0
 41
1.0
 10
1469.930874017088
 20
1034.02103633812
 30
0.0
 41
0.8112422595898797
 10
1510.293375731099
 20
1064.29292679778
 30
0.0
 41
1.0
  0
SPLINE
  5
C6
330
1F
100
AcDbEntity
  8
Predefinito
100
AcDbSpline
210
0.0
220
0.0
230
1.0
 70
    12
 71
     2
 72
     8
 73
     5
 74
     0
 42
0.0000000001
 43
0.0000000001
 40
0.0
 40
0.0
 40
0.0
 40
87.43309204066371
 40
87.43309204066371
 40
174.8661840813274
 40
174.8661840813274
 40
174.8661840813274
 10
1594.293375731099
 20
1064.292926797779
 30
0.0
 41
1.0
 10
1634.655730397278
 20
1034.0209899131
 30
0.0
 41
0.8112429828757352
 10
1618.701077320795
 20
986.1570276642701
 30
0.0
 41
1.0
 10
1602.746424244311
 20
938.2930654154396
 30
0.0
 41
0.8112429828757352
 10
1552.293378380567
 20
938.2929267977797
 30
0.0
 41
1.0
  0
SPLINE
  5
C7
330
1F
100
AcDbEntity
  8
Predefinito
100
AcDbSpline
210
0.0
220
0.0
230
1.0
 70
    12
 71
     2
 72
     8
 73
     5
 74
     0
 42
0.0000000001
 43
0.0000000001
 40
0.0
 40
0.0
 40
0.0
 40
0.0904998564633167
 40
0.0904998564633167
 40
0.1809997129266334
 40
0.1809997129266334
 40
0.1809997129266334
 10
1591.585684007191
 20
1065.470936802164
 30
0.0
 41
1.0
 10
1591.600378779352
 20
1065.425287171214
 30
0.0
 41
0.9174538780230148
 10
1591.577097424367
 20
1065.383361002241
 30
0.0
 41
1.0
 10
1591.553816069382
 20
1065.341434833267
 30
0.0
 41
0.9174538780230148
 10
1591.507298328016
 20
1065.329776150974
 30
0.0
 41
1.0
  0
SPLINE
  5
C8
330
1F
100
AcDbEntity
  8
Predefinito
100
AcDbSpline
210
0.0
220
0.0
230
1.0
 70
    12
 71
     2
 72
     8
 73
     5
 74
     0
 42
0.0000000001
 43
0.0000000001
 40
0.0
 40
0.0
 40
0.0
 40
0.0914155840290642
 40
0.0914155840290642
 40
0.1828311680581284
 40
0.1828311680581284
 40
0.1828311680581284
 10
1512.478854026142
 20
1065.32977617983
 30
0.0
 41
1.0
 10
1512.431232663753
 20
1065.339968532758
 30
0.0
 41
0.9103383775844037
 10
1512.407604939953
 20
1065.382552671612
 30
0.0
 41
1.0
 10
1512.383977216152
 20
1065.425136810466
 30
0.0
 41
0.9103383775844037
 10
1512.400531338732
 20
1065.470936802164
 30
0.0
 41
1.0
  0
SPLINE
  5
C9
330
1F
100
AcDbEntity
  8
Predefinito
100
AcDbSpline
210
0.0
220
0.0
230
1.0
 70
    24
 71
     2
 72
     6
 73
     3
 74
     0
 42
0.0000000001
 43
0.0000000001
 40
0.0
 40
0.0
 40
0.0
 40
38.57939518120111
 40
38.57939518120111
 40
38.57939518120111
 10
1512.478918027798
 20
1065.329776150968
 30
0.0
 10
1531.768615618399
 20
1065.329776150968
 30
0.0
 10
1551.058313208999
 20
1065.329776150968
 30
0.0
  0
SPLINE
  5
CA
330
1F
100
AcDbEntity
  8
Predefinito
100
AcDbSpline
210
0.0
220
0.0
230
1.0
 70
    24
 71
     2
 72
     6
 73
     3
 74
     0
 42
0.0000000001
 43
0.0000000001
 40
0.0
 40
0.0
 40
0.0
 40
32.88822909795556
 40
32.88822909795556
 40
32.88822909795556
 10
1558.615615665959
 20
1065.329776150968
 30
0.0
 10
1575.059730214937
 20
1065.329776150968
 30
0.0
 10
1591.503844763915
 20
1065.329776150967
 30
0.0
  0
SPLINE
  5
CB
330
1F
100
AcDbEntity
  8
Predefinito
100
AcDbSpline
210
0.0
220
0.0
230
1.0
 70
    12
 71
     2
 72
     6
 73
     3
 74
     0
 42
0.0000000001
 43
0.0000000001
 40
0.0
 40
0.0
 40
0.0
 40
31.58158651876495
 40
31.58158651876495
 40
31.58158651876495
 10
1562.359512927585
 20
1077.058946689981
 30
0.0
 41
1.0
 10
1578.247775235694
 20
1074.664700604377
 30
0.0
 41
0.9743534699667018
 10
1591.477137352438
 20
1065.545859040133
 30
0.0
 41
1.0
  0
SPLINE
  5
CC
330
1F
100
AcDbEntity
  8
Predefinito
100
AcDbSpline
210
0.0
220
0.0
230
1.0
 70
    12
 71
     2
 72
     6
 73
     3
 74
     0
 42
0.0000000001
 43
0.0000000001
 40
0.0
 40
0.0
 40
0.0
 40
31.58165418909484
 40
31.58165418909484
 40
31.58165418909484
 10
1512.509076707223
 20
1065.54585907524
 30
0.0
 41
1.0
 10
1525.738271357084
 20
1074.665125945935
 30
0.0
 41
0.9743472308176263
 10
1541.626702418338
 20
1077.058946689981
 30
0.0
 41
1.0
  0
SPLINE
  5
CD
330
1F
100
AcDbEntity
  8
Predefinito
100
AcDbSpline
210
0.0
220
0.0
230
1.0
 70
    24
 71
     2
 72
     6
 73
     3
 74
     0
 42
0.0000000001
 43
0.0000000001
 40
0.0
 40
0.0
 40
0.0
 40
0.7071067811865476
 40
0.7071067811865476
 40
0.7071067811865476
 10
1542.043107672962
 20
1106.558946689587
 30
0.0
 10
1542.293107672962
 20
1106.808946689587
 30
0.0
 10
1542.543107672962
 20
1107.058946689587
 30
0.0
  0
SPLINE
  5
CE
330
1F
100
AcDbEntity
  8
Predefinito
100
AcDbSpline
210
0.0
220
0.0
230
1.0
 70
    24
 71
     2
 72
     6
 73
     3
 74
     0
 42
0.0000000001
 43
0.0000000001
 40
0.0
 40
0.0
 40
0.0
 40
0.7071067811865476
 40
0.7071067811865476
 40
0.7071067811865476
 10
1561.443107672962
 20
1107.058946689587
 30
0.0
 10
1561.693107672962
 20
1106.808946689587
 30
0.0
 10
1561.943107672962
 20
1106.558946689587
 30
0.0
  0
SPLINE
  5
CF
330
1F
100
AcDbEntity
  8
Predefinito
100
AcDbSpline
210
0.0
220
0.0
230
1.0
 70
    24
 71
     2
 72
     6
 73
     3
 74
     0
 42
0.0000000001
 43
0.0000000001
 40
0.0
 40
0.0
 40
0.0
 40
13.75317775083522
 40
13.75317775083522
 40
13.75317775083522
 10
1542.043107672962
 20
1077.058946689587
 30
0.0
 10
1542.043107672962
 20
1083.935535565005
 30
0.0
 10
1542.043107672962
 20
1090.812124440422
 30
0.0
  0
SPLINE
  5
D0
330
1F
100
AcDbEntity
  8
Predefinito
100
AcDbSpline
210
0.0
220
0.0
230
1.0
 70
    24
 71
     2
 72
     6
 73
     3
 74
     0
 42
0.0000000001
 43
0.0000000001
 40
0.0
 40
0.0
 40
0.0
 40
4.253115379728115
 40
4.253115379728115
 40
4.253115379728115
 10
1542.043107672962
 20
1102.305830519867
 30
0.0
 10
1542.043107672962
 20
1104.432388209731
 30
0.0
 10
1542.043107672962
 20
1106.558945899595
 30
0.0
  0
SPLINE
  5
D1
330
1F
100
AcDbEntity
  8
Predefinito
100
AcDbSpline
210
0.0
220
0.0
230
1.0
 70
    24
 71
     2
 72
     6
 73
     3
 74
     0
 42
0.0000000001
 43
0.0000000001
 40
0.0
 40
0.0
 40
0.0
 40
4.25311537986795
 40
4.25311537986795
 40
4.25311537986795
 10
1561.943107672962
 20
1106.558945899595
 30
0.0
 10
1561.943107672962
 20
1104.432388209661
 30
0.0
 10
1561.943107672962
 20
1102.305830519727
 30
0.0
  0
SPLINE
  5
D2
330
1F
100
AcDbEntity
  8
Predefinito
100
AcDbSpline
210
0.0
220
0.0
230
1.0
 70
    24
 71
     2
 72
     6
 73
     3
 74
     0
 42
0.0000000001
 43
0.0000000001
 40
0.0
 40
0.0
 40
0.0
 40
13.62366054882773
 40
13.62366054882773
 40
13.62366054882773
 10
1561.943107672962
 20
1090.682607238415
 30
0.0
 10
1561.943107672962
 20
1083.870776964001
 30
0.0
 10
1561.943107672962
 20
1077.058946689587
 30
0.0
  0
SPLINE
  5
D3
330
1F
100
AcDbEntity
  8
Predefinito
100
AcDbSpline
210
0.0
220
0.0
230
1.0
 70
    12
 71
     2
 72
     6
 73
     3
 74
     0
 42
0.0000000001
 43
0.0000000001
 40
0.0
 40
0.0
 40
0.0
 40
23.70990831455673
 40
23.70990831455673
 40
23.70990831455673
 10
1569.300351705809
 20
1235.073074758016
 30
0.0
 41
1.0
 10
1569.299966346544
 20
1249.314915199891
 30
0.0
 41
0.7665638582032496
 10
1555.278440999995
 20
1251.810280158451
 30
0.0
 41
1.0
  0
SPLINE
  5
D4
330
1F
100
AcDbEntity
  8
Predefinito
100
AcDbSpline
210
0.0
220
0.0
230
1.0
 70
    12
 71
     2
 72
     6
 73
     3
 74
     0
 42
0.0000000001
 43
0.0000000001
 40
0.0
 40
0.0
 40
0.0
 40
23.46138933227329
 40
23.46138933227329
 40
23.46138933227329
 10
1549.078432948438
 20
1251.76494942672
 30
0.0
 41
1.0
 10
1535.301889950658
 20
1249.104207385601
 30
0.0
 41
0.7712778189261904
 10
1535.300351705809
 20
1235.073074758016
 30
0.0
 41
1.0
  0
SPLINE
  5
D5
330
1F
100
AcDbEntity
  8
Predefinito
100
AcDbSpline
210
0.0
220
0.0
230
1.0
 70
    24
 71
     2
 72
     6
 73
     3
 74
     0
 42
0.0000000001
 43
0.0000000001
 40
0.0
 40
0.0
 40
0.0
 40
120.0
 40
120.0
 40
120.0
 10
1527.300351705809
 20
1115.073074758016
 30
0.0
 10
1527.300351705809
 20
1175.073074758016
 30
0.0
 10
1527.300351705809
 20
1235.073074758016
 30
0.0
  0
SPLINE
  5
D6
330
1F
100
AcDbEntity
  8
Predefinito
100
AcDbSpline
210
0.0
220
0.0
230
1.0
 70
    24
 71
     2
 72
     6
 73
     3
 74
     0
 42
0.0000000001
 43
0.0000000001
 40
0.0
 40
0.0
 40
0.0
 40
120.0
 40
120.0
 40
120.0
 10
1535.300351705809
 20
1235.073074758016
 30
0.0
 10
1535.300351705809
 20
1175.073074758016
 30
0.0
 10
1535.300351705809
 20
1115.073074758016
 30
0.0
  0
SPLINE
  5
D7
330
1F
100
AcDbEntity
  8
Predefinito
100
AcDbSpline
210
0.0
220
0.0
230
1.0
 70
    12
 71
     2
 72
     6
 73
     3
 74
     0
 42
0.0000000001
 43
0.0000000001
 40
0.0
 40
0.0
 40
0.0
 40
16.53051559999017
 40
16.53051559999017
 40
16.53051559999017
 10
1535.300351705809
 20
1115.073074758016
 30
0.0
 41
1.0
 10
1535.300184648307
 20
1106.088252047253
 30
0.0
 41
0.8840876705474663
 10
1542.724299951424
 20
1101.027664024327
 30
0.0
 41
1.0
  0
SPLINE
  5
D8
330
1F
100
AcDbEntity
  8
Predefinito
100
AcDbSpline
210
0.0
220
0.0
230
1.0
 70
    12
 71
     2
 72
     6
 73
     3
 74
     0
 42
0.0000000001
 43
0.0000000001
 40
0.0
 40
0.0
 40
0.0
 40
0.7708322988295806
 40
0.7708322988295806
 40
0.7708322988295806
 10
1560.978727961058
 20
1100.455079888095
 30
0.0
 41
1.0
 10
1561.310189637059
 20
1100.651879231693
 30
0.0
 41
0.999741499302338
 10
1561.632362001781
 20
1100.863543569049
 30
0.0
 41
1.0
  0
SPLINE
  5
D9
330
1F
100
AcDbEntity
  8
Predefinito
100
AcDbSpline
210
0.0
220
0.0
230
1.0
 70
    12
 71
     2
 72
     6
 73
     3
 74
     0
 42
0.0000000001
 43
0.0000000001
 40
0.0
 40
0.0
 40
0.0
 40
16.60544155916115
 40
16.60544155916115
 40
16.60544155916115
 10
1561.814897637627
 20
1100.985154923037
 30
0.0
 41
1.0
 10
1569.300342810242
 20
1106.040464632104
 30
0.0
 41
0.8830838025282082
 10
1569.300351705809
 20
1115.073074758016
 30
0.0
 41
1.0
  0
SPLINE
  5
DA
330
1F
100
AcDbEntity
  8
Predefinito
100
AcDbSpline
210
0.0
220
0.0
230
1.0
 70
    24
 71
     2
 72
     6
 73
     3
 74
     0
 42
0.0000000001
 43
0.0000000001
 40
0.0
 40
0.0
 40
0.0
 40
17.5
 40
17.5
 40
17.5
 10
1569.300351705809
 20
1115.073074758016
 30
0.0
 10
1569.300351705809
 20
1123.823074758016
 30
0.0
 10
1569.300351705809
 20
1132.573074758016
 30
0.0
  0
SPLINE
  5
DB
330
1F
100
AcDbEntity
  8
Predefinito
100
AcDbSpline
210
0.0
220
0.0
230
1.0
 70
    24
 71
     2
 72
     6
 73
     3
 74
     0
 42
0.0000000001
 43
0.0000000001
 40
0.0
 40
0.0
 40
0.0
 40
17.5
 40
17.5
 40
17.5
 10
1577.300351705809
 20
1132.573074758016
 30
0.0
 10
1577.300351705809
 20
1123.823074758016
 30
0.0
 10
1577.300351705809
 20
1115.073074758016
 30
0.0
  0
SPLINE
  5
DC
330
1F
100
AcDbEntity
  8
Predefinito
100
AcDbSpline
210
0.0
220
0.0
230
1.0
 70
    24
 71
     2
 72
     6
 73
     3
 74
     0
 42
0.0000000001
 43
0.0000000001
 40
0.0
 40
0.0
 40
0.0
 40
0.6598872323781181
 40
0.6598872323781181
 40
0.6598872323781181
 10
1577.266962442642
 20
1150.539685494849
 30
0.0
 10
1577.033657074225
 20
1150.306380126433
 30
0.0
 10
1576.800351705809
 20
1150.073074758016
 30
0.0
  0
SPLINE
  5
DD
330
1F
100
AcDbEntity
  8
Predefinito
100
AcDbSpline
210
0.0
220
0.0
230
1.0
 70
    24
 71
     2
 72
     6
 73
     3
 74
     0
 42
0.0000000001
 43
0.0000000001
 40
0.0
 40
0.0
 40
0.0
 40
0.6598872323781181
 40
0.6598872323781181
 40
0.6598872323781181
 10
1569.800351705809
 20
1150.073074758016
 30
0.0
 10
1569.567046337392
 20
1150.306380126433
 30
0.0
 10
1569.333740968976
 20
1150.539685494849
 30
0.0
  0
SPLINE
  5
DE
330
1F
100
AcDbEntity
  8
Predefinito
100
AcDbSpline
210
0.0
220
0.0
230
1.0
 70
    24
 71
     2
 72
     6
 73
     3
 74
     0
 42
0.0000000001
 43
0.0000000001
 40
0.0
 40
0.0
 40
0.0
 40
0.6598872323781181
 40
0.6598872323781181
 40
0.6598872323781181
 10
1576.800351705809
 20
1133.073074758016
 30
0.0
 10
1577.033657074225
 20
1132.8397693896
 30
0.0
 10
1577.266962442642
 20
1132.606464021183
 30
0.0
  0
SPLINE
  5
DF
330
1F
100
AcDbEntity
  8
Predefinito
100
AcDbSpline
210
0.0
220
0.0
230
1.0
 70
    24
 71
     2
 72
     6
 73
     3
 74
     0
 42
0.0000000001
 43
0.0000000001
 40
0.0
 40
0.0
 40
0.0
 40
0.6598872323781181
 40
0.6598872323781181
 40
0.6598872323781181
 10
1569.333740968976
 20
1132.606464021183
 30
0.0
 10
1569.567046337392
 20
1132.8397693896
 30
0.0
 10
1569.800351705809
 20
1133.073074758016
 30
0.0
  0
SPLINE
  5
E0
330
1F
100
AcDbEntity
  8
Predefinito
100
AcDbSpline
210
0.0
220
0.0
230
1.0
 70
    24
 71
     2
 72
     6
 73
     3
 74
     0
 42
0.0000000001
 43
0.0000000001
 40
0.0
 40
0.0
 40
0.0
 40
14.0
 40
14.0
 40
14.0
 10
1120.197391973298
 20
1238.292926797779
 30
0.0
 10
1120.197391973298
 20
1245.292926797779
 30
0.0
 10
1120.197391973298
 20
1252.292926797779
 30
0.0
  0
SPLINE
  5
E1
330
1F
100
AcDbEntity
  8
Predefinito
100
AcDbSpline
210
0.0
220
0.0
230
1.0
 70
    24
 71
     2
 72
     6
 73
     3
 74
     0
 42
0.0000000001
 43
0.0000000001
 40
0.0
 40
0.0
 40
0.0
 40
66.7999999999999
 40
66.7999999999999
 40
66.7999999999999
 10
1120.197391973298
 20
1238.292926797779
 30
0.0
 10
1086.797391973298
 20
1238.292926797779
 30
0.0
 10
1053.397391973298
 20
1238.292926797779
 30
0.0
  0
SPLINE
  5
E2
330
1F
100
AcDbEntity
  8
Predefinito
100
AcDbSpline
210
0.0
220
0.0
230
1.0
 70
    24
 71
     2
 72
     6
 73
     3
 74
     0
 42
0.0000000001
 43
0.0000000001
 40
0.0
 40
0.0
 40
0.0
 40
434.8
 40
434.8
 40
434.8
 10
1045.397391973298
 20
1238.292926797779
 30
0.0
 10
827.9973919732982
 20
1238.292926797779
 30
0.0
 10
610.5973919732983
 20
1238.292926797779
 30
0.0
  0
SPLINE
  5
E3
330
1F
100
AcDbEntity
  8
Predefinito
100
AcDbSpline
210
0.0
220
0.0
230
1.0
 70
    24
 71
     2
 72
     6
 73
     3
 74
     0
 42
0.0000000001
 43
0.0000000001
 40
0.0
 40
0.0
 40
0.0
 40
1.149988399303822
 40
1.149988399303822
 40
1.149988399303822
 10
610.5973919732983
 20
1252.292926797779
 30
0.0
 10
611.1723861729502
 20
1252.292926797779
 30
0.0
 10
611.747380372602
 20
1252.292926797779
 30
0.0
  0
SPLINE
  5
E4
330
1F
100
AcDbEntity
  8
Predefinito
100
AcDbSpline
210
0.0
220
0.0
230
1.0
 70
    24
 71
     2
 72
     6
 73
     3
 74
     0
 42
0.0000000001
 43
0.0000000001
 40
0.0
 40
0.0
 40
0.0
 40
432.85
 40
432.85
 40
432.85
 10
612.5473919732983
 20
1252.292926797779
 30
0.0
 10
828.9723919732983
 20
1252.292926797779
 30
0.0
 10
1045.397391973298
 20
1252.292926797779
 30
0.0
  0
SPLINE
  5
E5
330
1F
100
AcDbEntity
  8
Predefinito
100
AcDbSpline
210
0.0
220
0.0
230
1.0
 70
    24
 71
     2
 72
     6
 73
     3
 74
     0
 42
0.0000000001
 43
0.0000000001
 40
0.0
 40
0.0
 40
0.0
 40
54.04999999727443
 40
54.04999999727443
 40
54.04999999727443
 10
1053.397391973298
 20
1252.292926797779
 30
0.0
 10
1080.422391971936
 20
1252.292926797779
 30
0.0
 10
1107.447391970573
 20
1252.292926797779
 30
0.0
  0
SPLINE
  5
E6
330
1F
100
AcDbEntity
  8
Predefinito
100
AcDbSpline
210
0.0
220
0.0
230
1.0
 70
    24
 71
     2
 72
     6
 73
     3
 74
     0
 42
0.0000000001
 43
0.0000000001
 40
0.0
 40
0.0
 40
0.0
 40
11.94999874653377
 40
11.94999874653377
 40
11.94999874653377
 10
1108.247393226764
 20
1252.292926797779
 30
0.0
 10
1114.222392600031
 20
1252.292926797779
 30
0.0
 10
1120.197391973298
 20
1252.292926797779
 30
0.0
  0
SPLINE
  5
E7
330
1F
100
AcDbEntity
  8
Predefinito
100
AcDbSpline
210
0.0
220
0.0
230
1.0
 70
    24
 71
     2
 72
     6
 73
     3
 74
     0
 42
0.0000000001
 43
0.0000000001
 40
0.0
 40
0.0
 40
0.0
 40
14.0
 40
14.0
 40
14.0
 10
610.5973919732983
 20
1252.292926797779
 30
0.0
 10
610.5973919732983
 20
1245.292926797779
 30
0.0
 10
610.5973919732983
 20
1238.292926797779
 30
0.0
  0
SPLINE
  5
E8
330
1F
100
AcDbEntity
  8
Predefinito
100
AcDbSpline
210
0.0
220
0.0
230
1.0
 70
    24
 71
     2
 72
     6
 73
     3
 74
     0
 42
0.0000000001
 43
0.0000000001
 40
0.0
 40
0.0
 40
0.0
 40
0.2002085020602031
 40
0.2002085020602031
 40
0.2002085020602031
 10
610.3973919732983
 20
1252.092926797779
 30
0.0
 10
610.4681763680273
 20
1252.163711192508
 30
0.0
 10
610.5389607627562
 20
1252.234495587237
 30
0.0
  0
SPLINE
  5
E9
330
1F
100
AcDbEntity
  8
Predefinito
100
AcDbSpline
210
0.0
220
0.0
230
1.0
 70
    24
 71
     2
 72
     6
 73
     3
 74
     0
 42
0.0000000001
 43
0.0000000001
 40
0.0
 40
0.0
 40
0.0
 40
13.59999999999991
 40
13.59999999999991
 40
13.59999999999991
 10
610.3973919732983
 20
1252.092926797779
 30
0.0
 10
610.3973919732982
 20
1245.292926797779
 30
0.0
 10
610.3973919732982
 20
1238.492926797779
 30
0.0
  0
SPLINE
  5
EA
330
1F
100
AcDbEntity
  8
Predefinito
100
AcDbSpline
210
0.0
220
0.0
230
1.0
 70
    24
 71
     2
 72
     6
 73
     3
 74
     0
 42
0.0000000001
 43
0.0000000001
 40
0.0
 40
0.0
 40
0.0
 40
0.2002085020601729
 40
0.2002085020601729
 40
0.2002085020601729
 10
1120.397391973298
 20
1252.092926797779
 30
0.0
 10
1120.326607578569
 20
1252.163711192508
 30
0.0
 10
1120.25582318384
 20
1252.234495587237
 30
0.0
  0
SPLINE
  5
EB
330
1F
100
AcDbEntity
  8
Predefinito
100
AcDbSpline
210
0.0
220
0.0
230
1.0
 70
    24
 71
     2
 72
     6
 73
     3
 74
     0
 42
0.0000000001
 43
0.0000000001
 40
0.0
 40
0.0
 40
0.0
 40
13.59999999999991
 40
13.59999999999991
 40
13.59999999999991
 10
1120.397391973298
 20
1252.092926797779
 30
0.0
 10
1120.397391973298
 20
1245.292926797779
 30
0.0
 10
1120.397391973298
 20
1238.492926797779
 30
0.0
  0
SPLINE
  5
EC
330
1F
100
AcDbEntity
  8
Predefinito
100
AcDbSpline
210
0.0
220
0.0
230
1.0
 70
    24
 71
     2
 72
     6
 73
     3
 74
     0
 42
0.0000000001
 43
0.0000000001
 40
0.0
 40
0.0
 40
0.0
 40
13.0
 40
13.0
 40
13.0
 10
1123.897391973298
 20
1238.792926797779
 30
0.0
 10
1123.897391973298
 20
1245.292926797779
 30
0.0
 10
1123.897391973298
 20
1251.792926797779
 30
0.0
  0
SPLINE
  5
ED
330
1F
100
AcDbEntity
  8
Predefinito
100
AcDbSpline
210
0.0
220
0.0
230
1.0
 70
    24
 71
     2
 72
     6
 73
     3
 74
     0
 42
0.0000000001
 43
0.0000000001
 40
0.0
 40
0.0
 40
0.0
 40
14.0
 40
14.0
 40
14.0
 10
1120.597391973298
 20
1252.292926797779
 30
0.0
 10
1120.597391973298
 20
1245.292926797779
 30
0.0
 10
1120.597391973298
 20
1238.292926797779
 30
0.0
  0
SPLINE
  5
EE
330
1F
100
AcDbEntity
  8
Predefinito
100
AcDbSpline
210
0.0
220
0.0
230
1.0
 70
    24
 71
     2
 72
     6
 73
     3
 74
     0
 42
0.0000000001
 43
0.0000000001
 40
0.0
 40
0.0
 40
0.0
 40
2.799999999999955
 40
2.799999999999955
 40
2.799999999999955
 10
1123.397391973298
 20
1238.292926797779
 30
0.0
 10
1121.997391973298
 20
1238.292926797779
 30
0.0
 10
1120.597391973298
 20
1238.292926797779
 30
0.0
  0
SPLINE
  5
EF
330
1F
100
AcDbEntity
  8
Predefinito
100
AcDbSpline
210
0.0
220
0.0
230
1.0
 70
    24
 71
     2
 72
     6
 73
     3
 74
     0
 42
0.0000000001
 43
0.0000000001
 40
0.0
 40
0.0
 40
0.0
 40
14.0
 40
14.0
 40
14.0
 10
1123.397391973298
 20
1238.292926797779
 30
0.0
 10
1123.397391973298
 20
1245.292926797779
 30
0.0
 10
1123.397391973298
 20
1252.292926797779
 30
0.0
  0
SPLINE
  5
F0
330
1F
100
AcDbEntity
  8
Predefinito
100
AcDbSpline
210
0.0
220
0.0
230
1.0
 70
    24
 71
     2
 72
     6
 73
     3
 74
     0
 42
0.0000000001
 43
0.0000000001
 40
0.0
 40
0.0
 40
0.0
 40
0.624472570772198
 40
0.624472570772198
 40
0.624472570772198
 10
1123.897391973298
 20
1251.792926797779
 30
0.0
 10
1123.676607578569
 20
1252.013711192508
 30
0.0
 10
1123.45582318384
 20
1252.234495587237
 30
0.0
  0
SPLINE
  5
F1
330
1F
100
AcDbEntity
  8
Predefinito
100
AcDbSpline
210
0.0
220
0.0
230
1.0
 70
    24
 71
     2
 72
     6
 73
     3
 74
     0
 42
0.0000000001
 43
0.0000000001
 40
0.0
 40
0.0
 40
0.0
 40
0.2002085020602533
 40
0.2002085020602533
 40
0.2002085020602533
 10
1120.397391973298
 20
1238.492926797779
 30
0.0
 10
1120.468176368027
 20
1238.42214240305
 30
0.0
 10
1120.538960762756
 20
1238.351358008321
 30
0.0
  0
SPLINE
  5
F2
330
1F
100
AcDbEntity
  8
Predefinito
100
AcDbSpline
210
0.0
220
0.0
230
1.0
 70
    12
 71
     2
 72
     6
 73
     3
 74
     0
 42
0.0000000001
 43
0.0000000001
 40
0.0
 40
0.0
 40
0.0
 40
0.2921736697668705
 40
0.2921736697668705
 40
0.2921736697668705
 10
580.1053334866033
 20
1239.282494354132
 30
0.0
 41
1.0
 10
580.2512762371654
 20
1239.289602234666
 30
0.0
 41
0.9997033287928424
 10
580.3973919732982
 20
1239.289594389858
 30
0.0
 41
1.0
  0
SPLINE
  5
F3
330
1F
100
AcDbEntity
  8
Predefinito
100
AcDbSpline
210
0.0
220
0.0
230
1.0
 70
    12
 71
     2
 72
     6
 73
     3
 74
     0
 42
0.0000000001
 43
0.0000000001
 40
0.0
 40
0.0
 40
0.0
 40
0.4561238004928116
 40
0.4561238004928116
 40
0.4561238004928116
 10
574.3973919732983
 20
1251.303359241427
 30
0.0
 41
1.0
 10
574.252371896961
 20
1251.127340610146
 30
0.0
 41
0.99998340683534
 10
574.1053334866033
 20
1250.953004477981
 30
0.0
 41
1.0
  0
SPLINE
  5
F4
330
1F
100
AcDbEntity
  8
Predefinito
100
AcDbSpline
210
0.0
220
0.0
230
1.0
 70
    12
 71
     2
 72
     6
 73
     3
 74
     0
 42
0.0000000001
 43
0.0000000001
 40
0.0
 40
0.0
 40
0.0
 40
0.4561238004928119
 40
0.4561238004928119
 40
0.4561238004928119
 10
574.1053334866033
 20
1239.632849117578
 30
0.0
 41
1.0
 10
574.252371896961
 20
1239.458512985413
 30
0.0
 41
0.99998340683534
 10
574.3973919732982
 20
1239.282494354132
 30
0.0
 41
1.0
  0
SPLINE
  5
F5
330
1F
100
AcDbEntity
  8
Predefinito
100
AcDbSpline
210
0.0
220
0.0
230
1.0
 70
    24
 71
     2
 72
     6
 73
     3
 74
     0
 42
0.0000000001
 43
0.0000000001
 40
0.0
 40
0.0
 40
0.0
 40
5.707941513305002
 40
5.707941513305002
 40
5.707941513305002
 10
574.3973919732982
 20
1239.282494354132
 30
0.0
 10
577.2513627299508
 20
1239.282494354132
 30
0.0
 10
580.1053334866033
 20
1239.282494354132
 30
0.0
  0
SPLINE
  5
F6
330
1F
100
AcDbEntity
  8
Predefinito
100
AcDbSpline
210
0.0
220
0.0
230
1.0
 70
    24
 71
     2
 72
     6
 73
     3
 74
     0
 42
0.0000000001
 43
0.0000000001
 40
0.0
 40
0.0
 40
0.0
 40
14.0
 40
14.0
 40
14.0
 10
610.1973919732983
 20
1238.292926797779
 30
0.0
 10
610.1973919732983
 20
1245.292926797779
 30
0.0
 10
610.1973919732983
 20
1252.292926797779
 30
0.0
  0
SPLINE
  5
F7
330
1F
100
AcDbEntity
  8
Predefinito
100
AcDbSpline
210
0.0
220
0.0
230
1.0
 70
    24
 71
     2
 72
     6
 73
     3
 74
     0
 42
0.0000000001
 43
0.0000000001
 40
0.0
 40
0.0
 40
0.0
 40
0.2002085020602935
 40
0.2002085020602935
 40
0.2002085020602935
 10
610.3973919732983
 20
1252.092926797779
 30
0.0
 10
610.3266075785693
 20
1252.163711192508
 30
0.0
 10
610.2558231838402
 20
1252.234495587237
 30
0.0
  0
SPLINE
  5
F8
330
1F
100
AcDbEntity
  8
Predefinito
100
AcDbSpline
210
0.0
220
0.0
230
1.0
 70
    12
 71
     2
 72
     6
 73
     3
 74
     0
 42
0.0000000001
 43
0.0000000001
 40
0.0
 40
0.0
 40
0.0
 40
0.3236832558705375
 40
0.3236832558705375
 40
0.3236832558705375
 10
573.8973919732982
 20
1239.880903146685
 30
0.0
 41
1.0
 10
574.0009558672879
 20
1239.756535062735
 30
0.0
 41
0.9999946194137945
 10
574.1053334866033
 20
1239.632849117578
 30
0.0
 41
1.0
  0
SPLINE
  5
F9
330
1F
100
AcDbEntity
  8
Predefinito
100
AcDbSpline
210
0.0
220
0.0
230
1.0
 70
    12
 71
     2
 72
     6
 73
     3
 74
     0
 42
0.0000000001
 43
0.0000000001
 40
0.0
 40
0.0
 40
0.0
 40
0.3236832558705328
 40
0.3236832558705328
 40
0.3236832558705328
 10
574.1053334866033
 20
1250.953004477981
 30
0.0
 41
1.0
 10
574.0009558672879
 20
1250.829318532823
 30
0.0
 41
0.9999946194137945
 10
573.8973919732982
 20
1250.704950448873
 30
0.0
 41
1.0
  0
SPLINE
  5
FA
330
1F
100
AcDbEntity
  8
Predefinito
100
AcDbSpline
210
0.0
220
0.0
230
1.0
 70
    12
 71
     2
 72
     6
 73
     3
 74
     0
 42
0.0000000001
 43
0.0000000001
 40
0.0
 40
0.0
 40
0.0
 40
3.711425130942985
 40
3.711425130942985
 40
3.711425130942985
 10
602.4435997552503
 20
1252.265281530164
 30
0.0
 41
1.0
 10
600.7885023578915
 20
1251.348917008705
 30
0.0
 41
0.971597362903726
 10
598.8973919732982
 20
1251.296259205701
 30
0.0
 41
1.0
  0
SPLINE
  5
FB
330
1F
100
AcDbEntity
  8
Predefinito
100
AcDbSpline
210
0.0
220
0.0
230
1.0
 70
    12
 71
     2
 72
     6
 73
     3
 74
     0
 42
0.0000000001
 43
0.0000000001
 40
0.0
 40
0.0
 40
0.0
 40
3.713957355495655
 40
3.713957355495655
 40
3.713957355495655
 10
598.8973919732982
 20
1239.289594389858
 30
0.0
 41
1.0
 10
600.7897717809304
 20
1239.236572345591
 30
0.0
 41
0.9716062750408118
 10
602.4458980292841
 20
1238.319425398246
 30
0.0
 41
1.0
  0
SPLINE
  5
FC
330
1F
100
AcDbEntity
  8
Predefinito
100
AcDbSpline
210
0.0
220
0.0
230
1.0
 70
    24
 71
     2
 72
     6
 73
     3
 74
     0
 42
0.0000000001
 43
0.0000000001
 40
0.0
 40
0.0
 40
0.0
 40
24.5
 40
24.5
 40
24.5
 10
598.8973919732982
 20
1251.296259205701
 30
0.0
 10
586.6473919732982
 20
1251.296259205701
 30
0.0
 10
574.3973919732982
 20
1251.296259205701
 30
0.0
  0
SPLINE
  5
FD
330
1F
100
AcDbEntity
  8
Predefinito
100
AcDbSpline
210
0.0
220
0.0
230
1.0
 70
    24
 71
     2
 72
     6
 73
     3
 74
     0
 42
0.0000000001
 43
0.0000000001
 40
0.0
 40
0.0
 40
0.0
 40
18.5
 40
18.5
 40
18.5
 10
580.3973919732982
 20
1239.289594389858
 30
0.0
 10
589.6473919732982
 20
1239.289594389858
 30
0.0
 10
598.8973919732982
 20
1239.289594389858
 30
0.0
  0
SPLINE
  5
FE
330
1F
100
AcDbEntity
  8
Predefinito
100
AcDbSpline
210
0.0
220
0.0
230
1.0
 70
    24
 71
     2
 72
     6
 73
     3
 74
     0
 42
0.0000000001
 43
0.0000000001
 40
0.0
 40
0.0
 40
0.0
 40
10.82404730218832
 40
10.82404730218832
 40
10.82404730218832
 10
573.8973919732982
 20
1250.704950448873
 30
0.0
 10
573.8973919732982
 20
1245.292926797779
 30
0.0
 10
573.8973919732982
 20
1239.880903146685
 30
0.0
  0
SPLINE
  5
FF
330
1F
100
AcDbEntity
  8
Predefinito
100
AcDbSpline
210
0.0
220
0.0
230
1.0
 70
    24
 71
     2
 72
     6
 73
     3
 74
     0
 42
0.0000000001
 43
0.0000000001
 40
0.0
 40
0.0
 40
0.0
 40
12.01376485156925
 40
12.01376485156925
 40
12.01376485156925
 10
574.3973919732982
 20
1251.296259205701
 30
0.0
 10
574.3973919732982
 20
1245.289376779916
 30
0.0
 10
574.3973919732982
 20
1239.282494354132
 30
0.0
  0
SPLINE
  5
100
330
1F
100
AcDbEntity
  8
Predefinito
100
AcDbSpline
210
0.0
220
0.0
230
1.0
 70
    24
 71
     2
 72
     6
 73
     3
 74
     0
 42
0.0000000001
 43
0.0000000001
 40
0.0
 40
0.0
 40
0.0
 40
7.700158444845329
 40
7.700158444845329
 40
7.700158444845329
 10
602.497233528453
 20
1252.292926797779
 30
0.0
 10
606.3473127508756
 20
1252.292926797779
 30
0.0
 10
610.1973919732983
 20
1252.292926797779
 30
0.0
  0
SPLINE
  5
101
330
1F
100
AcDbEntity
  8
Predefinito
100
AcDbSpline
210
0.0
220
0.0
230
1.0
 70
    12
 71
     2
 72
     6
 73
     3
 74
     0
 42
0.0000000001
 43
0.0000000001
 40
0.0
 40
0.0
 40
0.0
 40
0.3999758875016249
 40
0.3999758875016249
 40
0.3999758875016249
 10
611.7475429983184
 20
1252.292917219003
 30
0.0
 41
1.0
 10
611.9472593536993
 20
1252.281506098737
 30
0.0
 41
0.999594066108951
 10
612.1473014392113
 20
1252.281488882282
 30
0.0
 41
1.0
  0
SPLINE
  5
102
330
1F
100
AcDbEntity
  8
Predefinito
100
AcDbSpline
210
0.0
220
0.0
230
1.0
 70
    12
 71
     2
 72
     6
 73
     3
 74
     0
 42
0.0000000001
 43
0.0000000001
 40
0.0
 40
0.0
 40
0.0
 40
0.4002179001748012
 40
0.4002179001748012
 40
0.4002179001748012
 10
612.1473919732982
 20
1252.281488881642
 30
0.0
 41
1.0
 10
612.347555344462
 20
1252.281494520542
 30
0.0
 41
0.999592224358179
 10
612.5473919732983
 20
1252.292926797779
 30
0.0
 41
1.0
  0
SPLINE
  5
103
330
1F
100
AcDbEntity
  8
Predefinito
100
AcDbSpline
210
0.0
220
0.0
230
1.0
 70
    12
 71
     2
 72
     6
 73
     3
 74
     0
 42
0.0000000001
 43
0.0000000001
 40
0.0
 40
0.0
 40
0.0
 40
0.4000420436827733
 40
0.4000420436827733
 40
0.4000420436827733
 10
1107.847391973298
 20
1252.281488881642
 30
0.0
 41
1.0
 10
1108.047467157573
 20
1252.281503734373
 30
0.0
 41
0.9995939797263258
 10
1108.247216623423
 20
1252.292915591194
 30
0.0
 41
1.0
  0
SPLINE
  5
104
330
1F
100
AcDbEntity
  8
Predefinito
100
AcDbSpline
210
0.0
220
0.0
230
1.0
 70
    12
 71
     2
 72
     6
 73
     3
 74
     0
 42
0.0000000001
 43
0.0000000001
 40
0.0
 40
0.0
 40
0.0
 40
0.4000391626263141
 40
0.4000391626263141
 40
0.4000391626263141
 10
1107.447570135069
 20
1252.292915819791
 30
0.0
 41
1.0
 10
1107.647318306801
 20
1252.281507915613
 30
0.0
 41
0.9995945530098281
 10
1107.847391973298
 20
1252.281488881642
 30
0.0
 41
1.0
  0
SPLINE
  5
105
330
1F
100
AcDbEntity
  8
Predefinito
100
AcDbSpline
210
0.0
220
0.0
230
1.0
 70
    24
 71
     2
 72
     6
 73
     3
 74
     0
 42
0.0000000001
 43
0.0000000001
 40
0.0
 40
0.0
 40
0.0
 40
6.0
 40
6.0
 40
6.0
 10
1101.847391973298
 20
1446.492926797779
 30
0.0
 10
1104.847391973298
 20
1446.492926797779
 30
0.0
 10
1107.847391973298
 20
1446.492926797779
 30
0.0
  0
SPLINE
  5
106
330
1F
100
AcDbEntity
  8
Predefinito
100
AcDbSpline
210
0.0
220
0.0
230
1.0
 70
    24
 71
     2
 72
     6
 73
     3
 74
     0
 42
0.0000000001
 43
0.0000000001
 40
0.0
 40
0.0
 40
0.0
 40
6.0
 40
6.0
 40
6.0
 10
1107.847391973298
 20
1446.492926797779
 30
0.0
 10
1110.847391973298
 20
1446.492926797779
 30
0.0
 10
1113.847391973298
 20
1446.492926797779
 30
0.0
  0
SPLINE
  5
107
330
1F
100
AcDbEntity
  8
Predefinito
100
AcDbSpline
210
0.0
220
0.0
230
1.0
 70
    24
 71
     2
 72
     6
 73
     3
 74
     0
 42
0.0000000001
 43
0.0000000001
 40
0.0
 40
0.0
 40
0.0
 40
6.0
 40
6.0
 40
6.0
 10
1113.847391973298
 20
1446.292926797779
 30
0.0
 10
1110.847391973298
 20
1446.292926797779
 30
0.0
 10
1107.847391973298
 20
1446.292926797779
 30
0.0
  0
SPLINE
  5
108
330
1F
100
AcDbEntity
  8
Predefinito
100
AcDbSpline
210
0.0
220
0.0
230
1.0
 70
    24
 71
     2
 72
     6
 73
     3
 74
     0
 42
0.0000000001
 43
0.0000000001
 40
0.0
 40
0.0
 40
0.0
 40
6.0
 40
6.0
 40
6.0
 10
1107.847391973298
 20
1446.292926797779
 30
0.0
 10
1104.847391973298
 20
1446.292926797779
 30
0.0
 10
1101.847391973298
 20
1446.292926797779
 30
0.0
  0
SPLINE
  5
109
330
1F
100
AcDbEntity
  8
Predefinito
100
AcDbSpline
210
0.0
220
0.0
230
1.0
 70
    24
 71
     2
 72
     6
 73
     3
 74
     0
 42
0.0000000001
 43
0.0000000001
 40
0.0
 40
0.0
 40
0.0
 40
6.0
 40
6.0
 40
6.0
 10
1101.847391973298
 20
1444.292926797779
 30
0.0
 10
1104.847391973298
 20
1444.292926797779
 30
0.0
 10
1107.847391973298
 20
1444.292926797779
 30
0.0
  0
SPLINE
  5
10A
330
1F
100
AcDbEntity
  8
Predefinito
100
AcDbSpline
210
0.0
220
0.0
230
1.0
 70
    24
 71
     2
 72
     6
 73
     3
 74
     0
 42
0.0000000001
 43
0.0000000001
 40
0.0
 40
0.0
 40
0.0
 40
6.0
 40
6.0
 40
6.0
 10
1107.847391973298
 20
1444.292926797779
 30
0.0
 10
1110.847391973298
 20
1444.292926797779
 30
0.0
 10
1113.847391973298
 20
1444.292926797779
 30
0.0
  0
SPLINE
  5
10B
330
1F
100
AcDbEntity
  8
Predefinito
100
AcDbSpline
210
0.0
220
0.0
230
1.0
 70
    12
 71
     2
 72
     8
 73
     5
 74
     0
 42
0.0000000001
 43
0.0000000001
 40
0.0
 40
0.0
 40
0.0
 40
0.0500838947502871
 40
0.0500838947502871
 40
4.762472875134977
 40
4.762472875134977
 40
4.762472875134977
 10
1104.897475868049
 20
1434.29292678833
 30
0.0
 41
1.0
 10
1104.872433920673
 20
1434.292926788329
 30
0.0
 41
1.0
 10
1104.847391973298
 20
1434.292926788329
 30
0.0
 41
1.0
 10
1104.847391973298
 20
1434.292926797779
 30
0.0
 41
0.7071067811865476
 10
1107.847391973298
 20
1434.292926797779
 30
0.0
 41
1.0
  0
SPLINE
  5
10C
330
1F
100
AcDbEntity
  8
Predefinito
100
AcDbSpline
210
0.0
220
0.0
230
1.0
 70
    24
 71
     2
 72
     6
 73
     3
 74
     0
 42
0.0000000001
 43
0.0000000001
 40
0.0
 40
0.0
 40
0.0
 40
2.949916105249713
 40
2.949916105249713
 40
2.949916105249713
 10
1107.847391973298
 20
1434.292926797779
 30
0.0
 10
1109.322350025923
 20
1434.292926797779
 30
0.0
 10
1110.797308078548
 20
1434.292926797779
 30
0.0
  0
SPLINE
  5
10D
330
1F
100
AcDbEntity
  8
Predefinito
100
AcDbSpline
210
0.0
220
0.0
230
1.0
 70
    24
 71
     2
 72
     6
 73
     3
 74
     0
 42
0.0000000001
 43
0.0000000001
 40
0.0
 40
0.0
 40
0.0
 40
8.0
 40
8.0
 40
8.0
 10
1115.847391973298
 20
1475.292926797779
 30
0.0
 10
1111.847391973298
 20
1475.292926797779
 30
0.0
 10
1107.847391973298
 20
1475.292926797779
 30
0.0
  0
SPLINE
  5
10E
330
1F
100
AcDbEntity
  8
Predefinito
100
AcDbSpline
210
0.0
220
0.0
230
1.0
 70
    24
 71
     2
 72
     6
 73
     3
 74
     0
 42
0.0000000001
 43
0.0000000001
 40
0.0
 40
0.0
 40
0.0
 40
8.0
 40
8.0
 40
8.0
 10
1107.847391973298
 20
1475.292926797779
 30
0.0
 10
1103.847391973298
 20
1475.292926797779
 30
0.0
 10
1099.847391973298
 20
1475.292926797779
 30
0.0
  0
SPLINE
  5
10F
330
1F
100
AcDbEntity
  8
Predefinito
100
AcDbSpline
210
0.0
220
0.0
230
1.0
 70
    24
 71
     2
 72
     6
 73
     3
 74
     0
 42
0.0000000001
 43
0.0000000001
 40
0.0
 40
0.0
 40
0.0
 40
8.0
 40
8.0
 40
8.0
 10
1099.847391973298
 20
1473.292926797779
 30
0.0
 10
1103.847391973298
 20
1473.292926797779
 30
0.0
 10
1107.847391973298
 20
1473.292926797779
 30
0.0
  0
SPLINE
  5
110
330
1F
100
AcDbEntity
  8
Predefinito
100
AcDbSpline
210
0.0
220
0.0
230
1.0
 70
    24
 71
     2
 72
     6
 73
     3
 74
     0
 42
0.0000000001
 43
0.0000000001
 40
0.0
 40
0.0
 40
0.0
 40
8.0
 40
8.0
 40
8.0
 10
1107.847391973298
 20
1473.292926797779
 30
0.0
 10
1111.847391973298
 20
1473.292926797779
 30
0.0
 10
1115.847391973298
 20
1473.292926797779
 30
0.0
  0
SPLINE
  5
111
330
1F
100
AcDbEntity
  8
Predefinito
100
AcDbSpline
210
0.0
220
0.0
230
1.0
 70
    24
 71
     2
 72
     6
 73
     3
 74
     0
 42
0.0000000001
 43
0.0000000001
 40
0.0
 40
0.0
 40
0.0
 40
67.91445871349146
 40
67.91445871349146
 40
67.91445871349146
 10
612.2973919732983
 20
1475.292926797779
 30
0.0
 10
578.3401626165526
 20
1475.292926797779
 30
0.0
 10
544.3829332598068
 20
1475.292926797779
 30
0.0
  0
SPLINE
  5
112
330
1F
100
AcDbEntity
  8
Predefinito
100
AcDbSpline
210
0.0
220
0.0
230
1.0
 70
    28
 71
     3
 72
    13
 73
     9
 74
     0
 42
0.0000000001
 43
0.0000000001
 40
-110.6313160800411
 40
-110.6313160800411
 40
-110.6313160800411
 40
-110.6313160800411
 40
-107.2788741837997
 40
-81.5344272042084
 40
-53.64045189236845
 40
-26.82022594618422
 40
-12.87302392736041
 40
0.0
 40
0.0
 40
0.0
 40
0.0
 10
680.2118497027817
 20
1475.292926797779
 30
0.0
 41
1.0
 10
680.2669623203499
 20
1475.292926797779
 30
0.0
 41
1.0
 10
680.5076745879521
 20
1475.292926797779
 30
0.0
 41
1.0
 10
676.901235296496
 20
1475.292926797779
 30
0.0
 41
1.0
 10
661.9342135018944
 20
1475.292926797779
 30
0.0
 41
1.0
 10
642.6168455367267
 20
1475.292926797779
 30
0.0
 41
1.0
 10
625.4701270103435
 20
1475.292926797779
 30
0.0
 41
1.0
 10
616.569349799513
 20
1475.292926797779
 30
0.0
 41
1.0
 10
612.2973919732983
 20
1475.292926797779
 30
0.0
 41
1.0
  0
SPLINE
  5
113
330
1F
100
AcDbEntity
  8
Predefinito
100
AcDbSpline
210
0.0
220
0.0
230
1.0
 70
    24
 71
     2
 72
     6
 73
     3
 74
     0
 42
0.0000000001
 43
0.0000000001
 40
0.0
 40
0.0
 40
0.0
 40
68.2211510819123
 40
68.2211510819123
 40
68.2211510819123
 10
612.2973919732981
 20
1474.99030883713
 30
0.0
 10
646.4079675142543
 20
1474.99030883713
 30
0.0
 10
680.5185430552104
 20
1474.99030883713
 30
0.0
  0
SPLINE
  5
114
330
1F
100
AcDbEntity
  8
Predefinito
100
AcDbSpline
210
0.0
220
0.0
230
1.0
 70
    28
 71
     3
 72
    13
 73
     9
 74
     0
 42
0.0000000001
 43
0.0000000001
 40
318.6158879385297
 40
318.6158879385297
 40
318.6158879385297
 40
318.6158879385297
 40
321.8339414200424
 40
348.6534546784784
 40
375.4729679369144
 40
403.3667593539137
 40
416.2397832812741
 40
429.1128072086345
 40
429.1128072086345
 40
429.1128072086345
 40
429.1128072086345
 10
544.0762390090571
 20
1474.99030883713
 30
0.0
 41
1.0
 10
544.0253948861102
 20
1474.99030883713
 30
0.0
 41
1.0
 10
543.7874963357064
 20
1474.99030883713
 30
0.0
 41
1.0
 10
547.5556635204031
 20
1474.99030883713
 30
0.0
 41
1.0
 10
562.9497531162374
 20
1474.99030883713
 30
0.0
 41
1.0
 10
582.1736238556199
 20
1474.99030883713
 30
0.0
 41
1.0
 10
599.4255094509394
 20
1474.99030883713
 30
0.0
 41
1.0
 10
608.0066392999204
 20
1474.99030883713
 30
0.0
 41
1.0
 10
612.2973919732981
 20
1474.99030883713
 30
0.0
 41
1.0
  0
SPLINE
  5
115
330
1F
100
AcDbEntity
  8
Predefinito
100
AcDbSpline
210
0.0
220
0.0
230
1.0
 70
    12
 71
     2
 72
     8
 73
     5
 74
     0
 42
0.0000000001
 43
0.0000000001
 40
0.0
 40
0.0
 40
0.0
 40
0.0676604685865243
 40
0.0676604685865243
 40
106.9692218963137
 40
106.9692218963137
 40
106.9692218963137
 10
680.2853792065705
 20
1447.29292678833
 30
0.0
 41
1.0
 10
680.3192094408637
 20
1447.29292678833
 30
0.0
 41
1.0
 10
680.353039675157
 20
1447.292926788331
 30
0.0
 41
1.0
 10
680.353039675157
 20
1447.292926797779
 30
0.0
 41
0.7071067811865476
 10
612.2973919732983
 20
1447.292926797779
 30
0.0
 41
1.0
  0
SPLINE
  5
116
330
1F
100
AcDbEntity
  8
Predefinito
100
AcDbSpline
210
0.0
220
0.0
230
1.0
 70
    24
 71
     2
 72
     6
 73
     3
 74
     0
 42
0.0000000001
 43
0.0000000001
 40
0.0
 40
0.0
 40
0.0
 40
67.98798723327225
 40
67.98798723327225
 40
67.98798723327225
 10
612.2973919732983
 20
1447.292926797779
 30
0.0
 10
578.3033983566622
 20
1447.292926797779
 30
0.0
 10
544.309404740026
 20
1447.292926797779
 30
0.0
  0
SPLINE
  5
117
330
1F
100
AcDbEntity
  8
Predefinito
100
AcDbSpline
210
0.0
220
0.0
230
1.0
 70
    12
 71
     2
 72
    10
 73
     7
 74
     0
 42
0.0000000001
 43
0.0000000001
 40
0.0
 40
0.0
 40
0.0
 40
0.0650008391982055
 40
0.0650008391982055
 40
1.053415061755686
 40
1.053415061755686
 40
3.134406027189697
 40
3.134406027189697
 40
3.134406027189697
 10
614.5323911341001
 20
1401.79292678833
 30
0.0
 41
1.0
 10
614.5648915536992
 20
1401.79292678833
 30
0.0
 41
1.0
 10
614.5973919732983
 20
1401.79292678833
 30
0.0
 41
1.0
 10
614.1031848620196
 20
1401.792907714843
 30
0.0
 41
1.0
 10
613.6089777507408
 20
1401.792907714843
 30
0.0
 41
1.0
 10
612.6205635281833
 20
1401.792926797779
 30
0.0
 41
0.867696055287007
 10
611.6206977584222
 20
1401.792926797779
 30
0.0
 41
1.0
  0
SPLINE
  5
118
330
1F
100
AcDbEntity
  8
Predefinito
100
AcDbSpline
210
0.0
220
0.0
230
1.0
 70
    24
 71
     2
 72
     6
 73
     3
 74
     0
 42
0.0000000001
 43
0.0000000001
 40
0.0
 40
0.0
 40
0.0
 40
1.015798682851312
 40
1.015798682851312
 40
1.015798682851312
 10
611.6206977584222
 20
1401.792926797779
 30
0.0
 10
611.1127984169966
 20
1401.792926797779
 30
0.0
 10
610.6048990755709
 20
1401.792926797779
 30
0.0
  0
SPLINE
  5
119
330
1F
100
AcDbEntity
  8
Predefinito
100
AcDbSpline
210
0.0
220
0.0
230
1.0
 70
    24
 71
     2
 72
     6
 73
     3
 74
     0
 42
0.0000000001
 43
0.0000000001
 40
0.0
 40
0.0
 40
0.0
 40
5.901046435236481
 40
5.901046435236481
 40
5.901046435236481
 10
610.6048990755709
 20
1401.792926797779
 30
0.0
 10
607.6543758579526
 20
1401.792926797779
 30
0.0
 10
604.7038526403344
 20
1401.792926797779
 30
0.0
  0
SPLINE
  5
11A
330
1F
100
AcDbEntity
  8
Predefinito
100
AcDbSpline
210
0.0
220
0.0
230
1.0
 70
    12
 71
     2
 72
    10
 73
     7
 74
     0
 42
0.0000000001
 43
0.0000000001
 40
0.0
 40
0.0
 40
0.0
 40
0.0650008391982055
 40
0.0650008391982055
 40
2.145991804632216
 40
2.145991804632216
 40
4.226982770066227
 40
4.226982770066227
 40
4.226982770066227
 10
614.5323911341001
 20
1398.79292678833
 30
0.0
 41
1.0
 10
614.5648915536992
 20
1398.792926788329
 30
0.0
 41
1.0
 10
614.5973919732983
 20
1398.792926788329
 30
0.0
 41
1.0
 10
614.5973919732983
 20
1398.792926797779
 30
0.0
 41
0.867696055287007
 10
613.6089777507408
 20
1398.792926797779
 30
0.0
 41
1.0
 10
612.6205635281833
 20
1398.792926797779
 30
0.0
 41
0.867696055287007
 10
611.6206977584222
 20
1398.792926797779
 30
0.0
 41
1.0
  0
SPLINE
  5
11B
330
1F
100
AcDbEntity
  8
Predefinito
100
AcDbSpline
210
0.0
220
0.0
230
1.0
 70
    24
 71
     2
 72
     6
 73
     3
 74
     0
 42
0.0000000001
 43
0.0000000001
 40
0.0
 40
0.0
 40
0.0
 40
1.015798682851312
 40
1.015798682851312
 40
1.015798682851312
 10
611.6206977584222
 20
1398.792926797779
 30
0.0
 10
611.1127984169966
 20
1398.792926797779
 30
0.0
 10
610.6048990755709
 20
1398.792926797779
 30
0.0
  0
SPLINE
  5
11C
330
1F
100
AcDbEntity
  8
Predefinito
100
AcDbSpline
210
0.0
220
0.0
230
1.0
 70
    24
 71
     2
 72
     6
 73
     3
 74
     0
 42
0.0000000001
 43
0.0000000001
 40
0.0
 40
0.0
 40
0.0
 40
5.901046435236481
 40
5.901046435236481
 40
5.901046435236481
 10
610.6048990755709
 20
1398.792926797779
 30
0.0
 10
607.6543758579526
 20
1398.792926797779
 30
0.0
 10
604.7038526403344
 20
1398.792926797779
 30
0.0
  0
SPLINE
  5
11D
330
1F
100
AcDbEntity
  8
Predefinito
100
AcDbSpline
210
0.0
220
0.0
230
1.0
 70
    24
 71
     2
 72
     6
 73
     3
 74
     0
 42
0.0000000001
 43
0.0000000001
 40
0.0
 40
0.0
 40
0.0
 40
3.0
 40
3.0
 40
3.0
 10
610.6048990755709
 20
1398.792926797779
 30
0.0
 10
610.6048990755709
 20
1400.292926797779
 30
0.0
 10
610.6048990755709
 20
1401.792926797779
 30
0.0
  0
SPLINE
  5
11E
330
1F
100
AcDbEntity
  8
Predefinito
100
AcDbSpline
210
0.0
220
0.0
230
1.0
 70
    24
 71
     2
 72
     6
 73
     3
 74
     0
 42
0.0000000001
 43
0.0000000001
 40
0.0
 40
0.0
 40
0.0
 40
3.0
 40
3.0
 40
3.0
 10
611.6206977584222
 20
1401.792926797779
 30
0.0
 10
611.6206977584222
 20
1400.292926797779
 30
0.0
 10
611.6206977584222
 20
1398.792926797779
 30
0.0
  0
SPLINE
  5
11F
330
1F
100
AcDbEntity
  8
Predefinito
100
AcDbSpline
210
0.0
220
0.0
230
1.0
 70
    24
 71
     2
 72
     6
 73
     3
 74
     0
 42
0.0000000001
 43
0.0000000001
 40
0.0
 40
0.0
 40
0.0
 40
3.0
 40
3.0
 40
3.0
 10
604.7038526403344
 20
1398.792926797779
 30
0.0
 10
604.7038526403344
 20
1400.292926797779
 30
0.0
 10
604.7038526403344
 20
1401.792926797779
 30
0.0
  0
SPLINE
  5
120
330
1F
100
AcDbEntity
  8
Predefinito
100
AcDbSpline
210
0.0
220
0.0
230
1.0
 70
    24
 71
     2
 72
     6
 73
     3
 74
     0
 42
0.0000000001
 43
0.0000000001
 40
0.0
 40
0.0
 40
0.0
 40
78.00000000000051
 40
78.00000000000051
 40
78.00000000000051
 10
1010.297391973298
 20
1065.292926797779
 30
0.0
 10
1049.297391973298
 20
1065.292926797779
 30
0.0
 10
1088.297391973299
 20
1065.292926797779
 30
0.0
  0
SPLINE
  5
121
330
1F
100
AcDbEntity
  8
Predefinito
100
AcDbSpline
210
0.0
220
0.0
230
1.0
 70
    24
 71
     2
 72
     6
 73
     3
 74
     0
 42
0.0000000001
 43
0.0000000001
 40
0.0
 40
0.0
 40
0.0
 40
84.00000000000051
 40
84.00000000000051
 40
84.00000000000051
 10
1091.297391973299
 20
1064.292926797779
 30
0.0
 10
1049.297391973298
 20
1064.292926797779
 30
0.0
 10
1007.297391973298
 20
1064.292926797779
 30
0.0
  0
SPLINE
  5
122
330
1F
100
AcDbEntity
  8
Predefinito
100
AcDbSpline
210
0.0
220
0.0
230
1.0
 70
    12
 71
     2
 72
     8
 73
     5
 74
     0
 42
0.0000000001
 43
0.0000000001
 40
0.0
 40
0.0
 40
0.0
 40
87.43320406787755
 40
87.43320406787755
 40
174.8664081357551
 40
174.8664081357551
 40
174.8664081357551
 10
1091.2973919733
 20
1064.292926797778
 30
0.0
 41
1.0
 10
1131.659908296442
 20
1034.02103955542
 30
0.0
 41
0.8112421851755633
 10
1115.705222836834
 20
986.1569831765992
 30
0.0
 41
1.0
 10
1099.750537377225
 20
938.2929267977781
 30
0.0
 41
0.811242185175563
 10
1049.297391973297
 20
938.2929267977795
 30
0.0
 41
1.0
  0
SPLINE
  5
123
330
1F
100
AcDbEntity
  8
Predefinito
100
AcDbSpline
210
0.0
220
0.0
230
1.0
 70
    12
 71
     2
 72
     6
 73
     3
 74
     0
 42
0.0000000001
 43
0.0000000001
 40
0.0
 40
0.0
 40
0.0
 40
3.074955997894762
 40
3.074955997894762
 40
3.074955997894762
 10
1007.412635301734
 20
1064.376819419515
 30
0.0
 41
1.0
 10
1008.709550289292
 20
1065.29292679778
 30
0.0
 41
0.9530945714741547
 10
1010.297391973298
 20
1065.292926797779
 30
0.0
 41
1.0
  0
SPLINE
  5
124
330
1F
100
AcDbEntity
  8
Predefinito
100
AcDbSpline
210
0.0
220
0.0
230
1.0
 70
    24
 71
     2
 72
     6
 73
     3
 74
     0
 42
0.0000000001
 43
0.0000000001
 40
0.0
 40
0.0
 40
0.0
 40
20.73281050924618
 40
20.73281050924618
 40
20.73281050924618
 10
1038.931591329839
 20
1077.058946689981
 30
0.0
 10
1049.297996584462
 20
1077.058946689981
 30
0.0
 10
1059.664401839085
 20
1077.058946689981
 30
0.0
  0
SPLINE
  5
125
330
1F
100
AcDbEntity
  8
Predefinito
100
AcDbSpline
210
0.0
220
0.0
230
1.0
 70
    12
 71
     2
 72
     8
 73
     5
 74
     0
 42
0.0000000001
 43
0.0000000001
 40
0.0
 40
0.0
 40
0.0
 40
0.0916291675005211
 40
0.0916291675005211
 40
0.1832583350010423
 40
0.1832583350010423
 40
0.1832583350010423
 10
1088.812186288158
 20
1065.329776150968
 30
0.0
 41
1.0
 10
1088.860047039939
 20
1065.339646558914
 30
0.0
 41
0.9088589881469239
 10
1088.883771098765
 20
1065.382369451455
 30
0.0
 41
1.0
 10
1088.907495157592
 20
1065.425092343995
 30
0.0
 41
0.9088589881469239
 10
1088.890572918692
 20
1065.470936802164
 30
0.0
 41
1.0
  0
SPLINE
  5
126
330
1F
100
AcDbEntity
  8
Predefinito
100
AcDbSpline
210
0.0
220
0.0
230
1.0
 70
    24
 71
     2
 72
     6
 73
     3
 74
     0
 42
0.0000000001
 43
0.0000000001
 40
0.0
 40
0.0
 40
0.0
 40
79.18515266845895
 40
79.18515266845895
 40
79.18515266845895
 10
1009.705420250233
 20
1065.470936802164
 30
0.0
 10
1049.297996584462
 20
1065.470936802164
 30
0.0
 10
1088.890572918692
 20
1065.470936802164
 30
0.0
  0
SPLINE
  5
127
330
1F
100
AcDbEntity
  8
Predefinito
100
AcDbSpline
210
0.0
220
0.0
230
1.0
 70
    12
 71
     2
 72
     6
 73
     3
 74
     0
 42
0.0000000001
 43
0.0000000001
 40
0.0
 40
0.0
 40
0.0
 40
31.58160811654421
 40
31.58160811654421
 40
31.58160811654421
 10
1088.782027007053
 20
1065.545859067982
 30
0.0
 41
1.0
 10
1075.552717399838
 20
1074.664834453226
 30
0.0
 41
0.9743515073652342
 10
1059.664401839085
 20
1077.058946689981
 30
0.0
 41
1.0
  0
SPLINE
  5
128
330
1F
100
AcDbEntity
  8
Predefinito
100
AcDbSpline
210
0.0
220
0.0
230
1.0
 70
    24
 71
     2
 72
     6
 73
     3
 74
     0
 42
0.0000000001
 43
0.0000000001
 40
0.0
 40
0.0
 40
0.0
 40
5.350604611170183
 40
5.350604611170183
 40
5.350604611170183
 10
1058.747996584462
 20
1107.058946689587
 30
0.0
 10
1056.072694278877
 20
1107.058946689587
 30
0.0
 10
1053.397391973292
 20
1107.058946689587
 30
0.0
  0
SPLINE
  5
129
330
1F
100
AcDbEntity
  8
Predefinito
100
AcDbSpline
210
0.0
220
0.0
230
1.0
 70
    24
 71
     2
 72
     6
 73
     3
 74
     0
 42
0.0000000001
 43
0.0000000001
 40
0.0
 40
0.0
 40
0.0
 40
5.549395388836899
 40
5.549395388836899
 40
5.549395388836899
 10
1045.397391973299
 20
1107.058946689587
 30
0.0
 10
1042.622694278881
 20
1107.058946689587
 30
0.0
 10
1039.847996584462
 20
1107.058946689587
 30
0.0
  0
SPLINE
  5
12A
330
1F
100
AcDbEntity
  8
Predefinito
100
AcDbSpline
210
0.0
220
0.0
230
1.0
 70
    24
 71
     2
 72
     6
 73
     3
 74
     0
 42
0.0000000001
 43
0.0000000001
 40
0.0
 40
0.0
 40
0.0
 40
0.7071067811865476
 40
0.7071067811865476
 40
0.7071067811865476
 10
1058.747996584462
 20
1107.058946689587
 30
0.0
 10
1058.997996584462
 20
1106.808946689587
 30
0.0
 10
1059.247996584462
 20
1106.558946689587
 30
0.0
  0
SPLINE
  5
12B
330
1F
100
AcDbEntity
  8
Predefinito
100
AcDbSpline
210
0.0
220
0.0
230
1.0
 70
    24
 71
     2
 72
     6
 73
     3
 74
     0
 42
0.0000000001
 43
0.0000000001
 40
0.0
 40
0.0
 40
0.0
 40
5.850604611164102
 40
5.850604611164102
 40
5.850604611164102
 10
1059.247996584462
 20
1106.558946689587
 30
0.0
 10
1056.32269427888
 20
1106.55894661991
 30
0.0
 10
1053.397391973298
 20
1106.558946550233
 30
0.0
  0
SPLINE
  5
12C
330
1F
100
AcDbEntity
  8
Predefinito
100
AcDbSpline
210
0.0
220
0.0
230
1.0
 70
    24
 71
     2
 72
     6
 73
     3
 74
     0
 42
0.0000000001
 43
0.0000000001
 40
0.0
 40
0.0
 40
0.0
 40
6.049395388835537
 40
6.049395388835537
 40
6.049395388835537
 10
1045.397391973298
 20
1106.558946359682
 30
0.0
 10
1042.37269427888
 20
1106.558946287637
 30
0.0
 10
1039.347996584462
 20
1106.558946215592
 30
0.0
  0
SPLINE
  5
12D
330
1F
100
AcDbEntity
  8
Predefinito
100
AcDbSpline
210
0.0
220
0.0
230
1.0
 70
    24
 71
     2
 72
     6
 73
     3
 74
     0
 42
0.0000000001
 43
0.0000000001
 40
0.0
 40
0.0
 40
0.0
 40
29.49999952600479
 40
29.49999952600479
 40
29.49999952600479
 10
1039.347996584462
 20
1077.058946689587
 30
0.0
 10
1039.347996584462
 20
1091.80894645259
 30
0.0
 10
1039.347996584462
 20
1106.558946215592
 30
0.0
  0
SPLINE
  5
12E
330
1F
100
AcDbEntity
  8
Predefinito
100
AcDbSpline
210
0.0
220
0.0
230
1.0
 70
    24
 71
     2
 72
     6
 73
     3
 74
     0
 42
0.0000000001
 43
0.0000000001
 40
0.0
 40
0.0
 40
0.0
 40
4.0
 40
4.0
 40
4.0
 10
1045.397391973298
 20
1150.573074758016
 30
0.0
 10
1047.397391973298
 20
1150.573074758016
 30
0.0
 10
1049.397391973298
 20
1150.573074758016
 30
0.0
  0
SPLINE
  5
12F
330
1F
100
AcDbEntity
  8
Predefinito
100
AcDbSpline
210
0.0
220
0.0
230
1.0
 70
    24
 71
     2
 72
     6
 73
     3
 74
     0
 42
0.0000000001
 43
0.0000000001
 40
0.0
 40
0.0
 40
0.0
 40
3.933221473666208
 40
3.933221473666208
 40
3.933221473666208
 10
1049.397391973298
 20
1235.073074758016
 30
0.0
 10
1047.430781236465
 20
1235.073074758016
 30
0.0
 10
1045.464170499632
 20
1235.073074758016
 30
0.0
  0
SPLINE
  5
130
330
1F
100
AcDbEntity
  8
Predefinito
100
AcDbSpline
210
0.0
220
0.0
230
1.0
 70
    28
 71
     2
 72
     8
 73
     5
 74
     0
 42
0.0000000001
 43
0.0000000001
 40
11.78097245096172
 40
11.78097245096172
 40
11.78097245096172
 40
14.13716694115407
 40
14.13716694115407
 40
18.84955592153876
 40
18.84955592153876
 40
18.84955592153876
 10
1053.320533094911
 20
1235.073074758016
 30
0.0
 41
0.9157348061512727
 10
1053.557253103661
 20
1235.073074758016
 30
0.0
 41
0.9157348061512726
 10
1053.092910103343
 20
1235.073074758016
 30
0.0
 41
1.0
 10
1052.070106524975
 20
1235.073074758016
 30
0.0
 41
0.8314696123025452
 10
1049.397391973298
 20
1235.073074758016
 30
0.0
 41
1.0
  0
SPLINE
  5
131
330
1F
100
AcDbEntity
  8
Predefinito
100
AcDbSpline
210
0.0
220
0.0
230
1.0
 70
    24
 71
     2
 72
     6
 73
     3
 74
     0
 42
0.0000000001
 43
0.0000000001
 40
0.0
 40
0.0
 40
0.0
 40
18.0
 40
18.0
 40
18.0
 10
1045.397391973298
 20
1132.573074758016
 30
0.0
 10
1045.397391973298
 20
1141.573074758016
 30
0.0
 10
1045.397391973298
 20
1150.573074758016
 30
0.0
  0
SPLINE
  5
132
330
1F
100
AcDbEntity
  8
Predefinito
100
AcDbSpline
210
0.0
220
0.0
230
1.0
 70
    12
 71
     2
 72
     6
 73
     3
 74
     0
 42
0.0000000001
 43
0.0000000001
 40
0.0
 40
0.0
 40
0.0
 40
1.986808631182754
 40
1.986808631182754
 40
1.986808631182754
 10
1045.397391973298
 20
1094.073074758016
 30
0.0
 41
1.0
 10
1045.397391973298
 20
1093.058729842352
 30
0.0
 41
0.9693190539274658
 10
1045.880756546843
 20
1092.166959526085
 30
0.0
 41
1.0
  0
SPLINE
  5
133
330
1F
100
AcDbEntity
  8
Predefinito
100
AcDbSpline
210
0.0
220
0.0
230
1.0
 70
    24
 71
     2
 72
     6
 73
     3
 74
     0
 42
0.0000000001
 43
0.0000000001
 40
0.0
 40
0.0
 40
0.0
 40
7.933221473682067
 40
7.933221473682067
 40
7.933221473682067
 10
1053.33061344698
 20
1132.573074758016
 30
0.0
 10
1049.364002710139
 20
1132.573074758016
 30
0.0
 10
1045.397391973298
 20
1132.573074758016
 30
0.0
  0
SPLINE
  5
134
330
1F
100
AcDbEntity
  8
Predefinito
100
AcDbSpline
210
0.0
220
0.0
230
1.0
 70
    24
 71
     2
 72
     6
 73
     3
 74
     0
 42
0.0000000001
 43
0.0000000001
 40
0.0
 40
0.0
 40
0.0
 40
17.5
 40
17.5
 40
17.5
 10
1045.397391973298
 20
1115.073074758016
 30
0.0
 10
1045.397391973298
 20
1123.823074758016
 30
0.0
 10
1045.397391973298
 20
1132.573074758016
 30
0.0
  0
SPLINE
  5
135
330
1F
100
AcDbEntity
  8
Predefinito
100
AcDbSpline
210
0.0
220
0.0
230
1.0
 70
    24
 71
     2
 72
     6
 73
     3
 74
     0
 42
0.0000000001
 43
0.0000000001
 40
0.0
 40
0.0
 40
0.0
 40
3.441568789458017
 40
3.441568789458017
 40
3.441568789458017
 10
1049.397391973298
 20
1150.073074758016
 30
0.0
 10
1047.676607578569
 20
1150.073074758016
 30
0.0
 10
1045.95582318384
 20
1150.073074758016
 30
0.0
  0
SPLINE
  5
136
330
1F
100
AcDbEntity
  8
Predefinito
100
AcDbSpline
210
0.0
220
0.0
230
1.0
 70
    24
 71
     2
 72
     6
 73
     3
 74
     0
 42
0.0000000001
 43
0.0000000001
 40
0.0
 40
0.0
 40
0.0
 40
6.941568789458074
 40
6.941568789458074
 40
6.941568789458074
 10
1052.897391973298
 20
1133.073074758016
 30
0.0
 10
1049.426607578569
 20
1133.073074758016
 30
0.0
 10
1045.95582318384
 20
1133.073074758016
 30
0.0
  0
SPLINE
  5
137
330
1F
100
AcDbEntity
  8
Predefinito
100
AcDbSpline
210
0.0
220
0.0
230
1.0
 70
    24
 71
     2
 72
     6
 73
     3
 74
     0
 42
0.0000000001
 43
0.0000000001
 40
0.0
 40
0.0
 40
0.0
 40
0.6598872323783994
 40
0.6598872323783994
 40
0.6598872323783994
 10
1052.897391973298
 20
1150.073074758016
 30
0.0
 10
1053.130697341715
 20
1150.306380126433
 30
0.0
 10
1053.364002710131
 20
1150.539685494849
 30
0.0
  0
SPLINE
  5
138
330
1F
100
AcDbEntity
  8
Predefinito
100
AcDbSpline
210
0.0
220
0.0
230
1.0
 70
    24
 71
     2
 72
     6
 73
     3
 74
     0
 42
0.0000000001
 43
0.0000000001
 40
0.0
 40
0.0
 40
0.0
 40
3.5
 40
3.5
 40
3.5
 10
1049.397391973298
 20
1150.073074758016
 30
0.0
 10
1051.147391973298
 20
1150.073074758016
 30
0.0
 10
1052.897391973298
 20
1150.073074758016
 30
0.0
  0
SPLINE
  5
139
330
1F
100
AcDbEntity
  8
Predefinito
100
AcDbSpline
210
0.0
220
0.0
230
1.0
 70
    24
 71
     2
 72
     6
 73
     3
 74
     0
 42
0.0000000001
 43
0.0000000001
 40
0.0
 40
0.0
 40
0.0
 40
3.933221473682067
 40
3.933221473682067
 40
3.933221473682067
 10
1053.33061344698
 20
1150.573074758016
 30
0.0
 10
1051.364002710139
 20
1150.573074758016
 30
0.0
 10
1049.397391973298
 20
1150.573074758016
 30
0.0
  0
SPLINE
  5
13A
330
1F
100
AcDbEntity
  8
Predefinito
100
AcDbSpline
210
0.0
220
0.0
230
1.0
 70
    24
 71
     2
 72
     6
 73
     3
 74
     0
 42
0.0000000001
 43
0.0000000001
 40
0.0
 40
0.0
 40
0.0
 40
0.7071067811865476
 40
0.7071067811865476
 40
0.7071067811865476
 10
1045.897391973298
 20
1133.073074758016
 30
0.0
 10
1045.647391973298
 20
1132.823074758016
 30
0.0
 10
1045.397391973298
 20
1132.573074758016
 30
0.0
  0
SPLINE
  5
13B
330
1F
100
AcDbEntity
  8
Predefinito
100
AcDbSpline
210
0.0
220
0.0
230
1.0
 70
    12
 71
     2
 72
    10
 73
     7
 74
     0
 42
0.0000000001
 43
0.0000000001
 40
0.0
 40
0.0
 40
0.0
 40
0.0650008391982055
 40
0.0650008391982055
 40
1.053415061755686
 40
1.053415061755686
 40
3.134406027189697
 40
3.134406027189697
 40
3.134406027189697
 10
614.5323911341001
 20
1351.79292678833
 30
0.0
 41
1.0
 10
614.5648915536992
 20
1351.792926788331
 30
0.0
 41
1.0
 10
614.5973919732983
 20
1351.792926788331
 30
0.0
 41
1.0
 10
614.1031848620196
 20
1351.792907714844
 30
0.0
 41
1.0
 10
613.6089777507408
 20
1351.792907714845
 30
0.0
 41
1.0
 10
612.6205635281833
 20
1351.792926797779
 30
0.0
 41
0.867696055287007
 10
611.6206977584222
 20
1351.792926797779
 30
0.0
 41
1.0
  0
SPLINE
  5
13C
330
1F
100
AcDbEntity
  8
Predefinito
100
AcDbSpline
210
0.0
220
0.0
230
1.0
 70
    24
 71
     2
 72
     6
 73
     3
 74
     0
 42
0.0000000001
 43
0.0000000001
 40
0.0
 40
0.0
 40
0.0
 40
1.015798682851312
 40
1.015798682851312
 40
1.015798682851312
 10
611.6206977584222
 20
1351.792926797779
 30
0.0
 10
611.1127984169966
 20
1351.792926797779
 30
0.0
 10
610.6048990755709
 20
1351.792926797779
 30
0.0
  0
SPLINE
  5
13D
330
1F
100
AcDbEntity
  8
Predefinito
100
AcDbSpline
210
0.0
220
0.0
230
1.0
 70
    28
 71
     2
 72
    10
 73
     7
 74
     0
 42
0.0000000001
 43
0.0000000001
 40
-4.682229672226525
 40
-4.682229672226525
 40
-4.682229672226525
 40
-4.161981930868022
 40
-4.161981930868022
 40
-2.080990965434011
 40
-2.080990965434011
 40
0.0
 40
0.0
 40
0.0
 10
614.5323911341001
 20
1348.792926797779
 30
0.0
 41
0.9503860207326276
 10
614.5973919732983
 20
1348.792926797779
 30
0.0
 41
0.9669240138217517
 10
614.5973919732983
 20
1348.792926797779
 30
0.0
 41
1.0
 10
614.5973919732983
 20
1348.792926797779
 30
0.0
 41
0.867696055287007
 10
613.6089777507408
 20
1348.792926797779
 30
0.0
 41
1.0
 10
612.6205635281833
 20
1348.792926797779
 30
0.0
 41
0.867696055287007
 10
611.6206977584222
 20
1348.792926797779
 30
0.0
 41
1.0
  0
SPLINE
  5
13E
330
1F
100
AcDbEntity
  8
Predefinito
100
AcDbSpline
210
0.0
220
0.0
230
1.0
 70
    24
 71
     2
 72
     6
 73
     3
 74
     0
 42
0.0000000001
 43
0.0000000001
 40
0.0
 40
0.0
 40
0.0
 40
1.015798682851312
 40
1.015798682851312
 40
1.015798682851312
 10
611.6206977584222
 20
1348.792926797779
 30
0.0
 10
611.1127984169966
 20
1348.792926797779
 30
0.0
 10
610.6048990755709
 20
1348.792926797779
 30
0.0
  0
SPLINE
  5
13F
330
1F
100
AcDbEntity
  8
Predefinito
100
AcDbSpline
210
0.0
220
0.0
230
1.0
 70
    24
 71
     2
 72
     6
 73
     3
 74
     0
 42
0.0000000001
 43
0.0000000001
 40
0.0
 40
0.0
 40
0.0
 40
5.901046435236481
 40
5.901046435236481
 40
5.901046435236481
 10
610.6048990755709
 20
1348.792926797779
 30
0.0
 10
607.6543758579526
 20
1348.792926797779
 30
0.0
 10
604.7038526403344
 20
1348.792926797779
 30
0.0
  0
SPLINE
  5
140
330
1F
100
AcDbEntity
  8
Predefinito
100
AcDbSpline
210
0.0
220
0.0
230
1.0
 70
    24
 71
     2
 72
     6
 73
     3
 74
     0
 42
0.0000000001
 43
0.0000000001
 40
0.0
 40
0.0
 40
0.0
 40
3.0
 40
3.0
 40
3.0
 10
610.6048990755709
 20
1348.792926797779
 30
0.0
 10
610.6048990755709
 20
1350.292926797779
 30
0.0
 10
610.6048990755709
 20
1351.792926797779
 30
0.0
  0
SPLINE
  5
141
330
1F
100
AcDbEntity
  8
Predefinito
100
AcDbSpline
210
0.0
220
0.0
230
1.0
 70
    24
 71
     2
 72
     6
 73
     3
 74
     0
 42
0.0000000001
 43
0.0000000001
 40
0.0
 40
0.0
 40
0.0
 40
3.0
 40
3.0
 40
3.0
 10
611.6206977584222
 20
1351.792926797779
 30
0.0
 10
611.6206977584222
 20
1350.292926797779
 30
0.0
 10
611.6206977584222
 20
1348.792926797779
 30
0.0
  0
SPLINE
  5
142
330
1F
100
AcDbEntity
  8
Predefinito
100
AcDbSpline
210
0.0
220
0.0
230
1.0
 70
    24
 71
     2
 72
     6
 73
     3
 74
     0
 42
0.0000000001
 43
0.0000000001
 40
0.0
 40
0.0
 40
0.0
 40
3.0
 40
3.0
 40
3.0
 10
604.7038526403344
 20
1348.792926797779
 30
0.0
 10
604.7038526403344
 20
1350.292926797779
 30
0.0
 10
604.7038526403344
 20
1351.792926797779
 30
0.0
  0
SPLINE
  5
143
330
1F
100
AcDbEntity
  8
Predefinito
100
AcDbSpline
210
0.0
220
0.0
230
1.0
 70
    24
 71
     2
 72
     6
 73
     3
 74
     0
 42
0.0000000001
 43
0.0000000001
 40
0.0
 40
0.0
 40
0.0
 40
0.2002085020600724
 40
0.2002085020600724
 40
0.2002085020600724
 10
610.5389607627563
 20
1238.351358008322
 30
0.0
 10
610.4681763680273
 20
1238.42214240305
 30
0.0
 10
610.3973919732983
 20
1238.492926797779
 30
0.0
  0
SPLINE
  5
144
330
1F
100
AcDbEntity
  8
Predefinito
100
AcDbSpline
210
0.0
220
0.0
230
1.0
 70
    24
 71
     2
 72
     6
 73
     3
 74
     0
 42
0.0000000001
 43
0.0000000001
 40
0.0
 40
0.0
 40
0.0
 40
0.2002085020600926
 40
0.2002085020600926
 40
0.2002085020600926
 10
1120.397391973298
 20
1238.492926797779
 30
0.0
 10
1120.326607578569
 20
1238.42214240305
 30
0.0
 10
1120.25582318384
 20
1238.351358008322
 30
0.0
  0
SPLINE
  5
145
330
1F
100
AcDbEntity
  8
Predefinito
100
AcDbSpline
210
0.0
220
0.0
230
1.0
 70
    24
 71
     2
 72
     6
 73
     3
 74
     0
 42
0.0000000001
 43
0.0000000001
 40
0.0
 40
0.0
 40
0.0
 40
2.799999999999955
 40
2.799999999999955
 40
2.799999999999955
 10
1120.597391973298
 20
1252.292926797779
 30
0.0
 10
1121.997391973298
 20
1252.292926797779
 30
0.0
 10
1123.397391973298
 20
1252.292926797779
 30
0.0
  0
SPLINE
  5
146
330
1F
100
AcDbEntity
  8
Predefinito
100
AcDbSpline
210
0.0
220
0.0
230
1.0
 70
    24
 71
     2
 72
     6
 73
     3
 74
     0
 42
0.0000000001
 43
0.0000000001
 40
0.0
 40
0.0
 40
0.0
 40
0.6244725707720371
 40
0.6244725707720371
 40
0.6244725707720371
 10
1123.897391973298
 20
1238.792926797779
 30
0.0
 10
1123.676607578569
 20
1238.57214240305
 30
0.0
 10
1123.45582318384
 20
1238.351358008322
 30
0.0
  0
SPLINE
  5
147
330
1F
100
AcDbEntity
  8
Predefinito
100
AcDbSpline
210
0.0
220
0.0
230
1.0
 70
    24
 71
     2
 72
     6
 73
     3
 74
     0
 42
0.0000000001
 43
0.0000000001
 40
0.0
 40
0.0
 40
0.0
 40
0.200208502060173
 40
0.200208502060173
 40
0.200208502060173
 10
1120.397391973298
 20
1252.092926797779
 30
0.0
 10
1120.468176368027
 20
1252.163711192508
 30
0.0
 10
1120.538960762756
 20
1252.234495587237
 30
0.0
  0
SPLINE
  5
148
330
1F
100
AcDbEntity
  8
Predefinito
100
AcDbSpline
210
0.0
220
0.0
230
1.0
 70
    24
 71
     2
 72
     6
 73
     3
 74
     0
 42
0.0000000001
 43
0.0000000001
 40
0.0
 40
0.0
 40
0.0
 40
0.2002085020600724
 40
0.2002085020600724
 40
0.2002085020600724
 10
610.3973919732982
 20
1238.492926797779
 30
0.0
 10
610.3266075785693
 20
1238.42214240305
 30
0.0
 10
610.2558231838403
 20
1238.351358008322
 30
0.0
  0
SPLINE
  5
149
330
1F
100
AcDbEntity
  8
Predefinito
100
AcDbSpline
210
0.0
220
0.0
230
1.0
 70
    24
 71
     2
 72
     6
 73
     3
 74
     0
 42
0.0000000001
 43
0.0000000001
 40
0.0
 40
0.0
 40
0.0
 40
7.700131838625914
 40
7.700131838625914
 40
7.700131838625914
 10
610.1973919732983
 20
1238.292926797779
 30
0.0
 10
606.3473260539854
 20
1238.292926797779
 30
0.0
 10
602.4972601346724
 20
1238.292926797779
 30
0.0
  0
SPLINE
  5
14A
330
1F
100
AcDbEntity
  8
Predefinito
100
AcDbSpline
210
0.0
220
0.0
230
1.0
 70
    24
 71
     2
 72
     6
 73
     3
 74
     0
 42
0.0000000001
 43
0.0000000001
 40
0.0
 40
0.0
 40
0.0
 40
96.50000000000023
 40
96.50000000000023
 40
96.50000000000023
 10
611.7473919732982
 20
1252.292926797779
 30
0.0
 10
611.7473919732982
 20
1300.542926797779
 30
0.0
 10
611.7473919732982
 20
1348.79292679778
 30
0.0
  0
SPLINE
  5
14B
330
1F
100
AcDbEntity
  8
Predefinito
100
AcDbSpline
210
0.0
220
0.0
230
1.0
 70
    24
 71
     2
 72
     6
 73
     3
 74
     0
 42
0.0000000001
 43
0.0000000001
 40
0.0
 40
0.0
 40
0.0
 40
47.00000000000023
 40
47.00000000000023
 40
47.00000000000023
 10
611.7473919732982
 20
1351.792926797779
 30
0.0
 10
611.7473919732982
 20
1375.292926797779
 30
0.0
 10
611.7473919732982
 20
1398.792926797779
 30
0.0
  0
SPLINE
  5
14C
330
1F
100
AcDbEntity
  8
Predefinito
100
AcDbSpline
210
0.0
220
0.0
230
1.0
 70
    24
 71
     2
 72
     6
 73
     3
 74
     0
 42
0.0000000001
 43
0.0000000001
 40
0.0
 40
0.0
 40
0.0
 40
45.50000000000023
 40
45.50000000000023
 40
45.50000000000023
 10
611.7473919732982
 20
1401.792926797779
 30
0.0
 10
611.7473919732982
 20
1424.542926797779
 30
0.0
 10
611.7473919732982
 20
1447.292926797779
 30
0.0
  0
SPLINE
  5
14D
330
1F
100
AcDbEntity
  8
Predefinito
100
AcDbSpline
210
0.0
220
0.0
230
1.0
 70
    24
 71
     2
 72
     6
 73
     3
 74
     0
 42
0.0000000001
 43
0.0000000001
 40
0.0
 40
0.0
 40
0.0
 40
45.50000000000023
 40
45.50000000000023
 40
45.50000000000023
 10
612.5473919732983
 20
1447.292926797779
 30
0.0
 10
612.5473919732983
 20
1424.542926797779
 30
0.0
 10
612.5473919732983
 20
1401.792926797779
 30
0.0
  0
SPLINE
  5
14E
330
1F
100
AcDbEntity
  8
Predefinito
100
AcDbSpline
210
0.0
220
0.0
230
1.0
 70
    24
 71
     2
 72
     6
 73
     3
 74
     0
 42
0.0000000001
 43
0.0000000001
 40
0.0
 40
0.0
 40
0.0
 40
47.00000000000023
 40
47.00000000000023
 40
47.00000000000023
 10
612.5473919732983
 20
1398.79292679778
 30
0.0
 10
612.5473919732983
 20
1375.29292679778
 30
0.0
 10
612.5473919732983
 20
1351.79292679778
 30
0.0
  0
SPLINE
  5
14F
330
1F
100
AcDbEntity
  8
Predefinito
100
AcDbSpline
210
0.0
220
0.0
230
1.0
 70
    24
 71
     2
 72
     6
 73
     3
 74
     0
 42
0.0000000001
 43
0.0000000001
 40
0.0
 40
0.0
 40
0.0
 40
96.50000000000023
 40
96.50000000000023
 40
96.50000000000023
 10
612.5473919732983
 20
1348.79292679778
 30
0.0
 10
612.5473919732983
 20
1300.542926797779
 30
0.0
 10
612.5473919732983
 20
1252.292926797779
 30
0.0
  0
SPLINE
  5
150
330
1F
100
AcDbEntity
  8
Predefinito
100
AcDbSpline
210
0.0
220
0.0
230
1.0
 70
    24
 71
     2
 72
     6
 73
     3
 74
     0
 42
0.0000000001
 43
0.0000000001
 40
0.0
 40
0.0
 40
0.0
 40
181.9999998940964
 40
181.9999998940964
 40
181.9999998940964
 10
1107.447391973298
 20
1252.292926903683
 30
0.0
 10
1107.447391973298
 20
1343.292926850731
 30
0.0
 10
1107.447391973298
 20
1434.292926797779
 30
0.0
  0
SPLINE
  5
151
330
1F
100
AcDbEntity
  8
Predefinito
100
AcDbSpline
210
0.0
220
0.0
230
1.0
 70
    24
 71
     2
 72
     6
 73
     3
 74
     0
 42
0.0000000001
 43
0.0000000001
 40
0.0
 40
0.0
 40
0.0
 40
182.0000000274026
 40
182.0000000274026
 40
182.0000000274026
 10
1108.247391973298
 20
1434.292926797779
 30
0.0
 10
1108.247391973298
 20
1343.292926784078
 30
0.0
 10
1108.247391973298
 20
1252.292926770377
 30
0.0
  0
SPLINE
  5
152
330
1F
100
AcDbEntity
  8
Predefinito
100
AcDbSpline
210
0.0
220
0.0
230
1.0
 70
    24
 71
     2
 72
     6
 73
     3
 74
     0
 42
0.0000000001
 43
0.0000000001
 40
0.0
 40
0.0
 40
0.0
 40
26.80000000000018
 40
26.80000000000018
 40
26.80000000000018
 10
1113.847392418959
 20
1473.292926797779
 30
0.0
 10
1113.847392418959
 20
1459.892926797779
 30
0.0
 10
1113.847392418959
 20
1446.492926797779
 30
0.0
  0
SPLINE
  5
153
330
1F
100
AcDbEntity
  8
Predefinito
100
AcDbSpline
210
0.0
220
0.0
230
1.0
 70
    24
 71
     2
 72
     6
 73
     3
 74
     0
 42
0.0000000001
 43
0.0000000001
 40
0.0
 40
0.0
 40
0.0
 40
26.79999999999995
 40
26.79999999999995
 40
26.79999999999995
 10
1101.847391536916
 20
1446.492926797779
 30
0.0
 10
1101.847391536916
 20
1459.892926797779
 30
0.0
 10
1101.847391536916
 20
1473.292926797779
 30
0.0
  0
SPLINE
  5
154
330
1F
100
AcDbEntity
  8
Predefinito
100
AcDbSpline
210
0.0
220
0.0
230
1.0
 70
    24
 71
     2
 72
     6
 73
     3
 74
     0
 42
0.0000000001
 43
0.0000000001
 40
0.0
 40
0.0
 40
0.0
 40
0.2000000000000455
 40
0.2000000000000455
 40
0.2000000000000455
 10
1102.147391973298
 20
1446.292926797779
 30
0.0
 10
1102.147391973298
 20
1446.392926797779
 30
0.0
 10
1102.147391973298
 20
1446.492926797779
 30
0.0
  0
SPLINE
  5
155
330
1F
100
AcDbEntity
  8
Predefinito
100
AcDbSpline
210
0.0
220
0.0
230
1.0
 70
    24
 71
     2
 72
     6
 73
     3
 74
     0
 42
0.0000000001
 43
0.0000000001
 40
0.0
 40
0.0
 40
0.0
 40
0.2000000000000455
 40
0.2000000000000455
 40
0.2000000000000455
 10
1113.547391973298
 20
1446.492926797779
 30
0.0
 10
1113.547391973298
 20
1446.392926797779
 30
0.0
 10
1113.547391973298
 20
1446.292926797779
 30
0.0
  0
SPLINE
  5
156
330
1F
100
AcDbEntity
  8
Predefinito
100
AcDbSpline
210
0.0
220
0.0
230
1.0
 70
    24
 71
     2
 72
     6
 73
     3
 74
     0
 42
0.0000000001
 43
0.0000000001
 40
0.0
 40
0.0
 40
0.0
 40
2.0
 40
2.0
 40
2.0
 10
1101.847391973298
 20
1444.292926797779
 30
0.0
 10
1101.847391973298
 20
1445.292926797779
 30
0.0
 10
1101.847391973298
 20
1446.292926797779
 30
0.0
  0
SPLINE
  5
157
330
1F
100
AcDbEntity
  8
Predefinito
100
AcDbSpline
210
0.0
220
0.0
230
1.0
 70
    24
 71
     2
 72
     6
 73
     3
 74
     0
 42
0.0000000001
 43
0.0000000001
 40
0.0
 40
0.0
 40
0.0
 40
2.0
 40
2.0
 40
2.0
 10
1113.847391973298
 20
1446.292926797779
 30
0.0
 10
1113.847391973298
 20
1445.292926797779
 30
0.0
 10
1113.847391973298
 20
1444.292926797779
 30
0.0
  0
SPLINE
  5
158
330
1F
100
AcDbEntity
  8
Predefinito
100
AcDbSpline
210
0.0
220
0.0
230
1.0
 70
    24
 71
     2
 72
     6
 73
     3
 74
     0
 42
0.0000000001
 43
0.0000000001
 40
0.0
 40
0.0
 40
0.0
 40
10.0
 40
10.0
 40
10.0
 10
1104.847391973298
 20
1434.292926797779
 30
0.0
 10
1104.847391973298
 20
1439.292926797779
 30
0.0
 10
1104.847391973298
 20
1444.292926797779
 30
0.0
  0
SPLINE
  5
159
330
1F
100
AcDbEntity
  8
Predefinito
100
AcDbSpline
210
0.0
220
0.0
230
1.0
 70
    24
 71
     2
 72
     6
 73
     3
 74
     0
 42
0.0000000001
 43
0.0000000001
 40
0.0
 40
0.0
 40
0.0
 40
10.0
 40
10.0
 40
10.0
 10
1110.847391973298
 20
1444.292926797779
 30
0.0
 10
1110.847391973298
 20
1439.292926797779
 30
0.0
 10
1110.847391973298
 20
1434.292926797779
 30
0.0
  0
SPLINE
  5
15A
330
1F
100
AcDbEntity
  8
Predefinito
100
AcDbSpline
210
0.0
220
0.0
230
1.0
 70
    24
 71
     2
 72
     6
 73
     3
 74
     0
 42
0.0000000001
 43
0.0000000001
 40
0.0
 40
0.0
 40
0.0
 40
2.0
 40
2.0
 40
2.0
 10
1099.847391973298
 20
1473.292926797779
 30
0.0
 10
1099.847391973298
 20
1474.292926797779
 30
0.0
 10
1099.847391973298
 20
1475.292926797779
 30
0.0
  0
SPLINE
  5
15B
330
1F
100
AcDbEntity
  8
Predefinito
100
AcDbSpline
210
0.0
220
0.0
230
1.0
 70
    24
 71
     2
 72
     6
 73
     3
 74
     0
 42
0.0000000001
 43
0.0000000001
 40
0.0
 40
0.0
 40
0.0
 40
2.0
 40
2.0
 40
2.0
 10
1115.847391973298
 20
1475.292926797779
 30
0.0
 10
1115.847391973298
 20
1474.292926797779
 30
0.0
 10
1115.847391973298
 20
1473.292926797779
 30
0.0
  0
SPLINE
  5
15C
330
1F
100
AcDbEntity
  8
Predefinito
100
AcDbSpline
210
0.0
220
0.0
230
1.0
 70
     8
 71
     3
 72
    13
 73
     9
 74
     0
 42
0.0000000001
 43
0.0000000001
 40
0.0
 40
0.0
 40
0.0
 40
0.0
 40
2.99695048193233
 40
6.212112670143995
 40
9.357563200131974
 40
20.39537571585615
 40
28.05401150055523
 40
44.39321220990776
 40
44.39321220990776
 40
44.39321220990776
 40
44.39321220990776
 10
602.5028988596252
 20
1447.292927700391
 30
0.0
 10
602.5203482291142
 20
1446.293010898749
 30
0.0
 10
602.7098993093766
 20
1444.22942879889
 30
0.0
 10
603.2878774233253
 20
1441.160018188272
 30
0.0
 10
604.7732263431559
 20
1435.553734473816
 30
0.0
 10
606.9456793324431
 20
1428.600273095382
 30
0.0
 10
609.3992643157907
 20
1417.168258928779
 30
0.0
 10
610.1057333839137
 20
1409.17711659489
 30
0.0
 10
610.1821574340056
 20
1403.730753966908
 30
0.0
  0
SPLINE
  5
15D
330
1F
100
AcDbEntity
  8
Predefinito
100
AcDbSpline
210
0.0
220
0.0
230
1.0
 70
     8
 71
     3
 72
    13
 73
     9
 74
     0
 42
0.0000000001
 43
0.0000000001
 40
0.0
 40
0.0
 40
0.0
 40
0.0
 40
4.100245105725095
 40
7.678975056874674
 40
15.40902954928634
 40
22.73662941290443
 40
37.15246868129783
 40
44.48390477204072
 40
44.48390477204072
 40
44.48390477204072
 40
44.48390477204072
 10
603.9829301718481
 20
1403.639758860924
 30
0.0
 10
603.9655998532158
 20
1405.007322440413
 30
0.0
 10
603.8634261146143
 20
1407.562446685607
 30
0.0
 10
603.5272056043856
 20
1412.693160526139
 30
0.0
 10
602.6828536520719
 20
1418.849030275697
 30
0.0
 10
600.64169402009
 20
1428.469481045484
 30
0.0
 10
597.4881982435309
 20
1437.661451175587
 30
0.0
 10
596.3090977814352
 20
1444.839672811405
 30
0.0
 10
596.3017887264372
 20
1447.292564353214
 30
0.0
  0
SPLINE
  5
15E
330
1F
100
AcDbEntity
  8
Predefinito
100
AcDbSpline
210
0.0
220
0.0
230
1.0
 70
    12
 71
     2
 72
     6
 73
     3
 74
     0
 42
0.0000000001
 43
0.0000000001
 40
0.0
 40
0.0
 40
0.0
 40
1.937746490452209
 40
1.937746490452209
 40
1.937746490452209
 10
610.182157709698
 20
1403.730736495883
 30
0.0
 41
1.0
 10
610.1965071114696
 20
1402.761953227871
 30
0.0
 41
0.9999747851987505
 10
610.1970961027894
 20
1401.793063874642
 30
0.0
 41
1.0
  0
SPLINE
  5
15F
330
1F
100
AcDbEntity
  8
Predefinito
100
AcDbSpline
210
0.0
220
0.0
230
1.0
 70
    12
 71
     2
 72
     6
 73
     3
 74
     0
 42
0.0000000001
 43
0.0000000001
 40
0.0
 40
0.0
 40
0.0
 40
2.370773111728841
 40
2.370773111728841
 40
2.370773111728841
 10
603.9974472253502
 20
1401.269037447963
 30
0.0
 41
1.0
 10
603.9995335776247
 20
1402.454446724596
 30
0.0
 41
0.9999689265322883
 10
603.9829304449586
 20
1403.639741557951
 30
0.0
 41
1.0
  0
SPLINE
  5
160
330
1F
100
AcDbEntity
  8
Predefinito
100
AcDbSpline
210
0.0
220
0.0
230
1.0
 70
    12
 71
     2
 72
     6
 73
     3
 74
     0
 42
0.0000000001
 43
0.0000000001
 40
0.0
 40
0.0
 40
0.0
 40
2.559488094818271
 40
2.559488094818271
 40
2.559488094818271
 10
610.1973905649502
 20
1398.79292679575
 30
0.0
 41
1.0
 10
610.197391372933
 20
1397.513182748341
 30
0.0
 41
0.9999999999996249
 10
610.197389963519
 20
1396.233438700933
 30
0.0
 41
1.0
  0
SPLINE
  5
161
330
1F
100
AcDbEntity
  8
Predefinito
100
AcDbSpline
210
0.0
220
0.0
230
1.0
 70
    12
 71
     2
 72
     6
 73
     3
 74
     0
 42
0.0000000001
 43
0.0000000001
 40
0.0
 40
0.0
 40
0.0
 40
1.918910603195392
 40
1.918910603195392
 40
1.918910603195392
 10
603.9973917458901
 20
1399.350110967564
 30
0.0
 41
1.0
 10
603.9973603068878
 20
1400.309566269863
 30
0.0
 41
0.9999999980978842
 10
603.9974472233253
 20
1401.26902156874
 30
0.0
 41
1.0
  0
SPLINE
  5
162
330
1F
100
AcDbEntity
  8
Predefinito
100
AcDbSpline
210
0.0
220
0.0
230
1.0
 70
    12
 71
     2
 72
     6
 73
     3
 74
     0
 42
0.0000000001
 43
0.0000000001
 40
0.0
 40
0.0
 40
0.0
 40
5.12694501274594
 40
5.12694501274594
 40
5.12694501274594
 10
603.9973917459138
 20
1399.350110967564
 30
0.0
 41
1.0
 10
603.997386208183
 20
1396.786638461195
 30
0.0
 41
0.9999999999991009
 10
603.9973875455748
 20
1394.223165954821
 30
0.0
 41
1.0
  0
SPLINE
  5
163
330
1F
100
AcDbEntity
  8
Predefinito
100
AcDbSpline
210
0.0
220
0.0
230
1.0
 70
    12
 71
     3
 72
     8
 73
     4
 74
     0
 42
0.0000000001
 43
0.0000000001
 40
0.0
 40
0.0
 40
0.0
 40
0.0
 40
12.53144567767766
 40
12.53144567767766
 40
12.53144567767766
 40
12.53144567767766
 10
603.9973875453794
 20
1394.223165954821
 30
0.0
 41
1.0
 10
603.997384700674
 20
1390.046017395596
 30
0.0
 41
1.0
 10
603.997396885339
 20
1385.744243236745
 30
0.0
 41
1.0
 10
603.9973940406337
 20
1381.56709467752
 30
0.0
 41
1.0
  0
SPLINE
  5
164
330
1F
100
AcDbEntity
  8
Predefinito
100
AcDbSpline
210
0.0
220
0.0
230
1.0
 70
    24
 71
     2
 72
     6
 73
     3
 74
     0
 42
0.0000000001
 43
0.0000000001
 40
0.0
 40
0.0
 40
0.0
 40
0.748738973624597
 40
0.748738973624597
 40
0.748738973624597
 10
610.1973920765624
 20
1356.804925468813
 30
0.0
 10
610.197392222114
 20
1356.430555982
 30
0.0
 10
610.1973923676655
 20
1356.056186495188
 30
0.0
  0
SPLINE
  5
165
330
1F
100
AcDbEntity
  8
Predefinito
100
AcDbSpline
210
0.0
220
0.0
230
1.0
 70
    12
 71
     2
 72
     6
 73
     3
 74
     0
 42
0.0000000001
 43
0.0000000001
 40
0.0
 40
0.0
 40
0.0
 40
0.6401228665155644
 40
0.6401228665155644
 40
0.6401228665155644
 10
610.1973922927864
 20
1354.183026484345
 30
0.0
 41
1.0
 10
610.1973921545228
 20
1353.862965051087
 30
0.0
 41
0.9999999999998196
 10
610.1973916318137
 20
1353.54290361783
 30
0.0
 41
1.0
  0
SPLINE
  5
166
330
1F
100
AcDbEntity
  8
Predefinito
100
AcDbSpline
210
0.0
220
0.0
230
1.0
 70
    12
 71
     2
 72
     6
 73
     3
 74
     0
 42
0.0000000001
 43
0.0000000001
 40
0.0
 40
0.0
 40
0.0
 40
1.280729716319532
 40
1.280729716319532
 40
1.280729716319532
 10
603.9973926236853
 20
1354.775114310528
 30
0.0
 41
1.0
 10
603.9973926256114
 20
1355.415479168688
 30
0.0
 41
0.9999999999999548
 10
603.9973922427396
 20
1356.055844026847
 30
0.0
 41
1.0
  0
SPLINE
  5
167
330
1F
100
AcDbEntity
  8
Predefinito
100
AcDbSpline
210
0.0
220
0.0
230
1.0
 70
     8
 71
     3
 72
    14
 73
    10
 74
     0
 42
0.0000000001
 43
0.0000000001
 40
0.0
 40
0.0
 40
0.0
 40
0.0
 40
8.033827973583143
 40
15.67804606500877
 40
31.81157770531181
 40
48.10597110236245
 40
73.49640789996485
 40
81.95744697305894
 40
97.89460008385409
 40
97.89460008385409
 40
97.89460008385409
 40
97.89460008385409
 10
610.1948808428203
 20
1348.792748926407
 30
0.0
 10
610.1930943737044
 20
1346.114609465304
 30
0.0
 10
610.1138863692227
 20
1340.889363523409
 30
0.0
 10
609.7030240784511
 20
1330.291738309594
 30
0.0
 10
608.660520762678
 20
1316.971952356818
 30
0.0
 10
606.3253027027948
 20
1297.836754428618
 30
0.0
 10
603.5805409412898
 20
1281.344885624818
 30
0.0
 10
601.2523019714197
 20
1264.913646542745
 30
0.0
 10
600.5141924129044
 20
1256.805175435188
 30
0.0
 10
600.4395936599008
 20
1251.490893874197
 30
0.0
  0
SPLINE
  5
168
330
1F
100
AcDbEntity
  8
Predefinito
100
AcDbSpline
210
0.0
220
0.0
230
1.0
 70
     8
 71
     3
 72
    12
 73
     8
 74
     0
 42
0.0000000001
 43
0.0000000001
 40
0.0
 40
0.0
 40
0.0
 40
0.0
 40
7.879302224876614
 40
16.71266745180816
 40
51.43001406131164
 40
68.08626389992027
 40
100.315570570356
 40
100.315570570356
 40
100.315570570356
 40
100.315570570356
 10
594.2369666410041
 20
1251.296259206017
 30
0.0
 10
594.2736248456504
 20
1253.921716858763
 30
0.0
 10
594.5099783536327
 20
1259.492092965115
 30
0.0
 10
596.3921201483263
 20
1276.537846550484
 30
0.0
 10
599.9272907472817
 20
1296.304821706544
 30
0.0
 10
603.2502491882911
 20
1323.981039425905
 30
0.0
 10
604.0589920089232
 20
1340.274619143844
 30
0.0
 10
603.9973826384571
 20
1351.019015192005
 30
0.0
  0
SPLINE
  5
169
330
1F
100
AcDbEntity
  8
Predefinito
100
AcDbSpline
210
0.0
220
0.0
230
1.0
 70
    12
 71
     2
 72
     6
 73
     3
 74
     0
 42
0.0000000001
 43
0.0000000001
 40
0.0
 40
0.0
 40
0.0
 40
2.925997635034185
 40
2.925997635034185
 40
2.925997635034185
 10
600.428016030046
 20
1239.097683778946
 30
0.0
 41
1.0
 10
600.4312590621514
 20
1237.634685344937
 30
0.0
 41
0.9999967078958683
 10
600.442010044386
 20
1236.171722819254
 30
0.0
 41
1.0
  0
SPLINE
  5
16A
330
1F
100
AcDbEntity
  8
Predefinito
100
AcDbSpline
210
0.0
220
0.0
230
1.0
 70
    12
 71
     2
 72
     6
 73
     3
 74
     0
 42
0.0000000001
 43
0.0000000001
 40
0.0
 40
0.0
 40
0.0
 40
3.155420862342984
 40
3.155420862342984
 40
3.155420862342984
 10
594.2283157737797
 20
1239.289594399039
 30
0.0
 41
1.0
 10
594.230679703892
 20
1237.711881322849
 30
0.0
 41
0.9999958015388524
 10
594.2421871646106
 20
1236.134208442528
 30
0.0
 41
1.0
  0
SPLINE
  5
16B
330
1F
100
AcDbEntity
  8
Predefinito
100
AcDbSpline
210
0.0
220
0.0
230
1.0
 70
     8
 71
     3
 72
    15
 73
    11
 74
     0
 42
0.0000000001
 43
0.0000000001
 40
0.0
 40
0.0
 40
0.0
 40
0.0
 40
68.17107781760106
 40
134.6169169160983
 40
192.8512469208219
 40
243.2410378962891
 40
286.6115486354229
 40
330.2332952141759
 40
378.2668418317003
 40
434.5893083435222
 40
434.5893083435222
 40
434.5893083435222
 40
434.5893083435222
 10
600.4420109170644
 20
1236.171606824161
 30
0.0
 10
600.642601482108
 20
1213.443012494275
 30
0.0
 10
605.0716027248216
 20
1168.64888352016
 30
0.0
 10
621.3781362953922
 20
1106.240139552426
 30
0.0
 10
646.4831067569502
 20
1053.199831155109
 30
0.0
 10
679.0816004950251
 20
1013.742126636108
 30
0.0
 10
718.9497069932929
 20
989.5695981170228
 30
0.0
 10
764.2378036762734
 20
982.6006763714338
 30
0.0
 10
813.1977377125261
 20
992.041855673341
 30
0.0
 10
844.84496803199
 20
1006.889106635335
 30
0.0
 10
861.174295174406
 20
1016.154730950473
 30
0.0
  0
SPLINE
  5
16C
330
1F
100
AcDbEntity
  8
Predefinito
100
AcDbSpline
210
0.0
220
0.0
230
1.0
 70
     8
 71
     3
 72
    15
 73
    11
 74
     0
 42
0.0000000001
 43
0.0000000001
 40
0.0
 40
0.0
 40
0.0
 40
0.0
 40
58.12115816295548
 40
107.6785701375193
 40
153.0866381489176
 40
198.1692973240388
 40
250.1989317058804
 40
310.1474994697517
 40
377.6291502011924
 40
447.4954749035136
 40
447.4954749035136
 40
447.4954749035136
 40
447.4954749035136
 10
864.2382517498186
 20
1010.764723433347
 30
0.0
 10
847.3880358744779
 20
1001.205665910594
 30
0.0
 10
814.7085262091655
 20
985.9168244889578
 30
0.0
 10
764.0261752079458
 20
976.3183845554606
 30
0.0
 10
717.0774419236208
 20
983.5851256908314
 30
0.0
 10
675.6109479462987
 20
1008.429164660943
 30
0.0
 10
641.6760268688763
 20
1049.014387084585
 30
0.0
 10
615.7892565982481
 20
1103.32024386516
 30
0.0
 10
598.9915767278617
 20
1167.135351406845
 30
0.0
 10
594.4493021716576
 20
1212.840706398726
 30
0.0
 10
594.2421880325957
 20
1236.134093400878
 30
0.0
  0
SPLINE
  5
16D
330
1F
100
AcDbEntity
  8
Predefinito
100
AcDbSpline
210
0.0
220
0.0
230
1.0
 70
    12
 71
     2
 72
     6
 73
     3
 74
     0
 42
0.0000000001
 43
0.0000000001
 40
0.0
 40
0.0
 40
0.0
 40
16.10575827367364
 40
16.10575827367364
 40
16.10575827367364
 10
861.1743491052234
 20
1016.154761614078
 30
0.0
 41
1.0
 10
868.155821807868
 20
1020.168237027509
 30
0.0
 41
0.9999990331435722
 10
875.1261054060642
 20
1024.201113488884
 30
0.0
 41
1.0
  0
SPLINE
  5
16E
330
1F
100
AcDbEntity
  8
Predefinito
100
AcDbSpline
210
0.0
220
0.0
230
1.0
 70
    12
 71
     2
 72
     6
 73
     3
 74
     0
 42
0.0000000001
 43
0.0000000001
 40
0.0
 40
0.0
 40
0.0
 40
16.16032112539004
 40
16.16032112539004
 40
16.16032112539004
 10
878.237373456961
 20
1018.838288455999
 30
0.0
 41
1.0
 10
871.2424241722987
 20
1014.793571485784
 30
0.0
 41
0.9999993550388141
 10
864.238305386589
 20
1010.764753929751
 30
0.0
 41
1.0
  0
SPLINE
  5
16F
330
1F
100
AcDbEntity
  8
Predefinito
100
AcDbSpline
210
0.0
220
0.0
230
1.0
 70
     8
 71
     3
 72
    16
 73
    12
 74
     0
 42
0.0000000001
 43
0.0000000001
 40
0.0
 40
0.0
 40
0.0
 40
0.0
 40
15.19721162933728
 40
63.78920857446945
 40
88.1013872049962
 40
113.1347559214814
 40
133.1553300523569
 40
150.0421761682323
 40
163.3107515983291
 40
175.1326473751414
 40
188.2782338998059
 40
188.2782338998059
 40
188.2782338998059
 40
188.2782338998059
 10
875.1262643358493
 20
1024.201205717401
 30
0.0
 10
879.5067396621812
 20
1026.750203830609
 30
0.0
 10
897.2234329434873
 20
1038.5153343748
 30
0.0
 10
921.1195530851933
 20
1055.592480801143
 30
0.0
 10
948.635941698884
 20
1073.185672205986
 30
0.0
 10
968.793876812749
 20
1084.528132768539
 30
0.0
 10
987.8040115158515
 20
1092.734543011097
 30
0.0
 10
1004.112145851157
 20
1096.700512772599
 30
0.0
 10
1018.41505546696
 20
1095.649756854162
 30
0.0
 10
1029.33427802006
 20
1088.165991808815
 30
0.0
 10
1032.839867775571
 20
1080.292979998527
 30
0.0
 10
1034.049263005245
 20
1076.123927201636
 30
0.0
  0
SPLINE
  5
170
330
1F
100
AcDbEntity
  8
Predefinito
100
AcDbSpline
210
0.0
220
0.0
230
1.0
 70
     8
 71
     3
 72
    16
 73
    12
 74
     0
 42
0.0000000001
 43
0.0000000001
 40
0.0
 40
0.0
 40
0.0
 40
0.0
 40
11.04016236025254
 40
20.82798774530033
 40
33.01452897899907
 40
49.34502072033699
 40
68.403442440173
 40
91.88156764819799
 40
113.8003881341027
 40
161.6847313177984
 40
176.9913606008178
 40
176.9913606008178
 40
176.9913606008178
 40
176.9913606008178
 10
1028.084108487391
 20
1074.433978003816
 30
0.0
 10
1027.061269479081
 20
1077.899515885948
 30
0.0
 10
1024.201455618025
 20
1084.649886996606
 30
0.0
 10
1014.175353252872
 20
1090.296179685113
 30
0.0
 10
1001.146161515434
 20
1089.893101395035
 30
0.0
 10
985.9155734305416
 20
1085.376158491885
 30
0.0
 10
968.0629428115442
 20
1077.109496156437
 30
0.0
 10
949.4513302003861
 20
1066.381366668376
 30
0.0
 10
923.2939477549107
 20
1049.538594738066
 30
0.0
 10
900.2164805369721
 20
1033.039389374193
 30
0.0
 10
882.6512383535052
 20
1021.402024939694
 30
0.0
 10
878.2375318347154
 20
1018.83838036678
 30
0.0
  0
SPLINE
  5
171
330
1F
100
AcDbEntity
  8
Predefinito
100
AcDbSpline
210
0.0
220
0.0
230
1.0
 70
    12
 71
     2
 72
     8
 73
     5
 74
     0
 42
0.0000000001
 43
0.0000000001
 40
0.0
 40
0.0
 40
0.0
 40
0.2512208316638639
 40
0.2512208316638639
 40
0.5024416633277279
 40
0.5024416633277279
 40
0.5024416633277279
 10
544.0000000005268
 20
1474.99030883713
 30
0.0
 41
1.0
 10
543.9732619373543
 20
1475.124348477109
 30
0.0
 41
0.8828241264742474
 10
544.0694851576663
 20
1475.221418765977
 30
0.0
 41
1.0
 10
544.1657083779785
 20
1475.318489054844
 30
0.0
 41
0.8828241264742474
 10
544.2999772132212
 20
1475.292926797695
 30
0.0
 41
1.0
  0
SPLINE
  5
172
330
1F
100
AcDbEntity
  8
Predefinito
100
AcDbSpline
210
0.0
220
0.0
230
1.0
 70
    12
 71
     2
 72
     8
 73
     5
 74
     0
 42
0.0000000001
 43
0.0000000001
 40
0.0
 40
0.0
 40
0.0
 40
0.2504703494533082
 40
0.2504703494533082
 40
0.5009406989066164
 40
0.5009406989066164
 40
0.5009406989066164
 10
680.2947955157194
 20
1475.292926797773
 30
0.0
 41
1.0
 10
680.4286671956962
 20
1475.317215939759
 30
0.0
 41
0.884849769041205
 10
680.5244530789587
 20
1475.220589578522
 30
0.0
 41
1.0
 10
680.6202389622212
 20
1475.123963217286
 30
0.0
 41
0.884849769041205
 10
680.5947812368038
 20
1474.99030883713
 30
0.0
 41
1.0
  0
SPLINE
  5
173
330
1F
100
AcDbEntity
  8
Predefinito
100
AcDbSpline
210
0.0
220
0.0
230
1.0
 70
    24
 71
     2
 72
     6
 73
     3
 74
     0
 42
0.0000000001
 43
0.0000000001
 40
0.0
 40
0.0
 40
0.0
 40
27.69777167901514
 40
27.69777167901514
 40
27.69777167901514
 10
680.5947452650483
 20
1474.98964383052
 30
0.0
 10
680.4738924711532
 20
1461.141285314149
 30
0.0
 10
680.353039677258
 20
1447.292926797779
 30
0.0
  0
SPLINE
  5
174
330
1F
100
AcDbEntity
  8
Predefinito
100
AcDbSpline
210
0.0
220
0.0
230
1.0
 70
    24
 71
     2
 72
     6
 73
     3
 74
     0
 42
0.0000000001
 43
0.0000000001
 40
0.0
 40
0.0
 40
0.0
 40
27.69777169545959
 40
27.69777169545959
 40
27.69777169545959
 10
544.2417442714384
 20
1447.292926797779
 30
0.0
 10
544.1208914774752
 20
1461.141285322371
 30
0.0
 10
544.0000386835121
 20
1474.989643846963
 30
0.0
  0
SPLINE
  5
175
330
1F
100
AcDbEntity
  8
Predefinito
100
AcDbSpline
210
0.0
220
0.0
230
1.0
 70
    24
 71
     2
 72
     6
 73
     3
 74
     0
 42
0.0000000001
 43
0.0000000001
 40
0.0
 40
0.0
 40
0.0
 40
3.0
 40
3.0
 40
3.0
 10
614.5973919732983
 20
1401.792926797779
 30
0.0
 10
614.5973919732983
 20
1400.292926797779
 30
0.0
 10
614.5973919732983
 20
1398.792926797779
 30
0.0
  0
SPLINE
  5
176
330
1F
100
AcDbEntity
  8
Predefinito
100
AcDbSpline
210
0.0
220
0.0
230
1.0
 70
    12
 71
     2
 72
     8
 73
     5
 74
     0
 42
0.0000000001
 43
0.0000000001
 40
0.0
 40
0.0
 40
0.0
 40
87.43319204048737
 40
87.43319204048737
 40
174.8663840809747
 40
174.8663840809747
 40
174.8663840809747
 10
1049.297386283124
 20
938.2929267977797
 30
0.0
 41
1.0
 10
998.8442512136863
 20
938.2929422383781
 30
0.0
 41
0.8112422627649524
 10
982.8895709675232
 20
986.1569894615059
 30
0.0
 41
1.0
 10
966.9348907213596
 20
1034.021036684633
 30
0.0
 41
0.8112422627649524
 10
1007.297391973298
 20
1064.292926797779
 30
0.0
 41
1.0
  0
SPLINE
  5
177
330
1F
100
AcDbEntity
  8
Predefinito
100
AcDbSpline
210
0.0
220
0.0
230
1.0
 70
    12
 71
     2
 72
     8
 73
     5
 74
     0
 42
0.0000000001
 43
0.0000000001
 40
0.0
 40
0.0
 40
0.0
 40
0.0914206894605043
 40
0.0914206894605043
 40
0.1828413789210087
 40
0.1828413789210087
 40
0.1828413789210087
 10
1009.783805929408
 20
1065.329776150974
 30
0.0
 41
1.0
 10
1009.736186287699
 20
1065.33997339757
 30
0.0
 41
0.9104307929167967
 10
1009.712544361462
 20
1065.382548900368
 30
0.0
 41
1.0
 10
1009.688902435224
 20
1065.425124403165
 30
0.0
 41
0.9104307929167967
 10
1009.705420250233
 20
1065.470936802164
 30
0.0
 41
1.0
  0
SPLINE
  5
178
330
1F
100
AcDbEntity
  8
Predefinito
100
AcDbSpline
210
0.0
220
0.0
230
1.0
 70
    24
 71
     2
 72
     6
 73
     3
 74
     0
 42
0.0000000001
 43
0.0000000001
 40
0.0
 40
0.0
 40
0.0
 40
0.7071067811865476
 40
0.7071067811865476
 40
0.7071067811865476
 10
1039.347996584462
 20
1106.558946689587
 30
0.0
 10
1039.597996584462
 20
1106.808946689587
 30
0.0
 10
1039.847996584462
 20
1107.058946689587
 30
0.0
  0
SPLINE
  5
179
330
1F
100
AcDbEntity
  8
Predefinito
100
AcDbSpline
210
0.0
220
0.0
230
1.0
 70
    24
 71
     2
 72
     6
 73
     3
 74
     0
 42
0.0000000001
 43
0.0000000001
 40
0.0
 40
0.0
 40
0.0
 40
29.4999992100079
 40
29.4999992100079
 40
29.4999992100079
 10
1059.247996584462
 20
1106.558945899595
 30
0.0
 10
1059.247996584462
 20
1091.808946294591
 30
0.0
 10
1059.247996584462
 20
1077.058946689587
 30
0.0
  0
SPLINE
  5
17A
330
1F
100
AcDbEntity
  8
Predefinito
100
AcDbSpline
210
0.0
220
0.0
230
1.0
 70
    24
 71
     2
 72
     6
 73
     3
 74
     0
 42
0.0000000001
 43
0.0000000001
 40
0.0
 40
0.0
 40
0.0
 40
84.5
 40
84.5
 40
84.5
 10
1053.397391973298
 20
1235.073074758016
 30
0.0
 10
1053.397391973298
 20
1192.823074758016
 30
0.0
 10
1053.397391973298
 20
1150.573074758016
 30
0.0
  0
SPLINE
  5
17B
330
1F
100
AcDbEntity
  8
Predefinito
100
AcDbSpline
210
0.0
220
0.0
230
1.0
 70
    24
 71
     2
 72
     6
 73
     3
 74
     0
 42
0.0000000001
 43
0.0000000001
 40
0.0
 40
0.0
 40
0.0
 40
84.5
 40
84.5
 40
84.5
 10
1045.397391973298
 20
1150.573074758016
 30
0.0
 10
1045.397391973298
 20
1192.823074758016
 30
0.0
 10
1045.397391973298
 20
1235.073074758016
 30
0.0
  0
SPLINE
  5
17C
330
1F
100
AcDbEntity
  8
Predefinito
100
AcDbSpline
210
0.0
220
0.0
230
1.0
 70
    12
 71
     2
 72
     6
 73
     3
 74
     0
 42
0.0000000001
 43
0.0000000001
 40
0.0
 40
0.0
 40
0.0
 40
6.219195557548635
 40
6.219195557548635
 40
6.219195557548635
 10
1049.397391973298
 20
1260.073074758016
 30
0.0
 41
1.0
 10
1053.33375515987
 20
1260.072558652109
 30
0.0
 41
0.712778353207183
 10
1053.396638035238
 20
1256.136697736509
 30
0.0
 41
1.0
  0
SPLINE
  5
17D
330
1F
100
AcDbEntity
  8
Predefinito
100
AcDbSpline
210
0.0
220
0.0
230
1.0
 70
    12
 71
     2
 72
     8
 73
     5
 74
     0
 42
0.0000000001
 43
0.0000000001
 40
0.0
 40
0.0
 40
0.0
 40
3.17341103215379
 40
3.17341103215379
 40
6.34682206430758
 40
6.34682206430758
 40
6.34682206430758
 10
1045.398143578797
 20
1256.009600267266
 30
0.0
 41
1.0
 10
1045.371165242347
 20
1257.684950317971
 30
0.0
 41
0.9223151218899736
 10
1046.546494992937
 20
1258.87915532567
 30
0.0
 41
1.0
 10
1047.721824743528
 20
1260.073360333369
 30
0.0
 41
0.9223151218899736
 10
1049.397391973298
 20
1260.073074758016
 30
0.0
 41
1.0
  0
SPLINE
  5
17E
330
1F
100
AcDbEntity
  8
Predefinito
100
AcDbSpline
210
0.0
220
0.0
230
1.0
 70
    24
 71
     2
 72
     6
 73
     3
 74
     0
 42
0.0000000001
 43
0.0000000001
 40
0.0
 40
0.0
 40
0.0
 40
20.93652550926072
 40
20.93652550926072
 40
20.93652550926072
 10
1045.397391973298
 20
1235.073074758016
 30
0.0
 10
1045.397391973298
 20
1245.541337512647
 30
0.0
 10
1045.397391973298
 20
1256.009600267277
 30
0.0
  0
SPLINE
  5
17F
330
1F
100
AcDbEntity
  8
Predefinito
100
AcDbSpline
210
0.0
220
0.0
230
1.0
 70
    24
 71
     2
 72
     6
 73
     3
 74
     0
 42
0.0000000001
 43
0.0000000001
 40
0.0
 40
0.0
 40
0.0
 40
20.99999999999955
 40
20.99999999999955
 40
20.99999999999955
 10
1053.397391973298
 20
1256.073074758016
 30
0.0
 10
1053.397391973298
 20
1245.573074758016
 30
0.0
 10
1053.397391973298
 20
1235.073074758016
 30
0.0
  0
SPLINE
  5
180
330
1F
100
AcDbEntity
  8
Predefinito
100
AcDbSpline
210
0.0
220
0.0
230
1.0
 70
    24
 71
     2
 72
     6
 73
     3
 74
     0
 42
0.0000000001
 43
0.0000000001
 40
0.0
 40
0.0
 40
0.0
 40
17.99999987298293
 40
17.99999987298293
 40
17.99999987298293
 10
1053.397391973298
 20
1150.57307450751
 30
0.0
 10
1053.397391973298
 20
1141.573074571019
 30
0.0
 10
1053.397391973298
 20
1132.573074634528
 30
0.0
  0
SPLINE
  5
181
330
1F
100
AcDbEntity
  8
Predefinito
100
AcDbSpline
210
0.0
220
0.0
230
1.0
 70
    24
 71
     2
 72
     6
 73
     3
 74
     0
 42
0.0000000001
 43
0.0000000001
 40
0.0
 40
0.0
 40
0.0
 40
20.99999993955817
 40
20.99999993955817
 40
20.99999993955817
 10
1045.397391973298
 20
1094.073074818458
 30
0.0
 10
1045.397391973298
 20
1104.573074788237
 30
0.0
 10
1045.397391973298
 20
1115.073074758016
 30
0.0
  0
SPLINE
  5
182
330
1F
100
AcDbEntity
  8
Predefinito
100
AcDbSpline
210
0.0
220
0.0
230
1.0
 70
    24
 71
     2
 72
     6
 73
     3
 74
     0
 42
0.0000000001
 43
0.0000000001
 40
0.0
 40
0.0
 40
0.0
 40
20.99999993956158
 40
20.99999993956158
 40
20.99999993956158
 10
1053.397391973298
 20
1115.073074758016
 30
0.0
 10
1053.397391973298
 20
1104.573074788235
 30
0.0
 10
1053.397391973298
 20
1094.073074818455
 30
0.0
  0
SPLINE
  5
183
330
1F
100
AcDbEntity
  8
Predefinito
100
AcDbSpline
210
0.0
220
0.0
230
1.0
 70
    24
 71
     2
 72
     6
 73
     3
 74
     0
 42
0.0000000001
 43
0.0000000001
 40
0.0
 40
0.0
 40
0.0
 40
17.5
 40
17.5
 40
17.5
 10
1053.397391973298
 20
1132.573074758016
 30
0.0
 10
1053.397391973298
 20
1123.823074758016
 30
0.0
 10
1053.397391973298
 20
1115.073074758016
 30
0.0
  0
SPLINE
  5
184
330
1F
100
AcDbEntity
  8
Predefinito
100
AcDbSpline
210
0.0
220
0.0
230
1.0
 70
    24
 71
     2
 72
     6
 73
     3
 74
     0
 42
0.0000000001
 43
0.0000000001
 40
0.0
 40
0.0
 40
0.0
 40
0.7071067811865476
 40
0.7071067811865476
 40
0.7071067811865476
 10
1045.897391973298
 20
1150.073074758016
 30
0.0
 10
1045.647391973298
 20
1150.323074758016
 30
0.0
 10
1045.397391973298
 20
1150.573074758016
 30
0.0
  0
SPLINE
  5
185
330
1F
100
AcDbEntity
  8
Predefinito
100
AcDbSpline
210
0.0
220
0.0
230
1.0
 70
    24
 71
     2
 72
     6
 73
     3
 74
     0
 42
0.0000000001
 43
0.0000000001
 40
0.0
 40
0.0
 40
0.0
 40
0.6598872323782387
 40
0.6598872323782387
 40
0.6598872323782387
 10
1052.897391973298
 20
1133.073074758016
 30
0.0
 10
1053.130697341715
 20
1132.8397693896
 30
0.0
 10
1053.364002710131
 20
1132.606464021183
 30
0.0
  0
SPLINE
  5
186
330
1F
100
AcDbEntity
  8
Predefinito
100
AcDbSpline
210
0.0
220
0.0
230
1.0
 70
    24
 71
     2
 72
     6
 73
     3
 74
     0
 42
0.0000000001
 43
0.0000000001
 40
0.0
 40
0.0
 40
0.0
 40
3.0
 40
3.0
 40
3.0
 10
614.5973919732983
 20
1351.792926797779
 30
0.0
 10
614.5973919732983
 20
1350.292926797779
 30
0.0
 10
614.5973919732983
 20
1348.792926797779
 30
0.0
  0
LINE
  5
187
330
1F
100
AcDbEntity
  8
Predefinito
100
AcDbLine
 10
603.9973922428775
 20
1356.055844799227
 30
0.0
 11
603.9973787745616
 21
1381.567094677512
 31
0.0
  0
SPLINE
  5
188
330
1F
100
AcDbEntity
  8
Predefinito
100
AcDbSpline
210
0.0
220
0.0
230
1.0
 70
    24
 71
     2
 72
     6
 73
     3
 74
     0
 42
0.0000000001
 43
0.0000000001
 40
0.0
 40
0.0
 40
0.0
 40
0.4075077679329937
 40
0.4075077679329937
 40
0.4075077679329937
 10
610.6048990755709
 20
1351.792926797779
 30
0.0
 10
610.4011451916044
 20
1351.792926797779
 30
0.0
 10
610.1973913076379
 20
1351.792926797779
 30
0.0
  0
SPLINE
  5
189
330
1F
100
AcDbEntity
  8
Predefinito
100
AcDbSpline
210
0.0
220
0.0
230
1.0
 70
    24
 71
     2
 72
     6
 73
     3
 74
     0
 42
0.0000000001
 43
0.0000000001
 40
0.4075077679329937
 40
0.4075077679329937
 40
0.4075077679329937
 40
5.901046435236481
 40
5.901046435236481
 40
5.901046435236481
 10
610.1973913076379
 20
1351.792926797779
 30
0.0
 10
607.4506219739861
 20
1351.792926797779
 30
0.0
 10
604.7038526403344
 20
1351.792926797779
 30
0.0
  0
LINE
  5
18A
330
1F
100
AcDbEntity
  8
Predefinito
100
AcDbLine
 10
610.1974023584035
 20
1396.233438700929
 30
0.0
 11
610.1973913076379
 21
1351.792926797779
 31
0.0
  0
LINE
  5
18B
330
1F
100
AcDbEntity
  8
Predefinito
100
AcDbLine
 10
603.9973754882812
 20
1351.019020877487
 30
0.0
 11
603.9973890083033
 21
1354.775114310541
 31
0.0
  0
SPLINE
  5
18C
330
1F
100
AcDbEntity
  8
Predefinito
100
AcDbSpline
210
0.0
220
0.0
230
1.0
 70
    24
 71
     2
 72
     6
 73
     3
 74
     0
 42
0.0000000001
 43
0.0000000001
 40
0.0
 40
0.0
 40
0.0
 40
4.0
 40
4.0
 40
4.0
 10
1049.397391973298
 20
1115.073074758016
 30
0.0
 10
1047.397391973298
 20
1115.073074758016
 30
0.0
 10
1045.397391973298
 20
1115.073074758016
 30
0.0
  0
SPLINE
  5
18D
330
1F
100
AcDbEntity
  8
Predefinito
100
AcDbSpline
210
0.0
220
0.0
230
1.0
 70
    24
 71
     2
 72
     6
 73
     3
 74
     0
 42
0.0000000001
 43
0.0000000001
 40
0.0
 40
0.0
 40
0.0
 40
3.933221473666322
 40
3.933221473666322
 40
3.933221473666322
 10
1049.397391973298
 20
1115.073074758016
 30
0.0
 10
1051.364002710131
 20
1115.073074758016
 30
0.0
 10
1053.330613446965
 20
1115.073074758016
 30
0.0
  0
ARC
  5
18E
330
1F
100
AcDbEntity
  8
Predefinito
100
AcDbCircle
 10
1513.299179546131
 20
1060.278563600818
 30
0.0
 40
5.015059309520861
100
AcDbArc
 50
97.75686800920803
 51
126.8244850356707
  0
ARC
  5
18F
330
1F
100
AcDbEntity
  8
Predefinito
100
AcDbCircle
 10
1591.293583015714
 20
1060.293702875725
 30
0.0
 40
4.999228714217882
100
AcDbArc
 50
53.12666616847863
 51
87.59478516261434
  0
ARC
  5
190
330
1F
100
AcDbEntity
  8
Predefinito
100
AcDbCircle
 10
1088.298020831221
 20
1060.295005846276
 30
0.0
 40
4.997920990933084
100
AcDbArc
 50
53.12156933204786
 51
90.00719709492297
  0
ARC
  5
191
330
1F
100
AcDbEntity
  8
Predefinito
100
AcDbCircle
 10
1049.312661814083
 20
1096.55896111945
 30
0.0
 40
5.793130786855168
100
AcDbArc
 50
132.5199562234147
 51
45.16246522219446
  0
ARC
  5
192
330
1F
100
AcDbEntity
  8
Predefinito
100
AcDbCircle
 10
1049.312661814083
 20
1096.55896111945
 30
0.0
 40
5.606814520199417
100
AcDbArc
 50
134.2912176829707
 51
43.23673622875043
  0
ARC
  5
193
330
1F
100
AcDbEntity
  8
Predefinito
100
AcDbCircle
 10
1049.397391973308
 20
1094.073074758014
 30
0.0
 40
3.999999999990033
100
AcDbArc
 50
334.2526794219596
 51
0.0000000000358258
  0
ARC
  5
194
330
1F
100
AcDbEntity
  8
Predefinito
100
AcDbCircle
 10
1049.297729819297
 20
1008.264979164806
 30
0.0
 40
69.57058857762719
100
AcDbArc
 50
98.56908015456362
 51
124.5785317390511
  0
SPLINE
  5
195
330
1F
100
AcDbEntity
  8
Predefinito
100
AcDbSpline
210
0.0
220
0.0
230
1.0
 70
    15
 71
     2
 72
    12
 73
     9
 74
     0
 42
0.0000000001
 43
0.0000000001
 40
0.0
 40
0.0
 40
0.0
 40
106.810043160258
 40
106.810043160258
 40
213.620086320516
 40
213.620086320516
 40
320.4301294807739
 40
320.4301294807739
 40
427.2401726410319
 40
427.2401726410319
 40
427.2401726410319
 10
1620.290763296702
 20
68.2969201646448
 30
0.0
 41
1.0
 10
1620.290781060408
 20
0.299534801392153
 30
0.0
 41
0.7071067811865476
 10
1552.293395697156
 20
0.2995170376861012
 30
0.0
 41
1.0
 10
1484.296010333903
 20
0.299499273980043
 30
0.0
 41
0.7071067811865476
 10
1484.295992570197
 20
68.29688463723268
 30
0.0
 41
1.0
 10
1484.295974806491
 20
136.2942700004853
 30
0.0
 41
0.7071067811865476
 10
1552.293360169744
 20
136.2942877641914
 30
0.0
 41
1.0
 10
1620.290745532996
 20
136.2943055278974
 30
0.0
 41
0.7071067811865476
 10
1620.290763296702
 20
68.2969201646448
 30
0.0
 41
1.0
  0
SPLINE
  5
196
330
1F
100
AcDbEntity
  8
Predefinito
100
AcDbSpline
210
0.0
220
0.0
230
1.0
 70
    12
 71
     2
 72
     6
 73
     3
 74
     0
 42
0.0000000001
 43
0.0000000001
 40
-14.60840583919225
 40
-14.60840583919225
 40
-14.60840583919225
 40
-10.90179833522424
 40
-10.90179833522424
 40
-10.90179833522424
 10
1548.903476023353
 20
1073.871680193513
 30
0.0
 41
1.0
 10
1548.903476023353
 20
1073.309111985569
 30
0.0
 41
0.7770516068626727
 10
1550.91372094665
 20
1073.111350191827
 30
0.0
 41
0.8935169168071818
  0
SPLINE
  5
197
330
1F
100
AcDbEntity
  8
Predefinito
100
AcDbSpline
210
0.0
220
0.0
230
1.0
 70
    12
 71
     2
 72
     6
 73
     3
 74
     0
 42
0.0000000001
 43
0.0000000001
 40
0.0
 40
0.0
 40
0.0
 40
29.77996601655145
 40
29.77996601655145
 40
29.77996601655145
 10
1560.545082540301
 20
1013.460041802899
 30
0.0
 41
1.0
 10
1560.652521771741
 20
998.5687568485005
 30
0.0
 41
0.9998298273578948
 10
1560.210562514985
 20
983.6836440576301
 30
0.0
 41
1.0
  0
SPLINE
  5
198
330
1F
100
AcDbEntity
  8
Predefinito
100
AcDbSpline
210
0.0
220
0.0
230
1.0
 70
     8
 71
     3
 72
    17
 73
    13
 74
     0
 42
0.0000000001
 43
0.0000000001
 40
0.0
 40
0.0
 40
0.0
 40
0.0
 40
2.047231070938191
 40
3.345366713184038
 40
6.167190674386442
 40
9.092687673454975
 40
10.45740778038164
 40
12.28153708398576
 40
16.02378010739524
 40
22.12226867922612
 40
41.72451700311798
 40
102.4061684833284
 40
102.4061684833284
 40
102.4061684833284
 40
102.4061684833284
 10
1560.210562514985
 20
983.6836440576294
 30
0.0
 10
1560.153071727038
 20
983.0050535814994
 30
0.0
 10
1560.148262674951
 20
981.8798123483807
 30
0.0
 10
1559.425138343559
 20
979.9119742616558
 30
0.0
 10
1557.200985884886
 20
978.5572269600495
 30
0.0
 10
1554.734193098347
 20
979.5165101164187
 30
0.0
 10
1553.745386750591
 20
981.3605169833154
 30
0.0
 10
1553.510226441516
 20
983.6718882563423
 30
0.0
 10
1553.254377856033
 20
987.5464931680224
 30
0.0
 10
1552.815275227326
 20
997.3536399744739
 30
0.0
 10
1551.892165650817
 20
1026.132091489893
 30
0.0
 10
1551.314883373769
 20
1052.888493914144
 30
0.0
 10
1550.913720938712
 20
1073.111350188936
 30
0.0
  0
SPLINE
  5
199
330
1F
100
AcDbEntity
  8
Predefinito
100
AcDbSpline
210
0.0
220
0.0
230
1.0
 70
    12
 71
     2
 72
     6
 73
     3
 74
     0
 42
0.0000000001
 43
0.0000000001
 40
0.0
 40
0.0
 40
0.0
 40
160.0971805596969
 40
160.0971805596969
 40
160.0971805596969
 10
1550.85656529477
 20
1076.065732904479
 30
0.0
 41
1.0
 10
1549.282004597995
 20
1156.100824644255
 30
0.0
 41
0.9999627409808511
 10
1549.089401358157
 20
1236.151171646465
 30
0.0
 41
1.0
  0
SPLINE
  5
19A
330
1F
100
AcDbEntity
  8
Predefinito
100
AcDbSpline
210
0.0
220
0.0
230
1.0
 70
     8
 71
     3
 72
    14
 73
    10
 74
     0
 42
0.0000000001
 43
0.0000000001
 40
0.0
 40
0.0
 40
0.0
 40
0.0
 40
31.9685780849909
 40
67.78828196126163
 40
147.1165529553126
 40
219.1796540050122
 40
242.1940759754601
 40
249.5161679177417
 40
253.1502777712288
 40
253.1502777712288
 40
253.1502777712288
 40
253.1502777712288
 10
1555.28940024488
 20
1236.154290562985
 30
0.0
 10
1555.295096705618
 20
1225.498073662399
 30
0.0
 10
1555.380810354545
 20
1202.902132598876
 30
0.0
 10
1555.791043369124
 20
1153.864770392131
 30
0.0
 10
1556.69476595868
 20
1091.467342686611
 30
0.0
 10
1557.907907878744
 20
1033.344286973843
 30
0.0
 10
1558.939322139058
 20
999.2261167252823
 30
0.0
 10
1559.446105018642
 20
987.9138482073733
 30
0.0
 10
1559.676488322336
 20
984.2682757024481
 30
0.0
 10
1559.821281164568
 20
983.0652960042239
 30
0.0
  0
SPLINE
  5
19B
330
1F
100
AcDbEntity
  8
Predefinito
100
AcDbSpline
210
0.0
220
0.0
230
1.0
 70
    12
 71
     2
 72
     6
 73
     3
 74
     0
 42
0.0000000001
 43
0.0000000001
 40
0.0
 40
0.0
 40
0.0
 40
7.71522428399522
 40
7.71522428399522
 40
7.71522428399522
 10
1560.545190181185
 20
1021.524064828475
 30
0.0
 41
1.0
 10
1560.545771490304
 20
1017.666452700729
 30
0.0
 41
0.9999999885106906
 10
1560.545183271705
 20
1013.808840574031
 30
0.0
 41
1.0
  0
SPLINE
  5
19C
330
1F
100
AcDbEntity
  8
Predefinito
100
AcDbSpline
210
0.0
220
0.0
230
1.0
 70
     8
 71
     3
 72
    11
 73
     7
 74
     0
 42
0.0000000001
 43
0.0000000001
 40
0.0
 40
0.0
 40
0.0
 40
0.0
 40
9.844201519195124
 40
15.8874031876263
 40
18.46631472069373
 40
20.18233992565589
 40
20.18233992565589
 40
20.18233992565589
 40
20.18233992565589
 10
1548.903621647611
 20
1075.281903183411
 30
0.0
 10
1548.907502558426
 20
1078.562011819638
 30
0.0
 10
1548.931364824595
 20
1083.862127514957
 30
0.0
 10
1549.125495803006
 20
1090.008987126698
 30
0.0
 10
1549.437652575605
 20
1093.454577156332
 30
0.0
 10
1550.077700649353
 20
1094.774128518632
 30
0.0
 10
1550.508186858154
 20
1095.166924158278
 30
0.0
  0
SPLINE
  5
19D
330
1F
100
AcDbEntity
  8
Predefinito
100
AcDbSpline
210
0.0
220
0.0
230
1.0
 70
     8
 71
     3
 72
    12
 73
     8
 74
     0
 42
0.0000000001
 43
0.0000000001
 40
0.0
 40
0.0
 40
0.0
 40
0.0
 40
5.744970445709439
 40
13.35830308909446
 40
32.5125596988404
 40
51.93016389654735
 40
66.20056543311864
 40
66.20056543311864
 40
66.20056543311864
 40
66.20056543311864
 10
1556.836617640487
 20
1087.949747118321
 30
0.0
 10
1557.045429770619
 20
1086.046151567892
 30
0.0
 10
1557.46172625528
 20
1081.612644126921
 30
0.0
 10
1558.299855512313
 20
1070.807402077187
 30
0.0
 10
1559.256381180665
 20
1055.441437718752
 30
0.0
 10
1560.129388971585
 20
1037.84901566318
 30
0.0
 10
1560.507607581273
 20
1026.625017860034
 30
0.0
 10
1560.544411281953
 20
1021.86813399178
 30
0.0
  0
SPLINE
  5
19E
330
1F
100
AcDbEntity
  8
Predefinito
100
AcDbSpline
210
0.0
220
0.0
230
1.0
 70
    12
 71
     2
 72
     6
 73
     3
 74
     0
 42
0.0000000001
 43
0.0000000001
 40
0.0
 40
0.0
 40
0.0
 40
1.255554611426125
 40
1.255554611426125
 40
1.255554611426125
 10
1548.903476025239
 20
1073.871708525042
 30
0.0
 41
1.0
 10
1548.903444613275
 20
1074.499485832543
 30
0.0
 41
0.9999999938506263
 10
1548.903552441961
 20
1075.127263131569
 30
0.0
 41
1.0
  0
SPLINE
  5
19F
330
1F
100
AcDbEntity
  8
Predefinito
100
AcDbSpline
210
0.0
220
0.0
230
1.0
 70
    24
 71
     2
 72
     6
 73
     3
 74
     0
 42
0.0000000001
 43
0.0000000001
 40
0.0
 40
0.0
 40
0.0
 40
2.880904406355626
 40
2.880904406355626
 40
2.880904406355626
 10
1546.312471323526
 20
1446.492926797779
 30
0.0
 10
1547.752923526703
 20
1446.492926797779
 30
0.0
 10
1549.193375729881
 20
1446.492926797779
 30
0.0
  0
SPLINE
  5
1A0
330
1F
100
AcDbEntity
  8
Predefinito
100
AcDbSpline
210
0.0
220
0.0
230
1.0
 70
    24
 71
     2
 72
     6
 73
     3
 74
     0
 42
0.0000000001
 43
0.0000000001
 40
0.0
 40
0.0
 40
0.0
 40
2.880904406355626
 40
2.880904406355626
 40
2.880904406355626
 10
1555.43156691717
 20
1446.492926797779
 30
0.0
 10
1556.872019120348
 20
1446.492926797779
 30
0.0
 10
1558.312471323526
 20
1446.492926797779
 30
0.0
  0
SPLINE
  5
1A1
330
1F
100
AcDbEntity
  8
Predefinito
100
AcDbSpline
210
0.0
220
0.0
230
1.0
 70
    24
 71
     2
 72
     6
 73
     3
 74
     0
 42
0.0000000001
 43
0.0000000001
 40
0.0
 40
0.0
 40
0.0
 40
0.2000000000000455
 40
0.2000000000000455
 40
0.2000000000000455
 10
1546.612471323525
 20
1446.492926797779
 30
0.0
 10
1546.612471323525
 20
1446.392926797779
 30
0.0
 10
1546.612471323525
 20
1446.292926797779
 30
0.0
  0
SPLINE
  5
1A2
330
1F
100
AcDbEntity
  8
Predefinito
100
AcDbSpline
210
0.0
220
0.0
230
1.0
 70
    24
 71
     2
 72
     6
 73
     3
 74
     0
 42
0.0000000001
 43
0.0000000001
 40
0.0
 40
0.0
 40
0.0
 40
2.900000001406511
 40
2.900000001406511
 40
2.900000001406511
 10
1558.312471323526
 20
1446.292926797779
 30
0.0
 10
1556.862471322822
 20
1446.292926797779
 30
0.0
 10
1555.412471322119
 20
1446.292926797779
 30
0.0
  0
SPLINE
  5
1A3
330
1F
100
AcDbEntity
  8
Predefinito
100
AcDbSpline
210
0.0
220
0.0
230
1.0
 70
    24
 71
     2
 72
     6
 73
     3
 74
     0
 42
0.0000000001
 43
0.0000000001
 40
0.0
 40
0.0
 40
0.0
 40
2.900000001367857
 40
2.900000001367857
 40
2.900000001367857
 10
1549.212471324893
 20
1446.29292679778
 30
0.0
 10
1547.762471324209
 20
1446.292926797779
 30
0.0
 10
1546.312471323526
 20
1446.292926797779
 30
0.0
  0
SPLINE
  5
1A4
330
1F
100
AcDbEntity
  8
Predefinito
100
AcDbSpline
210
0.0
220
0.0
230
1.0
 70
    24
 71
     2
 72
     6
 73
     3
 74
     0
 42
0.0000000001
 43
0.0000000001
 40
0.0
 40
0.0
 40
0.0
 40
2.0
 40
2.0
 40
2.0
 10
1546.312471323526
 20
1446.292926797779
 30
0.0
 10
1546.312471323526
 20
1445.292926797779
 30
0.0
 10
1546.312471323526
 20
1444.292926797779
 30
0.0
  0
SPLINE
  5
1A5
330
1F
100
AcDbEntity
  8
Predefinito
100
AcDbSpline
210
0.0
220
0.0
230
1.0
 70
    24
 71
     2
 72
     6
 73
     3
 74
     0
 42
0.0000000001
 43
0.0000000001
 40
0.0
 40
0.0
 40
0.0
 40
2.900000001385024
 40
2.900000001385024
 40
2.900000001385024
 10
1555.41247132214
 20
1444.292926797779
 30
0.0
 10
1556.862471322833
 20
1444.292926797779
 30
0.0
 10
1558.312471323526
 20
1444.292926797779
 30
0.0
  0
SPLINE
  5
1A6
330
1F
100
AcDbEntity
  8
Predefinito
100
AcDbSpline
210
0.0
220
0.0
230
1.0
 70
    24
 71
     2
 72
     6
 73
     3
 74
     0
 42
0.0000000001
 43
0.0000000001
 40
0.0
 40
0.0
 40
0.0
 40
0.5376593899609361
 40
0.5376593899609361
 40
0.5376593899609361
 10
1549.945468368703
 20
1401.792926797779
 30
0.0
 10
1549.676638673723
 20
1401.792926797779
 30
0.0
 10
1549.407808978742
 20
1401.792926797779
 30
0.0
  0
SPLINE
  5
1A7
330
1F
100
AcDbEntity
  8
Predefinito
100
AcDbSpline
210
0.0
220
0.0
230
1.0
 70
    24
 71
     2
 72
     6
 73
     3
 74
     0
 42
0.0000000001
 43
0.0000000001
 40
0.0
 40
0.0
 40
0.0
 40
0.3623652739485124
 40
0.3623652739485124
 40
0.3623652739485124
 10
1549.407808978742
 20
1401.792926797779
 30
0.0
 10
1549.226626341768
 20
1401.792926797779
 30
0.0
 10
1549.045443704794
 20
1401.792926797779
 30
0.0
  0
SPLINE
  5
1A8
330
1F
100
AcDbEntity
  8
Predefinito
100
AcDbSpline
210
0.0
220
0.0
230
1.0
 70
    24
 71
     2
 72
     6
 73
     3
 74
     0
 42
0.0000000001
 43
0.0000000001
 40
0.0
 40
0.0
 40
0.0
 40
0.6919524775851187
 40
0.6919524775851187
 40
0.6919524775851187
 10
1549.045443704794
 20
1401.792926797779
 30
0.0
 10
1548.699467466001
 20
1401.792926797779
 30
0.0
 10
1548.353491227209
 20
1401.792926797779
 30
0.0
  0
SPLINE
  5
1A9
330
1F
100
AcDbEntity
  8
Predefinito
100
AcDbSpline
210
0.0
220
0.0
230
1.0
 70
    28
 71
     2
 72
     6
 73
     3
 74
     0
 42
0.0000000001
 43
0.0000000001
 40
-3.401075980659051
 40
-3.401075980659051
 40
-3.401075980659051
 40
-0.0205613128057056
 40
-0.0205613128057056
 40
-0.0205613128057056
 10
1556.275613850283
 20
1401.792926797779
 30
0.0
 41
1.0
 10
1556.645596000611
 20
1401.792926797779
 30
0.0
 41
0.9136605926337794
 10
1555.591263092256
 20
1401.792926797779
 30
0.0
 41
0.9989560647439742
  0
SPLINE
  5
1AA
330
1F
100
AcDbEntity
  8
Predefinito
100
AcDbSpline
210
0.0
220
0.0
230
1.0
 70
    24
 71
     2
 72
     6
 73
     3
 74
     0
 42
0.0000000001
 43
0.0000000001
 40
0.0
 40
0.0
 40
0.0
 40
0.3623652739483987
 40
0.3623652739483987
 40
0.3623652739483987
 10
1555.579498942257
 20
1401.792926797779
 30
0.0
 10
1555.398316305283
 20
1401.792926797779
 30
0.0
 10
1555.217133668309
 20
1401.792926797779
 30
0.0
  0
SPLINE
  5
1AB
330
1F
100
AcDbEntity
  8
Predefinito
100
AcDbSpline
210
0.0
220
0.0
230
1.0
 70
    24
 71
     2
 72
     6
 73
     3
 74
     0
 42
0.0000000001
 43
0.0000000001
 40
0.0
 40
0.0
 40
0.0
 40
0.5376593899609361
 40
0.5376593899609361
 40
0.5376593899609361
 10
1555.217133668309
 20
1401.792926797779
 30
0.0
 10
1554.948303973328
 20
1401.792926797779
 30
0.0
 10
1554.679474278348
 20
1401.792926797779
 30
0.0
  0
SPLINE
  5
1AC
330
1F
100
AcDbEntity
  8
Predefinito
100
AcDbSpline
210
0.0
220
0.0
230
1.0
 70
    24
 71
     2
 72
     6
 73
     3
 74
     0
 42
0.0000000001
 43
0.0000000001
 40
0.0
 40
0.0
 40
0.0
 40
0.5376593899609361
 40
0.5376593899609361
 40
0.5376593899609361
 10
1549.945468368703
 20
1398.792926797779
 30
0.0
 10
1549.676638673723
 20
1398.792926797779
 30
0.0
 10
1549.407808978742
 20
1398.792926797779
 30
0.0
  0
SPLINE
  5
1AD
330
1F
100
AcDbEntity
  8
Predefinito
100
AcDbSpline
210
0.0
220
0.0
230
1.0
 70
    24
 71
     2
 72
     6
 73
     3
 74
     0
 42
0.0000000001
 43
0.0000000001
 40
0.0
 40
0.0
 40
0.0
 40
0.3623652739485124
 40
0.3623652739485124
 40
0.3623652739485124
 10
1549.407808978742
 20
1398.792926797779
 30
0.0
 10
1549.226626341768
 20
1398.792926797779
 30
0.0
 10
1549.045443704794
 20
1398.792926797779
 30
0.0
  0
SPLINE
  5
1AE
330
1F
100
AcDbEntity
  8
Predefinito
100
AcDbSpline
210
0.0
220
0.0
230
1.0
 70
    24
 71
     2
 72
     6
 73
     3
 74
     0
 42
0.0000000001
 43
0.0000000001
 40
0.0
 40
0.0
 40
0.0
 40
0.6919524775851187
 40
0.6919524775851187
 40
0.6919524775851187
 10
1549.045443704794
 20
1398.792926797779
 30
0.0
 10
1548.699467466001
 20
1398.792926797779
 30
0.0
 10
1548.353491227209
 20
1398.792926797779
 30
0.0
  0
SPLINE
  5
1AF
330
1F
100
AcDbEntity
  8
Predefinito
100
AcDbSpline
210
0.0
220
0.0
230
1.0
 70
    28
 71
     2
 72
     6
 73
     3
 74
     0
 42
0.0000000001
 43
0.0000000001
 40
-3.401075980659051
 40
-3.401075980659051
 40
-3.401075980659051
 40
-0.0205613128056995
 40
-0.0205613128056995
 40
-0.0205613128056995
 10
1556.275613850283
 20
1398.792926797779
 30
0.0
 41
1.0
 10
1556.645596000611
 20
1398.792926797779
 30
0.0
 41
0.9136605926337792
 10
1555.591263092256
 20
1398.79292679778
 30
0.0
 41
0.9989560647439746
  0
SPLINE
  5
1B0
330
1F
100
AcDbEntity
  8
Predefinito
100
AcDbSpline
210
0.0
220
0.0
230
1.0
 70
    24
 71
     2
 72
     6
 73
     3
 74
     0
 42
0.0000000001
 43
0.0000000001
 40
0.0
 40
0.0
 40
0.0
 40
0.3623652739483987
 40
0.3623652739483987
 40
0.3623652739483987
 10
1555.579498942257
 20
1398.792926797779
 30
0.0
 10
1555.398316305283
 20
1398.792926797779
 30
0.0
 10
1555.217133668309
 20
1398.792926797779
 30
0.0
  0
SPLINE
  5
1B1
330
1F
100
AcDbEntity
  8
Predefinito
100
AcDbSpline
210
0.0
220
0.0
230
1.0
 70
    24
 71
     2
 72
     6
 73
     3
 74
     0
 42
0.0000000001
 43
0.0000000001
 40
0.0
 40
0.0
 40
0.0
 40
0.5376593899609361
 40
0.5376593899609361
 40
0.5376593899609361
 10
1555.217133668309
 20
1398.792926797779
 30
0.0
 10
1554.948303973328
 20
1398.792926797779
 30
0.0
 10
1554.679474278348
 20
1398.792926797779
 30
0.0
  0
SPLINE
  5
1B2
330
1F
100
AcDbEntity
  8
Predefinito
100
AcDbSpline
210
0.0
220
0.0
230
1.0
 70
    24
 71
     2
 72
     6
 73
     3
 74
     0
 42
0.0000000001
 43
0.0000000001
 40
0.0
 40
0.0
 40
0.0
 40
3.0
 40
3.0
 40
3.0
 10
1555.217133668309
 20
1401.792926797779
 30
0.0
 10
1555.217133668309
 20
1400.292926797779
 30
0.0
 10
1555.217133668309
 20
1398.792926797779
 30
0.0
  0
SPLINE
  5
1B3
330
1F
100
AcDbEntity
  8
Predefinito
100
AcDbSpline
210
0.0
220
0.0
230
1.0
 70
    24
 71
     2
 72
     6
 73
     3
 74
     0
 42
0.0000000001
 43
0.0000000001
 40
0.0
 40
0.0
 40
0.0
 40
3.0
 40
3.0
 40
3.0
 10
1555.579498942257
 20
1398.792926797779
 30
0.0
 10
1555.579498942257
 20
1400.292926797779
 30
0.0
 10
1555.579498942257
 20
1401.792926797779
 30
0.0
  0
SPLINE
  5
1B4
330
1F
100
AcDbEntity
  8
Predefinito
100
AcDbSpline
210
0.0
220
0.0
230
1.0
 70
    24
 71
     2
 72
     6
 73
     3
 74
     0
 42
0.0000000001
 43
0.0000000001
 40
0.0
 40
0.0
 40
0.0
 40
3.0
 40
3.0
 40
3.0
 10
1554.679474278348
 20
1398.792926797779
 30
0.0
 10
1554.679474278348
 20
1400.292926797779
 30
0.0
 10
1554.679474278348
 20
1401.792926797779
 30
0.0
  0
SPLINE
  5
1B5
330
1F
100
AcDbEntity
  8
Predefinito
100
AcDbSpline
210
0.0
220
0.0
230
1.0
 70
    24
 71
     2
 72
     6
 73
     3
 74
     0
 42
0.0000000001
 43
0.0000000001
 40
0.0
 40
0.0
 40
0.0
 40
3.0
 40
3.0
 40
3.0
 10
1549.045443704794
 20
1401.792926797779
 30
0.0
 10
1549.045443704794
 20
1400.292926797779
 30
0.0
 10
1549.045443704794
 20
1398.792926797779
 30
0.0
  0
SPLINE
  5
1B6
330
1F
100
AcDbEntity
  8
Predefinito
100
AcDbSpline
210
0.0
220
0.0
230
1.0
 70
    24
 71
     2
 72
     6
 73
     3
 74
     0
 42
0.0000000001
 43
0.0000000001
 40
0.0
 40
0.0
 40
0.0
 40
3.0
 40
3.0
 40
3.0
 10
1549.407808978742
 20
1398.792926797779
 30
0.0
 10
1549.407808978742
 20
1400.292926797779
 30
0.0
 10
1549.407808978742
 20
1401.792926797779
 30
0.0
  0
SPLINE
  5
1B7
330
1F
100
AcDbEntity
  8
Predefinito
100
AcDbSpline
210
0.0
220
0.0
230
1.0
 70
    24
 71
     2
 72
     6
 73
     3
 74
     0
 42
0.0000000001
 43
0.0000000001
 40
0.0
 40
0.0
 40
0.0
 40
3.0
 40
3.0
 40
3.0
 10
1549.945468368703
 20
1401.792926797779
 30
0.0
 10
1549.945468368703
 20
1400.292926797779
 30
0.0
 10
1549.945468368703
 20
1398.792926797779
 30
0.0
  0
SPLINE
  5
1B8
330
1F
100
AcDbEntity
  8
Predefinito
100
AcDbSpline
210
0.0
220
0.0
230
1.0
 70
    24
 71
     2
 72
     6
 73
     3
 74
     0
 42
0.0000000001
 43
0.0000000001
 40
0.0
 40
0.0
 40
0.0
 40
0.5376593899609361
 40
0.5376593899609361
 40
0.5376593899609361
 10
1549.945468368703
 20
1351.792926797779
 30
0.0
 10
1549.676638673723
 20
1351.792926797779
 30
0.0
 10
1549.407808978742
 20
1351.792926797779
 30
0.0
  0
SPLINE
  5
1B9
330
1F
100
AcDbEntity
  8
Predefinito
100
AcDbSpline
210
0.0
220
0.0
230
1.0
 70
    24
 71
     2
 72
     6
 73
     3
 74
     0
 42
0.0000000001
 43
0.0000000001
 40
0.0
 40
0.0
 40
0.0
 40
0.3623652739485124
 40
0.3623652739485124
 40
0.3623652739485124
 10
1549.407808978742
 20
1351.792926797779
 30
0.0
 10
1549.226626341768
 20
1351.792926797779
 30
0.0
 10
1549.045443704794
 20
1351.792926797779
 30
0.0
  0
SPLINE
  5
1BA
330
1F
100
AcDbEntity
  8
Predefinito
100
AcDbSpline
210
0.0
220
0.0
230
1.0
 70
    24
 71
     2
 72
     6
 73
     3
 74
     0
 42
0.0000000001
 43
0.0000000001
 40
0.0
 40
0.0
 40
0.0
 40
0.6919524775851187
 40
0.6919524775851187
 40
0.6919524775851187
 10
1549.045443704794
 20
1351.792926797779
 30
0.0
 10
1548.699467466001
 20
1351.792926797779
 30
0.0
 10
1548.353491227209
 20
1351.792926797779
 30
0.0
  0
SPLINE
  5
1BB
330
1F
100
AcDbEntity
  8
Predefinito
100
AcDbSpline
210
0.0
220
0.0
230
1.0
 70
    28
 71
     2
 72
     6
 73
     3
 74
     0
 42
0.0000000001
 43
0.0000000001
 40
-3.401075980659051
 40
-3.401075980659051
 40
-3.401075980659051
 40
-0.0205613128057056
 40
-0.0205613128057056
 40
-0.0205613128057056
 10
1556.275613850283
 20
1351.792926797779
 30
0.0
 41
1.0
 10
1556.645596000611
 20
1351.792926797779
 30
0.0
 41
0.9136605926337794
 10
1555.591263092256
 20
1351.792926797779
 30
0.0
 41
0.9989560647439742
  0
SPLINE
  5
1BC
330
1F
100
AcDbEntity
  8
Predefinito
100
AcDbSpline
210
0.0
220
0.0
230
1.0
 70
    24
 71
     2
 72
     6
 73
     3
 74
     0
 42
0.0000000001
 43
0.0000000001
 40
0.0
 40
0.0
 40
0.0
 40
0.3623652739483987
 40
0.3623652739483987
 40
0.3623652739483987
 10
1555.579498942257
 20
1351.792926797779
 30
0.0
 10
1555.398316305283
 20
1351.792926797779
 30
0.0
 10
1555.217133668309
 20
1351.792926797779
 30
0.0
  0
SPLINE
  5
1BD
330
1F
100
AcDbEntity
  8
Predefinito
100
AcDbSpline
210
0.0
220
0.0
230
1.0
 70
    24
 71
     2
 72
     6
 73
     3
 74
     0
 42
0.0000000001
 43
0.0000000001
 40
0.0
 40
0.0
 40
0.0
 40
0.5376593899609361
 40
0.5376593899609361
 40
0.5376593899609361
 10
1555.217133668309
 20
1351.792926797779
 30
0.0
 10
1554.948303973328
 20
1351.792926797779
 30
0.0
 10
1554.679474278348
 20
1351.792926797779
 30
0.0
  0
SPLINE
  5
1BE
330
1F
100
AcDbEntity
  8
Predefinito
100
AcDbSpline
210
0.0
220
0.0
230
1.0
 70
    24
 71
     2
 72
     6
 73
     3
 74
     0
 42
0.0000000001
 43
0.0000000001
 40
0.0
 40
0.0
 40
0.0
 40
0.5376593899609361
 40
0.5376593899609361
 40
0.5376593899609361
 10
1549.945468368703
 20
1348.792926797779
 30
0.0
 10
1549.676638673723
 20
1348.792926797779
 30
0.0
 10
1549.407808978742
 20
1348.792926797779
 30
0.0
  0
SPLINE
  5
1BF
330
1F
100
AcDbEntity
  8
Predefinito
100
AcDbSpline
210
0.0
220
0.0
230
1.0
 70
    24
 71
     2
 72
     6
 73
     3
 74
     0
 42
0.0000000001
 43
0.0000000001
 40
0.0
 40
0.0
 40
0.0
 40
0.3623652739485124
 40
0.3623652739485124
 40
0.3623652739485124
 10
1549.407808978742
 20
1348.792926797779
 30
0.0
 10
1549.226626341768
 20
1348.792926797779
 30
0.0
 10
1549.045443704794
 20
1348.792926797779
 30
0.0
  0
SPLINE
  5
1C0
330
1F
100
AcDbEntity
  8
Predefinito
100
AcDbSpline
210
0.0
220
0.0
230
1.0
 70
    24
 71
     2
 72
     6
 73
     3
 74
     0
 42
0.0000000001
 43
0.0000000001
 40
0.0
 40
0.0
 40
0.0
 40
0.6919524775851187
 40
0.6919524775851187
 40
0.6919524775851187
 10
1549.045443704794
 20
1348.792926797779
 30
0.0
 10
1548.699467466001
 20
1348.792926797779
 30
0.0
 10
1548.353491227209
 20
1348.792926797779
 30
0.0
  0
SPLINE
  5
1C1
330
1F
100
AcDbEntity
  8
Predefinito
100
AcDbSpline
210
0.0
220
0.0
230
1.0
 70
    28
 71
     2
 72
     6
 73
     3
 74
     0
 42
0.0000000001
 43
0.0000000001
 40
-3.401075980659051
 40
-3.401075980659051
 40
-3.401075980659051
 40
-0.0205613128056995
 40
-0.0205613128056995
 40
-0.0205613128056995
 10
1556.275613850283
 20
1348.792926797779
 30
0.0
 41
1.0
 10
1556.645596000611
 20
1348.792926797779
 30
0.0
 41
0.9136605926337792
 10
1555.591263092256
 20
1348.79292679778
 30
0.0
 41
0.9989560647439746
  0
SPLINE
  5
1C2
330
1F
100
AcDbEntity
  8
Predefinito
100
AcDbSpline
210
0.0
220
0.0
230
1.0
 70
    24
 71
     2
 72
     6
 73
     3
 74
     0
 42
0.0000000001
 43
0.0000000001
 40
0.0
 40
0.0
 40
0.0
 40
0.3623652739483987
 40
0.3623652739483987
 40
0.3623652739483987
 10
1555.579498942257
 20
1348.792926797779
 30
0.0
 10
1555.398316305283
 20
1348.792926797779
 30
0.0
 10
1555.217133668309
 20
1348.792926797779
 30
0.0
  0
SPLINE
  5
1C3
330
1F
100
AcDbEntity
  8
Predefinito
100
AcDbSpline
210
0.0
220
0.0
230
1.0
 70
    24
 71
     2
 72
     6
 73
     3
 74
     0
 42
0.0000000001
 43
0.0000000001
 40
0.0
 40
0.0
 40
0.0
 40
0.5376593899609361
 40
0.5376593899609361
 40
0.5376593899609361
 10
1555.217133668309
 20
1348.792926797779
 30
0.0
 10
1554.948303973328
 20
1348.792926797779
 30
0.0
 10
1554.679474278348
 20
1348.792926797779
 30
0.0
  0
SPLINE
  5
1C4
330
1F
100
AcDbEntity
  8
Predefinito
100
AcDbSpline
210
0.0
220
0.0
230
1.0
 70
    24
 71
     2
 72
     6
 73
     3
 74
     0
 42
0.0000000001
 43
0.0000000001
 40
0.0
 40
0.0
 40
0.0
 40
3.0
 40
3.0
 40
3.0
 10
1555.217133668309
 20
1351.792926797779
 30
0.0
 10
1555.217133668309
 20
1350.292926797779
 30
0.0
 10
1555.217133668309
 20
1348.792926797779
 30
0.0
  0
SPLINE
  5
1C5
330
1F
100
AcDbEntity
  8
Predefinito
100
AcDbSpline
210
0.0
220
0.0
230
1.0
 70
    24
 71
     2
 72
     6
 73
     3
 74
     0
 42
0.0000000001
 43
0.0000000001
 40
0.0
 40
0.0
 40
0.0
 40
3.0
 40
3.0
 40
3.0
 10
1555.579498942257
 20
1348.792926797779
 30
0.0
 10
1555.579498942257
 20
1350.292926797779
 30
0.0
 10
1555.579498942257
 20
1351.792926797779
 30
0.0
  0
SPLINE
  5
1C6
330
1F
100
AcDbEntity
  8
Predefinito
100
AcDbSpline
210
0.0
220
0.0
230
1.0
 70
    24
 71
     2
 72
     6
 73
     3
 74
     0
 42
0.0000000001
 43
0.0000000001
 40
0.0
 40
0.0
 40
0.0
 40
3.0
 40
3.0
 40
3.0
 10
1554.679474278348
 20
1348.792926797779
 30
0.0
 10
1554.679474278348
 20
1350.292926797779
 30
0.0
 10
1554.679474278348
 20
1351.792926797779
 30
0.0
  0
SPLINE
  5
1C7
330
1F
100
AcDbEntity
  8
Predefinito
100
AcDbSpline
210
0.0
220
0.0
230
1.0
 70
    24
 71
     2
 72
     6
 73
     3
 74
     0
 42
0.0000000001
 43
0.0000000001
 40
0.0
 40
0.0
 40
0.0
 40
3.0
 40
3.0
 40
3.0
 10
1549.045443704794
 20
1351.792926797779
 30
0.0
 10
1549.045443704794
 20
1350.292926797779
 30
0.0
 10
1549.045443704794
 20
1348.792926797779
 30
0.0
  0
SPLINE
  5
1C8
330
1F
100
AcDbEntity
  8
Predefinito
100
AcDbSpline
210
0.0
220
0.0
230
1.0
 70
    24
 71
     2
 72
     6
 73
     3
 74
     0
 42
0.0000000001
 43
0.0000000001
 40
0.0
 40
0.0
 40
0.0
 40
3.0
 40
3.0
 40
3.0
 10
1549.407808978742
 20
1348.792926797779
 30
0.0
 10
1549.407808978742
 20
1350.292926797779
 30
0.0
 10
1549.407808978742
 20
1351.792926797779
 30
0.0
  0
SPLINE
  5
1C9
330
1F
100
AcDbEntity
  8
Predefinito
100
AcDbSpline
210
0.0
220
0.0
230
1.0
 70
    24
 71
     2
 72
     6
 73
     3
 74
     0
 42
0.0000000001
 43
0.0000000001
 40
0.0
 40
0.0
 40
0.0
 40
3.0
 40
3.0
 40
3.0
 10
1549.945468368703
 20
1351.792926797779
 30
0.0
 10
1549.945468368703
 20
1350.292926797779
 30
0.0
 10
1549.945468368703
 20
1348.792926797779
 30
0.0
  0
SPLINE
  5
1CA
330
1F
100
AcDbEntity
  8
Predefinito
100
AcDbSpline
210
0.0
220
0.0
230
1.0
 70
    24
 71
     2
 72
     6
 73
     3
 74
     0
 42
0.0000000001
 43
0.0000000001
 40
0.0
 40
0.0
 40
0.0
 40
0.7999999999999545
 40
0.7999999999999545
 40
0.7999999999999545
 10
1558.312471323645
 20
1447.292926797779
 30
0.0
 10
1558.312471323645
 20
1446.892926797779
 30
0.0
 10
1558.312471323645
 20
1446.492926797779
 30
0.0
  0
SPLINE
  5
1CB
330
1F
100
AcDbEntity
  8
Predefinito
100
AcDbSpline
210
0.0
220
0.0
230
1.0
 70
    24
 71
     2
 72
     6
 73
     3
 74
     0
 42
0.0000000001
 43
0.0000000001
 40
0.0
 40
0.0
 40
0.0
 40
0.7999999999999545
 40
0.7999999999999545
 40
0.7999999999999545
 10
1546.312471323469
 20
1446.492926797779
 30
0.0
 10
1546.312471323469
 20
1446.892926797779
 30
0.0
 10
1546.312471323469
 20
1447.292926797779
 30
0.0
  0
SPLINE
  5
1CC
330
1F
100
AcDbEntity
  8
Predefinito
100
AcDbSpline
210
0.0
220
0.0
230
1.0
 70
    24
 71
     2
 72
     6
 73
     3
 74
     0
 42
0.0000000001
 43
0.0000000001
 40
0.0
 40
0.0
 40
0.0
 40
0.2000000000000455
 40
0.2000000000000455
 40
0.2000000000000455
 10
1558.012471323525
 20
1446.492926797779
 30
0.0
 10
1558.012471323525
 20
1446.392926797779
 30
0.0
 10
1558.012471323525
 20
1446.292926797779
 30
0.0
  0
SPLINE
  5
1CD
330
1F
100
AcDbEntity
  8
Predefinito
100
AcDbSpline
210
0.0
220
0.0
230
1.0
 70
    24
 71
     2
 72
     6
 73
     3
 74
     0
 42
0.0000000001
 43
0.0000000001
 40
0.0
 40
0.0
 40
0.0
 40
2.0
 40
2.0
 40
2.0
 10
1558.312471323526
 20
1446.292926797779
 30
0.0
 10
1558.312471323526
 20
1445.292926797779
 30
0.0
 10
1558.312471323526
 20
1444.292926797779
 30
0.0
  0
SPLINE
  5
1CE
330
1F
100
AcDbEntity
  8
Predefinito
100
AcDbSpline
210
0.0
220
0.0
230
1.0
 70
    24
 71
     2
 72
     6
 73
     3
 74
     0
 42
0.0000000001
 43
0.0000000001
 40
0.0
 40
0.0
 40
0.0
 40
3.0
 40
3.0
 40
3.0
 10
1556.362471323526
 20
1401.792926797779
 30
0.0
 10
1556.362471323526
 20
1400.292926797779
 30
0.0
 10
1556.362471323526
 20
1398.792926797779
 30
0.0
  0
SPLINE
  5
1CF
330
1F
100
AcDbEntity
  8
Predefinito
100
AcDbSpline
210
0.0
220
0.0
230
1.0
 70
    24
 71
     2
 72
     6
 73
     3
 74
     0
 42
0.0000000001
 43
0.0000000001
 40
0.0
 40
0.0
 40
0.0
 40
3.0
 40
3.0
 40
3.0
 10
1556.362471323526
 20
1351.792926797779
 30
0.0
 10
1556.362471323526
 20
1350.292926797779
 30
0.0
 10
1556.362471323526
 20
1348.792926797779
 30
0.0
  0
SPLINE
  5
1D0
330
1F
100
AcDbEntity
  8
Predefinito
100
AcDbSpline
210
0.0
220
0.0
230
1.0
 70
    24
 71
     2
 72
     6
 73
     3
 74
     0
 42
0.0000000001
 43
0.0000000001
 40
0.0
 40
0.0
 40
0.0
 40
3.0
 40
3.0
 40
3.0
 10
1548.262471323525
 20
1348.792926797779
 30
0.0
 10
1548.262471323525
 20
1350.292926797779
 30
0.0
 10
1548.262471323525
 20
1351.792926797779
 30
0.0
  0
SPLINE
  5
1D1
330
1F
100
AcDbEntity
  8
Predefinito
100
AcDbSpline
210
0.0
220
0.0
230
1.0
 70
    24
 71
     2
 72
     6
 73
     3
 74
     0
 42
0.0000000001
 43
0.0000000001
 40
0.0
 40
0.0
 40
0.0
 40
2.880904407685899
 40
2.880904407685899
 40
2.880904407685899
 10
1546.312471323526
 20
1444.292926797779
 30
0.0
 10
1547.752923527369
 20
1444.292926797779
 30
0.0
 10
1549.193375731212
 20
1444.292926797779
 30
0.0
  0
POLYLINE
  5
1D2
330
1F
100
AcDbEntity
  8
Predefinito
100
AcDb2dPolyline
 66
     1
 10
0.0
 20
0.0
 30
0.0
  0
VERTEX
  5
1D3
330
1D2
100
AcDbEntity
  8
Predefinito
100
AcDbVertex
100
AcDb2dVertex
 10
1548.353491227209
 20
1401.792926797779
 30
0.0
  0
VERTEX
  5
1D4
330
1D2
100
AcDbEntity
  8
Predefinito
100
AcDbVertex
100
AcDb2dVertex
 10
1548.353491227209
 20
1398.792926797779
 30
0.0
  0
SEQEND
  5
1D5
330
1D2
100
AcDbEntity
  8
Predefinito
  0
POLYLINE
  5
1D6
330
1F
100
AcDbEntity
  8
Predefinito
100
AcDb2dPolyline
 66
     1
 10
0.0
 20
0.0
 30
0.0
  0
VERTEX
  5
1D7
330
1D6
100
AcDbEntity
  8
Predefinito
100
AcDbVertex
100
AcDb2dVertex
 10
1549.193375730455
 20
1396.126237398946
 30
0.0
  0
VERTEX
  5
1D8
330
1D6
100
AcDbEntity
  8
Predefinito
100
AcDbVertex
100
AcDb2dVertex
 10
1549.193375522744
 20
1376.427406578362
 30
0.0
  0
SEQEND
  5
1D9
330
1D6
100
AcDbEntity
  8
Predefinito
  0
POLYLINE
  5
1DA
330
1F
100
AcDbEntity
  8
Predefinito
100
AcDb2dPolyline
 66
     1
 10
0.0
 20
0.0
 30
0.0
  0
VERTEX
  5
1DB
330
1DA
100
AcDbEntity
  8
Predefinito
100
AcDbVertex
100
AcDb2dVertex
 10
1555.393375730541
 20
1396.126239408887
 30
0.0
  0
VERTEX
  5
1DC
330
1DA
100
AcDbEntity
  8
Predefinito
100
AcDbVertex
100
AcDb2dVertex
 10
1555.393375719212
 20
1366.246870242362
 30
0.0
  0
SEQEND
  5
1DD
330
1DA
100
AcDbEntity
  8
Predefinito
  0
LINE
  5
1DE
330
1F
100
AcDbEntity
  8
Predefinito
100
AcDbLine
 10
1555.393375737431
 20
1356.05600044013
 30
0.0
 11
1555.393375746134
 21
1351.792926797779
 31
0.0
  0
LINE
  5
1DF
330
1F
100
AcDbEntity
  8
Predefinito
100
AcDbLine
 10
1549.193375743073
 20
1351.792926797779
 30
0.0
 11
1549.193375737435
 21
1356.055998788986
 31
0.0
  0
SPLINE
  5
1E0
330
1F
100
AcDbEntity
  8
Predefinito
100
AcDbSpline
210
0.0
220
0.0
230
1.0
 70
    12
 71
     2
 72
     6
 73
     3
 74
     0
 42
0.0000000001
 43
0.0000000001
 40
0.0
 40
0.0
 40
0.0
 40
98.75345763586367
 40
98.75345763586367
 40
98.75345763586367
 10
1549.078305968071
 20
1249.022226114701
 30
0.0
 41
1.0
 10
1549.160441825457
 20
1299.41620485413
 30
0.0
 41
0.999999875737784
 10
1549.193347818983
 20
1348.792926797779
 30
0.0
 41
1.0
  0
SPLINE
  5
1E1
330
1F
100
AcDbEntity
  8
Predefinito
100
AcDbSpline
210
0.0
220
0.0
230
1.0
 70
    12
 71
     2
 72
     6
 73
     3
 74
     0
 42
0.0000000001
 43
0.0000000001
 40
0.0
 40
0.0
 40
0.0
 40
0.711985169942978
 40
0.711985169942978
 40
0.711985169942978
 10
1549.078293234066
 20
1247.292926797779
 30
0.0
 41
1.0
 10
1549.078307146488
 20
1247.648919382526
 30
0.0
 41
0.9999999998013973
 10
1549.078305968071
 20
1249.022226114701
 30
0.0
 41
1.0
  0
SPLINE
  5
1E2
330
1F
100
AcDbEntity
  8
Predefinito
100
AcDbSpline
210
0.0
220
0.0
230
1.0
 70
    24
 71
     2
 72
     6
 73
     3
 74
     0
 42
0.0000000001
 43
0.0000000001
 40
0.0
 40
0.0
 40
0.0
 40
84.5
 40
84.5
 40
84.5
 10
1569.300351705809
 20
1235.073074758016
 30
0.0
 10
1569.300351705809
 20
1192.823074758016
 30
0.0
 10
1569.300351705809
 20
1150.573074758016
 30
0.0
  0
POLYLINE
  5
1E3
330
1F
100
AcDbEntity
  8
Predefinito
100
AcDb2dPolyline
 66
     1
 10
0.0
 20
0.0
 30
0.0
  0
VERTEX
  5
1E4
330
1E3
100
AcDbEntity
  8
Predefinito
100
AcDbVertex
100
AcDb2dVertex
 10
1550.85656529477
 20
1076.065732904479
 30
0.0
  0
VERTEX
  5
1E5
330
1E3
100
AcDbEntity
  8
Predefinito
100
AcDbVertex
100
AcDb2dVertex
 10
1550.913720938712
 20
1073.111350188936
 30
0.0
  0
SEQEND
  5
1E6
330
1E3
100
AcDbEntity
  8
Predefinito
  0
SPLINE
  5
1E7
330
1F
100
AcDbEntity
  8
Predefinito
100
AcDbSpline
210
0.0
220
0.0
230
1.0
 70
    12
 71
     3
 72
    10
 73
     6
 74
     0
 42
0.0000000001
 43
0.0000000001
 40
1.836068150379984
 40
1.836068150379984
 40
1.836068150379984
 40
1.836068150379984
 40
1.872992510358027
 40
1.872992510358027
 40
1.948849003437557
 40
1.948849003437557
 40
1.948849003437557
 40
1.948849003437557
 10
1560.86211450199
 20
1092.943433831698
 30
0.0
 41
1.0
 10
1560.997485688744
 20
1092.588937292857
 30
0.0
 41
1.0
 10
1561.141666198446
 20
1092.264348182495
 30
0.0
 41
1.0
 10
1561.56408226944
 20
1091.383380517864
 30
0.0
 41
1.0
 10
1561.813336199915
 20
1090.939163789439
 30
0.0
 41
1.0
 10
1561.959197709584
 20
1090.692106732422
 30
0.0
 41
1.0
  0
VIEWPORT
  5
1F1
330
1ED
100
AcDbEntity
 67
     1
  8
0
100
AcDbViewport
 10
6.0
 20
4.5
 30
0.0
 40
12.696
 41
9.522
 68
     1
 69
     1
 12
6.0
 22
4.5
 13
0.0
 23
0.0
 14
0.5
 24
0.5
 15
0.5
 25
0.5
 16
0.0
 26
0.0
 36
1.0
 17
0.0
 27
0.0
 37
0.0
 42
50.0
 43
0.0
 44
0.0
 45
9.522
 50
0.0
 51
0.0
 72
   100
 90
   557152
  1

281
     0
 71
     1
 74
     0
110
0.0
120
0.0
130
0.0
111
1.0
121
0.0
131
0.0
112
0.0
122
1.0
132
0.0
 79
     0
146
0.0
170
     0
  0
ENDSEC
  0
SECTION
  2
OBJECTS
  0
DICTIONARY
  5
C
330
0
100
AcDbDictionary
281
     1
  3
ACAD_GROUP
350
D
  3
ACAD_LAYOUT
350
1A
  3
ACAD_MLEADERSTYLE
350
217
  3
ACAD_MLINESTYLE
350
17
  3
ACAD_PLOTSETTINGS
350
19
  3
ACAD_PLOTSTYLENAME
350
E
  3
ACAD_SCALELIST
350
1F2
  3
ACAD_TABLESTYLE
350
216
  3
ACAD_VISUALSTYLE
350
2A
  3
AcDbVariableDictionary
350
214
  0
DICTIONARY
  5
D
102
{ACAD_REACTORS
330
C
102
}
330
C
100
AcDbDictionary
281
     1
  0
DICTIONARY
  5
1A
102
{ACAD_REACTORS
330
C
102
}
330
C
100
AcDbDictionary
281
     1
  3
Layout1
350
1E9
  3
Layout2
350
1EE
  3
Model
350
22
  0
DICTIONARY
  5
217
102
{ACAD_REACTORS
330
C
102
}
330
C
100
AcDbDictionary
281
     1
  0
DICTIONARY
  5
17
102
{ACAD_REACTORS
330
C
102
}
330
C
100
AcDbDictionary
281
     1
  3
Standard
350
18
  0
DICTIONARY
  5
19
102
{ACAD_REACTORS
330
C
102
}
330
C
100
AcDbDictionary
281
     1
  0
ACDBDICTIONARYWDFLT
  5
E
102
{ACAD_REACTORS
330
C
102
}
330
C
100
AcDbDictionary
281
     1
  3
Normal
350
F
100
AcDbDictionaryWithDefault
340
F
  0
DICTIONARY
  5
1F2
102
{ACAD_REACTORS
330
C
102
}
330
C
100
AcDbDictionary
281
     1
  3
A0
350
1F3
  3
A1
350
1F4
  3
A2
350
1F5
  3
A3
350
1F6
  3
A4
350
1F7
  3
A5
350
1F8
  3
A6
350
1F9
  3
A7
350
1FA
  3
A8
350
1FB
  3
A9
350
1FC
  3
B0
350
1FD
  3
B1
350
1FE
  3
B2
350
1FF
  3
B3
350
200
  3
B4
350
201
  3
B5
350
202
  3
B6
350
203
  3
B7
350
204
  3
B8
350
205
  3
B9
350
206
  3
C0
350
207
  3
C1
350
208
  3
C2
350
209
  3
C3
350
20A
  3
C4
350
20B
  3
C5
350
20C
  3
C6
350
20D
  3
C7
350
20E
  3
C8
350
20F
  3
C9
350
210
  3
D0
350
211
  3
D1
350
212
  3
D2
350
213
  0
DICTIONARY
  5
216
102
{ACAD_REACTORS
330
C
102
}
330
C
100
AcDbDictionary
281
     1
  0
DICTIONARY
  5
2A
102
{ACAD_REACTORS
330
C
102
}
330
C
100
AcDbDictionary
281
     1
  3
2dWireframe
350
2F
  3
3D Hidden
350
31
  3
3dWireframe
350
30
  3
Basic
350
32
  3
Brighten
350
36
  3
ColorChange
350
3A
  3
Conceptual
350
34
  3
Dim
350
35
  3
Facepattern
350
39
  3
Flat
350
2B
  3
FlatWithEdges
350
2C
  3
Gouraud
350
2D
  3
GouraudWithEdges
350
2E
  3
Linepattern
350
38
  3
Realistic
350
33
  3
Thicken
350
37
  0
DICTIONARY
  5
214
102
{ACAD_REACTORS
330
C
102
}
330
C
100
AcDbDictionary
281
     1
  3
CANNOSCALE
350
215
  0
LAYOUT
  5
1E9
102
{ACAD_REACTORS
330
1A
102
}
330
1A
100
AcDbPlotSettings
  1

  2
none_device
  4
Letter_(8.50_x_11.00_Inches)
  6

 40
6.35
 41
6.35
 42
6.35000508
 43
6.35000508
 44
215.9
 45
279.4
 46
0.0
 47
0.0
 48
0.0
 49
0.0
140
0.0
141
0.0
142
1.0
143
1.0
 70
   688
 72
     0
 73
     1
 74
     5
  7

 75
    16
 76
     0
 77
     2
 78
   300
147
1.0
148
0.0
149
0.0
100
AcDbLayout
  1
Layout1
 70
     1
 71
     1
 10
0.0
 20
0.0
 11
0.0
 21
0.0
 12
0.0
 22
0.0
 32
0.0
 14
0.0
 24
0.0
 34
0.0
 15
0.0
 25
0.0
 35
0.0
146
0.0
 13
0.0
 23
0.0
 33
0.0
 16
1.0
 26
0.0
 36
0.0
 17
0.0
 27
1.0
 37
0.0
 76
     0
330
1E8
331
1EC
  0
LAYOUT
  5
1EE
102
{ACAD_REACTORS
330
1A
102
}
330
1A
100
AcDbPlotSettings
  1

  2
none_device
  4
Letter_(8.50_x_11.00_Inches)
  6

 40
6.35
 41
6.35
 42
6.35000508
 43
6.35000508
 44
215.9
 45
279.4
 46
0.0
 47
0.0
 48
0.0
 49
0.0
140
0.0
141
0.0
142
1.0
143
1.0
 70
   688
 72
     0
 73
     1
 74
     5
  7

 75
    16
 76
     0
 77
     2
 78
   300
147
1.0
148
0.0
149
0.0
100
AcDbLayout
  1
Layout2
 70
     1
 71
     2
 10
0.0
 20
0.0
 11
0.0
 21
0.0
 12
0.0
 22
0.0
 32
0.0
 14
0.0
 24
0.0
 34
0.0
 15
0.0
 25
0.0
 35
0.0
146
0.0
 13
0.0
 23
0.0
 33
0.0
 16
1.0
 26
0.0
 36
0.0
 17
0.0
 27
1.0
 37
0.0
 76
     0
330
1ED
331
1F1
  0
LAYOUT
  5
22
102
{ACAD_REACTORS
330
1A
102
}
330
1A
100
AcDbPlotSettings
  1

  2
none_device
  4

  6

 40
0.0
 41
0.0
 42
0.0
 43
0.0
 44
0.0
 45
0.0
 46
0.0
 47
0.0
 48
0.0
 49
0.0
140
0.0
141
0.0
142
1.0
143
1.0
 70
  1712
 72
     0
 73
     0
 74
     0
  7

 75
     0
 76
     0
 77
     2
 78
   300
147
1.0
148
0.0
149
0.0
100
AcDbLayout
  1
Model
 70
     1
 71
     0
 10
0.0
 20
0.0
 11
12.0
 21
9.0
 12
0.0
 22
0.0
 32
0.0
 14
543.9952837066799
 24
0.0000000219650644
 34
0.0
 15
1622.293399236085
 25
1475.297103699243
 35
0.0
146
0.0
 13
0.0
 23
0.0
 33
0.0
 16
1.0
 26
0.0
 36
0.0
 17
0.0
 27
1.0
 37
0.0
 76
     0
330
1F
331
29
  0
MLINESTYLE
  5
18
102
{ACAD_REACTORS
330
17
102
}
330
17
100
AcDbMlineStyle
  2
Standard
 70
     0
  3

 62
   256
 51
90.0
 52
90.0
 71
     2
 49
0.5
 62
   256
  6
BYLAYER
 49
-0.5
 62
   256
  6
BYLAYER
  0
ACDBPLACEHOLDER
  5
F
102
{ACAD_REACTORS
330
E
102
}
330
E
  0
SCALE
  5
1F3
102
{ACAD_REACTORS
330
1F2
102
}
330
1F2
100
AcDbScale
 70
     0
300
1:1
140
1.0
141
1.0
290
     1
  0
SCALE
  5
1F4
102
{ACAD_REACTORS
330
1F2
102
}
330
1F2
100
AcDbScale
 70
     0
300
1:2
140
1.0
141
2.0
290
     0
  0
SCALE
  5
1F5
102
{ACAD_REACTORS
330
1F2
102
}
330
1F2
100
AcDbScale
 70
     0
300
1:4
140
1.0
141
4.0
290
     0
  0
SCALE
  5
1F6
102
{ACAD_REACTORS
330
1F2
102
}
330
1F2
100
AcDbScale
 70
     0
300
1:5
140
1.0
141
5.0
290
     0
  0
SCALE
  5
1F7
102
{ACAD_REACTORS
330
1F2
102
}
330
1F2
100
AcDbScale
 70
     0
300
1:8
140
1.0
141
8.0
290
     0
  0
SCALE
  5
1F8
102
{ACAD_REACTORS
330
1F2
102
}
330
1F2
100
AcDbScale
 70
     0
300
1:10
140
1.0
141
10.0
290
     0
  0
SCALE
  5
1F9
102
{ACAD_REACTORS
330
1F2
102
}
330
1F2
100
AcDbScale
 70
     0
300
1:16
140
1.0
141
16.0
290
     0
  0
SCALE
  5
1FA
102
{ACAD_REACTORS
330
1F2
102
}
330
1F2
100
AcDbScale
 70
     0
300
1:20
140
1.0
141
20.0
290
     0
  0
SCALE
  5
1FB
102
{ACAD_REACTORS
330
1F2
102
}
330
1F2
100
AcDbScale
 70
     0
300
1:30
140
1.0
141
30.0
290
     0
  0
SCALE
  5
1FC
102
{ACAD_REACTORS
330
1F2
102
}
330
1F2
100
AcDbScale
 70
     0
300
1:40
140
1.0
141
40.0
290
     0
  0
SCALE
  5
1FD
102
{ACAD_REACTORS
330
1F2
102
}
330
1F2
100
AcDbScale
 70
     0
300
1:50
140
1.0
141
50.0
290
     0
  0
SCALE
  5
1FE
102
{ACAD_REACTORS
330
1F2
102
}
330
1F2
100
AcDbScale
 70
     0
300
1:100
140
1.0
141
100.0
290
     0
  0
SCALE
  5
1FF
102
{ACAD_REACTORS
330
1F2
102
}
330
1F2
100
AcDbScale
 70
     0
300
2:1
140
2.0
141
1.0
290
     0
  0
SCALE
  5
200
102
{ACAD_REACTORS
330
1F2
102
}
330
1F2
100
AcDbScale
 70
     0
300
4:1
140
4.0
141
1.0
290
     0
  0
SCALE
  5
201
102
{ACAD_REACTORS
330
1F2
102
}
330
1F2
100
AcDbScale
 70
     0
300
8:1
140
8.0
141
1.0
290
     0
  0
SCALE
  5
202
102
{ACAD_REACTORS
330
1F2
102
}
330
1F2
100
AcDbScale
 70
     0
300
10:1
140
10.0
141
1.0
290
     0
  0
SCALE
  5
203
102
{ACAD_REACTORS
330
1F2
102
}
330
1F2
100
AcDbScale
 70
     0
300
100:1
140
100.0
141
1.0
290
     0
  0
SCALE
  5
204
102
{ACAD_REACTORS
330
1F2
102
}
330
1F2
100
AcDbScale
 70
     0
300
1/128" = 1'-0"
140
0.0078125
141
12.0
290
     0
  0
SCALE
  5
205
102
{ACAD_REACTORS
330
1F2
102
}
330
1F2
100
AcDbScale
 70
     0
300
1/64" = 1'-0"
140
0.015625
141
12.0
290
     0
  0
SCALE
  5
206
102
{ACAD_REACTORS
330
1F2
102
}
330
1F2
100
AcDbScale
 70
     0
300
1/32" = 1'-0"
140
0.03125
141
12.0
290
     0
  0
SCALE
  5
207
102
{ACAD_REACTORS
330
1F2
102
}
330
1F2
100
AcDbScale
 70
     0
300
1/16" = 1'-0"
140
0.0625
141
12.0
290
     0
  0
SCALE
  5
208
102
{ACAD_REACTORS
330
1F2
102
}
330
1F2
100
AcDbScale
 70
     0
300
3/32" = 1'-0"
140
0.09375
141
12.0
290
     0
  0
SCALE
  5
209
102
{ACAD_REACTORS
330
1F2
102
}
330
1F2
100
AcDbScale
 70
     0
300
1/8" = 1'-0"
140
0.125
141
12.0
290
     0
  0
SCALE
  5
20A
102
{ACAD_REACTORS
330
1F2
102
}
330
1F2
100
AcDbScale
 70
     0
300
3/16" = 1'-0"
140
0.1875
141
12.0
290
     0
  0
SCALE
  5
20B
102
{ACAD_REACTORS
330
1F2
102
}
330
1F2
100
AcDbScale
 70
     0
300
1/4" = 1'-0"
140
0.25
141
12.0
290
     0
  0
SCALE
  5
20C
102
{ACAD_REACTORS
330
1F2
102
}
330
1F2
100
AcDbScale
 70
     0
300
3/8" = 1'-0"
140
0.375
141
12.0
290
     0
  0
SCALE
  5
20D
102
{ACAD_REACTORS
330
1F2
102
}
330
1F2
100
AcDbScale
 70
     0
300
1/2" = 1'-0"
140
0.5
141
12.0
290
     0
  0
SCALE
  5
20E
102
{ACAD_REACTORS
330
1F2
102
}
330
1F2
100
AcDbScale
 70
     0
300
3/4" = 1'-0"
140
0.75
141
12.0
290
     0
  0
SCALE
  5
20F
102
{ACAD_REACTORS
330
1F2
102
}
330
1F2
100
AcDbScale
 70
     0
300
1" = 1'-0"
140
1.0
141
12.0
290
     0
  0
SCALE
  5
210
102
{ACAD_REACTORS
330
1F2
102
}
330
1F2
100
AcDbScale
 70
     0
300
1-1/2" = 1'-0"
140
1.5
141
12.0
290
     0
  0
SCALE
  5
211
102
{ACAD_REACTORS
330
1F2
102
}
330
1F2
100
AcDbScale
 70
     0
300
3" = 1'-0"
140
3.0
141
12.0
290
     0
  0
SCALE
  5
212
102
{ACAD_REACTORS
330
1F2
102
}
330
1F2
100
AcDbScale
 70
     0
300
6" = 1'-0"
140
6.0
141
12.0
290
     0
  0
SCALE
  5
213
102
{ACAD_REACTORS
330
1F2
102
}
330
1F2
100
AcDbScale
 70
     0
300
1'-0" = 1'-0"
140
12.0
141
12.0
290
     0
  0
VISUALSTYLE
  5
2F
102
{ACAD_REACTORS
330
2A
102
}
330
2A
100
AcDbVisualStyle
  2
2dWireframe
 70
     4
 71
     0
 72
     2
 73
     0
 90
        0
 40
-0.6
 41
-30.0
 62
     5
 63
     7
421
 16777215
 74
     1
 91
        4
 64
     7
 65
   257
 75
     1
175
     1
 42
1.0
 92
        0
 66
   257
 43
1.0
 76
     1
 77
     6
 78
     2
 67
     7
 79
     5
170
     0
171
     0
290
     0
174
     0
 93
        1
 44
0.0
173
     0
291
     0
 45
0.0
1001
ACAD
1000
AcDbSavedByObjectVersion
1070
     0
  0
VISUALSTYLE
  5
31
102
{ACAD_REACTORS
330
2A
102
}
330
2A
100
AcDbVisualStyle
  2
3D Hidden
 70
     6
 71
     1
 72
     2
 73
     2
 90
        0
 40
-0.6
 41
-30.0
 62
     5
 63
     7
421
 16777215
 74
     2
 91
        2
 64
     7
 65
   257
 75
     2
175
     1
 42
40.0
 92
        0
 66
   257
 43
1.0
 76
     1
 77
     6
 78
     2
 67
     7
 79
     3
170
     0
171
     0
290
     0
174
     0
 93
        1
 44
0.0
173
     0
291
     0
 45
0.0
1001
ACAD
1000
AcDbSavedByObjectVersion
1070
     0
  0
VISUALSTYLE
  5
30
102
{ACAD_REACTORS
330
2A
102
}
330
2A
100
AcDbVisualStyle
  2
3dWireframe
 70
     5
 71
     0
 72
     2
 73
     0
 90
        0
 40
-0.6
 41
-30.0
 62
     5
 63
     7
421
 16777215
 74
     1
 91
        4
 64
     7
 65
   257
 75
     1
175
     1
 42
1.0
 92
        0
 66
   257
 43
1.0
 76
     1
 77
     6
 78
     2
 67
     7
 79
     5
170
     0
171
     0
290
     0
174
     0
 93
        1
 44
0.0
173
     0
291
     0
 45
0.0
1001
ACAD
1000
AcDbSavedByObjectVersion
1070
     0
  0
VISUALSTYLE
  5
32
102
{ACAD_REACTORS
330
2A
102
}
330
2A
100
AcDbVisualStyle
  2
Basic
 70
     7
 71
     1
 72
     0
 73
     1
 90
        0
 40
-0.6
 41
-30.0
 62
     5
 63
     7
421
 16777215
 74
     0
 91
        4
 64
     7
 65
   257
 75
     1
175
     1
 42
1.0
 92
        8
 66
     7
 43
1.0
 76
     1
 77
     6
 78
     2
 67
     7
 79
     5
170
     0
171
     0
290
     0
174
     0
 93
        1
 44
0.0
173
     0
291
     1
 45
0.0
1001
ACAD
1000
AcDbSavedByObjectVersion
1070
     0
  0
VISUALSTYLE
  5
36
102
{ACAD_REACTORS
330
2A
102
}
330
2A
100
AcDbVisualStyle
  2
Brighten
 70
    12
 71
     2
 72
     2
 73
     0
 90
        0
 40
-0.6
 41
-30.0
 62
     5
 63
     7
421
 16777215
 74
     1
 91
        4
 64
     7
 65
   257
 75
     1
175
     1
 42
1.0
 92
        8
 66
     7
 43
1.0
 76
     1
 77
     6
 78
     2
 67
     7
 79
     5
170
     0
171
     0
290
     0
174
     0
 93
        1
 44
50.0
173
     0
291
     1
 45
0.0
1001
ACAD
1000
AcDbSavedByObjectVersion
1070
     0
  0
VISUALSTYLE
  5
3A
102
{ACAD_REACTORS
330
2A
102
}
330
2A
100
AcDbVisualStyle
  2
ColorChange
 70
    16
 71
     2
 72
     2
 73
     3
 90
        0
 40
-0.6
 41
-30.0
 62
     5
 63
     8
421
  8421504
 74
     1
 91
        4
 64
     7
 65
   257
 75
     1
175
     1
 42
1.0
 92
        8
 66
     8
424
  8421504
 43
1.0
 76
     1
 77
     6
 78
     2
 67
     7
 79
     5
170
     0
171
     0
290
     0
174
     0
 93
        1
 44
0.0
173
     0
291
     1
 45
0.0
1001
ACAD
1000
AcDbSavedByObjectVersion
1070
     0
  0
VISUALSTYLE
  5
34
102
{ACAD_REACTORS
330
2A
102
}
330
2A
100
AcDbVisualStyle
  2
Conceptual
 70
     9
 71
     3
 72
     2
 73
     0
 90
        0
 40
-0.6
 41
-30.0
 62
     5
 63
     7
421
 16777215
 74
     2
 91
        2
 64
     7
 65
   257
 75
     1
175
     1
 42
40.0
 92
        8
 66
     7
 43
1.0
 76
     1
 77
     6
 78
     2
 67
     7
 79
     3
170
     0
171
     0
290
     0
174
     0
 93
        1
 44
0.0
173
     0
291
     0
 45
0.0
1001
ACAD
1000
AcDbSavedByObjectVersion
1070
     0
  0
VISUALSTYLE
  5
35
102
{ACAD_REACTORS
330
2A
102
}
330
2A
100
AcDbVisualStyle
  2
Dim
 70
    11
 71
     2
 72
     2
 73
     0
 90
        0
 40
-0.6
 41
-30.0
 62
     5
 63
     7
421
 16777215
 74
     1
 91
        4
 64
     7
 65
   257
 75
     1
175
     1
 42
1.0
 92
        8
 66
     7
 43
1.0
 76
     1
 77
     6
 78
     2
 67
     7
 79
     5
170
     0
171
     0
290
     0
174
     0
 93
        1
 44
-50.0
173
     0
291
     1
 45
0.0
1001
ACAD
1000
AcDbSavedByObjectVersion
1070
     0
  0
VISUALSTYLE
  5
39
102
{ACAD_REACTORS
330
2A
102
}
330
2A
100
AcDbVisualStyle
  2
Facepattern
 70
    15
 71
     2
 72
     2
 73
     0
 90
        0
 40
-0.6
 41
-30.0
 62
     5
 63
     7
421
 16777215
 74
     1
 91
        4
 64
     7
 65
   257
 75
     1
175
     1
 42
1.0
 92
        8
 66
     7
 43
1.0
 76
     1
 77
     6
 78
     2
 67
     7
 79
     5
170
     0
171
     0
290
     0
174
     0
 93
        1
 44
0.0
173
     0
291
     1
 45
0.0
1001
ACAD
1000
AcDbSavedByObjectVersion
1070
     0
  0
VISUALSTYLE
  5
2B
102
{ACAD_REACTORS
330
2A
102
}
330
2A
100
AcDbVisualStyle
  2
Flat
 70
     0
 71
     2
 72
     1
 73
     1
 90
        2
 40
-0.6
 41
30.0
 62
     5
 63
     7
421
 16777215
 74
     0
 91
        4
 64
     7
 65
   257
 75
     1
175
     1
 42
1.0
 92
        8
 66
     7
 43
1.0
 76
     1
 77
     6
 78
     2
 67
     7
 79
     5
170
     0
171
     0
290
     0
174
     0
 93
       13
 44
0.0
173
     0
291
     1
 45
0.0
1001
ACAD
1000
AcDbSavedByObjectVersion
1070
     0
  0
VISUALSTYLE
  5
2C
102
{ACAD_REACTORS
330
2A
102
}
330
2A
100
AcDbVisualStyle
  2
FlatWithEdges
 70
     1
 71
     2
 72
     1
 73
     1
 90
        2
 40
-0.6
 41
30.0
 62
     5
 63
     7
421
 16777215
 74
     1
 91
        4
 64
     7
 65
   257
 75
     1
175
     1
 42
1.0
 92
        0
 66
   257
 43
1.0
 76
     1
 77
     6
 78
     2
 67
     7
 79
     5
170
     0
171
     0
290
     0
174
     0
 93
       13
 44
0.0
173
     0
291
     1
 45
0.0
1001
ACAD
1000
AcDbSavedByObjectVersion
1070
     0
  0
VISUALSTYLE
  5
2D
102
{ACAD_REACTORS
330
2A
102
}
330
2A
100
AcDbVisualStyle
  2
Gouraud
 70
     2
 71
     2
 72
     2
 73
     1
 90
        2
 40
-0.6
 41
30.0
 62
     5
 63
     7
421
 16777215
 74
     0
 91
        4
 64
     7
 65
   257
 75
     1
175
     1
 42
1.0
 92
        0
 66
     7
 43
1.0
 76
     1
 77
     6
 78
     2
 67
     7
 79
     5
170
     0
171
     0
290
     0
174
     0
 93
       13
 44
0.0
173
     0
291
     1
 45
0.0
1001
ACAD
1000
AcDbSavedByObjectVersion
1070
     0
  0
VISUALSTYLE
  5
2E
102
{ACAD_REACTORS
330
2A
102
}
330
2A
100
AcDbVisualStyle
  2
GouraudWithEdges
 70
     3
 71
     2
 72
     2
 73
     1
 90
        2
 40
-0.6
 41
30.0
 62
     5
 63
     7
421
 16777215
 74
     1
 91
        4
 64
     7
 65
   257
 75
     1
175
     1
 42
1.0
 92
        0
 66
   257
 43
1.0
 76
     1
 77
     6
 78
     2
 67
     7
 79
     5
170
     0
171
     0
290
     0
174
     0
 93
       13
 44
0.0
173
     0
291
     1
 45
0.0
1001
ACAD
1000
AcDbSavedByObjectVersion
1070
     0
  0
VISUALSTYLE
  5
38
102
{ACAD_REACTORS
330
2A
102
}
330
2A
100
AcDbVisualStyle
  2
Linepattern
 70
    14
 71
     2
 72
     2
 73
     0
 90
        0
 40
-0.6
 41
-30.0
 62
     5
 63
     7
421
 16777215
 74
     1
 91
        4
 64
     7
 65
   257
 75
     7
175
     7
 42
1.0
 92
        8
 66
     7
 43
1.0
 76
     1
 77
     6
 78
     2
 67
     7
 79
     5
170
     0
171
     0
290
     0
174
     0
 93
        1
 44
0.0
173
     0
291
     1
 45
0.0
1001
ACAD
1000
AcDbSavedByObjectVersion
1070
     0
  0
VISUALSTYLE
  5
33
102
{ACAD_REACTORS
330
2A
102
}
330
2A
100
AcDbVisualStyle
  2
Realistic
 70
     8
 71
     2
 72
     2
 73
     0
 90
        0
 40
-0.6
 41
-30.0
 62
     5
 63
     7
421
 16777215
 74
     1
 91
        0
 64
     7
 65
   257
 75
     1
175
     1
 42
1.0
 92
        8
 66
     8
424
  7895160
 43
1.0
 76
     1
 77
     6
 78
     2
 67
     7
 79
     5
170
     0
171
     0
290
     0
174
     0
 93
       13
 44
0.0
173
     0
291
     0
 45
0.0
1001
ACAD
1000
AcDbSavedByObjectVersion
1070
     0
  0
VISUALSTYLE
  5
37
102
{ACAD_REACTORS
330
2A
102
}
330
2A
100
AcDbVisualStyle
  2
Thicken
 70
    13
 71
     2
 72
     2
 73
     0
 90
        0
 40
-0.6
 41
-30.0
 62
     5
 63
     7
421
 16777215
 74
     1
 91
        4
 64
     7
 65
   257
 75
     1
175
     1
 42
1.0
 92
       12
 66
     7
 43
1.0
 76
     1
 77
     6
 78
     2
 67
     7
 79
     5
170
     0
171
     0
290
     0
174
     0
 93
        1
 44
0.0
173
     0
291
     1
 45
0.0
1001
ACAD
1000
AcDbSavedByObjectVersion
1070
     0
  0
DICTIONARYVAR
  5
215
102
{ACAD_REACTORS
330
214
102
}
330
214
100
DictionaryVariables
280
     0
  1
1:1
  0
ENDSEC
  0
EOF
