  0
SECTION
  2
HEADER
  9
$ACADVER
  1
AC1018
  9
$ACADMAINTVER
 70
     0
  9
$DWGCODEPAGE
  3
ANSI_1252
  9
$INSBASE
 10
0.0
 20
0.0
 30
0.0
  9
$EXTMIN
 10
-0.0000000000000213
 20
0.0
 30
0.0
  9
$EXTMAX
 10
365.4264578624806
 20
534.42645786248
 30
0.0
  9
$LIMMIN
 10
0.0
 20
0.0
  9
$LIMMAX
 10
12.0
 20
9.0
  9
$ORTHOMODE
 70
     0
  9
$REGENMODE
 70
     1
  9
$FILLMODE
 70
     1
  9
$QTEXTMODE
 70
     0
  9
$MIRRTEXT
 70
     1
  9
$LTSCALE
 40
1.0
  9
$ATTMODE
 70
     1
  9
$TEXTSIZE
 40
0.2
  9
$TRACEWID
 40
0.05
  9
$TEXTSTYLE
  7
Standard
  9
$CLAYER
  8
Predefinito
  9
$CELTYPE
  6
ByLayer
  9
$CECOLOR
 62
   256
  9
$CELTSCALE
 40
1.0
  9
$DISPSILH
 70
     0
  9
$DIMSCALE
 40
1.0
  9
$DIMASZ
 40
0.18
  9
$DIMEXO
 40
0.0625
  9
$DIMDLI
 40
0.38
  9
$DIMRND
 40
0.0
  9
$DIMDLE
 40
0.0
  9
$DIMEXE
 40
0.18
  9
$DIMTP
 40
0.0
  9
$DIMTM
 40
0.0
  9
$DIMTXT
 40
0.18
  9
$DIMCEN
 40
0.09
  9
$DIMTSZ
 40
0.0
  9
$DIMTOL
 70
     0
  9
$DIMLIM
 70
     0
  9
$DIMTIH
 70
     1
  9
$DIMTOH
 70
     1
  9
$DIMSE1
 70
     0
  9
$DIMSE2
 70
     0
  9
$DIMTAD
 70
     0
  9
$DIMZIN
 70
     0
  9
$DIMBLK
  1

  9
$DIMASO
 70
     1
  9
$DIMSHO
 70
     1
  9
$DIMPOST
  1

  9
$DIMAPOST
  1

  9
$DIMALT
 70
     0
  9
$DIMALTD
 70
     2
  9
$DIMALTF
 40
25.4
  9
$DIMLFAC
 40
1.0
  9
$DIMTOFL
 70
     0
  9
$DIMTVP
 40
0.0
  9
$DIMTIX
 70
     0
  9
$DIMSOXD
 70
     0
  9
$DIMSAH
 70
     0
  9
$DIMBLK1
  1

  9
$DIMBLK2
  1

  9
$DIMSTYLE
  2
Standard
  9
$DIMCLRD
 70
     0
  9
$DIMCLRE
 70
     0
  9
$DIMCLRT
 70
     0
  9
$DIMTFAC
 40
1.0
  9
$DIMGAP
 40
0.09
  9
$DIMJUST
 70
     0
  9
$DIMSD1
 70
     0
  9
$DIMSD2
 70
     0
  9
$DIMTOLJ
 70
     1
  9
$DIMTZIN
 70
     0
  9
$DIMALTZ
 70
     0
  9
$DIMALTTZ
 70
     0
  9
$DIMUPT
 70
     0
  9
$DIMDEC
 70
     4
  9
$DIMTDEC
 70
     4
  9
$DIMALTU
 70
     2
  9
$DIMALTTD
 70
     2
  9
$DIMTXSTY
  7
Standard
  9
$DIMAUNIT
 70
     0
  9
$DIMADEC
 70
     0
  9
$DIMALTRND
 40
0.0
  9
$DIMAZIN
 70
     0
  9
$DIMDSEP
 70
    46
  9
$DIMATFIT
 70
     3
  9
$DIMFRAC
 70
     0
  9
$DIMLDRBLK
  1

  9
$DIMLUNIT
 70
     2
  9
$DIMLWD
 70
    -2
  9
$DIMLWE
 70
    -2
  9
$DIMTMOVE
 70
     2
  9
$LUNITS
 70
     2
  9
$LUPREC
 70
     3
  9
$SKETCHINC
 40
0.1
  9
$FILLETRAD
 40
0.5
  9
$AUNITS
 70
     0
  9
$AUPREC
 70
     0
  9
$MENU
  1
.
  9
$ELEVATION
 40
0.0
  9
$PELEVATION
 40
0.0
  9
$THICKNESS
 40
0.0
  9
$LIMCHECK
 70
     0
  9
$CHAMFERA
 40
0.5
  9
$CHAMFERB
 40
0.5
  9
$CHAMFERC
 40
1.0
  9
$CHAMFERD
 40
0.0
  9
$SKPOLY
 70
     0
  9
$TDCREATE
 40
2455953.530825868
  9
$TDUCREATE
 40
2455953.489159201
  9
$TDUPDATE
 40
2455953.530825879
  9
$TDUUPDATE
 40
2455953.489159213
  9
$TDINDWG
 40
0.0000000116
  9
$TDUSRTIMER
 40
0.0000000116
  9
$USRTIMER
 70
     1
  9
$ANGBASE
 50
0.0
  9
$ANGDIR
 70
     0
  9
$PDMODE
 70
     0
  9
$PDSIZE
 40
0.0
  9
$PLINEWID
 40
0.0
  9
$SPLFRAME
 70
     0
  9
$SPLINETYPE
 70
     6
  9
$SPLINESEGS
 70
     8
  9
$HANDSEED
  5
1C4
  9
$SURFTAB1
 70
     6
  9
$SURFTAB2
 70
     6
  9
$SURFTYPE
 70
     6
  9
$SURFU
 70
     6
  9
$SURFV
 70
     6
  9
$UCSBASE
  2

  9
$UCSNAME
  2

  9
$UCSORG
 10
0.0
 20
0.0
 30
0.0
  9
$UCSXDIR
 10
1.0
 20
0.0
 30
0.0
  9
$UCSYDIR
 10
0.0
 20
1.0
 30
0.0
  9
$UCSORTHOREF
  2

  9
$UCSORTHOVIEW
 70
     0
  9
$UCSORGTOP
 10
0.0
 20
0.0
 30
0.0
  9
$UCSORGBOTTOM
 10
0.0
 20
0.0
 30
0.0
  9
$UCSORGLEFT
 10
0.0
 20
0.0
 30
0.0
  9
$UCSORGRIGHT
 10
0.0
 20
0.0
 30
0.0
  9
$UCSORGFRONT
 10
0.0
 20
0.0
 30
0.0
  9
$UCSORGBACK
 10
0.0
 20
0.0
 30
0.0
  9
$PUCSBASE
  2

  9
$PUCSNAME
  2

  9
$PUCSORG
 10
0.0
 20
0.0
 30
0.0
  9
$PUCSXDIR
 10
1.0
 20
0.0
 30
0.0
  9
$PUCSYDIR
 10
0.0
 20
1.0
 30
0.0
  9
$PUCSORTHOREF
  2

  9
$PUCSORTHOVIEW
 70
     0
  9
$PUCSORGTOP
 10
0.0
 20
0.0
 30
0.0
  9
$PUCSORGBOTTOM
 10
0.0
 20
0.0
 30
0.0
  9
$PUCSORGLEFT
 10
0.0
 20
0.0
 30
0.0
  9
$PUCSORGRIGHT
 10
0.0
 20
0.0
 30
0.0
  9
$PUCSORGFRONT
 10
0.0
 20
0.0
 30
0.0
  9
$PUCSORGBACK
 10
0.0
 20
0.0
 30
0.0
  9
$USERI1
 70
     0
  9
$USERI2
 70
     0
  9
$USERI3
 70
     0
  9
$USERI4
 70
     0
  9
$USERI5
 70
     0
  9
$USERR1
 40
0.0
  9
$USERR2
 40
0.0
  9
$USERR3
 40
0.0
  9
$USERR4
 40
0.0
  9
$USERR5
 40
0.0
  9
$WORLDVIEW
 70
     1
  9
$SHADEDGE
 70
     3
  9
$SHADEDIF
 70
    70
  9
$TILEMODE
 70
     1
  9
$MAXACTVP
 70
    64
  9
$PINSBASE
 10
0.0
 20
0.0
 30
0.0
  9
$PLIMCHECK
 70
     0
  9
$PEXTMIN
 10
1.000000000000000E+20
 20
1.000000000000000E+20
 30
1.000000000000000E+20
  9
$PEXTMAX
 10
-1.000000000000000E+20
 20
-1.000000000000000E+20
 30
-1.000000000000000E+20
  9
$PLIMMIN
 10
0.0
 20
0.0
  9
$PLIMMAX
 10
12.0
 20
9.0
  9
$UNITMODE
 70
     0
  9
$VISRETAIN
 70
     1
  9
$PLINEGEN
 70
     0
  9
$PSLTSCALE
 70
     1
  9
$TREEDEPTH
 70
  3020
  9
$CMLSTYLE
  2
Standard
  9
$CMLJUST
 70
     0
  9
$CMLSCALE
 40
1.0
  9
$PROXYGRAPHICS
 70
     1
  9
$MEASUREMENT
 70
     0
  9
$CELWEIGHT
370
    -1
  9
$ENDCAPS
280
     0
  9
$JOINSTYLE
280
     0
  9
$LWDISPLAY
290
     0
  9
$INSUNITS
 70
     4
  9
$HYPERLINKBASE
  1

  9
$STYLESHEET
  1

  9
$XEDIT
290
     1
  9
$CEPSNTYPE
380
     0
  9
$PSTYLEMODE
290
     1
  9
$FINGERPRINTGUID
  2
{8BDF4D1D-A522-4167-AA91-B2DB30822B3A}
  9
$VERSIONGUID
  2
{FAEB1C32-E019-11D5-929B-00C0DF256EC4}
  9
$EXTNAMES
290
     1
  9
$PSVPSCALE
 40
0.0
  9
$OLESTARTUP
290
     0
  9
$SORTENTS
280
   127
  9
$INDEXCTL
280
     0
  9
$HIDETEXT
280
     1
  9
$XCLIPFRAME
290
     0
  9
$HALOGAP
280
     0
  9
$OBSCOLOR
 70
   257
  9
$OBSLTYPE
280
     0
  9
$INTERSECTIONDISPLAY
280
     0
  9
$INTERSECTIONCOLOR
 70
   257
  9
$DIMASSOC
280
     2
  9
$PROJECTNAME
  1

  0
ENDSEC
  0
SECTION
  2
CLASSES
  0
CLASS
  1
ACDBDICTIONARYWDFLT
  2
AcDbDictionaryWithDefault
  3
ObjectDBX Classes
 90
        0
 91
        4
280
     0
281
     0
  0
CLASS
  1
VISUALSTYLE
  2
AcDbVisualStyle
  3
ObjectDBX Classes
 90
     4095
 91
        4
280
     0
281
     0
  0
ENDSEC
  0
SECTION
  2
TABLES
  0
TABLE
  2
VPORT
  5
8
330
0
100
AcDbSymbolTable
 70
     1
  0
VPORT
  5
29
330
8
100
AcDbSymbolTableRecord
100
AcDbViewportTableRecord
  2
*Active
 70
     0
 10
0.0
 20
0.0
 11
1.0
 21
1.0
 12
182.7132289312403
 22
267.21322893124
 13
0.0
 23
0.0
 14
0.5
 24
0.5
 15
0.5
 25
0.5
 16
0.0
 26
0.0
 36
1.0
 17
0.0
 27
0.0
 37
0.0
 40
545.1149870197296
 41
0.6837731412551304
 42
50.0
 43
0.0
 44
0.0
 50
0.0
 51
0.0
 71
     0
 72
   100
 73
     1
 74
     3
 75
     0
 76
     0
 77
     0
 78
     0
281
     0
 65
     1
110
0.0
120
0.0
130
0.0
111
1.0
121
0.0
131
0.0
112
0.0
122
1.0
132
0.0
 79
     0
146
0.0
  0
ENDTAB
  0
TABLE
  2
LTYPE
  5
5
330
0
100
AcDbSymbolTable
 70
     1
  0
LTYPE
  5
14
330
5
100
AcDbSymbolTableRecord
100
AcDbLinetypeTableRecord
  2
ByBlock
 70
     0
  3

 72
    65
 73
     0
 40
0.0
  0
LTYPE
  5
15
330
5
100
AcDbSymbolTableRecord
100
AcDbLinetypeTableRecord
  2
ByLayer
 70
     0
  3

 72
    65
 73
     0
 40
0.0
  0
LTYPE
  5
16
330
5
100
AcDbSymbolTableRecord
100
AcDbLinetypeTableRecord
  2
Continuous
 70
     0
  3
Solid line
 72
    65
 73
     0
 40
0.0
  0
ENDTAB
  0
TABLE
  2
LAYER
  5
2
330
0
100
AcDbSymbolTable
 70
     3
  0
LAYER
  5
10
330
2
100
AcDbSymbolTableRecord
100
AcDbLayerTableRecord
  2
0
 70
     0
 62
     7
  6
Continuous
370
    -3
390
F
  0
LAYER
  5
3B
330
2
100
AcDbSymbolTableRecord
100
AcDbLayerTableRecord
  2
Linee visibili 2D
 70
     0
 62
     7
  6
Continuous
370
    -3
390
F
  0
LAYER
  5
118
330
2
100
AcDbSymbolTableRecord
100
AcDbLayerTableRecord
  2
Predefinito
 70
     0
 62
     7
  6
Continuous
370
    -3
390
F
  0
ENDTAB
  0
TABLE
  2
STYLE
  5
3
330
0
100
AcDbSymbolTable
 70
     1
  0
STYLE
  5
11
330
3
100
AcDbSymbolTableRecord
100
AcDbTextStyleTableRecord
  2
Standard
 70
     0
 40
0.0
 41
1.0
 50
0.0
 71
     0
 42
0.2
  3
txt
  4

  0
ENDTAB
  0
TABLE
  2
VIEW
  5
6
330
0
100
AcDbSymbolTable
 70
     0
  0
ENDTAB
  0
TABLE
  2
UCS
  5
7
330
0
100
AcDbSymbolTable
 70
     0
  0
ENDTAB
  0
TABLE
  2
APPID
  5
9
330
0
100
AcDbSymbolTable
 70
     1
  0
APPID
  5
12
330
9
100
AcDbSymbolTableRecord
100
AcDbRegAppTableRecord
  2
ACAD
 70
     0
  0
ENDTAB
  0
TABLE
  2
DIMSTYLE
  5
A
330
0
100
AcDbSymbolTable
 70
     1
100
AcDbDimStyleTable
  0
DIMSTYLE
105
27
330
A
100
AcDbSymbolTableRecord
100
AcDbDimStyleTableRecord
  2
Standard
 70
     0
340
11
  0
ENDTAB
  0
TABLE
  2
BLOCK_RECORD
  5
1
330
0
100
AcDbSymbolTable
 70
     1
  0
BLOCK_RECORD
  5
1F
330
1
100
AcDbSymbolTableRecord
100
AcDbBlockTableRecord
  2
*Model_Space
340
22
  0
BLOCK_RECORD
  5
1B
330
1
100
AcDbSymbolTableRecord
100
AcDbBlockTableRecord
  2
*Paper_Space
340
1E
  0
BLOCK_RECORD
  5
23
330
1
100
AcDbSymbolTableRecord
100
AcDbBlockTableRecord
  2
*Paper_Space0
340
26
  0
ENDTAB
  0
ENDSEC
  0
SECTION
  2
BLOCKS
  0
BLOCK
  5
20
330
1F
100
AcDbEntity
  8
0
100
AcDbBlockBegin
  2
*Model_Space
 70
     0
 10
0.0
 20
0.0
 30
0.0
  3
*Model_Space
  1

  0
ENDBLK
  5
21
330
1F
100
AcDbEntity
  8
0
100
AcDbBlockEnd
  0
BLOCK
  5
1C
330
1B
100
AcDbEntity
 67
     1
  8
0
100
AcDbBlockBegin
  2
*Paper_Space
 70
     0
 10
0.0
 20
0.0
 30
0.0
  3
*Paper_Space
  1

  0
ENDBLK
  5
1D
330
1B
100
AcDbEntity
 67
     1
  8
0
100
AcDbBlockEnd
  0
BLOCK
  5
24
330
23
100
AcDbEntity
  8
0
100
AcDbBlockBegin
  2
*Paper_Space0
 70
     0
 10
0.0
 20
0.0
 30
0.0
  3
*Paper_Space0
  1

  0
ENDBLK
  5
25
330
23
100
AcDbEntity
  8
0
100
AcDbBlockEnd
  0
ENDSEC
  0
SECTION
  2
ENTITIES
  0
POLYLINE
  5
3C
330
1F
100
AcDbEntity
  8
Linee visibili 2D
 62
   255
100
AcDb2dPolyline
 66
     1
 10
0.0
 20
0.0
 30
0.0
  0
VERTEX
  5
3D
330
3C
100
AcDbEntity
  8
Linee visibili 2D
 62
   255
100
AcDbVertex
100
AcDb2dVertex
 10
83.00000000001285
 20
310.17645786248
 30
0.0
  0
VERTEX
  5
3E
330
3C
100
AcDbEntity
  8
Linee visibili 2D
 62
   255
100
AcDbVertex
100
AcDb2dVertex
 10
106.9999999999378
 20
310.17645786248
 30
0.0
 42
-1.000000000005173
  0
VERTEX
  5
3F
330
3C
100
AcDbEntity
  8
Linee visibili 2D
 62
   255
100
AcDbVertex
100
AcDb2dVertex
 10
107.0000000000157
 20
301.17645786248
 30
0.0
  0
VERTEX
  5
40
330
3C
100
AcDbEntity
  8
Linee visibili 2D
 62
   255
100
AcDbVertex
100
AcDb2dVertex
 10
83.00000000002558
 20
301.17645786248
 30
0.0
 42
-1.000000000004247
  0
VERTEX
  5
41
330
3C
100
AcDbEntity
  8
Linee visibili 2D
 62
   255
100
AcDbVertex
100
AcDb2dVertex
 10
83.00000000001285
 20
310.17645786248
 30
0.0
  0
SEQEND
  5
42
330
3C
100
AcDbEntity
  8
Linee visibili 2D
 62
   255
  0
POLYLINE
  5
43
330
1F
100
AcDbEntity
  8
Linee visibili 2D
 62
   255
100
AcDb2dPolyline
 66
     1
 10
0.0
 20
0.0
 30
0.0
  0
VERTEX
  5
44
330
43
100
AcDbEntity
  8
Linee visibili 2D
 62
   255
100
AcDbVertex
100
AcDb2dVertex
 10
30.03352764878323
 20
441.9454117186751
 30
0.0
  0
VERTEX
  5
45
330
43
100
AcDbEntity
  8
Linee visibili 2D
 62
   255
100
AcDbVertex
100
AcDb2dVertex
 10
30.03352764878321
 20
467.9454117186752
 30
0.0
 42
-0.4142135623730189
  0
VERTEX
  5
46
330
43
100
AcDbEntity
  8
Linee visibili 2D
 62
   255
100
AcDbVertex
100
AcDb2dVertex
 10
32.01895385619531
 20
469.9308379260873
 30
0.0
  0
VERTEX
  5
47
330
43
100
AcDbEntity
  8
Linee visibili 2D
 62
   255
100
AcDbVertex
100
AcDb2dVertex
 10
158.018953856195
 20
469.9308379260873
 30
0.0
 42
-0.4142135623730542
  0
VERTEX
  5
48
330
43
100
AcDbEntity
  8
Linee visibili 2D
 62
   255
100
AcDbVertex
100
AcDb2dVertex
 10
160.0043800636071
 20
467.9454117186751
 30
0.0
  0
VERTEX
  5
49
330
43
100
AcDbEntity
  8
Linee visibili 2D
 62
   255
100
AcDbVertex
100
AcDb2dVertex
 10
160.0043800636071
 20
441.9454117186751
 30
0.0
 42
-0.4142135623731395
  0
VERTEX
  5
4A
330
43
100
AcDbEntity
  8
Linee visibili 2D
 62
   255
100
AcDbVertex
100
AcDb2dVertex
 10
158.018953856195
 20
439.9599855112631
 30
0.0
  0
VERTEX
  5
4B
330
43
100
AcDbEntity
  8
Linee visibili 2D
 62
   255
100
AcDbVertex
100
AcDb2dVertex
 10
32.01895385619524
 20
439.9599855112631
 30
0.0
 42
-0.4142135623731408
  0
VERTEX
  5
4C
330
43
100
AcDbEntity
  8
Linee visibili 2D
 62
   255
100
AcDbVertex
100
AcDb2dVertex
 10
30.03352764878326
 20
441.9454117186751
 30
0.0
  0
SEQEND
  5
4D
330
43
100
AcDbEntity
  8
Linee visibili 2D
 62
   255
  0
POLYLINE
  5
4E
330
1F
100
AcDbEntity
  8
Linee visibili 2D
 62
   255
100
AcDb2dPolyline
 66
     1
 10
0.0
 20
0.0
 30
0.0
  0
VERTEX
  5
4F
330
4E
100
AcDbEntity
  8
Linee visibili 2D
 62
   255
100
AcDbVertex
100
AcDb2dVertex
 10
5.000000000000099
 20
521.92645786248
 30
0.0
  0
VERTEX
  5
50
330
4E
100
AcDbEntity
  8
Linee visibili 2D
 62
   255
100
AcDbVertex
100
AcDb2dVertex
 10
5.000000000000085
 20
296.92645786248
 30
0.0
 42
0.4142135623730868
  0
VERTEX
  5
51
330
4E
100
AcDbEntity
  8
Linee visibili 2D
 62
   255
100
AcDbVertex
100
AcDb2dVertex
 10
10.0000000000001
 20
291.92645786248
 30
0.0
  0
VERTEX
  5
52
330
4E
100
AcDbEntity
  8
Linee visibili 2D
 62
   255
100
AcDbVertex
100
AcDb2dVertex
 10
180.0
 20
291.92645786248
 30
0.0
 42
0.4142135623730975
  0
VERTEX
  5
53
330
4E
100
AcDbEntity
  8
Linee visibili 2D
 62
   255
100
AcDbVertex
100
AcDb2dVertex
 10
185.0
 20
296.92645786248
 30
0.0
  0
VERTEX
  5
54
330
4E
100
AcDbEntity
  8
Linee visibili 2D
 62
   255
100
AcDbVertex
100
AcDb2dVertex
 10
185.0
 20
521.92645786248
 30
0.0
 42
0.4142135623731169
  0
VERTEX
  5
55
330
4E
100
AcDbEntity
  8
Linee visibili 2D
 62
   255
100
AcDbVertex
100
AcDb2dVertex
 10
180.0
 20
526.92645786248
 30
0.0
  0
VERTEX
  5
56
330
4E
100
AcDbEntity
  8
Linee visibili 2D
 62
   255
100
AcDbVertex
100
AcDb2dVertex
 10
10.0000000000001
 20
526.92645786248
 30
0.0
 42
0.414213562373105
  0
VERTEX
  5
57
330
4E
100
AcDbEntity
  8
Linee visibili 2D
 62
   255
100
AcDbVertex
100
AcDb2dVertex
 10
5.000000000000142
 20
521.92645786248
 30
0.0
  0
SEQEND
  5
58
330
4E
100
AcDbEntity
  8
Linee visibili 2D
 62
   255
  0
POLYLINE
  5
59
330
1F
100
AcDbEntity
  8
Linee visibili 2D
 62
   255
100
AcDb2dPolyline
 66
     1
 10
0.0
 20
0.0
 30
0.0
  0
VERTEX
  5
5A
330
59
100
AcDbEntity
  8
Linee visibili 2D
 62
   255
100
AcDbVertex
100
AcDb2dVertex
 10
185.0
 20
534.42645786248
 30
0.0
 42
-0.4500479716842447
  0
VERTEX
  5
5B
330
59
100
AcDbEntity
  8
Linee visibili 2D
 62
   255
100
AcDbVertex
100
AcDb2dVertex
 10
190.0
 20
528.7046803644869
 30
0.0
  0
VERTEX
  5
5C
330
59
100
AcDbEntity
  8
Linee visibili 2D
 62
   255
100
AcDbVertex
100
AcDb2dVertex
 10
190.0
 20
289.4264578624801
 30
0.0
 42
-0.414213562373108
  0
VERTEX
  5
5D
330
59
100
AcDbEntity
  8
Linee visibili 2D
 62
   255
100
AcDbVertex
100
AcDb2dVertex
 10
185.0
 20
284.42645786248
 30
0.0
  0
VERTEX
  5
5E
330
59
100
AcDbEntity
  8
Linee visibili 2D
 62
   255
100
AcDbVertex
100
AcDb2dVertex
 10
4.999999999999695
 20
284.42645786248
 30
0.0
 42
-0.4142135623730754
  0
VERTEX
  5
5F
330
59
100
AcDbEntity
  8
Linee visibili 2D
 62
   255
100
AcDbVertex
100
AcDb2dVertex
 10
0.0000000000000031
 20
289.42645786248
 30
0.0
  0
VERTEX
  5
60
330
59
100
AcDbEntity
  8
Linee visibili 2D
 62
   255
100
AcDbVertex
100
AcDb2dVertex
 10
0.0
 20
529.42645786248
 30
0.0
 42
-0.4142135623730676
  0
VERTEX
  5
61
330
59
100
AcDbEntity
  8
Linee visibili 2D
 62
   255
100
AcDbVertex
100
AcDb2dVertex
 10
5.0
 20
534.42645786248
 30
0.0
  0
VERTEX
  5
62
330
59
100
AcDbEntity
  8
Linee visibili 2D
 62
   255
100
AcDbVertex
100
AcDb2dVertex
 10
185.0
 20
534.42645786248
 30
0.0
  0
SEQEND
  5
63
330
59
100
AcDbEntity
  8
Linee visibili 2D
 62
   255
  0
POLYLINE
  5
64
330
1F
100
AcDbEntity
  8
Linee visibili 2D
 62
   255
100
AcDb2dPolyline
 66
     1
 10
0.0
 20
0.0
 30
0.0
  0
VERTEX
  5
65
330
64
100
AcDbEntity
  8
Linee visibili 2D
 62
   255
100
AcDbVertex
100
AcDb2dVertex
 10
307.42645786248
 20
302.3665097867925
 30
0.0
  0
VERTEX
  5
66
330
64
100
AcDbEntity
  8
Linee visibili 2D
 62
   255
100
AcDbVertex
100
AcDb2dVertex
 10
307.42645786248
 20
300.52645786248
 30
0.0
  0
VERTEX
  5
67
330
64
100
AcDbEntity
  8
Linee visibili 2D
 62
   255
100
AcDbVertex
100
AcDb2dVertex
 10
307.42645786248
 20
295.9478801999239
 30
0.0
  0
VERTEX
  5
68
330
64
100
AcDbEntity
  8
Linee visibili 2D
 62
   255
100
AcDbVertex
100
AcDb2dVertex
 10
307.9133693883261
 20
295.4480515374361
 30
0.0
  0
VERTEX
  5
69
330
64
100
AcDbEntity
  8
Linee visibili 2D
 62
   255
100
AcDbVertex
100
AcDb2dVertex
 10
314.8925535698211
 20
295.2652951678425
 30
0.0
  0
SEQEND
  5
6A
330
64
100
AcDbEntity
  8
Linee visibili 2D
 62
   255
  0
POLYLINE
  5
6B
330
1F
100
AcDbEntity
  8
Linee visibili 2D
 62
   255
100
AcDb2dPolyline
 66
     1
 10
0.0
 20
0.0
 30
0.0
  0
VERTEX
  5
6C
330
6B
100
AcDbEntity
  8
Linee visibili 2D
 62
   255
100
AcDbVertex
100
AcDb2dVertex
 10
307.42645786248
 20
407.0050156271876
 30
0.0
  0
VERTEX
  5
6D
330
6B
100
AcDbEntity
  8
Linee visibili 2D
 62
   255
100
AcDbVertex
100
AcDb2dVertex
 10
307.42645786248
 20
404.0293841328063
 30
0.0
  0
VERTEX
  5
6E
330
6B
100
AcDbEntity
  8
Linee visibili 2D
 62
   255
100
AcDbVertex
100
AcDb2dVertex
 10
322.7536697163284
 20
404.4307413002855
 30
0.0
  0
VERTEX
  5
6F
330
6B
100
AcDbEntity
  8
Linee visibili 2D
 62
   255
100
AcDbVertex
100
AcDb2dVertex
 10
324.0671930015429
 20
404.5351701837134
 30
0.0
 42
0.1442031099906263
  0
VERTEX
  5
70
330
6B
100
AcDbEntity
  8
Linee visibili 2D
 62
   255
100
AcDbVertex
100
AcDb2dVertex
 10
330.6218896384392
 20
407.4891337729969
 30
0.0
  0
VERTEX
  5
71
330
6B
100
AcDbEntity
  8
Linee visibili 2D
 62
   255
100
AcDbVertex
100
AcDb2dVertex
 10
331.3884572516799
 20
408.2124919025812
 30
0.0
 42
0.1915200469804031
  0
VERTEX
  5
72
330
6B
100
AcDbEntity
  8
Linee visibili 2D
 62
   255
100
AcDbVertex
100
AcDb2dVertex
 10
334.9263075268922
 20
416.8653652304254
 30
0.0
  0
VERTEX
  5
73
330
6B
100
AcDbEntity
  8
Linee visibili 2D
 62
   255
100
AcDbVertex
100
AcDb2dVertex
 10
334.926419608028
 20
416.9478383296536
 30
0.0
 42
0.1920552107952611
  0
VERTEX
  5
74
330
6B
100
AcDbEntity
  8
Linee visibili 2D
 62
   255
100
AcDbVertex
100
AcDb2dVertex
 10
331.3845550332248
 20
425.6444362234518
 30
0.0
  0
VERTEX
  5
75
330
6B
100
AcDbEntity
  8
Linee visibili 2D
 62
   255
100
AcDbVertex
100
AcDb2dVertex
 10
330.6218909447725
 20
426.3637830766367
 30
0.0
 42
0.1442261402243805
  0
VERTEX
  5
76
330
6B
100
AcDbEntity
  8
Linee visibili 2D
 62
   255
100
AcDbVertex
100
AcDb2dVertex
 10
324.0660777170018
 20
429.3178923563455
 30
0.0
  0
VERTEX
  5
77
330
6B
100
AcDbEntity
  8
Linee visibili 2D
 62
   255
100
AcDbVertex
100
AcDb2dVertex
 10
322.7536697163286
 20
429.4221744246745
 30
0.0
  0
VERTEX
  5
78
330
6B
100
AcDbEntity
  8
Linee visibili 2D
 62
   255
100
AcDbVertex
100
AcDb2dVertex
 10
307.42645786248
 20
429.8235315921536
 30
0.0
  0
VERTEX
  5
79
330
6B
100
AcDbEntity
  8
Linee visibili 2D
 62
   255
100
AcDbVertex
100
AcDb2dVertex
 10
307.42645786248
 20
424.5050156271876
 30
0.0
  0
SEQEND
  5
7A
330
6B
100
AcDbEntity
  8
Linee visibili 2D
 62
   255
  0
POLYLINE
  5
7B
330
1F
100
AcDbEntity
  8
Linee visibili 2D
 62
   255
100
AcDb2dPolyline
 66
     1
 10
0.0
 20
0.0
 30
0.0
  0
VERTEX
  5
7C
330
7B
100
AcDbEntity
  8
Linee visibili 2D
 62
   255
100
AcDbVertex
100
AcDb2dVertex
 10
362.384406853755
 20
517.5400849859615
 30
0.0
  0
VERTEX
  5
7D
330
7B
100
AcDbEntity
  8
Linee visibili 2D
 62
   255
100
AcDbVertex
100
AcDb2dVertex
 10
361.939546336634
 20
517.839208089507
 30
0.0
  0
VERTEX
  5
7E
330
7B
100
AcDbEntity
  8
Linee visibili 2D
 62
   255
100
AcDbVertex
100
AcDb2dVertex
 10
349.9133693883261
 20
518.1541246158525
 30
0.0
  0
VERTEX
  5
7F
330
7B
100
AcDbEntity
  8
Linee visibili 2D
 62
   255
100
AcDbVertex
100
AcDb2dVertex
 10
349.4583748052751
 20
518.4781742933689
 30
0.0
  0
SEQEND
  5
80
330
7B
100
AcDbEntity
  8
Linee visibili 2D
 62
   255
  0
POLYLINE
  5
81
330
1F
100
AcDbEntity
  8
Linee visibili 2D
 62
   255
100
AcDb2dPolyline
 66
     1
 10
0.0
 20
0.0
 30
0.0
  0
VERTEX
  5
82
330
81
100
AcDbEntity
  8
Linee visibili 2D
 62
   255
100
AcDbVertex
100
AcDb2dVertex
 10
307.42645786248
 20
409.3479000977725
 30
0.0
  0
VERTEX
  5
83
330
81
100
AcDbEntity
  8
Linee visibili 2D
 62
   255
100
AcDbVertex
100
AcDb2dVertex
 10
310.42645786248
 20
409.42645786248
 30
0.0
  0
VERTEX
  5
84
330
81
100
AcDbEntity
  8
Linee visibili 2D
 62
   255
100
AcDbVertex
100
AcDb2dVertex
 10
310.42645786248
 20
424.42645786248
 30
0.0
  0
VERTEX
  5
85
330
81
100
AcDbEntity
  8
Linee visibili 2D
 62
   255
100
AcDbVertex
100
AcDb2dVertex
 10
307.42645786248
 20
424.5050156271876
 30
0.0
  0
VERTEX
  5
86
330
81
100
AcDbEntity
  8
Linee visibili 2D
 62
   255
100
AcDbVertex
100
AcDb2dVertex
 10
307.42645786248
 20
407.0050156271876
 30
0.0
  0
VERTEX
  5
87
330
81
100
AcDbEntity
  8
Linee visibili 2D
 62
   255
100
AcDbVertex
100
AcDb2dVertex
 10
310.42645786248
 20
406.92645786248
 30
0.0
  0
VERTEX
  5
88
330
81
100
AcDbEntity
  8
Linee visibili 2D
 62
   255
100
AcDbVertex
100
AcDb2dVertex
 10
310.42645786248
 20
405.1082846900048
 30
0.0
  0
VERTEX
  5
89
330
81
100
AcDbEntity
  8
Linee visibili 2D
 62
   255
100
AcDbVertex
100
AcDb2dVertex
 10
322.7274927680209
 20
405.4303986252611
 30
0.0
 42
0.3757880821300467
  0
VERTEX
  5
8A
330
81
100
AcDbEntity
  8
Linee visibili 2D
 62
   255
100
AcDbVertex
100
AcDb2dVertex
 10
333.8609704822618
 20
415.7009289366471
 30
0.0
  0
VERTEX
  5
8B
330
81
100
AcDbEntity
  8
Linee visibili 2D
 62
   255
100
AcDbVertex
100
AcDb2dVertex
 10
334.8688076640058
 20
415.7273200820428
 30
0.0
  0
SEQEND
  5
8C
330
81
100
AcDbEntity
  8
Linee visibili 2D
 62
   255
  0
POLYLINE
  5
8D
330
1F
100
AcDbEntity
  8
Linee visibili 2D
 62
   255
100
AcDb2dPolyline
 66
     1
 10
0.0
 20
0.0
 30
0.0
  0
VERTEX
  5
8E
330
8D
100
AcDbEntity
  8
Linee visibili 2D
 62
   255
100
AcDbVertex
100
AcDb2dVertex
 10
313.4866544728122
 20
523.0909312897113
 30
0.0
  0
VERTEX
  5
8F
330
8D
100
AcDbEntity
  8
Linee visibili 2D
 62
   255
100
AcDbVertex
100
AcDb2dVertex
 10
346.92645786248
 20
534.42645786248
 30
0.0
  0
VERTEX
  5
90
330
8D
100
AcDbEntity
  8
Linee visibili 2D
 62
   255
100
AcDbVertex
100
AcDb2dVertex
 10
348.92645786248
 20
534.42645786248
 30
0.0
  0
VERTEX
  5
91
330
8D
100
AcDbEntity
  8
Linee visibili 2D
 62
   255
100
AcDbVertex
100
AcDb2dVertex
 10
349.4264578624801
 20
533.9139383419633
 30
0.0
  0
VERTEX
  5
92
330
8D
100
AcDbEntity
  8
Linee visibili 2D
 62
   255
100
AcDbVertex
100
AcDb2dVertex
 10
349.4264578624798
 20
284.952729095231
 30
0.0
  0
VERTEX
  5
93
330
8D
100
AcDbEntity
  8
Linee visibili 2D
 62
   255
100
AcDbVertex
100
AcDb2dVertex
 10
348.92645786248
 20
284.42645786248
 30
0.0
  0
VERTEX
  5
94
330
8D
100
AcDbEntity
  8
Linee visibili 2D
 62
   255
100
AcDbVertex
100
AcDb2dVertex
 10
346.9298963808985
 20
284.42645786248
 30
0.0
  0
SEQEND
  5
95
330
8D
100
AcDbEntity
  8
Linee visibili 2D
 62
   255
  0
POLYLINE
  5
96
330
1F
100
AcDbEntity
  8
Linee visibili 2D
 62
   255
100
AcDb2dPolyline
 66
     1
 10
0.0
 20
0.0
 30
0.0
  0
VERTEX
  5
97
330
96
100
AcDbEntity
  8
Linee visibili 2D
 62
   255
100
AcDbVertex
100
AcDb2dVertex
 10
346.8945409196851
 20
518.1377573129695
 30
0.0
  0
VERTEX
  5
98
330
96
100
AcDbEntity
  8
Linee visibili 2D
 62
   255
100
AcDbVertex
100
AcDb2dVertex
 10
346.439546336634
 20
517.813707635453
 30
0.0
  0
VERTEX
  5
99
330
96
100
AcDbEntity
  8
Linee visibili 2D
 62
   255
100
AcDbVertex
100
AcDb2dVertex
 10
307.9133693883261
 20
516.8048641875241
 30
0.0
  0
VERTEX
  5
9A
330
96
100
AcDbEntity
  8
Linee visibili 2D
 62
   255
100
AcDbVertex
100
AcDb2dVertex
 10
307.4270253510251
 20
516.3218706736639
 30
0.0
  0
VERTEX
  5
9B
330
96
100
AcDbEntity
  8
Linee visibili 2D
 62
   255
100
AcDbVertex
100
AcDb2dVertex
 10
307.42645786248
 20
513.8264578624801
 30
0.0
  0
VERTEX
  5
9C
330
96
100
AcDbEntity
  8
Linee visibili 2D
 62
   255
100
AcDbVertex
100
AcDb2dVertex
 10
307.42645786248
 20
429.9168389192466
 30
0.0
  0
SEQEND
  5
9D
330
96
100
AcDbEntity
  8
Linee visibili 2D
 62
   255
  0
POLYLINE
  5
9E
330
1F
100
AcDbEntity
  8
Linee visibili 2D
 62
   255
100
AcDb2dPolyline
 66
     1
 10
0.0
 20
0.0
 30
0.0
  0
VERTEX
  5
9F
330
9E
100
AcDbEntity
  8
Linee visibili 2D
 62
   255
100
AcDbVertex
100
AcDb2dVertex
 10
364.4264578624806
 20
303.1623677268281
 30
0.0
  0
VERTEX
  5
A0
330
9E
100
AcDbEntity
  8
Linee visibili 2D
 62
   255
100
AcDbVertex
100
AcDb2dVertex
 10
365.4263685546592
 20
303.1708767700133
 30
0.0
  0
VERTEX
  5
A1
330
9E
100
AcDbEntity
  8
Linee visibili 2D
 62
   255
100
AcDbVertex
100
AcDb2dVertex
 10
365.4264578624806
 20
303.2880275172031
 30
0.0
  0
VERTEX
  5
A2
330
9E
100
AcDbEntity
  8
Linee visibili 2D
 62
   255
100
AcDbVertex
100
AcDb2dVertex
 10
365.4264578624806
 20
303.8093130768021
 30
0.0
  0
VERTEX
  5
A3
330
9E
100
AcDbEntity
  8
Linee visibili 2D
 62
   255
100
AcDbVertex
100
AcDb2dVertex
 10
365.4264578624806
 20
304.1541649856024
 30
0.0
  0
VERTEX
  5
A4
330
9E
100
AcDbEntity
  8
Linee visibili 2D
 62
   255
100
AcDbVertex
100
AcDb2dVertex
 10
365.4264578624806
 20
308.2462304951662
 30
0.0
  0
VERTEX
  5
A5
330
9E
100
AcDbEntity
  8
Linee visibili 2D
 62
   255
100
AcDbVertex
100
AcDb2dVertex
 10
364.4264578624806
 20
308.254957362957
 30
0.0
  0
SEQEND
  5
A6
330
9E
100
AcDbEntity
  8
Linee visibili 2D
 62
   255
  0
POLYLINE
  5
A7
330
1F
100
AcDbEntity
  8
Linee visibili 2D
 62
   255
100
AcDb2dPolyline
 66
     1
 10
0.0
 20
0.0
 30
0.0
  0
VERTEX
  5
A8
330
A7
100
AcDbEntity
  8
Linee visibili 2D
 62
   255
100
AcDbVertex
100
AcDb2dVertex
 10
362.4264578624806
 20
296.92645786248
 30
0.0
  0
VERTEX
  5
A9
330
A7
100
AcDbEntity
  8
Linee visibili 2D
 62
   255
100
AcDbVertex
100
AcDb2dVertex
 10
362.4264578624806
 20
526.92645786248
 30
0.0
  0
VERTEX
  5
AA
330
A7
100
AcDbEntity
  8
Linee visibili 2D
 62
   255
100
AcDbVertex
100
AcDb2dVertex
 10
364.4264578624806
 20
526.92645786248
 30
0.0
  0
VERTEX
  5
AB
330
A7
100
AcDbEntity
  8
Linee visibili 2D
 62
   255
100
AcDbVertex
100
AcDb2dVertex
 10
364.4264578624806
 20
291.92645786248
 30
0.0
  0
VERTEX
  5
AC
330
A7
100
AcDbEntity
  8
Linee visibili 2D
 62
   255
100
AcDbVertex
100
AcDb2dVertex
 10
362.4264578624806
 20
291.92645786248
 30
0.0
  0
VERTEX
  5
AD
330
A7
100
AcDbEntity
  8
Linee visibili 2D
 62
   255
100
AcDbVertex
100
AcDb2dVertex
 10
362.4264578624806
 20
296.92645786248
 30
0.0
  0
SEQEND
  5
AE
330
A7
100
AcDbEntity
  8
Linee visibili 2D
 62
   255
  0
POLYLINE
  5
AF
330
1F
100
AcDbEntity
  8
Linee visibili 2D
 62
   255
100
AcDb2dPolyline
 66
     1
 10
0.0
 20
0.0
 30
0.0
  0
VERTEX
  5
B0
330
AF
100
AcDbEntity
  8
Linee visibili 2D
 62
   255
100
AcDbVertex
100
AcDb2dVertex
 10
349.4745804841118
 20
524.041384765463
 30
0.0
  0
VERTEX
  5
B1
330
AF
100
AcDbEntity
  8
Linee visibili 2D
 62
   255
100
AcDbVertex
100
AcDb2dVertex
 10
349.9133693883261
 20
523.7541246158526
 30
0.0
  0
VERTEX
  5
B2
330
AF
100
AcDbEntity
  8
Linee visibili 2D
 62
   255
100
AcDbVertex
100
AcDb2dVertex
 10
361.939546336634
 20
523.439208089507
 30
0.0
  0
VERTEX
  5
B3
330
AF
100
AcDbEntity
  8
Linee visibili 2D
 62
   255
100
AcDbVertex
100
AcDb2dVertex
 10
362.3929624488575
 20
523.1171467888507
 30
0.0
  0
SEQEND
  5
B4
330
AF
100
AcDbEntity
  8
Linee visibili 2D
 62
   255
  0
POLYLINE
  5
B5
330
1F
100
AcDbEntity
  8
Linee visibili 2D
 62
   255
100
AcDb2dPolyline
 66
     1
 10
0.0
 20
0.0
 30
0.0
  0
VERTEX
  5
B6
330
B5
100
AcDbEntity
  8
Linee visibili 2D
 62
   255
100
AcDbVertex
100
AcDb2dVertex
 10
349.4613530835393
 20
525.0704388521865
 30
0.0
  0
VERTEX
  5
B7
330
B5
100
AcDbEntity
  8
Linee visibili 2D
 62
   255
100
AcDbVertex
100
AcDb2dVertex
 10
349.9133693883261
 20
524.7541246158526
 30
0.0
  0
VERTEX
  5
B8
330
B5
100
AcDbEntity
  8
Linee visibili 2D
 62
   255
100
AcDbVertex
100
AcDb2dVertex
 10
361.939546336634
 20
524.439208089507
 30
0.0
  0
VERTEX
  5
B9
330
B5
100
AcDbEntity
  8
Linee visibili 2D
 62
   255
100
AcDbVertex
100
AcDb2dVertex
 10
362.3945409196851
 20
524.1151584119907
 30
0.0
  0
SEQEND
  5
BA
330
B5
100
AcDbEntity
  8
Linee visibili 2D
 62
   255
  0
POLYLINE
  5
BB
330
1F
100
AcDbEntity
  8
Linee visibili 2D
 62
   255
100
AcDb2dPolyline
 66
     1
 10
0.0
 20
0.0
 30
0.0
  0
VERTEX
  5
BC
330
BB
100
AcDbEntity
  8
Linee visibili 2D
 62
   255
100
AcDbVertex
100
AcDb2dVertex
 10
307.42645786248
 20
404.0292215908988
 30
0.0
  0
VERTEX
  5
BD
330
BB
100
AcDbEntity
  8
Linee visibili 2D
 62
   255
100
AcDbVertex
100
AcDb2dVertex
 10
307.42645786248
 20
305.02645786248
 30
0.0
  0
VERTEX
  5
BE
330
BB
100
AcDbEntity
  8
Linee visibili 2D
 62
   255
100
AcDbVertex
100
AcDb2dVertex
 10
307.4270253510252
 20
302.5517345217601
 30
0.0
  0
VERTEX
  5
BF
330
BB
100
AcDbEntity
  8
Linee visibili 2D
 62
   255
100
AcDbVertex
100
AcDb2dVertex
 10
307.9133693883261
 20
302.0480515374361
 30
0.0
  0
VERTEX
  5
C0
330
BB
100
AcDbEntity
  8
Linee visibili 2D
 62
   255
100
AcDbVertex
100
AcDb2dVertex
 10
346.439546336634
 20
301.0392080895069
 30
0.0
  0
VERTEX
  5
C1
330
BB
100
AcDbEntity
  8
Linee visibili 2D
 62
   255
100
AcDbVertex
100
AcDb2dVertex
 10
346.8945409196851
 20
300.7151584119904
 30
0.0
  0
SEQEND
  5
C2
330
BB
100
AcDbEntity
  8
Linee visibili 2D
 62
   255
  0
POLYLINE
  5
C3
330
1F
100
AcDbEntity
  8
Linee visibili 2D
 62
   255
100
AcDb2dPolyline
 66
     1
 10
0.0
 20
0.0
 30
0.0
  0
VERTEX
  5
C4
330
C3
100
AcDbEntity
  8
Linee visibili 2D
 62
   255
100
AcDbVertex
100
AcDb2dVertex
 10
314.8626835287665
 20
523.5868383825654
 30
0.0
  0
VERTEX
  5
C5
330
C3
100
AcDbEntity
  8
Linee visibili 2D
 62
   255
100
AcDbVertex
100
AcDb2dVertex
 10
307.9133693883261
 20
523.4048641875241
 30
0.0
  0
VERTEX
  5
C6
330
C3
100
AcDbEntity
  8
Linee visibili 2D
 62
   255
100
AcDbVertex
100
AcDb2dVertex
 10
307.42645786248
 20
522.8843460545775
 30
0.0
  0
VERTEX
  5
C7
330
C3
100
AcDbEntity
  8
Linee visibili 2D
 62
   255
100
AcDbVertex
100
AcDb2dVertex
 10
307.42645786248
 20
516.4864059381678
 30
0.0
  0
SEQEND
  5
C8
330
C3
100
AcDbEntity
  8
Linee visibili 2D
 62
   255
  0
POLYLINE
  5
C9
330
1F
100
AcDbEntity
  8
Linee visibili 2D
 62
   255
100
AcDb2dPolyline
 66
     1
 10
0.0
 20
0.0
 30
0.0
  0
VERTEX
  5
CA
330
C9
100
AcDbEntity
  8
Linee visibili 2D
 62
   255
100
AcDbVertex
100
AcDb2dVertex
 10
346.92645786248
 20
534.42645786248
 30
0.0
  0
VERTEX
  5
CB
330
C9
100
AcDbEntity
  8
Linee visibili 2D
 62
   255
100
AcDbVertex
100
AcDb2dVertex
 10
346.92645786248
 20
443.6635362979409
 30
0.0
  0
VERTEX
  5
CC
330
C9
100
AcDbEntity
  8
Linee visibili 2D
 62
   255
100
AcDbVertex
100
AcDb2dVertex
 10
346.92645786248
 20
440.1829186447496
 30
0.0
  0
VERTEX
  5
CD
330
C9
100
AcDbEntity
  8
Linee visibili 2D
 62
   255
100
AcDbVertex
100
AcDb2dVertex
 10
346.92645786248
 20
284.4264578624801
 30
0.0
  0
VERTEX
  5
CE
330
C9
100
AcDbEntity
  8
Linee visibili 2D
 62
   255
100
AcDbVertex
100
AcDb2dVertex
 10
313.4866544728121
 20
295.7619844352489
 30
0.0
  0
SEQEND
  5
CF
330
C9
100
AcDbEntity
  8
Linee visibili 2D
 62
   255
  0
POLYLINE
  5
D0
330
1F
100
AcDbEntity
  8
Linee visibili 2D
 62
   255
100
AcDb2dPolyline
 66
     1
 10
0.0
 20
0.0
 30
0.0
  0
VERTEX
  5
D1
330
D0
100
AcDbEntity
  8
Linee visibili 2D
 62
   255
100
AcDbVertex
100
AcDb2dVertex
 10
346.8945409196851
 20
490.3651584119907
 30
0.0
  0
VERTEX
  5
D2
330
D0
100
AcDbEntity
  8
Linee visibili 2D
 62
   255
100
AcDbVertex
100
AcDb2dVertex
 10
346.439546336634
 20
490.689208089507
 30
0.0
  0
VERTEX
  5
D3
330
D0
100
AcDbEntity
  8
Linee visibili 2D
 62
   255
100
AcDbVertex
100
AcDb2dVertex
 10
326.2764578624802
 20
491.2171971428838
 30
0.0
 42
0.2724810574168128
  0
VERTEX
  5
D4
330
D0
100
AcDbEntity
  8
Linee visibili 2D
 62
   255
100
AcDbVertex
100
AcDb2dVertex
 10
322.9492557145414
 20
490.1764578624801
 30
0.0
  0
VERTEX
  5
D5
330
D0
100
AcDbEntity
  8
Linee visibili 2D
 62
   255
100
AcDbVertex
100
AcDb2dVertex
 10
322.9492557145414
 20
493.6307454704908
 30
0.0
 42
0.2518121290926897
  0
VERTEX
  5
D6
330
D0
100
AcDbEntity
  8
Linee visibili 2D
 62
   255
100
AcDbVertex
100
AcDb2dVertex
 10
326.2764578624802
 20
492.6357185820764
 30
0.0
  0
VERTEX
  5
D7
330
D0
100
AcDbEntity
  8
Linee visibili 2D
 62
   255
100
AcDbVertex
100
AcDb2dVertex
 10
346.439546336634
 20
493.1637076354532
 30
0.0
  0
VERTEX
  5
D8
330
D0
100
AcDbEntity
  8
Linee visibili 2D
 62
   255
100
AcDbVertex
100
AcDb2dVertex
 10
346.8944536435461
 20
493.4875250798196
 30
0.0
  0
SEQEND
  5
D9
330
D0
100
AcDbEntity
  8
Linee visibili 2D
 62
   255
  0
POLYLINE
  5
DA
330
1F
100
AcDbEntity
  8
Linee visibili 2D
 62
   255
100
AcDb2dPolyline
 66
     1
 10
0.0
 20
0.0
 30
0.0
  0
VERTEX
  5
DB
330
DA
100
AcDbEntity
  8
Linee visibili 2D
 62
   255
100
AcDbVertex
100
AcDb2dVertex
 10
346.8945409196851
 20
440.3651584119906
 30
0.0
  0
VERTEX
  5
DC
330
DA
100
AcDbEntity
  8
Linee visibili 2D
 62
   255
100
AcDbVertex
100
AcDb2dVertex
 10
346.439546336634
 20
440.689208089507
 30
0.0
  0
VERTEX
  5
DD
330
DA
100
AcDbEntity
  8
Linee visibili 2D
 62
   255
100
AcDbVertex
100
AcDb2dVertex
 10
326.2764578624802
 20
441.2171971428837
 30
0.0
 42
0.2724810574168711
  0
VERTEX
  5
DE
330
DA
100
AcDbEntity
  8
Linee visibili 2D
 62
   255
100
AcDbVertex
100
AcDb2dVertex
 10
322.9492557145414
 20
440.1764578624801
 30
0.0
  0
VERTEX
  5
DF
330
DA
100
AcDbEntity
  8
Linee visibili 2D
 62
   255
100
AcDbVertex
100
AcDb2dVertex
 10
322.9492557145414
 20
443.6764578624801
 30
0.0
 42
0.2724810574168788
  0
VERTEX
  5
E0
330
DA
100
AcDbEntity
  8
Linee visibili 2D
 62
   255
100
AcDbVertex
100
AcDb2dVertex
 10
326.2764578624802
 20
442.6357185820764
 30
0.0
  0
VERTEX
  5
E1
330
DA
100
AcDbEntity
  8
Linee visibili 2D
 62
   255
100
AcDbVertex
100
AcDb2dVertex
 10
346.439546336634
 20
443.1637076354532
 30
0.0
  0
VERTEX
  5
E2
330
DA
100
AcDbEntity
  8
Linee visibili 2D
 62
   255
100
AcDbVertex
100
AcDb2dVertex
 10
346.8944572638686
 20
443.487534706187
 30
0.0
  0
SEQEND
  5
E3
330
DA
100
AcDbEntity
  8
Linee visibili 2D
 62
   255
  0
LINE
  5
E4
330
1F
100
AcDbEntity
  8
Linee visibili 2D
 62
   255
100
AcDbLine
 10
309.92645786248
 20
404.0948489367294
 30
0.0
 11
309.92645786248
 21
406.9395508232647
 31
0.0
  0
LINE
  5
E5
330
1F
100
AcDbEntity
  8
Linee visibili 2D
 62
   255
100
AcDbLine
 10
309.92645786248
 20
409.4133649016954
 30
0.0
 11
309.92645786248
 21
424.4395508232647
 31
0.0
  0
LINE
  5
E6
330
1F
100
AcDbEntity
  8
Linee visibili 2D
 62
   255
100
AcDbLine
 10
309.92645786248
 20
426.9133649016954
 30
0.0
 11
309.92645786248
 21
429.7580667882307
 31
0.0
  0
POLYLINE
  5
E7
330
1F
100
AcDbEntity
  8
Linee visibili 2D
 62
   255
100
AcDb2dPolyline
 66
     1
 10
0.0
 20
0.0
 30
0.0
  0
VERTEX
  5
E8
330
E7
100
AcDbEntity
  8
Linee visibili 2D
 62
   255
100
AcDbVertex
100
AcDb2dVertex
 10
334.8688076640058
 20
418.1255956429173
 30
0.0
  0
VERTEX
  5
E9
330
E7
100
AcDbEntity
  8
Linee visibili 2D
 62
   255
100
AcDbVertex
100
AcDb2dVertex
 10
333.8609704822618
 20
418.151986788313
 30
0.0
 42
0.3757881557739227
  0
VERTEX
  5
EA
330
E7
100
AcDbEntity
  8
Linee visibili 2D
 62
   255
100
AcDbVertex
100
AcDb2dVertex
 10
322.7274927680209
 20
428.422517099699
 30
0.0
  0
VERTEX
  5
EB
330
E7
100
AcDbEntity
  8
Linee visibili 2D
 62
   255
100
AcDbVertex
100
AcDb2dVertex
 10
310.42645786248
 20
428.7446310349553
 30
0.0
  0
VERTEX
  5
EC
330
E7
100
AcDbEntity
  8
Linee visibili 2D
 62
   255
100
AcDbVertex
100
AcDb2dVertex
 10
310.42645786248
 20
426.92645786248
 30
0.0
  0
VERTEX
  5
ED
330
E7
100
AcDbEntity
  8
Linee visibili 2D
 62
   255
100
AcDbVertex
100
AcDb2dVertex
 10
307.42645786248
 20
426.8479000977725
 30
0.0
  0
SEQEND
  5
EE
330
E7
100
AcDbEntity
  8
Linee visibili 2D
 62
   255
  0
POLYLINE
  5
EF
330
1F
100
AcDbEntity
  8
Linee visibili 2D
 62
   255
100
AcDb2dPolyline
 66
     1
 10
0.0
 20
0.0
 30
0.0
  0
VERTEX
  5
F0
330
EF
100
AcDbEntity
  8
Linee visibili 2D
 62
   255
100
AcDbVertex
100
AcDb2dVertex
 10
346.8945409196851
 20
390.3651584119905
 30
0.0
  0
VERTEX
  5
F1
330
EF
100
AcDbEntity
  8
Linee visibili 2D
 62
   255
100
AcDbVertex
100
AcDb2dVertex
 10
346.439546336634
 20
390.6892080895069
 30
0.0
  0
VERTEX
  5
F2
330
EF
100
AcDbEntity
  8
Linee visibili 2D
 62
   255
100
AcDbVertex
100
AcDb2dVertex
 10
326.2764578624802
 20
391.2171971428838
 30
0.0
 42
0.272481057416843
  0
VERTEX
  5
F3
330
EF
100
AcDbEntity
  8
Linee visibili 2D
 62
   255
100
AcDbVertex
100
AcDb2dVertex
 10
322.9492557145414
 20
390.17645786248
 30
0.0
  0
VERTEX
  5
F4
330
EF
100
AcDbEntity
  8
Linee visibili 2D
 62
   255
100
AcDbVertex
100
AcDb2dVertex
 10
322.9492557145414
 20
393.67645786248
 30
0.0
 42
0.2724810574168522
  0
VERTEX
  5
F5
330
EF
100
AcDbEntity
  8
Linee visibili 2D
 62
   255
100
AcDbVertex
100
AcDb2dVertex
 10
326.2764578624802
 20
392.6357185820763
 30
0.0
  0
VERTEX
  5
F6
330
EF
100
AcDbEntity
  8
Linee visibili 2D
 62
   255
100
AcDbVertex
100
AcDb2dVertex
 10
346.439546336634
 20
393.1637076354532
 30
0.0
  0
VERTEX
  5
F7
330
EF
100
AcDbEntity
  8
Linee visibili 2D
 62
   255
100
AcDbVertex
100
AcDb2dVertex
 10
346.8944572638687
 20
393.4875347061871
 30
0.0
  0
SEQEND
  5
F8
330
EF
100
AcDbEntity
  8
Linee visibili 2D
 62
   255
  0
POLYLINE
  5
F9
330
1F
100
AcDbEntity
  8
Linee visibili 2D
 62
   255
100
AcDb2dPolyline
 66
     1
 10
0.0
 20
0.0
 30
0.0
  0
VERTEX
  5
FA
330
F9
100
AcDbEntity
  8
Linee visibili 2D
 62
   255
100
AcDbVertex
100
AcDb2dVertex
 10
346.8945409196851
 20
340.3651584119905
 30
0.0
  0
VERTEX
  5
FB
330
F9
100
AcDbEntity
  8
Linee visibili 2D
 62
   255
100
AcDbVertex
100
AcDb2dVertex
 10
346.439546336634
 20
340.6892080895069
 30
0.0
  0
VERTEX
  5
FC
330
F9
100
AcDbEntity
  8
Linee visibili 2D
 62
   255
100
AcDbVertex
100
AcDb2dVertex
 10
326.2764578624802
 20
341.2171971428838
 30
0.0
 42
0.2724810574168336
  0
VERTEX
  5
FD
330
F9
100
AcDbEntity
  8
Linee visibili 2D
 62
   255
100
AcDbVertex
100
AcDb2dVertex
 10
322.9492557145414
 20
340.17645786248
 30
0.0
  0
VERTEX
  5
FE
330
F9
100
AcDbEntity
  8
Linee visibili 2D
 62
   255
100
AcDbVertex
100
AcDb2dVertex
 10
322.9492557145414
 20
343.67645786248
 30
0.0
 42
0.2724810574168599
  0
VERTEX
  5
FF
330
F9
100
AcDbEntity
  8
Linee visibili 2D
 62
   255
100
AcDbVertex
100
AcDb2dVertex
 10
326.2764578624802
 20
342.6357185820763
 30
0.0
  0
VERTEX
  5
100
330
F9
100
AcDbEntity
  8
Linee visibili 2D
 62
   255
100
AcDbVertex
100
AcDb2dVertex
 10
346.439546336634
 20
343.1637076354532
 30
0.0
  0
VERTEX
  5
101
330
F9
100
AcDbEntity
  8
Linee visibili 2D
 62
   255
100
AcDbVertex
100
AcDb2dVertex
 10
346.8944572638687
 20
343.4875347061871
 30
0.0
  0
SEQEND
  5
102
330
F9
100
AcDbEntity
  8
Linee visibili 2D
 62
   255
  0
POLYLINE
  5
103
330
1F
100
AcDbEntity
  8
Linee visibili 2D
 62
   255
100
AcDb2dPolyline
 66
     1
 10
0.0
 20
0.0
 30
0.0
  0
VERTEX
  5
104
330
103
100
AcDbEntity
  8
Linee visibili 2D
 62
   255
100
AcDbVertex
100
AcDb2dVertex
 10
349.458374805275
 20
300.3747414315914
 30
0.0
  0
VERTEX
  5
105
330
103
100
AcDbEntity
  8
Linee visibili 2D
 62
   255
100
AcDbVertex
100
AcDb2dVertex
 10
349.9133693883261
 20
300.6987911091078
 30
0.0
  0
VERTEX
  5
106
330
103
100
AcDbEntity
  8
Linee visibili 2D
 62
   255
100
AcDbVertex
100
AcDb2dVertex
 10
361.939546336634
 20
301.0137076354532
 30
0.0
  0
VERTEX
  5
107
330
103
100
AcDbEntity
  8
Linee visibili 2D
 62
   255
100
AcDbVertex
100
AcDb2dVertex
 10
362.3945409196851
 20
301.3377573129698
 30
0.0
  0
SEQEND
  5
108
330
103
100
AcDbEntity
  8
Linee visibili 2D
 62
   255
  0
POLYLINE
  5
109
330
1F
100
AcDbEntity
  8
Linee visibili 2D
 62
   255
100
AcDb2dPolyline
 66
     1
 10
0.0
 20
0.0
 30
0.0
  0
VERTEX
  5
10A
330
109
100
AcDbEntity
  8
Linee visibili 2D
 62
   255
100
AcDbVertex
100
AcDb2dVertex
 10
362.3931350183184
 20
295.7356675212142
 30
0.0
  0
VERTEX
  5
10B
330
109
100
AcDbEntity
  8
Linee visibili 2D
 62
   255
100
AcDbVertex
100
AcDb2dVertex
 10
361.939546336634
 20
295.4137076354531
 30
0.0
  0
VERTEX
  5
10C
330
109
100
AcDbEntity
  8
Linee visibili 2D
 62
   255
100
AcDbVertex
100
AcDb2dVertex
 10
349.9133693883261
 20
295.0987911091075
 30
0.0
  0
VERTEX
  5
10D
330
109
100
AcDbEntity
  8
Linee visibili 2D
 62
   255
100
AcDbVertex
100
AcDb2dVertex
 10
349.473640697649
 20
294.8089969138532
 30
0.0
  0
SEQEND
  5
10E
330
109
100
AcDbEntity
  8
Linee visibili 2D
 62
   255
  0
POLYLINE
  5
10F
330
1F
100
AcDbEntity
  8
Linee visibili 2D
 62
   255
100
AcDb2dPolyline
 66
     1
 10
0.0
 20
0.0
 30
0.0
  0
VERTEX
  5
110
330
10F
100
AcDbEntity
  8
Linee visibili 2D
 62
   255
100
AcDbVertex
100
AcDb2dVertex
 10
349.4613530835394
 20
293.7824768727738
 30
0.0
  0
VERTEX
  5
111
330
10F
100
AcDbEntity
  8
Linee visibili 2D
 62
   255
100
AcDbVertex
100
AcDb2dVertex
 10
349.913369388326
 20
294.0987911091074
 30
0.0
  0
VERTEX
  5
112
330
10F
100
AcDbEntity
  8
Linee visibili 2D
 62
   255
100
AcDbVertex
100
AcDb2dVertex
 10
361.939546336634
 20
294.413707635453
 30
0.0
  0
VERTEX
  5
113
330
10F
100
AcDbEntity
  8
Linee visibili 2D
 62
   255
100
AcDbVertex
100
AcDb2dVertex
 10
362.3945409196851
 20
294.7377573129697
 30
0.0
  0
SEQEND
  5
114
330
10F
100
AcDbEntity
  8
Linee visibili 2D
 62
   255
  0
LINE
  5
115
330
1F
100
AcDbEntity
  8
Linee visibili 2D
 62
   255
100
AcDbLine
 10
309.92645786248
 20
82.1683910742494
 30
0.0
 11
309.92645786248
 21
85.01309296078472
 31
0.0
  0
LINE
  5
116
330
1F
100
AcDbEntity
  8
Linee visibili 2D
 62
   255
100
AcDbLine
 10
309.92645786248
 20
87.48690703921551
 30
0.0
 11
309.92645786248
 21
102.5130929607847
 31
0.0
  0
LINE
  5
117
330
1F
100
AcDbEntity
  8
Linee visibili 2D
 62
   255
100
AcDbLine
 10
309.92645786248
 20
104.9869070392155
 30
0.0
 11
309.92645786248
 21
107.8316089257508
 31
0.0
  0
POLYLINE
  5
119
330
1F
100
AcDbEntity
  8
Predefinito
 62
   255
100
AcDb2dPolyline
 66
     1
 10
0.0
 20
0.0
 30
0.0
  0
VERTEX
  5
11A
330
119
100
AcDbEntity
  8
Predefinito
 62
   255
100
AcDbVertex
100
AcDb2dVertex
 10
364.4264974450211
 20
109.3039600868839
 30
0.0
  0
VERTEX
  5
11B
330
119
100
AcDbEntity
  8
Predefinito
 62
   255
100
AcDbVertex
100
AcDb2dVertex
 10
365.4264578624806
 20
109.2856613028401
 30
0.0
  0
VERTEX
  5
11C
330
119
100
AcDbEntity
  8
Predefinito
 62
   255
100
AcDbVertex
100
AcDb2dVertex
 10
365.4264578624806
 20
80.8607129302971
 30
0.0
  0
VERTEX
  5
11D
330
119
100
AcDbEntity
  8
Predefinito
 62
   255
100
AcDbVertex
100
AcDb2dVertex
 10
364.4264578624806
 20
80.85198608589118
 30
0.0
  0
SEQEND
  5
11E
330
119
100
AcDbEntity
  8
Predefinito
 62
   255
  0
POLYLINE
  5
11F
330
1F
100
AcDbEntity
  8
Linee visibili 2D
 62
   255
100
AcDb2dPolyline
 66
     1
 10
0.0
 20
0.0
 30
0.0
  0
VERTEX
  5
120
330
11F
100
AcDbEntity
  8
Linee visibili 2D
 62
   255
100
AcDbVertex
100
AcDb2dVertex
 10
334.8667060408237
 20
96.19892877548168
 30
0.0
 42
0.168128156160292
  0
VERTEX
  5
121
330
11F
100
AcDbEntity
  8
Linee visibili 2D
 62
   255
100
AcDbVertex
100
AcDb2dVertex
 10
331.3845550319973
 20
103.7179783622326
 30
0.0
  0
VERTEX
  5
122
330
11F
100
AcDbEntity
  8
Linee visibili 2D
 62
   255
100
AcDbVertex
100
AcDb2dVertex
 10
330.6218908195177
 20
104.4373253226116
 30
0.0
 42
0.1442261368389358
  0
VERTEX
  5
123
330
11F
100
AcDbEntity
  8
Linee visibili 2D
 62
   255
100
AcDbVertex
100
AcDb2dVertex
 10
324.0660777170024
 20
107.3914344938723
 30
0.0
  0
VERTEX
  5
124
330
11F
100
AcDbEntity
  8
Linee visibili 2D
 62
   255
100
AcDbVertex
100
AcDb2dVertex
 10
322.7536697163284
 20
107.4957165621945
 30
0.0
  0
VERTEX
  5
125
330
11F
100
AcDbEntity
  8
Linee visibili 2D
 62
   255
100
AcDbVertex
100
AcDb2dVertex
 10
307.42645786248
 20
107.8970737296737
 30
0.0
  0
VERTEX
  5
126
330
11F
100
AcDbEntity
  8
Linee visibili 2D
 62
   255
100
AcDbVertex
100
AcDb2dVertex
 10
307.42645786248
 20
104.9214422352925
 30
0.0
  0
SEQEND
  5
127
330
11F
100
AcDbEntity
  8
Linee visibili 2D
 62
   255
  0
POLYLINE
  5
128
330
1F
100
AcDbEntity
  8
Linee visibili 2D
 62
   255
100
AcDb2dPolyline
 66
     1
 10
0.0
 20
0.0
 30
0.0
  0
VERTEX
  5
129
330
128
100
AcDbEntity
  8
Linee visibili 2D
 62
   255
100
AcDbVertex
100
AcDb2dVertex
 10
349.4804997219618
 20
179.602796745713
 30
0.0
  0
VERTEX
  5
12A
330
128
100
AcDbEntity
  8
Linee visibili 2D
 62
   255
100
AcDbVertex
100
AcDb2dVertex
 10
349.9133693883261
 20
179.3276667533725
 30
0.0
  0
VERTEX
  5
12B
330
128
100
AcDbEntity
  8
Linee visibili 2D
 62
   255
100
AcDbVertex
100
AcDb2dVertex
 10
361.939546336634
 20
179.012750227027
 30
0.0
  0
VERTEX
  5
12C
330
128
100
AcDbEntity
  8
Linee visibili 2D
 62
   255
100
AcDbVertex
100
AcDb2dVertex
 10
362.376645980442
 20
178.7285223668178
 30
0.0
  0
SEQEND
  5
12D
330
128
100
AcDbEntity
  8
Linee visibili 2D
 62
   255
  0
POLYLINE
  5
12E
330
1F
100
AcDbEntity
  8
Linee visibili 2D
 62
   255
100
AcDb2dPolyline
 66
     1
 10
0.0
 20
0.0
 30
0.0
  0
VERTEX
  5
12F
330
12E
100
AcDbEntity
  8
Linee visibili 2D
 62
   255
100
AcDbVertex
100
AcDb2dVertex
 10
346.8945409196851
 20
168.4387005495106
 30
0.0
  0
VERTEX
  5
130
330
12E
100
AcDbEntity
  8
Linee visibili 2D
 62
   255
100
AcDbVertex
100
AcDb2dVertex
 10
346.439546336634
 20
168.762750227027
 30
0.0
  0
VERTEX
  5
131
330
12E
100
AcDbEntity
  8
Linee visibili 2D
 62
   255
100
AcDbVertex
100
AcDb2dVertex
 10
318.9014578624804
 20
169.4838604519763
 30
0.0
 42
0.2724810574169136
  0
VERTEX
  5
132
330
12E
100
AcDbEntity
  8
Linee visibili 2D
 62
   255
100
AcDbVertex
100
AcDb2dVertex
 10
314.9568549985619
 20
168.25
 30
0.0
  0
VERTEX
  5
133
330
12E
100
AcDbEntity
  8
Linee visibili 2D
 62
   255
100
AcDbVertex
100
AcDb2dVertex
 10
314.9568549985618
 20
169.4
 30
0.0
  0
VERTEX
  5
134
330
12E
100
AcDbEntity
  8
Linee visibili 2D
 62
   255
100
AcDbVertex
100
AcDb2dVertex
 10
313.4866544728122
 20
171.0316039196001
 30
0.0
  0
VERTEX
  5
135
330
12E
100
AcDbEntity
  8
Linee visibili 2D
 62
   255
100
AcDbVertex
100
AcDb2dVertex
 10
316.9475032536976
 20
170.4649734458881
 30
0.0
  0
VERTEX
  5
136
330
12E
100
AcDbEntity
  8
Linee visibili 2D
 62
   255
100
AcDbVertex
100
AcDb2dVertex
 10
346.439546336634
 20
171.2372497729729
 30
0.0
  0
VERTEX
  5
137
330
12E
100
AcDbEntity
  8
Linee visibili 2D
 62
   255
100
AcDbVertex
100
AcDb2dVertex
 10
346.894540919685
 20
171.5612994504895
 30
0.0
  0
SEQEND
  5
138
330
12E
100
AcDbEntity
  8
Linee visibili 2D
 62
   255
  0
POLYLINE
  5
139
330
1F
100
AcDbEntity
  8
Linee visibili 2D
 62
   255
100
AcDb2dPolyline
 66
     1
 10
0.0
 20
0.0
 30
0.0
  0
VERTEX
  5
13A
330
139
100
AcDbEntity
  8
Linee visibili 2D
 62
   255
100
AcDbVertex
100
AcDb2dVertex
 10
322.9985579593317
 20
8.111152509541835
 30
0.0
  0
VERTEX
  5
13B
330
139
100
AcDbEntity
  8
Linee visibili 2D
 62
   255
100
AcDbVertex
100
AcDb2dVertex
 10
346.439546336634
 20
0.1650547545241139
 30
0.0
  0
VERTEX
  5
13C
330
139
100
AcDbEntity
  8
Linee visibili 2D
 62
   255
100
AcDbVertex
100
AcDb2dVertex
 10
346.92645786248
 20
0.0000000000000284
 30
0.0
  0
SEQEND
  5
13D
330
139
100
AcDbEntity
  8
Linee visibili 2D
 62
   255
  0
POLYLINE
  5
13E
330
1F
100
AcDbEntity
  8
Linee visibili 2D
 62
   255
100
AcDb2dPolyline
 66
     1
 10
0.0
 20
0.0
 30
0.0
  0
VERTEX
  5
13F
330
13E
100
AcDbEntity
  8
Linee visibili 2D
 62
   255
100
AcDbVertex
100
AcDb2dVertex
 10
346.8945409196851
 20
182.8112994504896
 30
0.0
  0
VERTEX
  5
140
330
13E
100
AcDbEntity
  8
Linee visibili 2D
 62
   255
100
AcDbVertex
100
AcDb2dVertex
 10
346.439546336634
 20
182.4872497729731
 30
0.0
  0
VERTEX
  5
141
330
13E
100
AcDbEntity
  8
Linee visibili 2D
 62
   255
100
AcDbVertex
100
AcDb2dVertex
 10
307.9133693883261
 20
181.478406325044
 30
0.0
  0
VERTEX
  5
142
330
13E
100
AcDbEntity
  8
Linee visibili 2D
 62
   255
100
AcDbVertex
100
AcDb2dVertex
 10
307.42645786248
 20
180.9578881920974
 30
0.0
  0
VERTEX
  5
143
330
13E
100
AcDbEntity
  8
Linee visibili 2D
 62
   255
100
AcDbVertex
100
AcDb2dVertex
 10
307.42645786248
 20
172.0599480756876
 30
0.0
  0
SEQEND
  5
144
330
13E
100
AcDbEntity
  8
Linee visibili 2D
 62
   255
  0
POLYLINE
  5
145
330
1F
100
AcDbEntity
  8
Linee visibili 2D
 62
   255
100
AcDb2dPolyline
 66
     1
 10
0.0
 20
0.0
 30
0.0
  0
VERTEX
  5
146
330
145
100
AcDbEntity
  8
Linee visibili 2D
 62
   255
100
AcDbVertex
100
AcDb2dVertex
 10
307.42645786248
 20
17.94005192431234
 30
0.0
  0
VERTEX
  5
147
330
145
100
AcDbEntity
  8
Linee visibili 2D
 62
   255
100
AcDbVertex
100
AcDb2dVertex
 10
307.42645786248
 20
9.042111807907377
 30
0.0
  0
VERTEX
  5
148
330
145
100
AcDbEntity
  8
Linee visibili 2D
 62
   255
100
AcDbVertex
100
AcDb2dVertex
 10
307.9133693883261
 20
8.521593674955952
 30
0.0
  0
VERTEX
  5
149
330
145
100
AcDbEntity
  8
Linee visibili 2D
 62
   255
100
AcDbVertex
100
AcDb2dVertex
 10
346.439546336634
 20
7.512750227026949
 30
0.0
  0
VERTEX
  5
14A
330
145
100
AcDbEntity
  8
Linee visibili 2D
 62
   255
100
AcDbVertex
100
AcDb2dVertex
 10
346.8945409196852
 20
7.188700549510573
 30
0.0
  0
SEQEND
  5
14B
330
145
100
AcDbEntity
  8
Linee visibili 2D
 62
   255
  0
POLYLINE
  5
14C
330
1F
100
AcDbEntity
  8
Linee visibili 2D
 62
   255
100
AcDb2dPolyline
 66
     1
 10
0.0
 20
0.0
 30
0.0
  0
VERTEX
  5
14D
330
14C
100
AcDbEntity
  8
Linee visibili 2D
 62
   255
100
AcDbVertex
100
AcDb2dVertex
 10
307.42645786248
 20
85.0785577647077
 30
0.0
  0
VERTEX
  5
14E
330
14C
100
AcDbEntity
  8
Linee visibili 2D
 62
   255
100
AcDbVertex
100
AcDb2dVertex
 10
310.42645786248
 20
85.00000000000011
 30
0.0
  0
VERTEX
  5
14F
330
14C
100
AcDbEntity
  8
Linee visibili 2D
 62
   255
100
AcDbVertex
100
AcDb2dVertex
 10
310.42645786248
 20
83.50000000000011
 30
0.0
  0
VERTEX
  5
150
330
14C
100
AcDbEntity
  8
Linee visibili 2D
 62
   255
100
AcDbVertex
100
AcDb2dVertex
 10
322.4264578624565
 20
83.50000000000011
 30
0.0
 42
0.3832759251524369
  0
VERTEX
  5
151
330
14C
100
AcDbEntity
  8
Linee visibili 2D
 62
   255
100
AcDbVertex
100
AcDb2dVertex
 10
333.8609704822618
 20
93.77447107416714
 30
0.0
  0
VERTEX
  5
152
330
14C
100
AcDbEntity
  8
Linee visibili 2D
 62
   255
100
AcDbVertex
100
AcDb2dVertex
 10
334.8695030151384
 20
93.80079668764417
 30
0.0
  0
VERTEX
  5
153
330
14C
100
AcDbEntity
  8
Linee visibili 2D
 62
   255
100
AcDbVertex
100
AcDb2dVertex
 10
334.8783472595064
 20
93.90794767275098
 30
0.0
  0
VERTEX
  5
154
330
14C
100
AcDbEntity
  8
Linee visibili 2D
 62
   255
100
AcDbVertex
100
AcDb2dVertex
 10
334.9263075268906
 20
94.938907367622
 30
0.0
  0
VERTEX
  5
155
330
14C
100
AcDbEntity
  8
Linee visibili 2D
 62
   255
100
AcDbVertex
100
AcDb2dVertex
 10
334.9264196080269
 20
95.02138046745941
 30
0.0
  0
VERTEX
  5
156
330
14C
100
AcDbEntity
  8
Linee visibili 2D
 62
   255
100
AcDbVertex
100
AcDb2dVertex
 10
334.8783439201768
 20
96.09205208829525
 30
0.0
  0
VERTEX
  5
157
330
14C
100
AcDbEntity
  8
Linee visibili 2D
 62
   255
100
AcDbVertex
100
AcDb2dVertex
 10
334.8694918221277
 20
96.19920226766683
 30
0.0
  0
VERTEX
  5
158
330
14C
100
AcDbEntity
  8
Linee visibili 2D
 62
   255
100
AcDbVertex
100
AcDb2dVertex
 10
333.8609704822618
 20
96.22552892583221
 30
0.0
 42
0.3832758405416334
  0
VERTEX
  5
159
330
14C
100
AcDbEntity
  8
Linee visibili 2D
 62
   255
100
AcDbVertex
100
AcDb2dVertex
 10
322.4264578624565
 20
106.5000000000001
 30
0.0
  0
VERTEX
  5
15A
330
14C
100
AcDbEntity
  8
Linee visibili 2D
 62
   255
100
AcDbVertex
100
AcDb2dVertex
 10
310.42645786248
 20
106.5000000000001
 30
0.0
  0
VERTEX
  5
15B
330
14C
100
AcDbEntity
  8
Linee visibili 2D
 62
   255
100
AcDbVertex
100
AcDb2dVertex
 10
310.42645786248
 20
105.0000000000001
 30
0.0
  0
VERTEX
  5
15C
330
14C
100
AcDbEntity
  8
Linee visibili 2D
 62
   255
100
AcDbVertex
100
AcDb2dVertex
 10
307.42645786248
 20
104.9214422352925
 30
0.0
  0
VERTEX
  5
15D
330
14C
100
AcDbEntity
  8
Linee visibili 2D
 62
   255
100
AcDbVertex
100
AcDb2dVertex
 10
307.42645786248
 20
102.5785577647077
 30
0.0
  0
SEQEND
  5
15E
330
14C
100
AcDbEntity
  8
Linee visibili 2D
 62
   255
  0
POLYLINE
  5
15F
330
1F
100
AcDbEntity
  8
Linee visibili 2D
 62
   255
100
AcDb2dPolyline
 66
     1
 10
0.0
 20
0.0
 30
0.0
  0
VERTEX
  5
160
330
15F
100
AcDbEntity
  8
Linee visibili 2D
 62
   255
100
AcDbVertex
100
AcDb2dVertex
 10
346.8944536435459
 20
118.4389327826602
 30
0.0
  0
VERTEX
  5
161
330
15F
100
AcDbEntity
  8
Linee visibili 2D
 62
   255
100
AcDbVertex
100
AcDb2dVertex
 10
346.439546336634
 20
118.7627502270266
 30
0.0
  0
VERTEX
  5
162
330
15F
100
AcDbEntity
  8
Linee visibili 2D
 62
   255
100
AcDbVertex
100
AcDb2dVertex
 10
318.9014578624804
 20
119.4838604519763
 30
0.0
 42
0.2724810574169267
  0
VERTEX
  5
163
330
15F
100
AcDbEntity
  8
Linee visibili 2D
 62
   255
100
AcDbVertex
100
AcDb2dVertex
 10
314.9568549985619
 20
118.25
 30
0.0
  0
VERTEX
  5
164
330
15F
100
AcDbEntity
  8
Linee visibili 2D
 62
   255
100
AcDbVertex
100
AcDb2dVertex
 10
314.9568549985619
 20
121.75
 30
0.0
 42
0.2724810574169195
  0
VERTEX
  5
165
330
15F
100
AcDbEntity
  8
Linee visibili 2D
 62
   255
100
AcDbVertex
100
AcDb2dVertex
 10
318.9014578624804
 20
120.5161395480235
 30
0.0
  0
VERTEX
  5
166
330
15F
100
AcDbEntity
  8
Linee visibili 2D
 62
   255
100
AcDbVertex
100
AcDb2dVertex
 10
346.439546336634
 20
121.2372497729729
 30
0.0
  0
VERTEX
  5
167
330
15F
100
AcDbEntity
  8
Linee visibili 2D
 62
   255
100
AcDbVertex
100
AcDb2dVertex
 10
346.8945409196851
 20
121.5612994504896
 30
0.0
  0
SEQEND
  5
168
330
15F
100
AcDbEntity
  8
Linee visibili 2D
 62
   255
  0
POLYLINE
  5
169
330
1F
100
AcDbEntity
  8
Linee visibili 2D
 62
   255
100
AcDb2dPolyline
 66
     1
 10
0.0
 20
0.0
 30
0.0
  0
VERTEX
  5
16A
330
169
100
AcDbEntity
  8
Linee visibili 2D
 62
   255
100
AcDbVertex
100
AcDb2dVertex
 10
362.4264578624806
 20
10.0000000000001
 30
0.0
  0
VERTEX
  5
16B
330
169
100
AcDbEntity
  8
Linee visibili 2D
 62
   255
100
AcDbVertex
100
AcDb2dVertex
 10
362.4264578624806
 20
185.0
 30
0.0
  0
VERTEX
  5
16C
330
169
100
AcDbEntity
  8
Linee visibili 2D
 62
   255
100
AcDbVertex
100
AcDb2dVertex
 10
364.4264578624806
 20
185.0
 30
0.0
  0
VERTEX
  5
16D
330
169
100
AcDbEntity
  8
Linee visibili 2D
 62
   255
100
AcDbVertex
100
AcDb2dVertex
 10
364.4264578624806
 20
5.000000000000099
 30
0.0
  0
VERTEX
  5
16E
330
169
100
AcDbEntity
  8
Linee visibili 2D
 62
   255
100
AcDbVertex
100
AcDb2dVertex
 10
362.4264578624806
 20
5.000000000000099
 30
0.0
  0
VERTEX
  5
16F
330
169
100
AcDbEntity
  8
Linee visibili 2D
 62
   255
100
AcDbVertex
100
AcDb2dVertex
 10
362.4264578624806
 20
10.0000000000001
 30
0.0
  0
SEQEND
  5
170
330
169
100
AcDbEntity
  8
Linee visibili 2D
 62
   255
  0
POLYLINE
  5
171
330
1F
100
AcDbEntity
  8
Linee visibili 2D
 62
   255
100
AcDb2dPolyline
 66
     1
 10
0.0
 20
0.0
 30
0.0
  0
VERTEX
  5
172
330
171
100
AcDbEntity
  8
Linee visibili 2D
 62
   255
100
AcDbVertex
100
AcDb2dVertex
 10
346.9264578624802
 20
190.0
 30
0.0
  0
VERTEX
  5
173
330
171
100
AcDbEntity
  8
Linee visibili 2D
 62
   255
100
AcDbVertex
100
AcDb2dVertex
 10
346.92645786248
 20
0.0
 30
0.0
  0
VERTEX
  5
174
330
171
100
AcDbEntity
  8
Linee visibili 2D
 62
   255
100
AcDbVertex
100
AcDb2dVertex
 10
348.92645786248
 20
0.0
 30
0.0
  0
VERTEX
  5
175
330
171
100
AcDbEntity
  8
Linee visibili 2D
 62
   255
100
AcDbVertex
100
AcDb2dVertex
 10
349.42645786248
 20
0.5
 30
0.0
  0
VERTEX
  5
176
330
171
100
AcDbEntity
  8
Linee visibili 2D
 62
   255
100
AcDbVertex
100
AcDb2dVertex
 10
349.42645786248
 20
185.0
 30
0.0
  0
VERTEX
  5
177
330
171
100
AcDbEntity
  8
Linee visibili 2D
 62
   255
100
AcDbVertex
100
AcDb2dVertex
 10
349.4264578624799
 20
189.4999377452361
 30
0.0
  0
VERTEX
  5
178
330
171
100
AcDbEntity
  8
Linee visibili 2D
 62
   255
100
AcDbVertex
100
AcDb2dVertex
 10
349.4264578624799
 20
189.4999973189865
 30
0.0
  0
VERTEX
  5
179
330
171
100
AcDbEntity
  8
Linee visibili 2D
 62
   255
100
AcDbVertex
100
AcDb2dVertex
 10
349.4264578624798
 20
189.473728766557
 30
0.0
  0
VERTEX
  5
17A
330
171
100
AcDbEntity
  8
Linee visibili 2D
 62
   255
100
AcDbVertex
100
AcDb2dVertex
 10
348.92645786248
 20
190.0
 30
0.0
  0
VERTEX
  5
17B
330
171
100
AcDbEntity
  8
Linee visibili 2D
 62
   255
100
AcDbVertex
100
AcDb2dVertex
 10
346.92645786248
 20
190.0
 30
0.0
  0
VERTEX
  5
17C
330
171
100
AcDbEntity
  8
Linee visibili 2D
 62
   255
100
AcDbVertex
100
AcDb2dVertex
 10
326.27645786248
 20
183.0
 30
0.0
  0
VERTEX
  5
17D
330
171
100
AcDbEntity
  8
Linee visibili 2D
 62
   255
100
AcDbVertex
100
AcDb2dVertex
 10
322.9985579593315
 20
181.8888474904581
 30
0.0
  0
SEQEND
  5
17E
330
171
100
AcDbEntity
  8
Linee visibili 2D
 62
   255
  0
POLYLINE
  5
17F
330
1F
100
AcDbEntity
  8
Linee visibili 2D
 62
   255
100
AcDb2dPolyline
 66
     1
 10
0.0
 20
0.0
 30
0.0
  0
VERTEX
  5
180
330
17F
100
AcDbEntity
  8
Linee visibili 2D
 62
   255
100
AcDbVertex
100
AcDb2dVertex
 10
362.3770779826639
 20
11.27186019919461
 30
0.0
  0
VERTEX
  5
181
330
17F
100
AcDbEntity
  8
Linee visibili 2D
 62
   255
100
AcDbVertex
100
AcDb2dVertex
 10
361.939546336634
 20
10.98724977297307
 30
0.0
  0
VERTEX
  5
182
330
17F
100
AcDbEntity
  8
Linee visibili 2D
 62
   255
100
AcDbVertex
100
AcDb2dVertex
 10
349.9133693883261
 20
10.67233324662752
 30
0.0
  0
VERTEX
  5
183
330
17F
100
AcDbEntity
  8
Linee visibili 2D
 62
   255
100
AcDbVertex
100
AcDb2dVertex
 10
349.485154627341
 20
10.40575132110054
 30
0.0
  0
SEQEND
  5
184
330
17F
100
AcDbEntity
  8
Linee visibili 2D
 62
   255
  0
POLYLINE
  5
185
330
1F
100
AcDbEntity
  8
Linee visibili 2D
 62
   255
100
AcDb2dPolyline
 66
     1
 10
0.0
 20
0.0
 30
0.0
  0
VERTEX
  5
186
330
185
100
AcDbEntity
  8
Linee visibili 2D
 62
   255
100
AcDbVertex
100
AcDb2dVertex
 10
349.458374805275
 20
6.848283569111146
 30
0.0
  0
VERTEX
  5
187
330
185
100
AcDbEntity
  8
Linee visibili 2D
 62
   255
100
AcDbVertex
100
AcDb2dVertex
 10
349.9133693883261
 20
7.172333246627534
 30
0.0
  0
VERTEX
  5
188
330
185
100
AcDbEntity
  8
Linee visibili 2D
 62
   255
100
AcDbVertex
100
AcDb2dVertex
 10
361.939546336634
 20
7.487249772973072
 30
0.0
  0
VERTEX
  5
189
330
185
100
AcDbEntity
  8
Linee visibili 2D
 62
   255
100
AcDbVertex
100
AcDb2dVertex
 10
362.3945409196851
 20
7.811299450489519
 30
0.0
  0
SEQEND
  5
18A
330
185
100
AcDbEntity
  8
Linee visibili 2D
 62
   255
  0
POLYLINE
  5
18B
330
1F
100
AcDbEntity
  8
Linee visibili 2D
 62
   255
100
AcDb2dPolyline
 66
     1
 10
0.0
 20
0.0
 30
0.0
  0
VERTEX
  5
18C
330
18B
100
AcDbEntity
  8
Linee visibili 2D
 62
   255
100
AcDbVertex
100
AcDb2dVertex
 10
307.42645786248
 20
82.10276372841894
 30
0.0
  0
VERTEX
  5
18D
330
18B
100
AcDbEntity
  8
Linee visibili 2D
 62
   255
100
AcDbVertex
100
AcDb2dVertex
 10
307.42645786248
 20
18.14211180790737
 30
0.0
  0
VERTEX
  5
18E
330
18B
100
AcDbEntity
  8
Linee visibili 2D
 62
   255
100
AcDbVertex
100
AcDb2dVertex
 10
307.4270253510252
 20
18.08771373821719
 30
0.0
  0
VERTEX
  5
18F
330
18B
100
AcDbEntity
  8
Linee visibili 2D
 62
   255
100
AcDbVertex
100
AcDb2dVertex
 10
307.9133693883261
 20
17.62159367495595
 30
0.0
  0
VERTEX
  5
190
330
18B
100
AcDbEntity
  8
Linee visibili 2D
 62
   255
100
AcDbVertex
100
AcDb2dVertex
 10
346.439546336634
 20
16.61275022702695
 30
0.0
  0
VERTEX
  5
191
330
18B
100
AcDbEntity
  8
Linee visibili 2D
 62
   255
100
AcDbVertex
100
AcDb2dVertex
 10
346.8945409196851
 20
16.28870054951059
 30
0.0
  0
SEQEND
  5
192
330
18B
100
AcDbEntity
  8
Linee visibili 2D
 62
   255
  0
POLYLINE
  5
193
330
1F
100
AcDbEntity
  8
Linee visibili 2D
 62
   255
100
AcDb2dPolyline
 66
     1
 10
0.0
 20
0.0
 30
0.0
  0
VERTEX
  5
194
330
193
100
AcDbEntity
  8
Linee visibili 2D
 62
   255
100
AcDbVertex
100
AcDb2dVertex
 10
346.8945409196851
 20
18.43870054951058
 30
0.0
  0
VERTEX
  5
195
330
193
100
AcDbEntity
  8
Linee visibili 2D
 62
   255
100
AcDbVertex
100
AcDb2dVertex
 10
346.439546336634
 20
18.76275022702693
 30
0.0
  0
VERTEX
  5
196
330
193
100
AcDbEntity
  8
Linee visibili 2D
 62
   255
100
AcDbVertex
100
AcDb2dVertex
 10
316.9475032536976
 20
19.53502655411182
 30
0.0
  0
VERTEX
  5
197
330
193
100
AcDbEntity
  8
Linee visibili 2D
 62
   255
100
AcDbVertex
100
AcDb2dVertex
 10
313.4866544728122
 20
18.96839608039994
 30
0.0
  0
VERTEX
  5
198
330
193
100
AcDbEntity
  8
Linee visibili 2D
 62
   255
100
AcDbVertex
100
AcDb2dVertex
 10
314.9568549985618
 20
20.59999999999999
 30
0.0
  0
VERTEX
  5
199
330
193
100
AcDbEntity
  8
Linee visibili 2D
 62
   255
100
AcDbVertex
100
AcDb2dVertex
 10
314.9568549985619
 20
21.75000000000001
 30
0.0
 42
0.2724810574168625
  0
VERTEX
  5
19A
330
193
100
AcDbEntity
  8
Linee visibili 2D
 62
   255
100
AcDbVertex
100
AcDb2dVertex
 10
318.9014578624804
 20
20.51613954802354
 30
0.0
  0
VERTEX
  5
19B
330
193
100
AcDbEntity
  8
Linee visibili 2D
 62
   255
100
AcDbVertex
100
AcDb2dVertex
 10
346.439546336634
 20
21.23724977297307
 30
0.0
  0
VERTEX
  5
19C
330
193
100
AcDbEntity
  8
Linee visibili 2D
 62
   255
100
AcDbVertex
100
AcDb2dVertex
 10
346.8945409196851
 20
21.56129945048944
 30
0.0
  0
SEQEND
  5
19D
330
193
100
AcDbEntity
  8
Linee visibili 2D
 62
   255
  0
POLYLINE
  5
19E
330
1F
100
AcDbEntity
  8
Linee visibili 2D
 62
   255
100
AcDb2dPolyline
 66
     1
 10
0.0
 20
0.0
 30
0.0
  0
VERTEX
  5
19F
330
19E
100
AcDbEntity
  8
Linee visibili 2D
 62
   255
100
AcDbVertex
100
AcDb2dVertex
 10
346.8944572638687
 20
68.43892315629307
 30
0.0
  0
VERTEX
  5
1A0
330
19E
100
AcDbEntity
  8
Linee visibili 2D
 62
   255
100
AcDbVertex
100
AcDb2dVertex
 10
346.439546336634
 20
68.76275022702694
 30
0.0
  0
VERTEX
  5
1A1
330
19E
100
AcDbEntity
  8
Linee visibili 2D
 62
   255
100
AcDbVertex
100
AcDb2dVertex
 10
318.9014578624804
 20
69.48386045197647
 30
0.0
 42
0.2724810574168819
  0
VERTEX
  5
1A2
330
19E
100
AcDbEntity
  8
Linee visibili 2D
 62
   255
100
AcDbVertex
100
AcDb2dVertex
 10
314.9568549985619
 20
68.25000000000001
 30
0.0
  0
VERTEX
  5
1A3
330
19E
100
AcDbEntity
  8
Linee visibili 2D
 62
   255
100
AcDbVertex
100
AcDb2dVertex
 10
314.9568549985619
 20
71.75000000000001
 30
0.0
 42
0.272481057416874
  0
VERTEX
  5
1A4
330
19E
100
AcDbEntity
  8
Linee visibili 2D
 62
   255
100
AcDbVertex
100
AcDb2dVertex
 10
318.9014578624804
 20
70.51613954802356
 30
0.0
  0
VERTEX
  5
1A5
330
19E
100
AcDbEntity
  8
Linee visibili 2D
 62
   255
100
AcDbVertex
100
AcDb2dVertex
 10
346.439546336634
 20
71.23724977297306
 30
0.0
  0
VERTEX
  5
1A6
330
19E
100
AcDbEntity
  8
Linee visibili 2D
 62
   255
100
AcDbVertex
100
AcDb2dVertex
 10
346.8945409196851
 20
71.56129945048943
 30
0.0
  0
SEQEND
  5
1A7
330
19E
100
AcDbEntity
  8
Linee visibili 2D
 62
   255
  0
POLYLINE
  5
1A8
330
1F
100
AcDbEntity
  8
Linee visibili 2D
 62
   255
100
AcDb2dPolyline
 66
     1
 10
0.0
 20
0.0
 30
0.0
  0
VERTEX
  5
1A9
330
1A8
100
AcDbEntity
  8
Linee visibili 2D
 62
   255
100
AcDbVertex
100
AcDb2dVertex
 10
307.42645786248
 20
87.42144223529253
 30
0.0
  0
VERTEX
  5
1AA
330
1A8
100
AcDbEntity
  8
Linee visibili 2D
 62
   255
100
AcDbVertex
100
AcDb2dVertex
 10
307.42645786248
 20
102.5785577647077
 30
0.0
  0
VERTEX
  5
1AB
330
1A8
100
AcDbEntity
  8
Linee visibili 2D
 62
   255
100
AcDbVertex
100
AcDb2dVertex
 10
310.42645786248
 20
102.5000000000001
 30
0.0
  0
VERTEX
  5
1AC
330
1A8
100
AcDbEntity
  8
Linee visibili 2D
 62
   255
100
AcDbVertex
100
AcDb2dVertex
 10
310.42645786248
 20
87.50000000000011
 30
0.0
  0
VERTEX
  5
1AD
330
1A8
100
AcDbEntity
  8
Linee visibili 2D
 62
   255
100
AcDbVertex
100
AcDb2dVertex
 10
307.42645786248
 20
87.42144223529252
 30
0.0
  0
VERTEX
  5
1AE
330
1A8
100
AcDbEntity
  8
Linee visibili 2D
 62
   255
100
AcDbVertex
100
AcDb2dVertex
 10
307.42645786248
 20
82.10292627032644
 30
0.0
  0
VERTEX
  5
1AF
330
1A8
100
AcDbEntity
  8
Linee visibili 2D
 62
   255
100
AcDbVertex
100
AcDb2dVertex
 10
322.7536697163286
 20
82.50428343780563
 30
0.0
  0
VERTEX
  5
1B0
330
1A8
100
AcDbEntity
  8
Linee visibili 2D
 62
   255
100
AcDbVertex
100
AcDb2dVertex
 10
324.0671930015478
 20
82.60871232123813
 30
0.0
 42
0.1442031119332662
  0
VERTEX
  5
1B1
330
1A8
100
AcDbEntity
  8
Linee visibili 2D
 62
   255
100
AcDbVertex
100
AcDb2dVertex
 10
330.6218897103234
 20
85.56267597275999
 30
0.0
  0
VERTEX
  5
1B2
330
1A8
100
AcDbEntity
  8
Linee visibili 2D
 62
   255
100
AcDbVertex
100
AcDb2dVertex
 10
331.3884572530071
 20
86.28603404146568
 30
0.0
 42
0.1679835392027587
  0
VERTEX
  5
1B3
330
1A8
100
AcDbEntity
  8
Linee visibili 2D
 62
   255
100
AcDbVertex
100
AcDb2dVertex
 10
334.8666892164266
 20
93.80107296027005
 30
0.0
  0
SEQEND
  5
1B4
330
1A8
100
AcDbEntity
  8
Linee visibili 2D
 62
   255
  0
POLYLINE
  5
1B5
330
1F
100
AcDbEntity
  8
Linee visibili 2D
 62
   255
100
AcDb2dPolyline
 66
     1
 10
0.0
 20
0.0
 30
0.0
  0
VERTEX
  5
1B6
330
1B5
100
AcDbEntity
  8
Linee visibili 2D
 62
   255
100
AcDbVertex
100
AcDb2dVertex
 10
362.3945409196851
 20
182.1887005495104
 30
0.0
  0
VERTEX
  5
1B7
330
1B5
100
AcDbEntity
  8
Linee visibili 2D
 62
   255
100
AcDbVertex
100
AcDb2dVertex
 10
361.939546336634
 20
182.5127502270269
 30
0.0
  0
VERTEX
  5
1B8
330
1B5
100
AcDbEntity
  8
Linee visibili 2D
 62
   255
100
AcDbVertex
100
AcDb2dVertex
 10
349.9133693883261
 20
182.8276667533723
 30
0.0
  0
VERTEX
  5
1B9
330
1B5
100
AcDbEntity
  8
Linee visibili 2D
 62
   255
100
AcDbVertex
100
AcDb2dVertex
 10
349.458374805275
 20
183.1517164308886
 30
0.0
  0
SEQEND
  5
1BA
330
1B5
100
AcDbEntity
  8
Linee visibili 2D
 62
   255
  0
POLYLINE
  5
1BB
330
1F
100
AcDbEntity
  8
Linee visibili 2D
 62
   255
100
AcDb2dPolyline
 66
     1
 10
0.0
 20
0.0
 30
0.0
  0
VERTEX
  5
1BC
330
1BB
100
AcDbEntity
  8
Linee visibili 2D
 62
   255
100
AcDbVertex
100
AcDb2dVertex
 10
346.8945409196852
 20
173.7112994504895
 30
0.0
  0
VERTEX
  5
1BD
330
1BB
100
AcDbEntity
  8
Linee visibili 2D
 62
   255
100
AcDbVertex
100
AcDb2dVertex
 10
346.439546336634
 20
173.387249772973
 30
0.0
  0
VERTEX
  5
1BE
330
1BB
100
AcDbEntity
  8
Linee visibili 2D
 62
   255
100
AcDbVertex
100
AcDb2dVertex
 10
307.9133693883261
 20
172.3784063250441
 30
0.0
  0
VERTEX
  5
1BF
330
1BB
100
AcDbEntity
  8
Linee visibili 2D
 62
   255
100
AcDbVertex
100
AcDb2dVertex
 10
307.4264578624801
 20
171.8662355078848
 30
0.0
  0
VERTEX
  5
1C0
330
1BB
100
AcDbEntity
  8
Linee visibili 2D
 62
   255
100
AcDbVertex
100
AcDb2dVertex
 10
307.42645786248
 20
107.9903810567666
 30
0.0
  0
SEQEND
  5
1C1
330
1BB
100
AcDbEntity
  8
Linee visibili 2D
 62
   255
  0
ENDSEC
  0
SECTION
  2
OBJECTS
  0
DICTIONARY
  5
C
330
0
100
AcDbDictionary
281
     1
  3
ACAD_GROUP
350
D
  3
ACAD_LAYOUT
350
1A
  3
ACAD_MLEADERSTYLE
350
1C3
  3
ACAD_MLINESTYLE
350
17
  3
ACAD_PLOTSETTINGS
350
19
  3
ACAD_PLOTSTYLENAME
350
E
  3
ACAD_TABLESTYLE
350
1C2
  3
ACAD_VISUALSTYLE
350
2A
  0
DICTIONARY
  5
D
102
{ACAD_REACTORS
330
C
102
}
330
C
100
AcDbDictionary
281
     1
  0
DICTIONARY
  5
1A
102
{ACAD_REACTORS
330
C
102
}
330
C
100
AcDbDictionary
281
     1
  3
Layout1
350
1E
  3
Layout2
350
26
  3
Model
350
22
  0
DICTIONARY
  5
1C3
102
{ACAD_REACTORS
330
C
102
}
330
C
100
AcDbDictionary
281
     1
  0
DICTIONARY
  5
17
102
{ACAD_REACTORS
330
C
102
}
330
C
100
AcDbDictionary
281
     1
  3
Standard
350
18
  0
DICTIONARY
  5
19
102
{ACAD_REACTORS
330
C
102
}
330
C
100
AcDbDictionary
281
     1
  0
ACDBDICTIONARYWDFLT
  5
E
102
{ACAD_REACTORS
330
C
102
}
330
C
100
AcDbDictionary
281
     1
  3
Normal
350
F
100
AcDbDictionaryWithDefault
340
F
  0
DICTIONARY
  5
1C2
102
{ACAD_REACTORS
330
C
102
}
330
C
100
AcDbDictionary
281
     1
  0
DICTIONARY
  5
2A
102
{ACAD_REACTORS
330
C
102
}
330
C
100
AcDbDictionary
281
     1
  3
2dWireframe
350
2F
  3
3D Hidden
350
31
  3
3dWireframe
350
30
  3
Basic
350
32
  3
Brighten
350
36
  3
ColorChange
350
3A
  3
Conceptual
350
34
  3
Dim
350
35
  3
Facepattern
350
39
  3
Flat
350
2B
  3
FlatWithEdges
350
2C
  3
Gouraud
350
2D
  3
GouraudWithEdges
350
2E
  3
Linepattern
350
38
  3
Realistic
350
33
  3
Thicken
350
37
  0
LAYOUT
  5
1E
102
{ACAD_REACTORS
330
1A
102
}
330
1A
100
AcDbPlotSettings
  1

  2
none_device
  4

  6

 40
0.0
 41
0.0
 42
0.0
 43
0.0
 44
0.0
 45
0.0
 46
0.0
 47
0.0
 48
0.0
 49
0.0
140
0.0
141
0.0
142
1.0
143
1.0
 70
   688
 72
     0
 73
     0
 74
     5
  7

 75
    16
 76
     0
 77
     2
 78
   300
147
1.0
148
0.0
149
0.0
100
AcDbLayout
  1
Layout1
 70
     1
 71
     1
 10
0.0
 20
0.0
 11
12.0
 21
9.0
 12
0.0
 22
0.0
 32
0.0
 14
1.000000000000000E+20
 24
1.000000000000000E+20
 34
1.000000000000000E+20
 15
-1.000000000000000E+20
 25
-1.000000000000000E+20
 35
-1.000000000000000E+20
146
0.0
 13
0.0
 23
0.0
 33
0.0
 16
1.0
 26
0.0
 36
0.0
 17
0.0
 27
1.0
 37
0.0
 76
     0
330
1B
  0
LAYOUT
  5
26
102
{ACAD_REACTORS
330
1A
102
}
330
1A
100
AcDbPlotSettings
  1

  2
none_device
  4

  6

 40
0.0
 41
0.0
 42
0.0
 43
0.0
 44
0.0
 45
0.0
 46
0.0
 47
0.0
 48
0.0
 49
0.0
140
0.0
141
0.0
142
1.0
143
1.0
 70
   688
 72
     0
 73
     0
 74
     5
  7

 75
    16
 76
     0
 77
     2
 78
   300
147
1.0
148
0.0
149
0.0
100
AcDbLayout
  1
Layout2
 70
     1
 71
     2
 10
0.0
 20
0.0
 11
0.0
 21
0.0
 12
0.0
 22
0.0
 32
0.0
 14
0.0
 24
0.0
 34
0.0
 15
0.0
 25
0.0
 35
0.0
146
0.0
 13
0.0
 23
0.0
 33
0.0
 16
1.0
 26
0.0
 36
0.0
 17
0.0
 27
1.0
 37
0.0
 76
     0
330
23
  0
LAYOUT
  5
22
102
{ACAD_REACTORS
330
1A
102
}
330
1A
100
AcDbPlotSettings
  1

  2
none_device
  4

  6

 40
0.0
 41
0.0
 42
0.0
 43
0.0
 44
0.0
 45
0.0
 46
0.0
 47
0.0
 48
0.0
 49
0.0
140
0.0
141
0.0
142
1.0
143
1.0
 70
  1712
 72
     0
 73
     0
 74
     0
  7

 75
     0
 76
     0
 77
     2
 78
   300
147
1.0
148
0.0
149
0.0
100
AcDbLayout
  1
Model
 70
     1
 71
     0
 10
0.0
 20
0.0
 11
12.0
 21
9.0
 12
0.0
 22
0.0
 32
0.0
 14
-0.0000000000000213
 24
0.0
 34
0.0
 15
365.4264578624806
 25
534.42645786248
 35
0.0
146
0.0
 13
0.0
 23
0.0
 33
0.0
 16
1.0
 26
0.0
 36
0.0
 17
0.0
 27
1.0
 37
0.0
 76
     0
330
1F
331
29
  0
MLINESTYLE
  5
18
102
{ACAD_REACTORS
330
17
102
}
330
17
100
AcDbMlineStyle
  2
Standard
 70
     0
  3

 62
   256
 51
90.0
 52
90.0
 71
     2
 49
0.5
 62
   256
  6
BYLAYER
 49
-0.5
 62
   256
  6
BYLAYER
  0
ACDBPLACEHOLDER
  5
F
102
{ACAD_REACTORS
330
E
102
}
330
E
  0
VISUALSTYLE
  5
2F
102
{ACAD_REACTORS
330
2A
102
}
330
2A
100
AcDbVisualStyle
  2
2dWireframe
 70
     4
 71
     0
 72
     2
 73
     0
 90
        0
 40
-0.6
 41
-30.0
 62
     5
 63
     7
421
 16777215
 74
     1
 91
        4
 64
     7
 65
   257
 75
     1
175
     1
 42
1.0
 92
        0
 66
   257
 43
1.0
 76
     1
 77
     6
 78
     2
 67
     7
 79
     5
170
     0
171
     0
290
     0
174
     0
 93
        1
 44
0.0
173
     0
291
     0
 45
0.0
1001
ACAD
1000
AcDbSavedByObjectVersion
1070
     0
  0
VISUALSTYLE
  5
31
102
{ACAD_REACTORS
330
2A
102
}
330
2A
100
AcDbVisualStyle
  2
3D Hidden
 70
     6
 71
     1
 72
     2
 73
     2
 90
        0
 40
-0.6
 41
-30.0
 62
     5
 63
     7
421
 16777215
 74
     2
 91
        2
 64
     7
 65
   257
 75
     2
175
     1
 42
40.0
 92
        0
 66
   257
 43
1.0
 76
     1
 77
     6
 78
     2
 67
     7
 79
     3
170
     0
171
     0
290
     0
174
     0
 93
        1
 44
0.0
173
     0
291
     0
 45
0.0
1001
ACAD
1000
AcDbSavedByObjectVersion
1070
     0
  0
VISUALSTYLE
  5
30
102
{ACAD_REACTORS
330
2A
102
}
330
2A
100
AcDbVisualStyle
  2
3dWireframe
 70
     5
 71
     0
 72
     2
 73
     0
 90
        0
 40
-0.6
 41
-30.0
 62
     5
 63
     7
421
 16777215
 74
     1
 91
        4
 64
     7
 65
   257
 75
     1
175
     1
 42
1.0
 92
        0
 66
   257
 43
1.0
 76
     1
 77
     6
 78
     2
 67
     7
 79
     5
170
     0
171
     0
290
     0
174
     0
 93
        1
 44
0.0
173
     0
291
     0
 45
0.0
1001
ACAD
1000
AcDbSavedByObjectVersion
1070
     0
  0
VISUALSTYLE
  5
32
102
{ACAD_REACTORS
330
2A
102
}
330
2A
100
AcDbVisualStyle
  2
Basic
 70
     7
 71
     1
 72
     0
 73
     1
 90
        0
 40
-0.6
 41
-30.0
 62
     5
 63
     7
421
 16777215
 74
     0
 91
        4
 64
     7
 65
   257
 75
     1
175
     1
 42
1.0
 92
        8
 66
     7
 43
1.0
 76
     1
 77
     6
 78
     2
 67
     7
 79
     5
170
     0
171
     0
290
     0
174
     0
 93
        1
 44
0.0
173
     0
291
     1
 45
0.0
1001
ACAD
1000
AcDbSavedByObjectVersion
1070
     0
  0
VISUALSTYLE
  5
36
102
{ACAD_REACTORS
330
2A
102
}
330
2A
100
AcDbVisualStyle
  2
Brighten
 70
    12
 71
     2
 72
     2
 73
     0
 90
        0
 40
-0.6
 41
-30.0
 62
     5
 63
     7
421
 16777215
 74
     1
 91
        4
 64
     7
 65
   257
 75
     1
175
     1
 42
1.0
 92
        8
 66
     7
 43
1.0
 76
     1
 77
     6
 78
     2
 67
     7
 79
     5
170
     0
171
     0
290
     0
174
     0
 93
        1
 44
50.0
173
     0
291
     1
 45
0.0
1001
ACAD
1000
AcDbSavedByObjectVersion
1070
     0
  0
VISUALSTYLE
  5
3A
102
{ACAD_REACTORS
330
2A
102
}
330
2A
100
AcDbVisualStyle
  2
ColorChange
 70
    16
 71
     2
 72
     2
 73
     3
 90
        0
 40
-0.6
 41
-30.0
 62
     5
 63
     8
421
  8421504
 74
     1
 91
        4
 64
     7
 65
   257
 75
     1
175
     1
 42
1.0
 92
        8
 66
     8
424
  8421504
 43
1.0
 76
     1
 77
     6
 78
     2
 67
     7
 79
     5
170
     0
171
     0
290
     0
174
     0
 93
        1
 44
0.0
173
     0
291
     1
 45
0.0
1001
ACAD
1000
AcDbSavedByObjectVersion
1070
     0
  0
VISUALSTYLE
  5
34
102
{ACAD_REACTORS
330
2A
102
}
330
2A
100
AcDbVisualStyle
  2
Conceptual
 70
     9
 71
     3
 72
     2
 73
     0
 90
        0
 40
-0.6
 41
-30.0
 62
     5
 63
     7
421
 16777215
 74
     2
 91
        2
 64
     7
 65
   257
 75
     1
175
     1
 42
40.0
 92
        8
 66
     7
 43
1.0
 76
     1
 77
     6
 78
     2
 67
     7
 79
     3
170
     0
171
     0
290
     0
174
     0
 93
        1
 44
0.0
173
     0
291
     0
 45
0.0
1001
ACAD
1000
AcDbSavedByObjectVersion
1070
     0
  0
VISUALSTYLE
  5
35
102
{ACAD_REACTORS
330
2A
102
}
330
2A
100
AcDbVisualStyle
  2
Dim
 70
    11
 71
     2
 72
     2
 73
     0
 90
        0
 40
-0.6
 41
-30.0
 62
     5
 63
     7
421
 16777215
 74
     1
 91
        4
 64
     7
 65
   257
 75
     1
175
     1
 42
1.0
 92
        8
 66
     7
 43
1.0
 76
     1
 77
     6
 78
     2
 67
     7
 79
     5
170
     0
171
     0
290
     0
174
     0
 93
        1
 44
-50.0
173
     0
291
     1
 45
0.0
1001
ACAD
1000
AcDbSavedByObjectVersion
1070
     0
  0
VISUALSTYLE
  5
39
102
{ACAD_REACTORS
330
2A
102
}
330
2A
100
AcDbVisualStyle
  2
Facepattern
 70
    15
 71
     2
 72
     2
 73
     0
 90
        0
 40
-0.6
 41
-30.0
 62
     5
 63
     7
421
 16777215
 74
     1
 91
        4
 64
     7
 65
   257
 75
     1
175
     1
 42
1.0
 92
        8
 66
     7
 43
1.0
 76
     1
 77
     6
 78
     2
 67
     7
 79
     5
170
     0
171
     0
290
     0
174
     0
 93
        1
 44
0.0
173
     0
291
     1
 45
0.0
1001
ACAD
1000
AcDbSavedByObjectVersion
1070
     0
  0
VISUALSTYLE
  5
2B
102
{ACAD_REACTORS
330
2A
102
}
330
2A
100
AcDbVisualStyle
  2
Flat
 70
     0
 71
     2
 72
     1
 73
     1
 90
        2
 40
-0.6
 41
30.0
 62
     5
 63
     7
421
 16777215
 74
     0
 91
        4
 64
     7
 65
   257
 75
     1
175
     1
 42
1.0
 92
        8
 66
     7
 43
1.0
 76
     1
 77
     6
 78
     2
 67
     7
 79
     5
170
     0
171
     0
290
     0
174
     0
 93
       13
 44
0.0
173
     0
291
     1
 45
0.0
1001
ACAD
1000
AcDbSavedByObjectVersion
1070
     0
  0
VISUALSTYLE
  5
2C
102
{ACAD_REACTORS
330
2A
102
}
330
2A
100
AcDbVisualStyle
  2
FlatWithEdges
 70
     1
 71
     2
 72
     1
 73
     1
 90
        2
 40
-0.6
 41
30.0
 62
     5
 63
     7
421
 16777215
 74
     1
 91
        4
 64
     7
 65
   257
 75
     1
175
     1
 42
1.0
 92
        0
 66
   257
 43
1.0
 76
     1
 77
     6
 78
     2
 67
     7
 79
     5
170
     0
171
     0
290
     0
174
     0
 93
       13
 44
0.0
173
     0
291
     1
 45
0.0
1001
ACAD
1000
AcDbSavedByObjectVersion
1070
     0
  0
VISUALSTYLE
  5
2D
102
{ACAD_REACTORS
330
2A
102
}
330
2A
100
AcDbVisualStyle
  2
Gouraud
 70
     2
 71
     2
 72
     2
 73
     1
 90
        2
 40
-0.6
 41
30.0
 62
     5
 63
     7
421
 16777215
 74
     0
 91
        4
 64
     7
 65
   257
 75
     1
175
     1
 42
1.0
 92
        0
 66
     7
 43
1.0
 76
     1
 77
     6
 78
     2
 67
     7
 79
     5
170
     0
171
     0
290
     0
174
     0
 93
       13
 44
0.0
173
     0
291
     1
 45
0.0
1001
ACAD
1000
AcDbSavedByObjectVersion
1070
     0
  0
VISUALSTYLE
  5
2E
102
{ACAD_REACTORS
330
2A
102
}
330
2A
100
AcDbVisualStyle
  2
GouraudWithEdges
 70
     3
 71
     2
 72
     2
 73
     1
 90
        2
 40
-0.6
 41
30.0
 62
     5
 63
     7
421
 16777215
 74
     1
 91
        4
 64
     7
 65
   257
 75
     1
175
     1
 42
1.0
 92
        0
 66
   257
 43
1.0
 76
     1
 77
     6
 78
     2
 67
     7
 79
     5
170
     0
171
     0
290
     0
174
     0
 93
       13
 44
0.0
173
     0
291
     1
 45
0.0
1001
ACAD
1000
AcDbSavedByObjectVersion
1070
     0
  0
VISUALSTYLE
  5
38
102
{ACAD_REACTORS
330
2A
102
}
330
2A
100
AcDbVisualStyle
  2
Linepattern
 70
    14
 71
     2
 72
     2
 73
     0
 90
        0
 40
-0.6
 41
-30.0
 62
     5
 63
     7
421
 16777215
 74
     1
 91
        4
 64
     7
 65
   257
 75
     7
175
     7
 42
1.0
 92
        8
 66
     7
 43
1.0
 76
     1
 77
     6
 78
     2
 67
     7
 79
     5
170
     0
171
     0
290
     0
174
     0
 93
        1
 44
0.0
173
     0
291
     1
 45
0.0
1001
ACAD
1000
AcDbSavedByObjectVersion
1070
     0
  0
VISUALSTYLE
  5
33
102
{ACAD_REACTORS
330
2A
102
}
330
2A
100
AcDbVisualStyle
  2
Realistic
 70
     8
 71
     2
 72
     2
 73
     0
 90
        0
 40
-0.6
 41
-30.0
 62
     5
 63
     7
421
 16777215
 74
     1
 91
        0
 64
     7
 65
   257
 75
     1
175
     1
 42
1.0
 92
        8
 66
     8
424
  7895160
 43
1.0
 76
     1
 77
     6
 78
     2
 67
     7
 79
     5
170
     0
171
     0
290
     0
174
     0
 93
       13
 44
0.0
173
     0
291
     0
 45
0.0
1001
ACAD
1000
AcDbSavedByObjectVersion
1070
     0
  0
VISUALSTYLE
  5
37
102
{ACAD_REACTORS
330
2A
102
}
330
2A
100
AcDbVisualStyle
  2
Thicken
 70
    13
 71
     2
 72
     2
 73
     0
 90
        0
 40
-0.6
 41
-30.0
 62
     5
 63
     7
421
 16777215
 74
     1
 91
        4
 64
     7
 65
   257
 75
     1
175
     1
 42
1.0
 92
       12
 66
     7
 43
1.0
 76
     1
 77
     6
 78
     2
 67
     7
 79
     5
170
     0
171
     0
290
     0
174
     0
 93
        1
 44
0.0
173
     0
291
     1
 45
0.0
1001
ACAD
1000
AcDbSavedByObjectVersion
1070
     0
  0
ENDSEC
  0
EOF
