  0
SECTION
  2
HEADER
  9
$ACADVER
  1
AC1027
  9
$ACADMAINTVER
 70
     8
  9
$DWGCODEPAGE
  3
ANSI_1252
  9
$LASTSAVEDBY
  1
imac
  9
$REQUIREDVERSIONS
160
                 0
  9
$INSBASE
 10
0.0
 20
0.0
 30
0.0
  9
$EXTMIN
 10
-648.3755830627325
 20
-320.4872422158852
 30
0.0
  9
$EXTMAX
 10
660.068581649219
 20
1799.198286810468
 30
0.0
  9
$LIMMIN
 10
0.0
 20
0.0
  9
$LIMMAX
 10
12.0
 20
9.0
  9
$ORTHOMODE
 70
     0
  9
$REGENMODE
 70
     1
  9
$FILLMODE
 70
     1
  9
$QTEXTMODE
 70
     0
  9
$MIRRTEXT
 70
     1
  9
$LTSCALE
 40
1.0
  9
$ATTMODE
 70
     1
  9
$TEXTSIZE
 40
0.2
  9
$TRACEWID
 40
0.05
  9
$TEXTSTYLE
  7
Standard
  9
$CLAYER
  8
0
  9
$CELTYPE
  6
ByLayer
  9
$CECOLOR
 62
   256
  9
$CELTSCALE
 40
1.0
  9
$DISPSILH
 70
     0
  9
$DIMSCALE
 40
1.0
  9
$DIMASZ
 40
0.18
  9
$DIMEXO
 40
0.0625
  9
$DIMDLI
 40
0.38
  9
$DIMRND
 40
0.0
  9
$DIMDLE
 40
0.0
  9
$DIMEXE
 40
0.18
  9
$DIMTP
 40
0.0
  9
$DIMTM
 40
0.0
  9
$DIMTXT
 40
0.18
  9
$DIMCEN
 40
0.09
  9
$DIMTSZ
 40
0.0
  9
$DIMTOL
 70
     0
  9
$DIMLIM
 70
     0
  9
$DIMTIH
 70
     1
  9
$DIMTOH
 70
     1
  9
$DIMSE1
 70
     0
  9
$DIMSE2
 70
     0
  9
$DIMTAD
 70
     0
  9
$DIMZIN
 70
     0
  9
$DIMBLK
  1

  9
$DIMASO
 70
     1
  9
$DIMSHO
 70
     1
  9
$DIMPOST
  1

  9
$DIMAPOST
  1

  9
$DIMALT
 70
     0
  9
$DIMALTD
 70
     2
  9
$DIMALTF
 40
25.4
  9
$DIMLFAC
 40
1.0
  9
$DIMTOFL
 70
     0
  9
$DIMTVP
 40
0.0
  9
$DIMTIX
 70
     0
  9
$DIMSOXD
 70
     0
  9
$DIMSAH
 70
     0
  9
$DIMBLK1
  1

  9
$DIMBLK2
  1

  9
$DIMSTYLE
  2
Standard
  9
$DIMCLRD
 70
     0
  9
$DIMCLRE
 70
     0
  9
$DIMCLRT
 70
     0
  9
$DIMTFAC
 40
1.0
  9
$DIMGAP
 40
0.09
  9
$DIMJUST
 70
     0
  9
$DIMSD1
 70
     0
  9
$DIMSD2
 70
     0
  9
$DIMTOLJ
 70
     1
  9
$DIMTZIN
 70
     0
  9
$DIMALTZ
 70
     0
  9
$DIMALTTZ
 70
     0
  9
$DIMUPT
 70
     0
  9
$DIMDEC
 70
     4
  9
$DIMTDEC
 70
     4
  9
$DIMALTU
 70
     2
  9
$DIMALTTD
 70
     2
  9
$DIMTXSTY
  7
Standard
  9
$DIMAUNIT
 70
     0
  9
$DIMADEC
 70
     0
  9
$DIMALTRND
 40
0.0
  9
$DIMAZIN
 70
     0
  9
$DIMDSEP
 70
    46
  9
$DIMATFIT
 70
     3
  9
$DIMFRAC
 70
     0
  9
$DIMLDRBLK
  1

  9
$DIMLUNIT
 70
     2
  9
$DIMLWD
 70
    -2
  9
$DIMLWE
 70
    -2
  9
$DIMTMOVE
 70
     0
  9
$DIMFXL
 40
1.0
  9
$DIMFXLON
 70
     0
  9
$DIMJOGANG
 40
0.7853981633974483
  9
$DIMTFILL
 70
     0
  9
$DIMTFILLCLR
 70
     0
  9
$DIMARCSYM
 70
     0
  9
$DIMLTYPE
  6

  9
$DIMLTEX1
  6

  9
$DIMLTEX2
  6

  9
$DIMTXTDIRECTION
 70
     0
  9
$LUNITS
 70
     2
  9
$LUPREC
 70
     4
  9
$SKETCHINC
 40
0.1
  9
$FILLETRAD
 40
0.5
  9
$AUNITS
 70
     0
  9
$AUPREC
 70
     0
  9
$MENU
  1
.
  9
$ELEVATION
 40
0.0
  9
$PELEVATION
 40
0.0
  9
$THICKNESS
 40
0.0
  9
$LIMCHECK
 70
     0
  9
$CHAMFERA
 40
0.5
  9
$CHAMFERB
 40
0.5
  9
$CHAMFERC
 40
1.0
  9
$CHAMFERD
 40
0.0
  9
$SKPOLY
 70
     0
  9
$TDCREATE
 40
2456989.467037037
  9
$TDUCREATE
 40
2456989.425370371
  9
$TDUPDATE
 40
2457434.825739155
  9
$TDUUPDATE
 40
2457434.784072489
  9
$TDINDWG
 40
0.0005256944
  9
$TDUSRTIMER
 40
0.0005256944
  9
$USRTIMER
 70
     1
  9
$ANGBASE
 50
0.0
  9
$ANGDIR
 70
     0
  9
$PDMODE
 70
     0
  9
$PDSIZE
 40
0.0
  9
$PLINEWID
 40
0.0
  9
$SPLFRAME
 70
     0
  9
$SPLINETYPE
 70
     6
  9
$SPLINESEGS
 70
     8
  9
$HANDSEED
  5
194
  9
$SURFTAB1
 70
     6
  9
$SURFTAB2
 70
     6
  9
$SURFTYPE
 70
     6
  9
$SURFU
 70
     6
  9
$SURFV
 70
     6
  9
$UCSBASE
  2

  9
$UCSNAME
  2

  9
$UCSORG
 10
0.0
 20
0.0
 30
0.0
  9
$UCSXDIR
 10
1.0
 20
0.0
 30
0.0
  9
$UCSYDIR
 10
0.0
 20
1.0
 30
0.0
  9
$UCSORTHOREF
  2

  9
$UCSORTHOVIEW
 70
     0
  9
$UCSORGTOP
 10
0.0
 20
0.0
 30
0.0
  9
$UCSORGBOTTOM
 10
0.0
 20
0.0
 30
0.0
  9
$UCSORGLEFT
 10
0.0
 20
0.0
 30
0.0
  9
$UCSORGRIGHT
 10
0.0
 20
0.0
 30
0.0
  9
$UCSORGFRONT
 10
0.0
 20
0.0
 30
0.0
  9
$UCSORGBACK
 10
0.0
 20
0.0
 30
0.0
  9
$PUCSBASE
  2

  9
$PUCSNAME
  2

  9
$PUCSORG
 10
0.0
 20
0.0
 30
0.0
  9
$PUCSXDIR
 10
1.0
 20
0.0
 30
0.0
  9
$PUCSYDIR
 10
0.0
 20
1.0
 30
0.0
  9
$PUCSORTHOREF
  2

  9
$PUCSORTHOVIEW
 70
     0
  9
$PUCSORGTOP
 10
0.0
 20
0.0
 30
0.0
  9
$PUCSORGBOTTOM
 10
0.0
 20
0.0
 30
0.0
  9
$PUCSORGLEFT
 10
0.0
 20
0.0
 30
0.0
  9
$PUCSORGRIGHT
 10
0.0
 20
0.0
 30
0.0
  9
$PUCSORGFRONT
 10
0.0
 20
0.0
 30
0.0
  9
$PUCSORGBACK
 10
0.0
 20
0.0
 30
0.0
  9
$USERI1
 70
     0
  9
$USERI2
 70
     0
  9
$USERI3
 70
     0
  9
$USERI4
 70
     0
  9
$USERI5
 70
     0
  9
$USERR1
 40
0.0
  9
$USERR2
 40
0.0
  9
$USERR3
 40
0.0
  9
$USERR4
 40
0.0
  9
$USERR5
 40
0.0
  9
$WORLDVIEW
 70
     1
  9
$SHADEDGE
 70
     3
  9
$SHADEDIF
 70
    70
  9
$TILEMODE
 70
     1
  9
$MAXACTVP
 70
    64
  9
$PINSBASE
 10
0.0
 20
0.0
 30
0.0
  9
$PLIMCHECK
 70
     0
  9
$PEXTMIN
 10
1.000000000000000E+20
 20
1.000000000000000E+20
 30
1.000000000000000E+20
  9
$PEXTMAX
 10
-1.000000000000000E+20
 20
-1.000000000000000E+20
 30
-1.000000000000000E+20
  9
$PLIMMIN
 10
0.0
 20
0.0
  9
$PLIMMAX
 10
12.0
 20
9.0
  9
$UNITMODE
 70
     0
  9
$VISRETAIN
 70
     1
  9
$PLINEGEN
 70
     0
  9
$PSLTSCALE
 70
     1
  9
$TREEDEPTH
 70
  3020
  9
$CMLSTYLE
  2
Standard
  9
$CMLJUST
 70
     0
  9
$CMLSCALE
 40
1.0
  9
$PROXYGRAPHICS
 70
     1
  9
$MEASUREMENT
 70
     0
  9
$CELWEIGHT
370
    -1
  9
$ENDCAPS
280
     0
  9
$JOINSTYLE
280
     0
  9
$LWDISPLAY
290
     1
  9
$INSUNITS
 70
     1
  9
$HYPERLINKBASE
  1

  9
$STYLESHEET
  1

  9
$XEDIT
290
     1
  9
$CEPSNTYPE
380
     0
  9
$PSTYLEMODE
290
     1
  9
$FINGERPRINTGUID
  2
{58EA8456-A0F1-B1AF-6313-A7FA5735CF79}
  9
$VERSIONGUID
  2
{390ADD0D-9EED-2B42-B266-2876263FF659}
  9
$EXTNAMES
290
     1
  9
$PSVPSCALE
 40
0.0
  9
$OLESTARTUP
290
     0
  9
$SORTENTS
280
   127
  9
$INDEXCTL
280
     0
  9
$HIDETEXT
280
     1
  9
$XCLIPFRAME
280
     0
  9
$HALOGAP
280
     0
  9
$OBSCOLOR
 70
   257
  9
$OBSLTYPE
280
     0
  9
$INTERSECTIONDISPLAY
280
     0
  9
$INTERSECTIONCOLOR
 70
   257
  9
$DIMASSOC
280
     2
  9
$PROJECTNAME
  1

  9
$CAMERADISPLAY
290
     0
  9
$LENSLENGTH
 40
50.0
  9
$CAMERAHEIGHT
 40
0.0
  9
$STEPSPERSEC
 40
2.0
  9
$STEPSIZE
 40
6.0
  9
$3DDWFPREC
 40
2.0
  9
$PSOLWIDTH
 40
0.25
  9
$PSOLHEIGHT
 40
4.0
  9
$LOFTANG1
 40
1.570796326794896
  9
$LOFTANG2
 40
1.570796326794896
  9
$LOFTMAG1
 40
0.0
  9
$LOFTMAG2
 40
0.0
  9
$LOFTPARAM
 70
     7
  9
$LOFTNORMALS
280
     1
  9
$LATITUDE
 40
37.795
  9
$LONGITUDE
 40
-122.394
  9
$NORTHDIRECTION
 40
0.0
  9
$TIMEZONE
 70
 -8000
  9
$LIGHTGLYPHDISPLAY
280
     1
  9
$TILEMODELIGHTSYNCH
280
     1
  9
$CMATERIAL
347
134
  9
$SOLIDHIST
280
     0
  9
$SHOWHIST
280
     1
  9
$DWFFRAME
280
     2
  9
$DGNFRAME
280
     0
  9
$REALWORLDSCALE
290
     1
  9
$INTERFERECOLOR
 62
     1
  9
$INTERFEREOBJVS
345
33
  9
$INTERFEREVPVS
346
14C
  9
$CSHADOW
280
     0
  9
$SHADOWPLANELOCATION
 40
0.0
  0
ENDSEC
  0
SECTION
  2
CLASSES
  0
CLASS
  1
ACDBDICTIONARYWDFLT
  2
AcDbDictionaryWithDefault
  3
ObjectDBX Classes
 90
        0
 91
        1
280
     0
281
     0
  0
CLASS
  1
VISUALSTYLE
  2
AcDbVisualStyle
  3
ObjectDBX Classes
 90
     4095
 91
       26
280
     0
281
     0
  0
CLASS
  1
MATERIAL
  2
AcDbMaterial
  3
ObjectDBX Classes
 90
     1153
 91
        3
280
     0
281
     0
  0
CLASS
  1
TABLESTYLE
  2
AcDbTableStyle
  3
ObjectDBX Classes
 90
     4095
 91
        1
280
     0
281
     0
  0
CLASS
  1
SCALE
  2
AcDbScale
  3
ObjectDBX Classes
 90
     1153
 91
       17
280
     0
281
     0
  0
CLASS
  1
MLEADERSTYLE
  2
AcDbMLeaderStyle
  3
ACDB_MLEADERSTYLE_CLASS
 90
     4095
 91
        1
280
     0
281
     0
  0
CLASS
  1
ACDBSECTIONVIEWSTYLE
  2
AcDbSectionViewStyle
  3
ObjectDBX Classes
 90
     1025
 91
        1
280
     0
281
     0
  0
CLASS
  1
ACDBDETAILVIEWSTYLE
  2
AcDbDetailViewStyle
  3
ObjectDBX Classes
 90
     1025
 91
        1
280
     0
281
     0
  0
CLASS
  1
DICTIONARYVAR
  2
AcDbDictionaryVar
  3
ObjectDBX Classes
 90
        0
 91
        9
280
     0
281
     0
  0
CLASS
  1
CELLSTYLEMAP
  2
AcDbCellStyleMap
  3
ObjectDBX Classes
 90
     1152
 91
        1
280
     0
281
     0
  0
ENDSEC
  0
SECTION
  2
TABLES
  0
TABLE
  2
VPORT
  5
8
330
0
100
AcDbSymbolTable
 70
     1
  0
VPORT
  5
29
330
8
100
AcDbSymbolTableRecord
100
AcDbViewportTableRecord
  2
*Active
 70
     0
 10
0.0
 20
0.0
 11
1.0
 21
1.0
 12
1636.598093188981
 22
-907.8147637573037
 13
0.0
 23
0.0
 14
0.5
 24
0.5
 15
0.5
 25
0.5
 16
0.0
 26
0.0
 36
1.0
 17
14.64027777411775
 27
697.0913002814564
 37
0.0
 40
9955.999836794463
 41
1.655310621242485
 42
50.0
 43
0.0
 44
0.0
 50
0.0
 51
0.0
 71
     0
 72
   100
 73
     1
 74
     3
 75
     0
 76
     0
 77
     0
 78
     0
281
     0
 65
     1
110
0.0
120
0.0
130
0.0
111
1.0
121
0.0
131
0.0
112
0.0
122
1.0
132
0.0
 79
     0
146
0.0
348
2F
 60
     3
 61
     5
292
     1
282
     1
141
0.0
142
0.0
 63
   250
421
  3355443
1001
ACAD_NAV_VCDISPLAY
1070
     3
  0
ENDTAB
  0
TABLE
  2
LTYPE
  5
5
330
0
100
AcDbSymbolTable
 70
     2
  0
LTYPE
  5
14
330
5
100
AcDbSymbolTableRecord
100
AcDbLinetypeTableRecord
  2
ByBlock
 70
     0
  3

 72
    65
 73
     0
 40
0.0
  0
LTYPE
  5
15
330
5
100
AcDbSymbolTableRecord
100
AcDbLinetypeTableRecord
  2
ByLayer
 70
     0
  3

 72
    65
 73
     0
 40
0.0
  0
LTYPE
  5
16
330
5
100
AcDbSymbolTableRecord
100
AcDbLinetypeTableRecord
  2
Continuous
 70
     0
  3
Solid line
 72
    65
 73
     0
 40
0.0
  0
LTYPE
  5
16D
330
5
100
AcDbSymbolTableRecord
100
AcDbLinetypeTableRecord
  2
PHANTOM2
 70
     0
  3
Phantom (.5x) ___ _ _ ___ _ _ ___ _ _ ___ _ _
 72
    65
 73
     6
 40
1.25
 49
0.625
 74
     0
 49
-0.125
 74
     0
 49
0.125
 74
     0
 49
-0.125
 74
     0
 49
0.125
 74
     0
 49
-0.125
 74
     0
  0
ENDTAB
  0
TABLE
  2
LAYER
  5
2
102
{ACAD_XDICTIONARY
360
180
102
}
330
0
100
AcDbSymbolTable
 70
     5
  0
LAYER
  5
10
102
{ACAD_XDICTIONARY
360
175
102
}
330
2
100
AcDbSymbolTableRecord
100
AcDbLayerTableRecord
  2
0
 70
     0
 62
     7
  6
Continuous
370
    -3
390
F
347
144
348
0
  0
LAYER
  5
3B
330
2
100
AcDbSymbolTableRecord
100
AcDbLayerTableRecord
  2
DEFPOINTS
 70
     0
 62
     7
  6
Continuous
290
     0
370
    -3
390
F
347
144
348
0
  0
LAYER
  5
3C
102
{ACAD_XDICTIONARY
360
177
102
}
330
2
100
AcDbSymbolTableRecord
100
AcDbLayerTableRecord
  2
2
 70
     0
 62
     7
  6
Continuous
370
    -3
390
F
347
144
348
0
  0
LAYER
  5
3D
102
{ACAD_XDICTIONARY
360
179
102
}
330
2
100
AcDbSymbolTableRecord
100
AcDbLayerTableRecord
  2
1
 70
     0
 62
     7
  6
Continuous
370
    -3
390
F
347
144
348
0
  0
LAYER
  5
130
102
{ACAD_XDICTIONARY
360
17B
102
}
330
2
100
AcDbSymbolTableRecord
100
AcDbLayerTableRecord
  2
Livello 1
 70
     0
 62
     7
  6
Continuous
370
    -3
390
F
347
144
348
0
  0
ENDTAB
  0
TABLE
  2
STYLE
  5
3
330
0
100
AcDbSymbolTable
 70
     1
  0
STYLE
  5
11
330
3
100
AcDbSymbolTableRecord
100
AcDbTextStyleTableRecord
  2
Standard
 70
     0
 40
0.0
 41
1.0
 50
0.0
 71
     0
 42
0.2
  3
txt
  4

  0
ENDTAB
  0
TABLE
  2
VIEW
  5
6
330
0
100
AcDbSymbolTable
 70
     1
  0
ENDTAB
  0
TABLE
  2
UCS
  5
7
330
0
100
AcDbSymbolTable
 70
     0
  0
ENDTAB
  0
TABLE
  2
APPID
  5
9
330
0
100
AcDbSymbolTable
 70
     2
  0
APPID
  5
12
330
9
100
AcDbSymbolTableRecord
100
AcDbRegAppTableRecord
  2
ACAD
 70
     0
  0
APPID
  5
190
330
9
100
AcDbSymbolTableRecord
100
AcDbRegAppTableRecord
  2
ACAD_NAV_VCDISPLAY
 70
     0
  0
ENDTAB
  0
TABLE
  2
DIMSTYLE
  5
A
330
0
100
AcDbSymbolTable
 70
     1
100
AcDbDimStyleTable
 71
     0
  0
DIMSTYLE
105
27
330
A
100
AcDbSymbolTableRecord
100
AcDbDimStyleTableRecord
  2
Standard
 70
     0
340
11
  0
ENDTAB
  0
TABLE
  2
BLOCK_RECORD
  5
1
330
0
100
AcDbSymbolTable
 70
     4
  0
BLOCK_RECORD
  5
1F
330
1
100
AcDbSymbolTableRecord
100
AcDbBlockTableRecord
  2
*Model_Space
340
22
 70
     0
280
     1
281
     0
  0
BLOCK_RECORD
  5
1B
330
1
100
AcDbSymbolTableRecord
100
AcDbBlockTableRecord
  2
*Paper_Space
340
1E
 70
     0
280
     1
281
     0
  0
BLOCK_RECORD
  5
23
330
1
100
AcDbSymbolTableRecord
100
AcDbBlockTableRecord
  2
*Paper_Space0
340
26
 70
     0
280
     1
281
     0
  0
BLOCK_RECORD
  5
48
330
1
100
AcDbSymbolTableRecord
100
AcDbBlockTableRecord
  2
block 2
340
0
102
{BLKREFS
331
49
102
}
 70
     0
280
     1
281
     0
  0
BLOCK_RECORD
  5
51
330
1
100
AcDbSymbolTableRecord
100
AcDbBlockTableRecord
  2
block 3
340
0
102
{BLKREFS
331
52
102
}
 70
     0
280
     1
281
     0
  0
BLOCK_RECORD
  5
56
330
1
100
AcDbSymbolTableRecord
100
AcDbBlockTableRecord
  2
block 4
340
0
102
{BLKREFS
331
57
102
}
 70
     0
280
     1
281
     0
  0
ENDTAB
  0
ENDSEC
  0
SECTION
  2
BLOCKS
  0
BLOCK
  5
20
330
1F
100
AcDbEntity
  8
0
100
AcDbBlockBegin
  2
*Model_Space
 70
     0
 10
0.0
 20
0.0
 30
0.0
  3
*Model_Space
  1

  0
ENDBLK
  5
21
330
1F
100
AcDbEntity
  8
0
100
AcDbBlockEnd
  0
BLOCK
  5
1C
330
1B
100
AcDbEntity
 67
     1
  8
0
100
AcDbBlockBegin
  2
*Paper_Space
 70
     0
 10
0.0
 20
0.0
 30
0.0
  3
*Paper_Space
  1

  0
ENDBLK
  5
1D
330
1B
100
AcDbEntity
 67
     1
  8
0
100
AcDbBlockEnd
  0
BLOCK
  5
24
330
23
100
AcDbEntity
 67
     1
  8
0
100
AcDbBlockBegin
  2
*Paper_Space0
 70
     0
 10
0.0
 20
0.0
 30
0.0
  3
*Paper_Space0
  1

  0
ENDBLK
  5
25
330
23
100
AcDbEntity
 67
     1
  8
0
100
AcDbBlockEnd
  0
BLOCK
  5
4A
330
48
100
AcDbEntity
  8
0
100
AcDbBlockBegin
  2
block 2
 70
     0
 10
0.0
 20
0.0
 30
0.0
  3
block 2
  1

  0
SPLINE
  5
4C
330
48
100
AcDbEntity
  8
1
 62
   250
420
  1709851
370
   211
100
AcDbSpline
210
0.0
220
0.0
230
1.0
 70
     9
 71
     3
 72
    17
 73
    13
 74
     0
 42
0.0000000001
 43
0.0000000001
 40
0.0
 40
0.0
 40
0.0
 40
0.0
 40
1.0
 40
1.0
 40
1.0
 40
2.0
 40
2.0
 40
2.0
 40
3.0
 40
3.0
 40
3.0
 40
4.0
 40
4.0
 40
4.0
 40
4.0
 10
245.2008815576234
 20
-118.9942870796264
 30
0.0
 10
245.2008815576234
 20
-119.0728352566901
 30
0.0
 10
245.1212998519141
 20
-119.1355359945216
 30
0.0
 10
245.0589436236311
 20
-119.1355359945216
 30
0.0
 10
244.9648925168838
 20
-119.1355359945216
 30
0.0
 10
244.9025362886008
 20
-119.0728352566901
 30
0.0
 10
244.9025362886008
 20
-118.9942870796264
 30
0.0
 10
244.9025362886008
 20
-118.8998914633306
 30
0.0
 10
244.9648925168838
 20
-118.837190725499
 30
0.0
 10
245.0589436236311
 20
-118.837190725499
 30
0.0
 10
245.1212998519141
 20
-118.837190725499
 30
0.0
 10
245.2008815576234
 20
-118.8998914633306
 30
0.0
 10
245.2008815576234
 20
-118.9942870796264
 30
0.0
  0
ENDBLK
  5
4B
330
48
100
AcDbEntity
  8
0
100
AcDbBlockEnd
  0
BLOCK
  5
53
330
51
100
AcDbEntity
  8
0
100
AcDbBlockBegin
  2
block 3
 70
     0
 10
0.0
 20
0.0
 30
0.0
  3
block 3
  1

  0
SPLINE
  5
55
330
51
100
AcDbEntity
  8
1
 62
   250
420
  1709851
370
   211
100
AcDbSpline
210
0.0
220
0.0
230
1.0
 70
    11
 71
     3
 72
    17
 73
    13
 74
     0
 42
0.0000000001
 43
0.0000000001
 40
0.0
 40
0.0
 40
0.0
 40
0.0
 40
1.0
 40
1.0
 40
1.0
 40
2.0
 40
2.0
 40
2.0
 40
3.0
 40
3.0
 40
3.0
 40
4.0
 40
4.0
 40
4.0
 40
4.0
 10
-641.7336112219451
 20
-112.2415554189882
 30
0.0
 10
-641.7336112219451
 20
-112.3201035960519
 30
0.0
 10
-641.7961397050023
 20
-112.3828043338835
 30
0.0
 10
-641.8901908117496
 20
-112.3828043338835
 30
0.0
 10
-641.9692557531361
 20
-112.3828043338835
 30
0.0
 10
-642.0329900196133
 20
-112.3201035960519
 30
0.0
 10
-642.0329900196133
 20
-112.2415554189882
 30
0.0
 10
-642.0329900196133
 20
-112.1630072419245
 30
0.0
 10
-641.9692557531361
 20
-112.100306504093
 30
0.0
 10
-641.8901908117496
 20
-112.100306504093
 30
0.0
 10
-641.7961397050023
 20
-112.100306504093
 30
0.0
 10
-641.7336112219451
 20
-112.1630072419245
 30
0.0
 10
-641.7336112219451
 20
-112.2415554189882
 30
0.0
  0
ENDBLK
  5
54
330
51
100
AcDbEntity
  8
0
100
AcDbBlockEnd
  0
BLOCK
  5
58
330
56
100
AcDbEntity
  8
0
100
AcDbBlockBegin
  2
block 4
 70
     0
 10
0.0
 20
0.0
 30
0.0
  3
block 4
  1

  0
SPLINE
  5
5A
330
56
100
AcDbEntity
  8
1
 62
   250
420
  1709851
370
   211
100
AcDbSpline
210
0.0
220
0.0
230
1.0
 70
    11
 71
     3
 72
    17
 73
    13
 74
     0
 42
0.0000000001
 43
0.0000000001
 40
0.0
 40
0.0
 40
0.0
 40
0.0
 40
1.0
 40
1.0
 40
1.0
 40
2.0
 40
2.0
 40
2.0
 40
3.0
 40
3.0
 40
3.0
 40
4.0
 40
4.0
 40
4.0
 40
4.0
 10
251.6387314909098
 20
-112.2415554189882
 30
0.0
 10
251.6387314909098
 20
-112.3201035960519
 30
0.0
 10
251.5749972244326
 20
-112.3828043338835
 30
0.0
 10
251.497138066466
 20
-112.3828043338835
 30
0.0
 10
251.4182453798538
 20
-112.3828043338835
 30
0.0
 10
251.3555446420222
 20
-112.3201035960519
 30
0.0
 10
251.3555446420222
 20
-112.2415554189882
 30
0.0
 10
251.3555446420222
 20
-112.1630072419245
 30
0.0
 10
251.4182453798538
 20
-112.100306504093
 30
0.0
 10
251.497138066466
 20
-112.100306504093
 30
0.0
 10
251.5749972244326
 20
-112.100306504093
 30
0.0
 10
251.6387314909098
 20
-112.1630072419245
 30
0.0
 10
251.6387314909098
 20
-112.2415554189882
 30
0.0
  0
ENDBLK
  5
59
330
56
100
AcDbEntity
  8
0
100
AcDbBlockEnd
  0
ENDSEC
  0
SECTION
  2
ENTITIES
  0
POLYLINE
  5
3E
330
1F
100
AcDbEntity
  8
1
 62
   250
420
  1709851
370
   211
100
AcDb2dPolyline
 66
     1
 10
0.0
 20
0.0
 30
0.0
  0
VERTEX
  5
3F
330
3E
100
AcDbEntity
  8
1
 62
   250
420
  1709851
370
   211
100
AcDbVertex
100
AcDb2dVertex
 10
-105.6293836541482
 20
1695.609679751879
 30
0.0
  0
VERTEX
  5
40
330
3E
100
AcDbEntity
  8
1
 62
   250
420
  1709851
370
   211
100
AcDbVertex
100
AcDb2dVertex
 10
-288.7782388600971
 20
1695.609679751879
 30
0.0
  0
SEQEND
  5
41
330
3E
100
AcDbEntity
  8
1
370
   211
  0
SPLINE
  5
42
330
1F
100
AcDbEntity
  8
1
 62
   250
420
  1709851
370
   211
100
AcDbSpline
210
0.0
220
0.0
230
1.0
 70
     9
 71
     3
 72
    17
 73
    13
 74
     0
 42
0.0000000001
 43
0.0000000001
 40
0.0
 40
0.0
 40
0.0
 40
0.0
 40
1.0
 40
1.0
 40
1.0
 40
2.0
 40
2.0
 40
2.0
 40
3.0
 40
3.0
 40
3.0
 40
4.0
 40
4.0
 40
4.0
 40
4.0
 10
-105.3441297479695
 20
1596.384384095262
 30
0.0
 10
-105.3441297479695
 20
1596.305663663424
 30
0.0
 10
-105.4078640144466
 20
1596.25863811005
 30
0.0
 10
-105.4871012106074
 20
1596.25863811005
 30
0.0
 10
-105.564960368574
 20
1596.25863811005
 30
0.0
 10
-105.6293836541482
 20
1596.305663663424
 30
0.0
 10
-105.6293836541482
 20
1596.384384095262
 30
0.0
 10
-105.6293836541482
 20
1596.479124221106
 30
0.0
 10
-105.564960368574
 20
1596.541824958937
 30
0.0
 10
-105.4871012106074
 20
1596.541824958937
 30
0.0
 10
-105.4078640144466
 20
1596.541824958937
 30
0.0
 10
-105.3441297479695
 20
1596.479124221106
 30
0.0
 10
-105.3441297479695
 20
1596.384384095262
 30
0.0
  0
SPLINE
  5
43
330
1F
100
AcDbEntity
  8
1
 62
   250
420
  1709851
370
   211
100
AcDbSpline
210
0.0
220
0.0
230
1.0
 70
     9
 71
     3
 72
    17
 73
    13
 74
     0
 42
0.0000000001
 43
0.0000000001
 40
0.0
 40
0.0
 40
0.0
 40
0.0
 40
1.0
 40
1.0
 40
1.0
 40
2.0
 40
2.0
 40
2.0
 40
3.0
 40
3.0
 40
3.0
 40
4.0
 40
4.0
 40
4.0
 40
4.0
 10
-284.7491996900974
 20
1596.384384095262
 30
0.0
 10
-284.7491996900974
 20
1596.305663663424
 30
0.0
 10
-284.8132784661231
 20
1596.25863811005
 30
0.0
 10
-284.8921711527353
 20
1596.25863811005
 30
0.0
 10
-284.9689967820564
 20
1596.25863811005
 30
0.0
 10
-285.0334200676306
 20
1596.305663663424
 30
0.0
 10
-285.0334200676306
 20
1596.384384095262
 30
0.0
 10
-285.0334200676306
 20
1596.479124221106
 30
0.0
 10
-284.9689967820564
 20
1596.541824958937
 30
0.0
 10
-284.8921711527353
 20
1596.541824958937
 30
0.0
 10
-284.8132784661231
 20
1596.541824958937
 30
0.0
 10
-284.7491996900974
 20
1596.479124221106
 30
0.0
 10
-284.7491996900974
 20
1596.384384095262
 30
0.0
  0
POLYLINE
  5
44
330
1F
100
AcDbEntity
  8
1
 62
   250
420
  1709851
370
   211
100
AcDb2dPolyline
 66
     1
 10
0.0
 20
0.0
 30
0.0
  0
VERTEX
  5
45
330
44
100
AcDbEntity
  8
1
 62
   250
420
  1709851
370
   211
100
AcDbVertex
100
AcDb2dVertex
 10
342.3170897581708
 20
581.1533296615693
 30
0.0
  0
VERTEX
  5
46
330
44
100
AcDbEntity
  8
1
 62
   250
420
  1709851
370
   211
100
AcDbVertex
100
AcDb2dVertex
 10
342.3170897581708
 20
-118.1436930043182
 30
0.0
  0
SEQEND
  5
47
330
44
100
AcDbEntity
  8
1
370
   211
  0
INSERT
  5
49
330
1F
100
AcDbEntity
  8
1
100
AcDbBlockReference
  2
block 2
 10
0.0
 20
0.0
 30
0.0
  0
POLYLINE
  5
4D
330
1F
100
AcDbEntity
  8
1
 62
   250
420
  1709851
370
   211
100
AcDb2dPolyline
 66
     1
 10
0.0
 20
0.0
 30
0.0
  0
VERTEX
  5
4E
330
4D
100
AcDbEntity
  8
1
 62
   250
420
  1709851
370
   211
100
AcDbVertex
100
AcDb2dVertex
 10
-648.3755830627325
 20
-210.3172227121777
 30
0.0
  0
VERTEX
  5
4F
330
4D
100
AcDbEntity
  8
1
 62
   250
420
  1709851
370
   211
100
AcDbVertex
100
AcDb2dVertex
 10
249.6240396511357
 20
-210.3172227121777
 30
0.0
  0
SEQEND
  5
50
330
4D
100
AcDbEntity
  8
1
370
   211
  0
INSERT
  5
52
330
1F
100
AcDbEntity
  8
1
100
AcDbBlockReference
  2
block 3
 10
0.0
 20
0.0
 30
0.0
  0
INSERT
  5
57
330
1F
100
AcDbEntity
  8
1
100
AcDbBlockReference
  2
block 4
 10
0.0
 20
0.0
 30
0.0
  0
POLYLINE
  5
5B
330
1F
100
AcDbEntity
  8
1
 62
   250
420
  1709851
370
   211
100
AcDb2dPolyline
 66
     1
 10
0.0
 20
0.0
 30
0.0
  0
VERTEX
  5
5C
330
5B
100
AcDbEntity
  8
1
 62
   250
420
  1709851
370
   211
100
AcDbVertex
100
AcDb2dVertex
 10
542.7820284016308
 20
-119.1355359945216
 30
0.0
  0
VERTEX
  5
5D
330
5B
100
AcDbEntity
  8
1
 62
   250
420
  1709851
370
   211
100
AcDbVertex
100
AcDb2dVertex
 10
542.7820284016308
 20
1604.852773307554
 30
0.0
  0
SEQEND
  5
5E
330
5B
100
AcDbEntity
  8
1
370
   211
  0
POLYLINE
  5
5F
330
1F
100
AcDbEntity
  8
1
 62
   250
420
  1709851
370
   211
100
AcDb2dPolyline
 66
     1
 10
0.0
 20
0.0
 30
0.0
  0
VERTEX
  5
60
330
5F
100
AcDbEntity
  8
1
 62
   250
420
  1709851
370
   211
100
AcDbVertex
100
AcDb2dVertex
 10
-146.5512613565914
 20
1596.384384095262
 30
0.0
  0
VERTEX
  5
61
330
5F
100
AcDbEntity
  8
1
 62
   250
420
  1709851
370
   211
100
AcDbVertex
100
AcDb2dVertex
 10
-195.1898084364456
 20
1596.384384095262
 30
0.0
  0
SEQEND
  5
62
330
5F
100
AcDbEntity
  8
1
370
   211
  0
POLYLINE
  5
63
330
1F
100
AcDbEntity
  8
1
 62
   250
420
  1709851
370
   211
100
AcDb2dPolyline
 66
     1
 10
0.0
 20
0.0
 30
0.0
  0
VERTEX
  5
64
330
63
100
AcDbEntity
  8
1
 62
   250
420
  1709851
370
   211
100
AcDbVertex
100
AcDb2dVertex
 10
-285.3799966734467
 20
1596.384384095262
 30
0.0
  0
VERTEX
  5
65
330
63
100
AcDbEntity
  8
1
 62
   250
420
  1709851
370
   211
100
AcDbVertex
100
AcDb2dVertex
 10
-195.1898084364456
 20
1596.384384095262
 30
0.0
  0
SEQEND
  5
66
330
63
100
AcDbEntity
  8
1
370
   211
  0
POLYLINE
  5
67
330
1F
100
AcDbEntity
  8
1
 62
   250
420
  1709851
370
   211
100
AcDb2dPolyline
 66
     1
 10
0.0
 20
0.0
 30
0.0
  0
VERTEX
  5
68
330
67
100
AcDbEntity
  8
1
 62
   250
420
  1709851
370
   211
100
AcDbVertex
100
AcDb2dVertex
 10
-133.1736110778177
 20
1582.83223973016
 30
0.0
  0
VERTEX
  5
69
330
67
100
AcDbEntity
  8
1
 62
   250
420
  1709851
370
   211
100
AcDbVertex
100
AcDb2dVertex
 10
-54.50520018168621
 20
547.5011201973261
 30
0.0
  0
SEQEND
  5
6A
330
67
100
AcDbEntity
  8
1
370
   211
  0
POLYLINE
  5
6B
330
1F
100
AcDbEntity
  8
1
 62
   250
420
  1709851
370
   211
100
AcDb2dPolyline
 66
     1
 10
0.0
 20
0.0
 30
0.0
  0
VERTEX
  5
6C
330
6B
100
AcDbEntity
  8
1
 62
   250
420
  1709851
370
   211
100
AcDbVertex
100
AcDb2dVertex
 10
-199.0286783356595
 20
1576.032654770922
 30
0.0
  0
VERTEX
  5
6D
330
6B
100
AcDbEntity
  8
1
 62
   250
420
  1709851
370
   211
100
AcDbVertex
100
AcDb2dVertex
 10
-214.7383137483988
 20
1513.49779828699
 30
0.0
  0
VERTEX
  5
6E
330
6B
100
AcDbEntity
  8
1
 62
   250
420
  1709851
370
   211
100
AcDbVertex
100
AcDb2dVertex
 10
-224.27674961841
 20
1472.793650619214
 30
0.0
  0
VERTEX
  5
6F
330
6B
100
AcDbEntity
  8
1
 62
   250
420
  1709851
370
   211
100
AcDbVertex
100
AcDb2dVertex
 10
-232.7458278497997
 20
1431.822680306107
 30
0.0
  0
VERTEX
  5
70
330
6B
100
AcDbEntity
  8
1
 62
   250
420
  1709851
370
   211
100
AcDbVertex
100
AcDb2dVertex
 10
-239.5130289114759
 20
1390.646726811626
 30
0.0
  0
VERTEX
  5
71
330
6B
100
AcDbEntity
  8
1
 62
   250
420
  1709851
370
   211
100
AcDbVertex
100
AcDb2dVertex
 10
-242.0630885896578
 20
1370.011293874077
 30
0.0
  0
VERTEX
  5
72
330
6B
100
AcDbEntity
  8
1
 62
   250
420
  1709851
370
   211
100
AcDbVertex
100
AcDb2dVertex
 10
-243.9513454251233
 20
1349.360530261618
 30
0.0
  0
VERTEX
  5
73
330
6B
100
AcDbEntity
  8
1
 62
   250
420
  1709851
370
   211
100
AcDbVertex
100
AcDb2dVertex
 10
-245.0840928206734
 20
1328.678588535018
 30
0.0
  0
VERTEX
  5
74
330
6B
100
AcDbEntity
  8
1
 62
   250
420
  1709851
370
   211
100
AcDbVertex
100
AcDb2dVertex
 10
-245.3993190575738
 20
1307.996130044094
 30
0.0
  0
VERTEX
  5
75
330
6B
100
AcDbEntity
  8
1
 62
   250
420
  1709851
370
   211
100
AcDbVertex
100
AcDb2dVertex
 10
-244.9428439057782
 20
1289.580544382466
 30
0.0
  0
VERTEX
  5
76
330
6B
100
AcDbEntity
  8
1
 62
   250
420
  1709851
370
   211
100
AcDbVertex
100
AcDb2dVertex
 10
-243.7935600518989
 20
1271.180117140972
 30
0.0
  0
VERTEX
  5
77
330
6B
100
AcDbEntity
  8
1
 62
   250
420
  1709851
370
   211
100
AcDbVertex
100
AcDb2dVertex
 10
-241.9993543231807
 20
1252.811729287491
 30
0.0
  0
VERTEX
  5
78
330
6B
100
AcDbEntity
  8
1
 62
   250
420
  1709851
370
   211
100
AcDbVertex
100
AcDb2dVertex
 10
-239.6074245277718
 20
1234.458155344597
 30
0.0
  0
VERTEX
  5
79
330
6B
100
AcDbEntity
  8
1
 62
   250
420
  1709851
370
   211
100
AcDbVertex
100
AcDb2dVertex
 10
-236.680126893955
 20
1216.137309808813
 30
0.0
  0
VERTEX
  5
7A
330
6B
100
AcDbEntity
  8
1
 62
   250
420
  1709851
370
   211
100
AcDbVertex
100
AcDb2dVertex
 10
-229.2187390920009
 20
1179.683031931642
 30
0.0
  0
VERTEX
  5
7B
330
6B
100
AcDbEntity
  8
1
 62
   250
420
  1709851
370
   211
100
AcDbVertex
100
AcDb2dVertex
 10
-222.4188096232147
 20
1152.500539533923
 30
0.0
  0
VERTEX
  5
7C
330
6B
100
AcDbEntity
  8
1
 62
   250
420
  1709851
370
   211
100
AcDbVertex
100
AcDb2dVertex
 10
-214.7383137483988
 20
1125.490301910468
 30
0.0
  0
VERTEX
  5
7D
330
6B
100
AcDbEntity
  8
1
 62
   250
420
  1709851
370
   211
100
AcDbVertex
100
AcDb2dVertex
 10
-207.8291747527302
 20
1103.4227427797
 30
0.0
  0
VERTEX
  5
7E
330
6B
100
AcDbEntity
  8
1
 62
   250
420
  1709851
370
   211
100
AcDbVertex
100
AcDb2dVertex
 10
-200.3515950019954
 20
1081.52847195184
 30
0.0
  0
VERTEX
  5
7F
330
6B
100
AcDbEntity
  8
1
 62
   250
420
  1709851
370
   211
100
AcDbVertex
100
AcDb2dVertex
 10
-192.2611327644347
 20
1059.901885043184
 30
0.0
  0
VERTEX
  5
80
330
6B
100
AcDbEntity
  8
1
 62
   250
420
  1709851
370
   211
100
AcDbVertex
100
AcDb2dVertex
 10
-183.5102457223516
 20
1038.558484983416
 30
0.0
  0
VERTEX
  5
81
330
6B
100
AcDbEntity
  8
1
 62
   250
420
  1709851
370
   211
100
AcDbVertex
100
AcDb2dVertex
 10
-174.0817083983198
 20
1017.592667388831
 30
0.0
  0
VERTEX
  5
82
330
6B
100
AcDbEntity
  8
1
 62
   250
420
  1709851
370
   211
100
AcDbVertex
100
AcDb2dVertex
 10
-163.8969726152757
 20
997.0044322594294
 30
0.0
  0
VERTEX
  5
83
330
6B
100
AcDbEntity
  8
1
 62
   250
420
  1709851
370
   211
100
AcDbVertex
100
AcDb2dVertex
 10
-152.9112521319111
 20
976.9202145995199
 30
0.0
  0
VERTEX
  5
84
330
6B
100
AcDbEntity
  8
1
 62
   250
420
  1709851
370
   211
100
AcDbVertex
100
AcDb2dVertex
 10
-141.0756265923352
 20
957.3551728292375
 30
0.0
  0
VERTEX
  5
85
330
6B
100
AcDbEntity
  8
1
 62
   250
420
  1709851
370
   211
100
AcDbVertex
100
AcDb2dVertex
 10
-128.3415201502063
 20
938.3573660306018
 30
0.0
  0
VERTEX
  5
86
330
6B
100
AcDbEntity
  8
1
 62
   250
420
  1709851
370
   211
100
AcDbVertex
100
AcDb2dVertex
 10
-114.6944634044861
 20
920.004825616353
 30
0.0
  0
SEQEND
  5
87
330
6B
100
AcDbEntity
  8
1
370
   211
  0
POLYLINE
  5
88
330
1F
100
AcDbEntity
  8
1
 62
   250
420
  1709851
370
   211
100
AcDb2dPolyline
 66
     1
 10
0.0
 20
0.0
 30
0.0
  0
VERTEX
  5
89
330
88
100
AcDbEntity
  8
1
 62
   250
420
  1709851
370
   211
100
AcDbVertex
100
AcDb2dVertex
 10
-113.6554226061347
 20
918.6979286440234
 30
0.0
  0
VERTEX
  5
8A
330
88
100
AcDbEntity
  8
1
 62
   250
420
  1709851
370
   211
100
AcDbVertex
100
AcDb2dVertex
 10
-96.65732148191207
 20
898.5194876225923
 30
0.0
  0
VERTEX
  5
8B
330
88
100
AcDbEntity
  8
1
 62
   250
420
  1709851
370
   211
100
AcDbVertex
100
AcDb2dVertex
 10
-60.14068737645788
 20
860.3340492640832
 30
0.0
  0
VERTEX
  5
8C
330
88
100
AcDbEntity
  8
1
 62
   250
420
  1709851
370
   211
100
AcDbVertex
100
AcDb2dVertex
 10
-42.47906086177606
 20
840.8007023722651
 30
0.0
  0
VERTEX
  5
8D
330
88
100
AcDbEntity
  8
1
 62
   250
420
  1709851
370
   211
100
AcDbVertex
100
AcDb2dVertex
 10
-34.27801105913883
 20
830.6325030475502
 30
0.0
  0
VERTEX
  5
8E
330
88
100
AcDbEntity
  8
1
 62
   250
420
  1709851
370
   211
100
AcDbVertex
100
AcDb2dVertex
 10
-26.67675238048359
 20
820.0553708887362
 30
0.0
  0
VERTEX
  5
8F
330
88
100
AcDbEntity
  8
1
 62
   250
420
  1709851
370
   211
100
AcDbVertex
100
AcDb2dVertex
 10
-19.82996961309806
 20
808.9745657699786
 30
0.0
  0
VERTEX
  5
90
330
88
100
AcDbEntity
  8
1
 62
   250
420
  1709851
370
   211
100
AcDbVertex
100
AcDb2dVertex
 10
-13.83205837327809
 20
797.3108504951168
 30
0.0
  0
VERTEX
  5
91
330
88
100
AcDbEntity
  8
1
 62
   250
420
  1709851
370
   211
100
AcDbVertex
100
AcDb2dVertex
 10
-10.03900824401802
 20
788.2605846553653
 30
0.0
  0
VERTEX
  5
92
330
88
100
AcDbEntity
  8
1
 62
   250
420
  1709851
370
   211
100
AcDbVertex
100
AcDb2dVertex
 10
-6.843682181448802
 20
778.8792451394816
 30
0.0
  0
VERTEX
  5
93
330
88
100
AcDbEntity
  8
1
 62
   250
420
  1709851
370
   211
100
AcDbVertex
100
AcDb2dVertex
 10
-4.2319552940809
 20
769.2777640220903
 30
0.0
  0
VERTEX
  5
94
330
88
100
AcDbEntity
  8
1
 62
   250
420
  1709851
370
   211
100
AcDbVertex
100
AcDb2dVertex
 10
-2.216574435209745
 20
759.4881806912044
 30
0.0
  0
VERTEX
  5
95
330
88
100
AcDbEntity
  8
1
 62
   250
420
  1709851
370
   211
100
AcDbVertex
100
AcDb2dVertex
 10
-0.8940022784223328
 20
749.6035127249255
 30
0.0
  0
VERTEX
  5
96
330
88
100
AcDbEntity
  8
1
 62
   250
420
  1709851
370
   211
100
AcDbVertex
100
AcDb2dVertex
 10
-0.2022271049841655
 20
739.6549382373953
 30
0.0
  0
VERTEX
  5
97
330
88
100
AcDbEntity
  8
1
 62
   250
420
  1709851
370
   211
100
AcDbVertex
100
AcDb2dVertex
 10
-0.234266492996989
 20
729.7390921569749
 30
0.0
  0
VERTEX
  5
98
330
88
100
AcDbEntity
  8
1
 62
   250
420
  1709851
370
   211
100
AcDbVertex
100
AcDb2dVertex
 10
-0.9577365448994548
 20
719.8861190691604
 30
0.0
  0
VERTEX
  5
99
330
88
100
AcDbEntity
  8
1
 62
   250
420
  1709851
370
   211
100
AcDbVertex
100
AcDb2dVertex
 10
-2.437405055814259
 20
710.1898978259247
 30
0.0
  0
VERTEX
  5
9A
330
88
100
AcDbEntity
  8
1
 62
   250
420
  1709851
370
   211
100
AcDbVertex
100
AcDb2dVertex
 10
-4.64054361863153
 20
700.69900427361
 30
0.0
  0
VERTEX
  5
9B
330
88
100
AcDbEntity
  8
1
 62
   250
420
  1709851
370
   211
100
AcDbVertex
100
AcDb2dVertex
 10
-6.02650553234754
 20
696.0872272022803
 30
0.0
  0
SEQEND
  5
9C
330
88
100
AcDbEntity
  8
1
370
   211
  0
POLYLINE
  5
9D
330
1F
100
AcDbEntity
  8
1
 62
   250
420
  1709851
370
   211
100
AcDb2dPolyline
 66
     1
 10
0.0
 20
0.0
 30
0.0
  0
VERTEX
  5
9E
330
9D
100
AcDbEntity
  8
1
 62
   250
420
  1709851
370
   211
100
AcDbVertex
100
AcDb2dVertex
 10
-191.8198160327742
 20
1576.032654770922
 30
0.0
  0
VERTEX
  5
9F
330
9D
100
AcDbEntity
  8
1
 62
   250
420
  1709851
370
   211
100
AcDbVertex
100
AcDb2dVertex
 10
-207.9549207379419
 20
1511.845013727941
 30
0.0
  0
VERTEX
  5
A0
330
9D
100
AcDbEntity
  8
1
 62
   250
420
  1709851
370
   211
100
AcDbVertex
100
AcDb2dVertex
 10
-217.4613172199403
 20
1471.251453625242
 30
0.0
  0
VERTEX
  5
A1
330
9D
100
AcDbEntity
  8
1
 62
   250
420
  1709851
370
   211
100
AcDbVertex
100
AcDb2dVertex
 10
-225.9128254643552
 20
1430.453599360268
 30
0.0
  0
VERTEX
  5
A2
330
9D
100
AcDbEntity
  8
1
 62
   250
420
  1709851
370
   211
100
AcDbVertex
100
AcDb2dVertex
 10
-232.618703826394
 20
1389.623361197733
 30
0.0
  0
VERTEX
  5
A3
330
9D
100
AcDbEntity
  8
1
 62
   250
420
  1709851
370
   211
100
AcDbVertex
100
AcDb2dVertex
 10
-235.1374131356601
 20
1369.255956688936
 30
0.0
  0
VERTEX
  5
A4
330
9D
100
AcDbEntity
  8
1
 62
   250
420
  1709851
370
   211
100
AcDbVertex
100
AcDb2dVertex
 10
-236.9953531308553
 20
1348.794156563843
 30
0.0
  0
VERTEX
  5
A5
330
9D
100
AcDbEntity
  8
1
 62
   250
420
  1709851
370
   211
100
AcDbVertex
100
AcDb2dVertex
 10
-237.969626134084
 20
1332.503505797516
 30
0.0
  0
VERTEX
  5
A6
330
9D
100
AcDbEntity
  8
1
 62
   250
420
  1709851
370
   211
100
AcDbVertex
100
AcDb2dVertex
 10
-238.4426377442088
 20
1308.02748041301
 30
0.0
  0
VERTEX
  5
A7
330
9D
100
AcDbEntity
  8
1
 62
   250
420
  1709851
370
   211
100
AcDbVertex
100
AcDb2dVertex
 10
-237.969626134084
 20
1289.878889651489
 30
0.0
  0
VERTEX
  5
A8
330
9D
100
AcDbEntity
  8
1
 62
   250
420
  1709851
370
   211
100
AcDbVertex
100
AcDb2dVertex
 10
-236.8368787385338
 20
1271.762510532754
 30
0.0
  0
VERTEX
  5
A9
330
9D
100
AcDbEntity
  8
1
 62
   250
420
  1709851
370
   211
100
AcDbVertex
100
AcDb2dVertex
 10
-235.0747123978286
 20
1253.598416841548
 30
0.0
  0
VERTEX
  5
AA
330
9D
100
AcDbEntity
  8
1
 62
   250
420
  1709851
370
   211
100
AcDbVertex
100
AcDb2dVertex
 10
-232.7279133532764
 20
1235.512871327406
 30
0.0
  0
VERTEX
  5
AB
330
9D
100
AcDbEntity
  8
1
 62
   250
420
  1709851
370
   211
100
AcDbVertex
100
AcDb2dVertex
 10
-229.1395018958402
 20
1213.745035503855
 30
0.0
  0
VERTEX
  5
AC
330
9D
100
AcDbEntity
  8
1
 62
   250
420
  1709851
370
   211
100
AcDbVertex
100
AcDb2dVertex
 10
-222.4188096232147
 20
1181.304466121774
 30
0.0
  0
VERTEX
  5
AD
330
9D
100
AcDbEntity
  8
1
 62
   250
420
  1709851
370
   211
100
AcDbVertex
100
AcDb2dVertex
 10
-217.099582193989
 20
1159.677362448796
 30
0.0
  0
VERTEX
  5
AE
330
9D
100
AcDbEntity
  8
1
 62
   250
420
  1709851
370
   211
100
AcDbVertex
100
AcDb2dVertex
 10
-208.0644747743728
 20
1127.520841189474
 30
0.0
  0
VERTEX
  5
AF
330
9D
100
AcDbEntity
  8
1
 62
   250
420
  1709851
370
   211
100
AcDbVertex
100
AcDb2dVertex
 10
-200.3367810914089
 20
1102.935261768537
 30
0.0
  0
VERTEX
  5
B0
330
9D
100
AcDbEntity
  8
1
 62
   250
420
  1709851
370
   211
100
AcDbVertex
100
AcDb2dVertex
 10
-191.8990532289349
 20
1078.632352432165
 30
0.0
  0
VERTEX
  5
B1
330
9D
100
AcDbEntity
  8
1
 62
   250
420
  1709851
370
   211
100
AcDbVertex
100
AcDb2dVertex
 10
-184.612331768083
 20
1059.460912821072
 30
0.0
  0
VERTEX
  5
B2
330
9D
100
AcDbEntity
  8
1
 62
   250
420
  1709851
370
   211
100
AcDbVertex
100
AcDb2dVertex
 10
-172.6805880644687
 20
1031.113289130242
 30
0.0
  0
VERTEX
  5
B3
330
9D
100
AcDbEntity
  8
1
 62
   250
420
  1709851
370
   211
100
AcDbVertex
100
AcDb2dVertex
 10
-164.0234076195844
 20
1012.682028284156
 30
0.0
  0
VERTEX
  5
B4
330
9D
100
AcDbEntity
  8
1
 62
   250
420
  1709851
370
   211
100
AcDbVertex
100
AcDb2dVertex
 10
-149.8578640033341
 20
985.624420597778
 30
0.0
  0
VERTEX
  5
B5
330
9D
100
AcDbEntity
  8
1
 62
   250
420
  1709851
370
   211
100
AcDbVertex
100
AcDb2dVertex
 10
-139.6579698001549
 20
968.1376326789726
 30
0.0
  0
VERTEX
  5
B6
330
9D
100
AcDbEntity
  8
1
 62
   250
420
  1709851
370
   211
100
AcDbVertex
100
AcDb2dVertex
 10
-131.5041178056656
 20
955.3249780597798
 30
0.0
  0
VERTEX
  5
B7
330
9D
100
AcDbEntity
  8
1
 62
   250
420
  1709851
370
   211
100
AcDbVertex
100
AcDb2dVertex
 10
-122.9744058937355
 20
942.7803518693396
 30
0.0
  0
VERTEX
  5
B8
330
9D
100
AcDbEntity
  8
1
 62
   250
420
  1709851
370
   211
100
AcDbVertex
100
AcDb2dVertex
 10
-115.0093451318379
 20
931.8096175513359
 30
0.0
  0
SEQEND
  5
B9
330
9D
100
AcDbEntity
  8
1
370
   211
  0
POLYLINE
  5
BA
330
1F
100
AcDbEntity
  8
1
 62
   250
420
  1709851
370
   211
100
AcDb2dPolyline
 66
     1
 10
0.0
 20
0.0
 30
0.0
  0
VERTEX
  5
BB
330
BA
100
AcDbEntity
  8
1
 62
   250
420
  1709851
370
   211
100
AcDbVertex
100
AcDb2dVertex
 10
-113.9709933525836
 20
930.4558672804068
 30
0.0
  0
VERTEX
  5
BC
330
BA
100
AcDbEntity
  8
1
 62
   250
420
  1709851
370
   211
100
AcDbVertex
100
AcDb2dVertex
 10
-105.2349202210871
 20
919.3120169142693
 30
0.0
  0
VERTEX
  5
BD
330
BA
100
AcDbEntity
  8
1
 62
   250
420
  1709851
370
   211
100
AcDbVertex
100
AcDb2dVertex
 10
-91.46349552834941
 20
903.1939654317536
 30
0.0
  0
VERTEX
  5
BE
330
BA
100
AcDbEntity
  8
1
 62
   250
420
  1709851
370
   211
100
AcDbVertex
100
AcDb2dVertex
 10
-54.96167533348181
 20
865.1351343323273
 30
0.0
  0
VERTEX
  5
BF
330
BA
100
AcDbEntity
  8
1
 62
   250
420
  1709851
370
   211
100
AcDbVertex
100
AcDb2dVertex
 10
-37.03339842824166
 20
845.3339312665312
 30
0.0
  0
VERTEX
  5
C0
330
BA
100
AcDbEntity
  8
1
 62
   250
420
  1709851
370
   211
100
AcDbVertex
100
AcDb2dVertex
 10
-30.23346895945552
 20
836.9918048037728
 30
0.0
  0
VERTEX
  5
C1
330
BA
100
AcDbEntity
  8
1
 62
   250
420
  1709851
370
   211
100
AcDbVertex
100
AcDb2dVertex
 10
-20.78908419619162
 20
823.9431611438405
 30
0.0
  0
VERTEX
  5
C2
330
BA
100
AcDbEntity
  8
1
 62
   250
420
  1709851
370
   211
100
AcDbVertex
100
AcDb2dVertex
 10
-15.01234808652469
 20
814.703759561949
 30
0.0
  0
VERTEX
  5
C3
330
BA
100
AcDbEntity
  8
1
 62
   250
420
  1709851
370
   211
100
AcDbVertex
100
AcDb2dVertex
 10
-11.06220160313722
 20
807.5417505576632
 30
0.0
  0
VERTEX
  5
C4
330
BA
100
AcDbEntity
  8
1
 62
   250
420
  1709851
370
   211
100
AcDbVertex
100
AcDb2dVertex
 10
-7.488259546739046
 20
800.1916393398827
 30
0.0
  0
VERTEX
  5
C5
330
BA
100
AcDbEntity
  8
1
 62
   250
420
  1709851
370
   211
100
AcDbVertex
100
AcDb2dVertex
 10
-4.261583115254048
 20
792.5734996933497
 30
0.0
  0
VERTEX
  5
C6
330
BA
100
AcDbEntity
  8
1
 62
   250
420
  1709851
370
   211
100
AcDbVertex
100
AcDb2dVertex
 10
-0.234266492996989
 20
780.8310639866499
 30
0.0
  0
VERTEX
  5
C7
330
BA
100
AcDbEntity
  8
1
 62
   250
420
  1709851
370
   211
100
AcDbVertex
100
AcDb2dVertex
 10
1.970594617562906
 20
772.7721243727792
 30
0.0
  0
VERTEX
  5
C8
330
BA
100
AcDbEntity
  8
1
 62
   250
420
  1709851
370
   211
100
AcDbVertex
100
AcDb2dVertex
 10
4.521343314841886
 20
760.4953543563172
 30
0.0
  0
VERTEX
  5
C9
330
BA
100
AcDbEntity
  8
1
 62
   250
420
  1709851
370
   211
100
AcDbVertex
100
AcDb2dVertex
 10
5.668904620978607
 20
752.2159286313905
 30
0.0
  0
VERTEX
  5
CA
330
BA
100
AcDbEntity
  8
1
 62
   250
420
  1709851
370
   211
100
AcDbVertex
100
AcDb2dVertex
 10
6.582888453215389
 20
739.7029973194145
 30
0.0
  0
VERTEX
  5
CB
330
BA
100
AcDbEntity
  8
1
 62
   250
420
  1709851
370
   211
100
AcDbVertex
100
AcDb2dVertex
 10
6.630086261363311
 20
731.4075519004815
 30
0.0
  0
VERTEX
  5
CC
330
BA
100
AcDbEntity
  8
1
 62
   250
420
  1709851
370
   211
100
AcDbVertex
100
AcDb2dVertex
 10
5.842192923886674
 20
718.9731687655692
 30
0.0
  0
VERTEX
  5
CD
330
BA
100
AcDbEntity
  8
1
 62
   250
420
  1709851
370
   211
100
AcDbVertex
100
AcDb2dVertex
 10
4.709445528336527
 20
710.8668590887763
 30
0.0
  0
VERTEX
  5
CE
330
BA
100
AcDbEntity
  8
1
 62
   250
420
  1709851
370
   211
100
AcDbVertex
100
AcDb2dVertex
 10
3.560161674457182
 20
704.8386310086861
 30
0.0
  0
VERTEX
  5
CF
330
BA
100
AcDbEntity
  8
1
 62
   250
420
  1709851
370
   211
100
AcDbVertex
100
AcDb2dVertex
 10
2.094962564580426
 20
698.8734481759761
 30
0.0
  0
VERTEX
  5
D0
330
BA
100
AcDbEntity
  8
1
 62
   250
420
  1709851
370
   211
100
AcDbVertex
100
AcDb2dVertex
 10
0.4440728080487041
 20
693.3173704321395
 30
0.0
  0
SEQEND
  5
D1
330
BA
100
AcDbEntity
  8
1
370
   211
  0
POLYLINE
  5
D2
330
1F
100
AcDbEntity
  8
1
 62
   250
420
  1709851
370
   211
100
AcDb2dPolyline
 66
     1
 10
0.0
 20
0.0
 30
0.0
  0
VERTEX
  5
D3
330
D2
100
AcDbEntity
  8
1
 62
   250
420
  1709851
370
   211
100
AcDbVertex
100
AcDb2dVertex
 10
-147.5606743337695
 20
1604.852773307554
 30
0.0
  0
VERTEX
  5
D4
330
D2
100
AcDbEntity
  8
1
 62
   250
420
  1709851
370
   211
100
AcDbVertex
100
AcDb2dVertex
 10
-195.1898084364456
 20
1604.852773307554
 30
0.0
  0
SEQEND
  5
D5
330
D2
100
AcDbEntity
  8
1
370
   211
  0
SPLINE
  5
D6
330
1F
100
AcDbEntity
  8
1
 62
   250
420
  1709851
370
   211
100
AcDbSpline
210
0.0
220
0.0
230
1.0
 70
     8
 71
     3
 72
     8
 73
     4
 74
     0
 42
0.0000000001
 43
0.0000000001
 40
0.0
 40
0.0
 40
0.0
 40
0.0
 40
1.0
 40
1.0
 40
1.0
 40
1.0
 10
-144.554139503792
 20
1601.862085916809
 30
0.0
 10
-144.554139503792
 20
1603.530373405541
 30
0.0
 10
-145.8911810616175
 20
1604.852773307554
 30
0.0
 10
-147.5606743337695
 20
1604.852773307554
 30
0.0
  0
POLYLINE
  5
D7
330
1F
100
AcDbEntity
  8
1
 62
   250
420
  1709851
370
   211
100
AcDb2dPolyline
 66
     1
 10
0.0
 20
0.0
 30
0.0
  0
VERTEX
  5
D8
330
D7
100
AcDbEntity
  8
1
 62
   250
420
  1709851
370
   211
100
AcDbVertex
100
AcDb2dVertex
 10
-144.554139503792
 20
1596.384384095262
 30
0.0
  0
VERTEX
  5
D9
330
D7
100
AcDbEntity
  8
1
 62
   250
420
  1709851
370
   211
100
AcDbVertex
100
AcDb2dVertex
 10
-144.554139503792
 20
1601.862085916809
 30
0.0
  0
SEQEND
  5
DA
330
D7
100
AcDbEntity
  8
1
370
   211
  0
POLYLINE
  5
DB
330
1F
100
AcDbEntity
  8
1
 62
   250
420
  1709851
370
   211
100
AcDb2dPolyline
 66
     1
 10
0.0
 20
0.0
 30
0.0
  0
VERTEX
  5
DC
330
DB
100
AcDbEntity
  8
1
 62
   250
420
  1709851
370
   211
100
AcDbVertex
100
AcDb2dVertex
 10
-242.8489148698433
 20
1604.852773307554
 30
0.0
  0
VERTEX
  5
DD
330
DB
100
AcDbEntity
  8
1
 62
   250
420
  1709851
370
   211
100
AcDbVertex
100
AcDb2dVertex
 10
-195.1898084364456
 20
1604.852773307554
 30
0.0
  0
SEQEND
  5
DE
330
DB
100
AcDbEntity
  8
1
370
   211
  0
SPLINE
  5
DF
330
1F
100
AcDbEntity
  8
1
 62
   250
420
  1709851
370
   211
100
AcDbSpline
210
0.0
220
0.0
230
1.0
 70
     8
 71
     3
 72
     8
 73
     4
 74
     0
 42
0.0000000001
 43
0.0000000001
 40
0.0
 40
0.0
 40
0.0
 40
0.0
 40
1.0
 40
1.0
 40
1.0
 40
1.0
 10
-242.8489148698433
 20
1604.852773307554
 30
0.0
 10
-244.4870577730796
 20
1604.852773307554
 30
0.0
 10
-245.8399467701373
 20
1603.530373405541
 30
0.0
 10
-245.8399467701373
 20
1601.862085916809
 30
0.0
  0
POLYLINE
  5
E0
330
1F
100
AcDbEntity
  8
1
 62
   250
420
  1709851
370
   211
100
AcDb2dPolyline
 66
     1
 10
0.0
 20
0.0
 30
0.0
  0
VERTEX
  5
E1
330
E0
100
AcDbEntity
  8
1
 62
   250
420
  1709851
370
   211
100
AcDbVertex
100
AcDb2dVertex
 10
-245.8399467701373
 20
1596.384384095262
 30
0.0
  0
VERTEX
  5
E2
330
E0
100
AcDbEntity
  8
1
 62
   250
420
  1709851
370
   211
100
AcDbVertex
100
AcDb2dVertex
 10
-245.8399467701373
 20
1601.862085916809
 30
0.0
  0
SEQEND
  5
E3
330
E0
100
AcDbEntity
  8
1
370
   211
  0
POLYLINE
  5
E4
330
1F
100
AcDbEntity
  8
1
 62
   250
420
  1709851
370
   211
100
AcDb2dPolyline
 66
     1
 10
0.0
 20
0.0
 30
0.0
  0
VERTEX
  5
E5
330
E4
100
AcDbEntity
  8
1
 62
   250
420
  1709851
370
   211
100
AcDbVertex
100
AcDb2dVertex
 10
-284.8921711527353
 20
1596.384384095262
 30
0.0
  0
VERTEX
  5
E6
330
E4
100
AcDbEntity
  8
1
 62
   250
420
  1709851
370
   211
100
AcDbVertex
100
AcDb2dVertex
 10
-284.8921711527353
 20
1591.599663230572
 30
0.0
  0
SEQEND
  5
E7
330
E4
100
AcDbEntity
  8
1
370
   211
  0
SPLINE
  5
E8
330
1F
100
AcDbEntity
  8
1
 62
   250
420
  1709851
370
   211
100
AcDbSpline
210
0.0
220
0.0
230
1.0
 70
     8
 71
     3
 72
     8
 73
     4
 74
     0
 42
0.0000000001
 43
0.0000000001
 40
0.0
 40
0.0
 40
0.0
 40
0.0
 40
1.0
 40
1.0
 40
1.0
 40
1.0
 10
-284.8752901848576
 20
1591.599663230572
 30
0.0
 10
-272.9762748883532
 20
1587.066262081532
 30
0.0
 10
-260.7620333549484
 20
1583.430480561174
 30
0.0
 10
-248.2966443606689
 20
1580.75467489778
 30
0.0
  0
SPLINE
  5
E9
330
1F
100
AcDbEntity
  8
1
 62
   250
420
  1709851
370
   211
100
AcDbSpline
210
0.0
220
0.0
230
1.0
 70
     8
 71
     3
 72
     8
 73
     4
 74
     0
 42
0.0000000001
 43
0.0000000001
 40
0.0
 40
0.0
 40
0.0
 40
0.0
 40
1.0
 40
1.0
 40
1.0
 40
1.0
 10
-248.2966443606689
 20
1580.75467489778
 30
0.0
 10
-238.0016655220968
 20
1578.535344386182
 30
0.0
 10
-227.5826632460558
 20
1576.961108004197
 30
0.0
 10
-217.099582193989
 20
1576.048674464929
 30
0.0
  0
POLYLINE
  5
EA
330
1F
100
AcDbEntity
  8
1
 62
   250
420
  1709851
370
   211
100
AcDb2dPolyline
 66
     1
 10
0.0
 20
0.0
 30
0.0
  0
VERTEX
  5
EB
330
EA
100
AcDbEntity
  8
1
 62
   250
420
  1709851
370
   211
100
AcDbVertex
100
AcDb2dVertex
 10
-105.4871012106074
 20
1596.384384095262
 30
0.0
  0
VERTEX
  5
EC
330
EA
100
AcDbEntity
  8
1
 62
   250
420
  1709851
370
   211
100
AcDbVertex
100
AcDb2dVertex
 10
-105.4871012106074
 20
1591.599663230572
 30
0.0
  0
SEQEND
  5
ED
330
EA
100
AcDbEntity
  8
1
370
   211
  0
POLYLINE
  5
EE
330
1F
100
AcDbEntity
  8
1
 62
   250
420
  1709851
370
   211
100
AcDb2dPolyline
 66
     1
 10
0.0
 20
0.0
 30
0.0
  0
VERTEX
  5
EF
330
EE
100
AcDbEntity
  8
1
 62
   250
420
  1709851
370
   211
100
AcDbVertex
100
AcDb2dVertex
 10
-173.2945040799403
 20
1576.032654770922
 30
0.0
  0
VERTEX
  5
F0
330
EE
100
AcDbEntity
  8
1
 62
   250
420
  1709851
370
   211
100
AcDbVertex
100
AcDb2dVertex
 10
-217.099582193989
 20
1576.032654770922
 30
0.0
  0
SEQEND
  5
F1
330
EE
100
AcDbEntity
  8
1
370
   211
  0
POLYLINE
  5
F2
330
1F
100
AcDbEntity
  8
1
 62
   250
420
  1709851
370
   211
100
AcDb2dPolyline
 66
     1
 10
0.0
 20
0.0
 30
0.0
  0
VERTEX
  5
F3
330
F2
100
AcDbEntity
  8
1
 62
   250
420
  1709851
370
   211
100
AcDbVertex
100
AcDb2dVertex
 10
-105.4871012106074
 20
1596.384384095262
 30
0.0
  0
VERTEX
  5
F4
330
F2
100
AcDbEntity
  8
1
 62
   250
420
  1709851
370
   211
100
AcDbVertex
100
AcDb2dVertex
 10
-284.8921711527353
 20
1596.384384095262
 30
0.0
  0
SEQEND
  5
F5
330
F2
100
AcDbEntity
  8
1
370
   211
  0
SPLINE
  5
F6
330
1F
100
AcDbEntity
  8
1
 62
   250
420
  1709851
370
   211
100
AcDbSpline
210
0.0
220
0.0
230
1.0
 70
     8
 71
     3
 72
     8
 73
     4
 74
     0
 42
0.0000000001
 43
0.0000000001
 40
0.0
 40
0.0
 40
0.0
 40
0.0
 40
1.0
 40
1.0
 40
1.0
 40
1.0
 10
-173.2796901693537
 20
1576.048674464929
 30
0.0
 10
-165.376985635739
 20
1576.741483167012
 30
0.0
 10
-157.5076985283314
 20
1577.795854640273
 30
0.0
 10
-149.7000786301097
 20
1579.227808578717
 30
0.0
  0
SPLINE
  5
F7
330
1F
100
AcDbEntity
  8
1
 62
   250
420
  1709851
370
   211
100
AcDbSpline
210
0.0
220
0.0
230
1.0
 70
     8
 71
     3
 72
     8
 73
     4
 74
     0
 42
0.0000000001
 43
0.0000000001
 40
0.0
 40
0.0
 40
0.0
 40
0.0
 40
1.0
 40
1.0
 40
1.0
 40
1.0
 10
-149.7000786301097
 20
1579.227808578717
 30
0.0
 10
-134.6212402007197
 20
1581.998182113181
 30
0.0
 10
-119.8259331297657
 20
1586.137464338708
 30
0.0
 10
-105.5029486498395
 20
1591.599663230572
 30
0.0
  0
POLYLINE
  5
F8
330
1F
100
AcDbEntity
  8
1
 62
   250
420
  1709851
370
   211
100
AcDb2dPolyline
 66
     1
 10
0.0
 20
0.0
 30
0.0
  0
VERTEX
  5
F9
330
F8
100
AcDbEntity
  8
1
 62
   250
420
  1709851
370
   211
100
AcDbVertex
100
AcDb2dVertex
 10
-132.1810790685172
 20
1583.08442071968
 30
0.0
  0
VERTEX
  5
FA
330
F8
100
AcDbEntity
  8
1
 62
   250
420
  1709851
370
   211
100
AcDbVertex
100
AcDb2dVertex
 10
-53.49682073315357
 20
547.0287976062983
 30
0.0
  0
SEQEND
  5
FB
330
F8
100
AcDbEntity
  8
1
370
   211
  0
POLYLINE
  5
FC
330
1F
100
AcDbEntity
  8
1
 62
   250
420
  1709851
370
   211
100
AcDb2dPolyline
 66
     1
 10
0.0
 20
0.0
 30
0.0
  0
VERTEX
  5
FD
330
FC
100
AcDbEntity
  8
1
 62
   250
420
  1709851
370
   211
100
AcDbVertex
100
AcDb2dVertex
 10
-256.2441351355918
 20
1583.08442071968
 30
0.0
  0
VERTEX
  5
FE
330
FC
100
AcDbEntity
  8
1
 62
   250
420
  1709851
370
   211
100
AcDbVertex
100
AcDb2dVertex
 10
-339.6194077384458
 20
545.7382648375238
 30
0.0
  0
SEQEND
  5
FF
330
FC
100
AcDbEntity
  8
1
370
   211
  0
POLYLINE
  5
100
330
1F
100
AcDbEntity
  8
1
 62
   250
420
  1709851
370
   211
100
AcDb2dPolyline
 66
     1
 10
0.0
 20
0.0
 30
0.0
  0
VERTEX
  5
101
330
100
100
AcDbEntity
  8
1
 62
   250
420
  1709851
370
   211
100
AcDbVertex
100
AcDb2dVertex
 10
-255.2526366549368
 20
1582.83223973016
 30
0.0
  0
VERTEX
  5
102
330
100
100
AcDbEntity
  8
1
 62
   250
420
  1709851
370
   211
100
AcDbVertex
100
AcDb2dVertex
 10
-338.6127508376559
 20
546.2111041928743
 30
0.0
  0
SEQEND
  5
103
330
100
100
AcDbEntity
  8
1
370
   211
  0
SPLINE
  5
104
330
1F
100
AcDbEntity
  8
1
 62
   250
420
  1709851
370
   211
100
AcDbSpline
210
0.0
220
0.0
230
1.0
 70
     8
 71
     3
 72
     8
 73
     4
 74
     0
 42
0.0000000001
 43
0.0000000001
 40
0.0
 40
0.0
 40
0.0
 40
0.0
 40
1.0
 40
1.0
 40
1.0
 40
1.0
 10
47.86856823890091
 20
472.7835448036791
 30
0.0
 10
23.70776909129528
 20
498.8959905436788
 30
0.0
 10
-4.546148002335685
 20
520.9321993055308
 30
0.0
 10
-35.77456053793137
 20
538.0259018294692
 30
0.0
  0
SPLINE
  5
105
330
1F
100
AcDbEntity
  8
1
 62
   250
420
  1709851
370
   211
100
AcDbSpline
210
0.0
220
0.0
230
1.0
 70
     8
 71
     3
 72
     8
 73
     4
 74
     0
 42
0.0000000001
 43
0.0000000001
 40
0.0
 40
0.0
 40
0.0
 40
0.0
 40
1.0
 40
1.0
 40
1.0
 40
1.0
 10
-44.05450302718082
 20
542.4013453505108
 30
0.0
 10
-90.84889049378084
 20
566.2789576492289
 30
0.0
 10
-142.664160120584
 20
578.6037867477102
 30
0.0
 10
-195.1898084364456
 20
578.3517780129641
 30
0.0
  0
SPLINE
  5
106
330
1F
100
AcDbEntity
  8
1
 62
   250
420
  1709851
370
   211
100
AcDbSpline
210
0.0
220
0.0
230
1.0
 70
     8
 71
     3
 72
     8
 73
     4
 74
     0
 42
0.0000000001
 43
0.0000000001
 40
0.0
 40
0.0
 40
0.0
 40
0.0
 40
1.0
 40
1.0
 40
1.0
 40
1.0
 10
216.4605169814752
 20
151.2302177898834
 30
0.0
 10
189.6700764499783
 20
271.4371784803178
 30
0.0
 10
131.5110079966361
 20
382.3887178948542
 30
0.0
 10
47.86856823890091
 20
472.7835448036791
 30
0.0
  0
POLYLINE
  5
107
330
1F
100
AcDbEntity
  8
1
 62
   250
420
  1709851
370
   211
100
AcDb2dPolyline
 66
     1
 10
0.0
 20
0.0
 30
0.0
  0
VERTEX
  5
108
330
107
100
AcDbEntity
  8
1
 62
   250
420
  1709851
370
   211
100
AcDbVertex
100
AcDb2dVertex
 10
-635.4368379487797
 20
-118.9942870796264
 30
0.0
  0
VERTEX
  5
109
330
107
100
AcDbEntity
  8
1
 62
   250
420
  1709851
370
   211
100
AcDbVertex
100
AcDb2dVertex
 10
-195.1898084364456
 20
-118.9942870796264
 30
0.0
  0
SEQEND
  5
10A
330
107
100
AcDbEntity
  8
1
370
   211
  0
SPLINE
  5
10B
330
1F
100
AcDbEntity
  8
1
 62
   250
420
  1709851
370
   211
100
AcDbSpline
210
0.0
220
0.0
230
1.0
 70
     8
 71
     3
 72
     8
 73
     4
 74
     0
 42
0.0000000001
 43
0.0000000001
 40
0.0
 40
0.0
 40
0.0
 40
0.0
 40
1.0
 40
1.0
 40
1.0
 40
1.0
 10
-195.1898084364456
 20
578.3517780129641
 30
0.0
 10
-247.7288926246997
 20
578.6037867477102
 30
0.0
 10
-299.5458847992455
 20
566.263282464771
 30
0.0
 10
-346.3251138457104
 20
542.4013453505108
 30
0.0
  0
SPLINE
  5
10C
330
1F
100
AcDbEntity
  8
1
 62
   250
420
  1709851
370
   211
100
AcDbSpline
210
0.0
220
0.0
230
1.0
 70
     8
 71
     3
 72
     8
 73
     4
 74
     0
 42
0.0000000001
 43
0.0000000001
 40
0.0
 40
0.0
 40
0.0
 40
0.0
 40
1.0
 40
1.0
 40
1.0
 40
1.0
 10
-354.6196979907722
 20
538.0259018294692
 30
0.0
 10
-385.8481105263678
 20
520.9321993055308
 30
0.0
 10
-414.1004773270304
 20
498.8959905436788
 30
0.0
 10
-438.2779851877395
 20
472.7835448036791
 30
0.0
  0
SPLINE
  5
10D
330
1F
100
AcDbEntity
  8
1
 62
   250
420
  1709851
370
   211
100
AcDbSpline
210
0.0
220
0.0
230
1.0
 70
     8
 71
     3
 72
     8
 73
     4
 74
     0
 42
0.0000000001
 43
0.0000000001
 40
0.0
 40
0.0
 40
0.0
 40
0.0
 40
1.0
 40
1.0
 40
1.0
 40
1.0
 10
-438.2628267676044
 20
472.7835448036791
 30
0.0
 10
-521.8889023217847
 20
382.3887178948542
 30
0.0
 10
-580.0633014500363
 20
271.4371784803178
 30
0.0
 10
-606.8530529624361
 20
151.2302177898834
 30
0.0
  0
SPLINE
  5
10E
330
1F
100
AcDbEntity
  8
1
 62
   250
420
  1709851
370
   211
100
AcDbSpline
210
0.0
220
0.0
230
1.0
 70
     8
 71
     3
 72
    11
 73
     7
 74
     0
 42
0.0000000001
 43
0.0000000001
 40
0.0
 40
0.0
 40
0.0
 40
0.0
 40
1.0
 40
1.0
 40
1.0
 40
2.0
 40
2.0
 40
2.0
 40
2.0
 10
-641.8901908117496
 20
-112.2415554189882
 30
0.0
 10
-642.0483206945227
 20
-115.8148084562893
 30
0.0
 10
-639.2929333254198
 20
-118.8206542671698
 30
0.0
 10
-635.7362167464478
 20
-118.9784396403943
 30
0.0
 10
-635.6270072195655
 20
-118.9942870796264
 30
0.0
 10
-635.5310613103013
 20
-118.9942870796264
 30
0.0
 10
-635.4368379487797
 20
-118.9942870796264
 30
0.0
  0
SPLINE
  5
10F
330
1F
100
AcDbEntity
  8
1
 62
   250
420
  1709851
370
   211
100
AcDbSpline
210
0.0
220
0.0
230
1.0
 70
     8
 71
     3
 72
     8
 73
     4
 74
     0
 42
0.0000000001
 43
0.0000000001
 40
0.0
 40
0.0
 40
0.0
 40
0.0
 40
1.0
 40
1.0
 40
1.0
 40
1.0
 10
-606.8530529624361
 20
151.2302177898834
 30
0.0
 10
-626.150755323063
 20
64.59726289617707
 30
0.0
 10
-637.8775158453049
 20
-23.57685546285579
 30
0.0
 10
-641.8901908117496
 20
-112.2574028582203
 30
0.0
  0
SPLINE
  5
110
330
1F
100
AcDbEntity
  8
1
 62
   250
420
  1709851
370
   211
100
AcDbSpline
210
0.0
220
0.0
230
1.0
 70
     8
 71
     3
 72
     8
 73
     4
 74
     0
 42
0.0000000001
 43
0.0000000001
 40
0.0
 40
0.0
 40
0.0
 40
0.0
 40
1.0
 40
1.0
 40
1.0
 40
1.0
 10
-35.77456053793137
 20
538.0259018294692
 30
0.0
 10
-36.24584960031354
 20
538.2775660546667
 30
0.0
 10
-36.78121743872136
 20
538.4191594791104
 30
0.0
 10
-37.31624076758067
 20
538.4191594791104
 30
0.0
  0
SPLINE
  5
111
330
1F
100
AcDbEntity
  8
1
 62
   250
420
  1709851
370
   211
100
AcDbSpline
210
0.0
220
0.0
230
1.0
 70
     8
 71
     3
 72
     8
 73
     4
 74
     0
 42
0.0000000001
 43
0.0000000001
 40
0.0
 40
0.0
 40
0.0
 40
0.0
 40
1.0
 40
1.0
 40
1.0
 40
1.0
 10
-353.0613090480195
 20
538.4191594791104
 30
0.0
 10
-353.596504631653
 20
538.4191594791104
 30
0.0
 10
-354.1315279605123
 20
538.2775660546667
 30
0.0
 10
-354.6047118254114
 20
538.0259018294692
 30
0.0
  0
POLYLINE
  5
112
330
1F
100
AcDbEntity
  8
1
 62
   250
420
  1709851
370
   211
100
AcDb2dPolyline
 66
     1
 10
0.0
 20
0.0
 30
0.0
  0
VERTEX
  5
113
330
112
100
AcDbEntity
  8
1
 62
   250
420
  1709851
370
   211
100
AcDbVertex
100
AcDb2dVertex
 10
-37.31624076758067
 20
538.4191594791104
 30
0.0
  0
VERTEX
  5
114
330
112
100
AcDbEntity
  8
1
 62
   250
420
  1709851
370
   211
100
AcDbVertex
100
AcDb2dVertex
 10
-353.0613090480195
 20
538.4191594791104
 30
0.0
  0
SEQEND
  5
115
330
112
100
AcDbEntity
  8
1
370
   211
  0
POLYLINE
  5
116
330
1F
100
AcDbEntity
  8
1
 62
   250
420
  1709851
370
   211
100
AcDb2dPolyline
 66
     1
 10
0.0
 20
0.0
 30
0.0
  0
VERTEX
  5
117
330
116
100
AcDbEntity
  8
1
 62
   250
420
  1709851
370
   211
100
AcDbVertex
100
AcDb2dVertex
 10
245.0589436236311
 20
-118.9942870796264
 30
0.0
  0
VERTEX
  5
118
330
116
100
AcDbEntity
  8
1
 62
   250
420
  1709851
370
   211
100
AcDbVertex
100
AcDb2dVertex
 10
-195.1898084364456
 20
-118.9942870796264
 30
0.0
  0
SEQEND
  5
119
330
116
100
AcDbEntity
  8
1
370
   211
  0
SPLINE
  5
11A
330
1F
100
AcDbEntity
  8
1
 62
   250
420
  1709851
370
   211
100
AcDbSpline
210
0.0
220
0.0
230
1.0
 70
     8
 71
     3
 72
    11
 73
     7
 74
     0
 42
0.0000000001
 43
0.0000000001
 40
0.0
 40
0.0
 40
0.0
 40
0.0
 40
1.0
 40
1.0
 40
1.0
 40
2.0
 40
2.0
 40
2.0
 40
2.0
 10
245.0589436236311
 20
-118.9942870796264
 30
0.0
 10
248.6156602026031
 20
-118.9942870796264
 30
0.0
 10
251.5126409961496
 20
-116.0973062860798
 30
0.0
 10
251.5126409961496
 20
-112.5405897071079
 30
0.0
 10
251.5126409961496
 20
-112.4468831099091
 30
0.0
 10
251.497138066466
 20
-112.3517984745162
 30
0.0
 10
251.497138066466
 20
-112.2415554189882
 30
0.0
  0
SPLINE
  5
11B
330
1F
100
AcDbEntity
  8
1
 62
   250
420
  1709851
370
   211
100
AcDbSpline
210
0.0
220
0.0
230
1.0
 70
     8
 71
     3
 72
     8
 73
     4
 74
     0
 42
0.0000000001
 43
0.0000000001
 40
0.0
 40
0.0
 40
0.0
 40
0.0
 40
1.0
 40
1.0
 40
1.0
 40
1.0
 10
251.497138066466
 20
-112.2415554189882
 30
0.0
 10
247.4829128070529
 20
-23.56204155226921
 30
0.0
 10
235.756152284811
 20
64.59726289617707
 30
0.0
 10
216.4432915040489
 20
151.2302177898834
 30
0.0
  0
POLYLINE
  5
11C
330
1F
100
AcDbEntity
  8
1
 62
   250
420
  1709851
370
   211
100
AcDb2dPolyline
 66
     1
 10
0.0
 20
0.0
 30
0.0
  0
VERTEX
  5
11D
330
11C
100
AcDbEntity
  8
1
 62
   250
420
  1709851
370
   211
100
AcDbVertex
100
AcDb2dVertex
 10
-44.06966144731592
 20
542.4013453505108
 30
0.0
  0
VERTEX
  5
11E
330
11C
100
AcDbEntity
  8
1
 62
   250
420
  1709851
370
   211
100
AcDbVertex
100
AcDb2dVertex
 10
-346.3251138457104
 20
542.4013453505108
 30
0.0
  0
SEQEND
  5
11F
330
11C
100
AcDbEntity
  8
1
370
   211
  0
POLYLINE
  5
120
330
1F
100
AcDbEntity
  8
1
 62
   250
420
  1709851
370
   211
100
AcDb2dPolyline
 66
     1
 10
0.0
 20
0.0
 30
0.0
  0
VERTEX
  5
121
330
120
100
AcDbEntity
  8
1
 62
   250
420
  1709851
370
   211
100
AcDbVertex
100
AcDb2dVertex
 10
-43.14017468539551
 20
538.4191594791104
 30
0.0
  0
VERTEX
  5
122
330
120
100
AcDbEntity
  8
1
 62
   250
420
  1709851
370
   211
100
AcDbVertex
100
AcDb2dVertex
 10
0.4440728080487041
 20
693.3173704321395
 30
0.0
  0
SEQEND
  5
123
330
120
100
AcDbEntity
  8
1
370
   211
  0
POLYLINE
  5
124
330
1F
100
AcDbEntity
  8
1
 62
   250
420
  1709851
370
   211
100
AcDb2dPolyline
 66
     1
 10
0.0
 20
0.0
 30
0.0
  0
VERTEX
  5
125
330
124
100
AcDbEntity
  8
1
 62
   250
420
  1709851
370
   211
100
AcDbVertex
100
AcDb2dVertex
 10
-48.60271808680765
 20
544.8253145339325
 30
0.0
  0
VERTEX
  5
126
330
124
100
AcDbEntity
  8
1
 62
   250
420
  1709851
370
   211
100
AcDbVertex
100
AcDb2dVertex
 10
-6.02650553234754
 20
696.0872272022803
 30
0.0
  0
SEQEND
  5
127
330
124
100
AcDbEntity
  8
1
370
   211
  0
POLYLINE
  5
128
330
1F
100
AcDbEntity
  8
1
 62
   250
420
  1709851
370
   211
100
AcDb2dPolyline
 66
     1
 10
0.0
 20
0.0
 30
0.0
  0
VERTEX
  5
129
330
128
100
AcDbEntity
  8
1
 62
   250
420
  1709851
370
   211
100
AcDbVertex
100
AcDb2dVertex
 10
-195.1898084364456
 20
578.3517780129641
 30
0.0
  0
VERTEX
  5
12A
330
128
100
AcDbEntity
  8
1
 62
   250
420
  1709851
370
   211
100
AcDbVertex
100
AcDb2dVertex
 10
-166.9507052534012
 20
578.3517780129641
 30
0.0
  0
SEQEND
  5
12B
330
128
100
AcDbEntity
  8
1
370
   211
  0
MTEXT
  5
12C
330
1F
100
AcDbEntity
  8
1
 62
   250
420
  1709851
100
AcDbMText
 10
452.497444548334
 20
162.6031670057902
 30
0.0
 40
60.28047298704577
 41
0.0
 46
0.0
 71
     7
 72
     1
  1
\fFrutiger LT 45 Light|b0|i0|c0|p34;\W1;700
 11
-0.00000004371139
 21
0.9999999999999992
 31
0.0
 73
     1
 44
1.0
  0
MTEXT
  5
12D
330
1F
100
AcDbEntity
  8
1
 62
   250
420
  1709851
100
AcDbMText
 10
-315.0501925210639
 20
-320.4872422158851
 30
0.0
 40
60.28048396828763
 41
0.0
 46
0.0
 71
     7
 72
     1
  1
\fFrutiger LT 45 Light|b0|i0|c0|p34;\W1;ø 900
 73
     1
 44
1.0
  0
MTEXT
  5
12E
330
1F
100
AcDbEntity
  8
1
 62
   250
420
  1709851
100
AcDbMText
 10
660.068581649219
 20
546.9228609201269
 30
0.0
 40
60.28047298704577
 41
0.0
 46
0.0
 71
     7
 72
     1
  1
\fFrutiger LT 45 Light|b0|i0|c0|p34;\W1;max 2600
 11
-0.00000004371139
 21
0.9999999999999992
 31
0.0
 73
     1
 44
1.0
  0
MTEXT
  5
12F
330
1F
100
AcDbEntity
  8
1
 62
   250
420
  1709851
100
AcDbMText
 10
-306.5938611429696
 20
1738.917802842181
 30
0.0
 40
60.28048396828763
 41
0.0
 46
0.0
 71
     7
 72
     1
  1
\fFrutiger LT 45 Light|b0|i0|c0|p34;\W1;ø 180
 73
     1
 44
1.0
  0
ENDSEC
  0
SECTION
  2
OBJECTS
  0
DICTIONARY
  5
C
330
0
100
AcDbDictionary
281
     1
  3
ACAD_CIP_PREVIOUS_PRODUCT_INFO
350
174
  3
ACAD_COLOR
350
156
  3
ACAD_DETAILVIEWSTYLE
350
16F
  3
ACAD_GROUP
350
D
  3
ACAD_LAYOUT
350
1A
  3
ACAD_MATERIAL
350
133
  3
ACAD_MLEADERSTYLE
350
16A
  3
ACAD_MLINESTYLE
350
17
  3
ACAD_PLOTSETTINGS
350
19
  3
ACAD_PLOTSTYLENAME
350
E
  3
ACAD_SCALELIST
350
158
  3
ACAD_SECTIONVIEWSTYLE
350
16C
  3
ACAD_TABLESTYLE
350
131
  3
ACAD_VISUALSTYLE
350
2A
  3
ACDB_RECOMPOSE_DATA
350
193
  3
AcDbVariableDictionary
350
186
  0
DICTIONARY
  5
180
330
2
100
AcDbDictionary
280
     1
281
     1
  3
ACAD_LAYERSTATES
360
181
  0
DICTIONARY
  5
175
330
10
100
AcDbDictionary
280
     1
281
     1
  3
ADSK_XREC_LAYER_RECONCILED
360
176
  0
DICTIONARY
  5
177
330
3C
100
AcDbDictionary
280
     1
281
     1
  3
ADSK_XREC_LAYER_RECONCILED
360
178
  0
DICTIONARY
  5
179
330
3D
100
AcDbDictionary
280
     1
281
     1
  3
ADSK_XREC_LAYER_RECONCILED
360
17A
  0
DICTIONARY
  5
17B
330
130
100
AcDbDictionary
280
     1
281
     1
  3
ADSK_XREC_LAYER_RECONCILED
360
17C
  0
XRECORD
  5
174
102
{ACAD_REACTORS
330
C
102
}
330
C
100
AcDbXrecord
280
     1
300
ACDMAC
300
2013
300

  0
DICTIONARY
  5
156
102
{ACAD_REACTORS
330
C
102
}
330
C
100
AcDbDictionary
281
     1
  0
DICTIONARY
  5
16F
102
{ACAD_REACTORS
330
C
102
}
330
C
100
AcDbDictionary
281
     1
  3
Imperial24
350
170
  0
DICTIONARY
  5
D
102
{ACAD_REACTORS
330
C
102
}
330
C
100
AcDbDictionary
281
     1
  0
DICTIONARY
  5
1A
102
{ACAD_REACTORS
330
C
102
}
330
C
100
AcDbDictionary
281
     1
  3
Layout1
350
1E
  3
Layout2
350
26
  3
Model
350
22
  0
DICTIONARY
  5
133
102
{ACAD_REACTORS
330
C
102
}
330
C
100
AcDbDictionary
281
     1
  3
ByBlock
350
13C
  3
ByLayer
350
134
  3
Global
350
144
  0
DICTIONARY
  5
16A
102
{ACAD_REACTORS
330
C
102
}
330
C
100
AcDbDictionary
281
     1
  3
Standard
350
16B
  0
DICTIONARY
  5
17
102
{ACAD_REACTORS
330
C
102
}
330
C
100
AcDbDictionary
281
     1
  3
Standard
350
18
  0
DICTIONARY
  5
19
102
{ACAD_REACTORS
330
C
102
}
330
C
100
AcDbDictionary
281
     1
  0
ACDBDICTIONARYWDFLT
  5
E
102
{ACAD_REACTORS
330
C
102
}
330
C
100
AcDbDictionary
281
     1
  3
Normal
350
F
100
AcDbDictionaryWithDefault
340
F
  0
DICTIONARY
  5
158
102
{ACAD_REACTORS
330
C
102
}
330
C
100
AcDbDictionary
281
     1
  3
A0
350
159
  3
A1
350
15A
  3
A2
350
15B
  3
A3
350
15C
  3
A4
350
15D
  3
A5
350
15E
  3
A6
350
15F
  3
A7
350
160
  3
A8
350
161
  3
A9
350
162
  3
B0
350
163
  3
B1
350
164
  3
B2
350
165
  3
B3
350
166
  3
B4
350
167
  3
B5
350
168
  3
B6
350
169
  0
DICTIONARY
  5
16C
102
{ACAD_REACTORS
330
C
102
}
330
C
100
AcDbDictionary
281
     1
  3
Imperial24
350
16E
  0
DICTIONARY
  5
131
102
{ACAD_REACTORS
330
C
102
}
330
C
100
AcDbDictionary
281
     1
  3
Standard
350
157
  0
DICTIONARY
  5
2A
102
{ACAD_REACTORS
330
C
102
}
330
C
100
AcDbDictionary
281
     1
  3
2dWireframe
350
2F
  3
3D Hidden
350
31
  3
3dWireframe
350
30
  3
Basic
350
32
  3
Brighten
350
36
  3
ColorChange
350
3A
  3
Conceptual
350
34
  3
Dim
350
35
  3
EdgeColorOff
350
155
  3
Facepattern
350
39
  3
Flat
350
2B
  3
FlatWithEdges
350
2C
  3
Gouraud
350
2D
  3
GouraudWithEdges
350
2E
  3
Hidden
350
14D
  3
JitterOff
350
153
  3
Linepattern
350
38
  3
OverhangOff
350
154
  3
Realistic
350
33
  3
Shaded
350
152
  3
Shaded with edges
350
151
  3
Shades of Gray
350
14E
  3
Sketchy
350
14F
  3
Thicken
350
37
  3
Wireframe
350
14C
  3
X-Ray
350
150
  0
XRECORD
  5
193
102
{ACAD_REACTORS
330
C
102
}
330
C
100
AcDbXrecord
280
     1
 90
        1
330
157
  0
DICTIONARY
  5
186
102
{ACAD_REACTORS
330
C
102
}
330
C
100
AcDbDictionary
281
     1
  3
CANNOSCALE
350
18C
  3
CMLEADERSTYLE
350
188
  3
CTABLESTYLE
350
187
  3
CVIEWDETAILSTYLE
350
189
  3
CVIEWSECTIONSTYLE
350
18A
  3
LAYEREVAL
350
18E
  3
LAYERNOTIFY
350
18F
  3
LIGHTINGUNITS
350
18D
  3
MSLTSCALE
350
18B
  0
DICTIONARY
  5
181
102
{ACAD_REACTORS
330
180
102
}
330
180
100
AcDbDictionary
281
     1
  0
XRECORD
  5
176
102
{ACAD_REACTORS
330
175
102
}
330
175
100
AcDbXrecord
280
     1
290
     1
  0
XRECORD
  5
178
102
{ACAD_REACTORS
330
177
102
}
330
177
100
AcDbXrecord
280
     1
290
     1
  0
XRECORD
  5
17A
102
{ACAD_REACTORS
330
179
102
}
330
179
100
AcDbXrecord
280
     1
290
     1
  0
XRECORD
  5
17C
102
{ACAD_REACTORS
330
17B
102
}
330
17B
100
AcDbXrecord
280
     1
290
     1
  0
ACDBDETAILVIEWSTYLE
  5
170
102
{ACAD_REACTORS
330
16F
102
}
330
16F
100
AcDbModelDocViewStyle
 70
     0
  3
Imperial24
290
     1
100
AcDbDetailViewStyle
 70
     0
 71
     0
 90
        3
 71
     1
340
11
 62
   256
 40
0.24
340
0
 62
   256
 40
0.24
300

 40
0.36
280
     3
 71
     2
340
16
 90
       25
 62
   256
 71
     3
340
11
 62
   256
 40
0.24
 90
        1
 40
0.75
 90
        1
300
%<\AcVar ViewType \f "%tc1">% %<\AcVar ViewDetailId>%\PSCALE %<\AcVar ViewScale \f "%sn">%
 71
     4
340
16
 90
       25
 62
   256
340
16
 90
       25
 62
   256
280
     0
  0
LAYOUT
  5
1E
102
{ACAD_REACTORS
330
1A
102
}
330
1A
100
AcDbPlotSettings
  1

  2
none_device
  4

  6

 40
0.0
 41
0.0
 42
0.0
 43
0.0
 44
0.0
 45
0.0
 46
0.0
 47
0.0
 48
0.0
 49
0.0
140
0.0
141
0.0
142
1.0
143
1.0
 70
   688
 72
     0
 73
     0
 74
     5
  7

 75
    16
147
1.0
 76
     0
 77
     2
 78
   300
148
0.0
149
0.0
100
AcDbLayout
  1
Layout1
 70
     1
 71
     1
 10
0.0
 20
0.0
 11
12.0
 21
9.0
 12
0.0
 22
0.0
 32
0.0
 14
1.000000000000000E+20
 24
1.000000000000000E+20
 34
1.000000000000000E+20
 15
-1.000000000000000E+20
 25
-1.000000000000000E+20
 35
-1.000000000000000E+20
146
0.0
 13
0.0
 23
0.0
 33
0.0
 16
1.0
 26
0.0
 36
0.0
 17
0.0
 27
1.0
 37
0.0
 76
     0
330
1B
  0
LAYOUT
  5
26
102
{ACAD_REACTORS
330
1A
102
}
330
1A
100
AcDbPlotSettings
  1

  2
none_device
  4

  6

 40
0.0
 41
0.0
 42
0.0
 43
0.0
 44
0.0
 45
0.0
 46
0.0
 47
0.0
 48
0.0
 49
0.0
140
0.0
141
0.0
142
1.0
143
1.0
 70
   688
 72
     0
 73
     0
 74
     5
  7

 75
    16
147
1.0
 76
     0
 77
     2
 78
   300
148
0.0
149
0.0
100
AcDbLayout
  1
Layout2
 70
     1
 71
     2
 10
0.0
 20
0.0
 11
0.0
 21
0.0
 12
0.0
 22
0.0
 32
0.0
 14
0.0
 24
0.0
 34
0.0
 15
0.0
 25
0.0
 35
0.0
146
0.0
 13
0.0
 23
0.0
 33
0.0
 16
1.0
 26
0.0
 36
0.0
 17
0.0
 27
1.0
 37
0.0
 76
     0
330
23
  0
LAYOUT
  5
22
102
{ACAD_REACTORS
330
1A
102
}
330
1A
100
AcDbPlotSettings
  1

  2
none_device
  4

  6

 40
0.0
 41
0.0
 42
0.0
 43
0.0
 44
0.0
 45
0.0
 46
0.0
 47
0.0
 48
0.0
 49
0.0
140
0.0
141
0.0
142
1.0
143
1.0
 70
  1712
 72
     0
 73
     0
 74
     0
  7

 75
     0
147
1.0
 76
     0
 77
     2
 78
   300
148
0.0
149
0.0
100
AcDbLayout
  1
Model
 70
     1
 71
     0
 10
0.0
 20
0.0
 11
12.0
 21
9.0
 12
0.0
 22
0.0
 32
0.0
 14
1.000000000000000E+20
 24
1.000000000000000E+20
 34
1.000000000000000E+20
 15
-1.000000000000000E+20
 25
-1.000000000000000E+20
 35
-1.000000000000000E+20
146
0.0
 13
0.0
 23
0.0
 33
0.0
 16
1.0
 26
0.0
 36
0.0
 17
0.0
 27
1.0
 37
0.0
 76
     0
330
1F
331
29
  0
MATERIAL
  5
13C
102
{ACAD_XDICTIONARY
360
13D
102
}
102
{ACAD_REACTORS
330
133
102
}
330
133
100
AcDbMaterial
  1
ByBlock
 72
     0
 43
0.0208333333333333
 43
0.0
 43
0.0
 43
0.0
 43
0.0
 43
0.0208333333333333
 43
0.0
 43
0.0
 43
0.0
 43
0.0
 43
1.0
 43
0.0
 43
0.0
 43
0.0
 43
0.0
 43
1.0
 77
     0
 47
0.0208333333333333
 47
0.0
 47
0.0
 47
0.0
 47
0.0
 47
0.0208333333333333
 47
0.0
 47
0.0
 47
0.0
 47
0.0
 47
1.0
 47
0.0
 47
0.0
 47
0.0
 47
0.0
 47
1.0
171
     0
 49
0.0208333333333333
 49
0.0
 49
0.0
 49
0.0
 49
0.0
 49
0.0208333333333333
 49
0.0
 49
0.0
 49
0.0
 49
0.0
 49
1.0
 49
0.0
 49
0.0
 49
0.0
 49
0.0
 49
1.0
175
     0
142
0.0208333333333333
142
0.0
142
0.0
142
0.0
142
0.0
142
0.0208333333333333
142
0.0
142
0.0
142
0.0
142
0.0
142
1.0
142
0.0
142
0.0
142
0.0
142
0.0
142
1.0
179
     0
144
0.0208333333333333
144
0.0
144
0.0
144
0.0
144
0.0
144
0.0208333333333333
144
0.0
144
0.0
144
0.0
144
0.0
144
1.0
144
0.0
144
0.0
144
0.0
144
0.0
144
1.0
147
0.0208333333333333
147
0.0
147
0.0
147
0.0
147
0.0
147
0.0208333333333333
147
0.0
147
0.0
147
0.0
147
0.0
147
1.0
147
0.0
147
0.0
147
0.0
147
0.0
147
1.0
  0
MATERIAL
  5
134
102
{ACAD_XDICTIONARY
360
135
102
}
102
{ACAD_REACTORS
330
133
102
}
330
133
100
AcDbMaterial
  1
ByLayer
 72
     0
 43
0.0208333333333333
 43
0.0
 43
0.0
 43
0.0
 43
0.0
 43
0.0208333333333333
 43
0.0
 43
0.0
 43
0.0
 43
0.0
 43
1.0
 43
0.0
 43
0.0
 43
0.0
 43
0.0
 43
1.0
 77
     0
 47
0.0208333333333333
 47
0.0
 47
0.0
 47
0.0
 47
0.0
 47
0.0208333333333333
 47
0.0
 47
0.0
 47
0.0
 47
0.0
 47
1.0
 47
0.0
 47
0.0
 47
0.0
 47
0.0
 47
1.0
171
     0
 49
0.0208333333333333
 49
0.0
 49
0.0
 49
0.0
 49
0.0
 49
0.0208333333333333
 49
0.0
 49
0.0
 49
0.0
 49
0.0
 49
1.0
 49
0.0
 49
0.0
 49
0.0
 49
0.0
 49
1.0
175
     0
142
0.0208333333333333
142
0.0
142
0.0
142
0.0
142
0.0
142
0.0208333333333333
142
0.0
142
0.0
142
0.0
142
0.0
142
1.0
142
0.0
142
0.0
142
0.0
142
0.0
142
1.0
179
     0
144
0.0208333333333333
144
0.0
144
0.0
144
0.0
144
0.0
144
0.0208333333333333
144
0.0
144
0.0
144
0.0
144
0.0
144
1.0
144
0.0
144
0.0
144
0.0
144
0.0
144
1.0
147
0.0208333333333333
147
0.0
147
0.0
147
0.0
147
0.0
147
0.0208333333333333
147
0.0
147
0.0
147
0.0
147
0.0
147
1.0
147
0.0
147
0.0
147
0.0
147
0.0
147
1.0
  0
MATERIAL
  5
144
102
{ACAD_XDICTIONARY
360
145
102
}
102
{ACAD_REACTORS
330
133
102
}
330
133
100
AcDbMaterial
  1
Global
 72
     0
 43
0.0208333333333333
 43
0.0
 43
0.0
 43
0.0
 43
0.0
 43
0.0208333333333333
 43
0.0
 43
0.0
 43
0.0
 43
0.0
 43
1.0
 43
0.0
 43
0.0
 43
0.0
 43
0.0
 43
1.0
 77
     0
 47
0.0208333333333333
 47
0.0
 47
0.0
 47
0.0
 47
0.0
 47
0.0208333333333333
 47
0.0
 47
0.0
 47
0.0
 47
0.0
 47
1.0
 47
0.0
 47
0.0
 47
0.0
 47
0.0
 47
1.0
171
     0
 49
0.0208333333333333
 49
0.0
 49
0.0
 49
0.0
 49
0.0
 49
0.0208333333333333
 49
0.0
 49
0.0
 49
0.0
 49
0.0
 49
1.0
 49
0.0
 49
0.0
 49
0.0
 49
0.0
 49
1.0
175
     0
142
0.0208333333333333
142
0.0
142
0.0
142
0.0
142
0.0
142
0.0208333333333333
142
0.0
142
0.0
142
0.0
142
0.0
142
1.0
142
0.0
142
0.0
142
0.0
142
0.0
142
1.0
179
     0
144
0.0208333333333333
144
0.0
144
0.0
144
0.0
144
0.0
144
0.0208333333333333
144
0.0
144
0.0
144
0.0
144
0.0
144
1.0
144
0.0
144
0.0
144
0.0
144
0.0
144
1.0
147
0.0208333333333333
147
0.0
147
0.0
147
0.0
147
0.0
147
0.0208333333333333
147
0.0
147
0.0
147
0.0
147
0.0
147
1.0
147
0.0
147
0.0
147
0.0
147
0.0
147
1.0
  0
MLEADERSTYLE
  5
16B
102
{ACAD_REACTORS
330
16A
102
}
330
16A
100
AcDbMLeaderStyle
179
     2
170
     2
171
     1
172
     0
 90
        2
 40
0.0
 41
0.0
173
     1
 91
-1056964608
340
14
 92
       -2
290
     1
 42
0.09
291
     1
 43
0.36
  3
Standard
 44
0.18
300

342
11
174
     1
178
     6
175
     1
176
     0
 93
-1056964608
 45
0.18
292
     0
297
     0
 46
0.18
 94
-1056964608
 47
1.0
 49
1.0
140
1.0
293
     1
141
0.0
294
     1
177
     0
142
1.0
295
     1
296
     0
143
0.125
271
     0
272
     9
273
     9
298
     1
  0
MLINESTYLE
  5
18
102
{ACAD_REACTORS
330
17
102
}
330
17
100
AcDbMlineStyle
  2
STANDARD
 70
     0
  3

 62
   256
 51
90.0
 52
90.0
 71
     2
 49
0.5
 62
   256
  6
BYLAYER
 49
-0.5
 62
   256
  6
BYLAYER
  0
ACDBPLACEHOLDER
  5
F
102
{ACAD_REACTORS
330
E
102
}
330
E
  0
SCALE
  5
159
102
{ACAD_REACTORS
330
158
102
}
330
158
100
AcDbScale
 70
     0
300
1:1
140
1.0
141
1.0
290
     1
  0
SCALE
  5
15A
102
{ACAD_REACTORS
330
158
102
}
330
158
100
AcDbScale
 70
     0
300
1/128" = 1'-0"
140
0.0078125
141
12.0
290
     0
  0
SCALE
  5
15B
102
{ACAD_REACTORS
330
158
102
}
330
158
100
AcDbScale
 70
     0
300
1/64" = 1'-0"
140
0.015625
141
12.0
290
     0
  0
SCALE
  5
15C
102
{ACAD_REACTORS
330
158
102
}
330
158
100
AcDbScale
 70
     0
300
1/32" = 1'-0"
140
0.03125
141
12.0
290
     0
  0
SCALE
  5
15D
102
{ACAD_REACTORS
330
158
102
}
330
158
100
AcDbScale
 70
     0
300
1/16" = 1'-0"
140
0.0625
141
12.0
290
     0
  0
SCALE
  5
15E
102
{ACAD_REACTORS
330
158
102
}
330
158
100
AcDbScale
 70
     0
300
3/32" = 1'-0"
140
0.09375
141
12.0
290
     0
  0
SCALE
  5
15F
102
{ACAD_REACTORS
330
158
102
}
330
158
100
AcDbScale
 70
     0
300
1/8" = 1'-0"
140
0.125
141
12.0
290
     0
  0
SCALE
  5
160
102
{ACAD_REACTORS
330
158
102
}
330
158
100
AcDbScale
 70
     0
300
3/16" = 1'-0"
140
0.1875
141
12.0
290
     0
  0
SCALE
  5
161
102
{ACAD_REACTORS
330
158
102
}
330
158
100
AcDbScale
 70
     0
300
1/4" = 1'-0"
140
0.25
141
12.0
290
     0
  0
SCALE
  5
162
102
{ACAD_REACTORS
330
158
102
}
330
158
100
AcDbScale
 70
     0
300
3/8" = 1'-0"
140
0.375
141
12.0
290
     0
  0
SCALE
  5
163
102
{ACAD_REACTORS
330
158
102
}
330
158
100
AcDbScale
 70
     0
300
1/2" = 1'-0"
140
0.5
141
12.0
290
     0
  0
SCALE
  5
164
102
{ACAD_REACTORS
330
158
102
}
330
158
100
AcDbScale
 70
     0
300
3/4" = 1'-0"
140
0.75
141
12.0
290
     0
  0
SCALE
  5
165
102
{ACAD_REACTORS
330
158
102
}
330
158
100
AcDbScale
 70
     0
300
1" = 1'-0"
140
1.0
141
12.0
290
     0
  0
SCALE
  5
166
102
{ACAD_REACTORS
330
158
102
}
330
158
100
AcDbScale
 70
     0
300
1-1/2" = 1'-0"
140
1.5
141
12.0
290
     0
  0
SCALE
  5
167
102
{ACAD_REACTORS
330
158
102
}
330
158
100
AcDbScale
 70
     0
300
3" = 1'-0"
140
3.0
141
12.0
290
     0
  0
SCALE
  5
168
102
{ACAD_REACTORS
330
158
102
}
330
158
100
AcDbScale
 70
     0
300
6" = 1'-0"
140
6.0
141
12.0
290
     0
  0
SCALE
  5
169
102
{ACAD_REACTORS
330
158
102
}
330
158
100
AcDbScale
 70
     0
300
1'-0" = 1'-0"
140
12.0
141
12.0
290
     0
  0
ACDBSECTIONVIEWSTYLE
  5
16E
102
{ACAD_REACTORS
330
16C
102
}
330
16C
100
AcDbModelDocViewStyle
 70
     0
  3
Imperial24
290
     1
100
AcDbSectionViewStyle
 70
     0
 71
     0
 90
       78
 71
     1
340
11
 62
   256
 40
0.24
340
0
340
0
 62
   256
 40
0.24
300
I, O, Q, S, X, Z
 40
0.48
 90
        3
 40
0.18
 90
        1
 71
     2
340
16D
 90
       25
 62
   256
340
16
 90
       50
 62
   256
 40
0.24
 40
0.0
 40
0.24
 71
     3
340
11
 62
   256
 40
0.24
 90
        1
 40
0.75
 90
        1
300
%<\AcVar ViewType \f "%tc1">% %<\AcVar ViewSectionStartId>%-%<\AcVar ViewSectionEndId>%\PSCALE %<\AcVar ViewScale \f "%sn">%
 71
     4
 62
   256
 62
   257
300
ANSI31
 40
1.0
 90
        0
290
     0
290
     0
 90
        6
 40
0.0
 40
1.570796326794896
 40
0.2617993877991494
 40
1.308996938995747
 40
-0.2617993877991494
 40
1.832595714594046
  0
TABLESTYLE
  5
157
102
{ACAD_XDICTIONARY
360
191
102
}
102
{ACAD_REACTORS
330
131
102
}
330
131
100
AcDbTableStyle
280
     0
  3
Standard
 70
     0
 71
     0
 40
0.06
 41
0.06
280
     0
281
     0
  7
Standard
140
0.18
170
     2
 62
     0
 63
     7
283
     0
 90
      512
 91
        0
  1

274
    -2
284
     1
 64
     0
275
    -2
285
     1
 65
     0
276
    -2
286
     1
 66
     0
277
    -2
287
     1
 67
     0
278
    -2
288
     1
 68
     0
279
    -2
289
     1
 69
     0
  7
Standard
140
0.25
170
     5
 62
     0
 63
     7
283
     0
 90
      512
 91
        0
  1

274
    -2
284
     1
 64
     0
275
    -2
285
     1
 65
     0
276
    -2
286
     1
 66
     0
277
    -2
287
     1
 67
     0
278
    -2
288
     1
 68
     0
279
    -2
289
     1
 69
     0
  7
Standard
140
0.18
170
     5
 62
     0
 63
     7
283
     0
 90
      512
 91
        0
  1

274
    -2
284
     1
 64
     0
275
    -2
285
     1
 65
     0
276
    -2
286
     1
 66
     0
277
    -2
287
     1
 67
     0
278
    -2
288
     1
 68
     0
279
    -2
289
     1
 69
     0
  0
VISUALSTYLE
  5
2F
102
{ACAD_REACTORS
330
2A
102
}
330
2A
100
AcDbVisualStyle
  2
2dWireframe
 70
     4
177
     3
291
     0
 70
    58
 90
        0
176
     1
 90
        2
176
     1
 90
        0
176
     1
 90
        0
176
     1
 40
0.6
176
     1
 40
30.0
176
     1
 62
     7
420
 16777215
176
     1
 90
        1
176
     1
 90
        4
176
     1
 62
     7
176
     1
 62
   257
176
     1
 90
        1
176
     1
 90
        1
176
     1
 40
1.0
176
     1
 90
        0
176
     1
 62
   257
176
     1
 40
1.0
176
     1
 90
        1
176
     1
 90
        6
176
     1
 90
        2
176
     1
 62
     7
176
     1
 90
        5
176
     1
 90
        0
176
     1
 90
        0
176
     1
290
     0
176
     1
 90
        1
176
     1
 40
0.0
176
     1
 90
        0
176
     1
290
     1
176
     1
290
     1
176
     1
290
     0
176
     1
290
     0
176
     1
290
     0
176
     1
290
     0
176
     1
290
     0
176
     1
290
     0
176
     1
290
     0
176
     1
 90
       50
176
     1
 40
0.0
176
     1
 40
1.0
176
     1
 90
        0
176
     1
 62
    18
420
        0
176
     1
 90
       50
176
     1
 90
        3
176
     1
 62
     5
420
      255
176
     1
290
     0
176
     1
 90
       50
176
     1
 90
       50
176
     1
 90
       50
176
     1
290
     0
176
     1
 90
       50
176
     1
 62
   256
176
     0
 40
1.0
176
     0
 90
        2
176
     1
  1
strokes_ogs.tif
176
     1
290
     0
176
     1
 40
1.0
176
     1
 40
1.0
176
     1
  0
VISUALSTYLE
  5
31
102
{ACAD_REACTORS
330
2A
102
}
330
2A
100
AcDbVisualStyle
  2
3D Hidden
 70
     6
177
     3
291
     0
 70
    58
 90
        1
176
     1
 90
        2
176
     1
 90
        2
176
     1
 90
        0
176
     1
 40
0.6
176
     1
 40
30.0
176
     1
 62
     7
420
 16777215
176
     1
 90
        2
176
     1
 90
        2
176
     1
 62
     7
176
     1
 62
   257
176
     1
 90
        2
176
     1
 90
        1
176
     1
 40
40.0
176
     1
 90
        0
176
     1
 62
   257
176
     1
 40
1.0
176
     1
 90
        1
176
     1
 90
        6
176
     1
 90
        2
176
     1
 62
     7
176
     1
 90
        3
176
     1
 90
        0
176
     1
 90
        0
176
     1
290
     0
176
     1
 90
        1
176
     1
 40
0.0
176
     1
 90
        0
176
     1
290
     0
176
     1
290
     1
176
     1
290
     1
176
     1
290
     0
176
     1
290
     0
176
     1
290
     0
176
     1
290
     0
176
     1
290
     0
176
     1
290
     0
176
     1
 90
       50
176
     1
 40
0.0
176
     1
 40
1.0
176
     1
 90
        0
176
     1
 62
    18
420
        0
176
     1
 90
       50
176
     1
 90
        3
176
     1
 62
     5
420
      255
176
     1
290
     0
176
     1
 90
       50
176
     1
 90
       50
176
     1
 90
       50
176
     1
290
     0
176
     1
 90
       50
176
     1
 62
   256
176
     0
 40
1.0
176
     0
 90
        2
176
     1
  1
strokes_ogs.tif
176
     1
290
     0
176
     1
 40
1.0
176
     1
 40
1.0
176
     1
  0
VISUALSTYLE
  5
30
102
{ACAD_REACTORS
330
2A
102
}
330
2A
100
AcDbVisualStyle
  2
3dWireframe
 70
     5
177
     3
291
     0
 70
    58
 90
        0
176
     1
 90
        2
176
     1
 90
        0
176
     1
 90
        0
176
     1
 40
0.6
176
     1
 40
30.0
176
     1
 62
     7
420
 16777215
176
     1
 90
        1
176
     1
 90
        4
176
     1
 62
     7
176
     1
 62
   257
176
     1
 90
        1
176
     1
 90
        1
176
     1
 40
1.0
176
     1
 90
        0
176
     1
 62
   257
176
     1
 40
1.0
176
     1
 90
        1
176
     1
 90
        6
176
     1
 90
        2
176
     1
 62
     7
176
     1
 90
        5
176
     1
 90
        0
176
     1
 90
        0
176
     1
290
     0
176
     1
 90
        1
176
     1
 40
0.0
176
     1
 90
        0
176
     1
290
     0
176
     1
290
     1
176
     1
290
     1
176
     1
290
     0
176
     1
290
     0
176
     1
290
     0
176
     1
290
     0
176
     1
290
     0
176
     1
290
     0
176
     1
 90
       50
176
     1
 40
0.0
176
     1
 40
1.0
176
     1
 90
        0
176
     1
 62
    18
420
        0
176
     1
 90
       50
176
     1
 90
        3
176
     1
 62
     5
420
      255
176
     1
290
     0
176
     1
 90
       50
176
     1
 90
       50
176
     1
 90
       50
176
     1
290
     0
176
     1
 90
       50
176
     1
 62
   256
176
     0
 40
1.0
176
     0
 90
        2
176
     1
  1
strokes_ogs.tif
176
     1
290
     0
176
     1
 40
1.0
176
     1
 40
1.0
176
     1
  0
VISUALSTYLE
  5
32
102
{ACAD_REACTORS
330
2A
102
}
330
2A
100
AcDbVisualStyle
  2
Basic
 70
     7
177
     3
291
     1
 70
    58
 90
        1
176
     1
 90
        0
176
     1
 90
        1
176
     1
 90
        0
176
     1
 40
0.6
176
     1
 40
30.0
176
     1
 62
     7
420
 16777215
176
     1
 90
        0
176
     1
 90
        4
176
     1
 62
     7
176
     1
 62
   257
176
     1
 90
        1
176
     1
 90
        1
176
     1
 40
1.0
176
     1
 90
        8
176
     1
 62
     7
176
     1
 40
1.0
176
     1
 90
        1
176
     1
 90
        6
176
     1
 90
        2
176
     1
 62
     7
176
     1
 90
        5
176
     1
 90
        0
176
     1
 90
        0
176
     1
290
     0
176
     1
 90
        1
176
     1
 40
0.0
176
     1
 90
        0
176
     1
290
     0
176
     1
290
     1
176
     1
290
     1
176
     1
290
     0
176
     1
290
     0
176
     1
290
     0
176
     1
290
     0
176
     1
290
     0
176
     1
290
     0
176
     1
 90
       50
176
     1
 40
0.0
176
     1
 40
1.0
176
     1
 90
        0
176
     1
 62
    18
420
        0
176
     1
 90
       50
176
     1
 90
        3
176
     1
 62
     5
420
      255
176
     1
290
     0
176
     1
 90
       50
176
     1
 90
       50
176
     1
 90
       50
176
     1
290
     0
176
     1
 90
       50
176
     1
 62
   256
176
     0
 40
1.0
176
     0
 90
        2
176
     1
  1
strokes_ogs.tif
176
     1
290
     0
176
     1
 40
1.0
176
     1
 40
1.0
176
     1
  0
VISUALSTYLE
  5
36
102
{ACAD_REACTORS
330
2A
102
}
330
2A
100
AcDbVisualStyle
  2
Brighten
 70
    12
177
     3
291
     1
 70
    58
 90
        2
176
     1
 90
        2
176
     1
 90
        0
176
     1
 90
        0
176
     1
 40
0.6
176
     1
 40
30.0
176
     1
 62
     7
420
 16777215
176
     1
 90
        1
176
     1
 90
        4
176
     1
 62
     7
176
     1
 62
   257
176
     1
 90
        1
176
     1
 90
        1
176
     1
 40
1.0
176
     1
 90
        8
176
     1
 62
     7
176
     1
 40
1.0
176
     1
 90
        1
176
     1
 90
        6
176
     1
 90
        2
176
     1
 62
     7
176
     1
 90
        5
176
     1
 90
        0
176
     1
 90
        0
176
     1
290
     0
176
     1
 90
        1
176
     1
 40
50.0
176
     1
 90
        0
176
     1
290
     0
176
     1
290
     1
176
     1
290
     1
176
     1
290
     0
176
     1
290
     0
176
     1
290
     0
176
     1
290
     0
176
     1
290
     0
176
     1
290
     0
176
     1
 90
       50
176
     1
 40
0.0
176
     1
 40
1.0
176
     1
 90
        0
176
     1
 62
    18
420
        0
176
     1
 90
       50
176
     1
 90
        3
176
     1
 62
     5
420
      255
176
     1
290
     0
176
     1
 90
       50
176
     1
 90
       50
176
     1
 90
       50
176
     1
290
     0
176
     1
 90
       50
176
     1
 62
   256
176
     0
 40
1.0
176
     0
 90
        2
176
     1
  1
strokes_ogs.tif
176
     1
290
     0
176
     1
 40
1.0
176
     1
 40
1.0
176
     1
  0
VISUALSTYLE
  5
3A
102
{ACAD_REACTORS
330
2A
102
}
330
2A
100
AcDbVisualStyle
  2
ColorChange
 70
    16
177
     3
291
     1
 70
    58
 90
        2
176
     1
 90
        2
176
     1
 90
        3
176
     1
 90
        0
176
     1
 40
0.6
176
     1
 40
30.0
176
     1
 62
     8
420
  8421504
176
     1
 90
        1
176
     1
 90
        4
176
     1
 62
     7
176
     1
 62
   257
176
     1
 90
        1
176
     1
 90
        1
176
     1
 40
1.0
176
     1
 90
        8
176
     1
 62
     8
420
  8421504
176
     1
 40
1.0
176
     1
 90
        1
176
     1
 90
        6
176
     1
 90
        2
176
     1
 62
     7
176
     1
 90
        5
176
     1
 90
        0
176
     1
 90
        0
176
     1
290
     0
176
     1
 90
        1
176
     1
 40
0.0
176
     1
 90
        0
176
     1
290
     0
176
     1
290
     1
176
     1
290
     1
176
     1
290
     0
176
     1
290
     0
176
     1
290
     0
176
     1
290
     0
176
     1
290
     0
176
     1
290
     0
176
     1
 90
       50
176
     1
 40
0.0
176
     1
 40
1.0
176
     1
 90
        0
176
     1
 62
    18
420
        0
176
     1
 90
       50
176
     1
 90
        3
176
     1
 62
     5
420
      255
176
     1
290
     0
176
     1
 90
       50
176
     1
 90
       50
176
     1
 90
       50
176
     1
290
     0
176
     1
 90
       50
176
     1
 62
   256
176
     0
 40
1.0
176
     0
 90
        2
176
     1
  1
strokes_ogs.tif
176
     1
290
     0
176
     1
 40
1.0
176
     1
 40
1.0
176
     1
  0
VISUALSTYLE
  5
34
102
{ACAD_REACTORS
330
2A
102
}
330
2A
100
AcDbVisualStyle
  2
Conceptual
 70
     9
177
     3
291
     0
 70
    58
 90
        3
176
     1
 90
        2
176
     1
 90
        0
176
     1
 90
        0
176
     1
 40
0.6
176
     1
 40
30.0
176
     1
 62
     7
420
 16777215
176
     1
 90
        2
176
     1
 90
        2
176
     1
 62
     7
176
     1
 62
   257
176
     1
 90
        1
176
     1
 90
        1
176
     1
 40
40.0
176
     1
 90
        8
176
     1
 62
     7
176
     1
 40
1.0
176
     1
 90
        1
176
     1
 90
        6
176
     1
 90
        2
176
     1
 62
     7
176
     1
 90
        3
176
     1
 90
        0
176
     1
 90
        0
176
     1
290
     0
176
     1
 90
        1
176
     1
 40
0.0
176
     1
 90
        0
176
     1
290
     0
176
     1
290
     1
176
     1
290
     1
176
     1
290
     0
176
     1
290
     0
176
     1
290
     0
176
     1
290
     0
176
     1
290
     0
176
     1
290
     0
176
     1
 90
       50
176
     1
 40
0.0
176
     1
 40
1.0
176
     1
 90
        0
176
     1
 62
    18
420
        0
176
     1
 90
       50
176
     1
 90
        3
176
     1
 62
     5
420
      255
176
     1
290
     0
176
     1
 90
       50
176
     1
 90
       50
176
     1
 90
       50
176
     1
290
     0
176
     1
 90
       50
176
     1
 62
   256
176
     0
 40
1.0
176
     0
 90
        2
176
     1
  1
strokes_ogs.tif
176
     1
290
     0
176
     1
 40
1.0
176
     1
 40
1.0
176
     1
  0
VISUALSTYLE
  5
35
102
{ACAD_REACTORS
330
2A
102
}
330
2A
100
AcDbVisualStyle
  2
Dim
 70
    11
177
     3
291
     1
 70
    58
 90
        2
176
     1
 90
        2
176
     1
 90
        0
176
     1
 90
        0
176
     1
 40
0.6
176
     1
 40
30.0
176
     1
 62
     7
420
 16777215
176
     1
 90
        1
176
     1
 90
        4
176
     1
 62
     7
176
     1
 62
   257
176
     1
 90
        1
176
     1
 90
        1
176
     1
 40
1.0
176
     1
 90
        8
176
     1
 62
     7
176
     1
 40
1.0
176
     1
 90
        1
176
     1
 90
        6
176
     1
 90
        2
176
     1
 62
     7
176
     1
 90
        5
176
     1
 90
        0
176
     1
 90
        0
176
     1
290
     0
176
     1
 90
        1
176
     1
 40
-50.0
176
     1
 90
        0
176
     1
290
     0
176
     1
290
     1
176
     1
290
     1
176
     1
290
     0
176
     1
290
     0
176
     1
290
     0
176
     1
290
     0
176
     1
290
     0
176
     1
290
     0
176
     1
 90
       50
176
     1
 40
0.0
176
     1
 40
1.0
176
     1
 90
        0
176
     1
 62
    18
420
        0
176
     1
 90
       50
176
     1
 90
        3
176
     1
 62
     5
420
      255
176
     1
290
     0
176
     1
 90
       50
176
     1
 90
       50
176
     1
 90
       50
176
     1
290
     0
176
     1
 90
       50
176
     1
 62
   256
176
     0
 40
1.0
176
     0
 90
        2
176
     1
  1
strokes_ogs.tif
176
     1
290
     0
176
     1
 40
1.0
176
     1
 40
1.0
176
     1
  0
VISUALSTYLE
  5
155
102
{ACAD_REACTORS
330
2A
102
}
330
2A
100
AcDbVisualStyle
  2
EdgeColorOff
 70
    22
177
     3
291
     1
 70
    58
 90
        2
176
     0
 90
        2
176
     0
 90
        0
176
     0
 90
        0
176
     0
 40
0.6
176
     0
 40
30.0
176
     0
 62
     7
420
 16777215
176
     0
 90
        1
176
     0
 90
        4
176
     0
 62
     7
176
     0
 62
   257
176
     0
 90
        1
176
     0
 90
        1
176
     0
 40
1.0
176
     0
 90
        8
176
     2
 62
     7
176
     0
 40
1.0
176
     0
 90
        1
176
     0
 90
        6
176
     0
 90
        2
176
     0
 62
     7
176
     0
 90
        5
176
     0
 90
        0
176
     0
 90
        0
176
     0
290
     0
176
     0
 90
        1
176
     0
 40
0.0
176
     0
 90
        0
176
     0
290
     0
176
     0
290
     1
176
     0
290
     1
176
     0
290
     0
176
     0
290
     0
176
     0
290
     0
176
     0
290
     0
176
     0
290
     0
176
     0
290
     0
176
     0
 90
       50
176
     0
 40
0.0
176
     0
 40
1.0
176
     0
 90
        0
176
     0
 62
    18
420
        0
176
     0
 90
       50
176
     0
 90
        3
176
     0
 62
     5
420
      255
176
     0
290
     0
176
     0
 90
       50
176
     0
 90
       50
176
     0
 90
       50
176
     0
290
     0
176
     0
 90
       50
176
     0
 62
   256
176
     0
 40
1.0
176
     0
 90
        2
176
     0
  1
strokes_ogs.tif
176
     0
290
     0
176
     0
 40
1.0
176
     0
 40
1.0
176
     0
  0
VISUALSTYLE
  5
39
102
{ACAD_REACTORS
330
2A
102
}
330
2A
100
AcDbVisualStyle
  2
Facepattern
 70
    15
177
     3
291
     1
 70
    58
 90
        2
176
     1
 90
        2
176
     1
 90
        0
176
     1
 90
        0
176
     1
 40
0.6
176
     1
 40
30.0
176
     1
 62
     7
420
 16777215
176
     1
 90
        1
176
     1
 90
        4
176
     1
 62
     7
176
     1
 62
   257
176
     1
 90
        1
176
     1
 90
        1
176
     1
 40
1.0
176
     1
 90
        8
176
     1
 62
     7
176
     1
 40
1.0
176
     1
 90
        1
176
     1
 90
        6
176
     1
 90
        2
176
     1
 62
     7
176
     1
 90
        5
176
     1
 90
        0
176
     1
 90
        0
176
     1
290
     0
176
     1
 90
        1
176
     1
 40
0.0
176
     1
 90
        0
176
     1
290
     0
176
     1
290
     1
176
     1
290
     1
176
     1
290
     0
176
     1
290
     0
176
     1
290
     0
176
     1
290
     0
176
     1
290
     0
176
     1
290
     0
176
     1
 90
       50
176
     1
 40
0.0
176
     1
 40
1.0
176
     1
 90
        0
176
     1
 62
    18
420
        0
176
     1
 90
       50
176
     1
 90
        3
176
     1
 62
     5
420
      255
176
     1
290
     0
176
     1
 90
       50
176
     1
 90
       50
176
     1
 90
       50
176
     1
290
     0
176
     1
 90
       50
176
     1
 62
   256
176
     0
 40
1.0
176
     0
 90
        2
176
     1
  1
strokes_ogs.tif
176
     1
290
     0
176
     1
 40
1.0
176
     1
 40
1.0
176
     1
  0
VISUALSTYLE
  5
2B
102
{ACAD_REACTORS
330
2A
102
}
330
2A
100
AcDbVisualStyle
  2
Flat
 70
     0
177
     3
291
     1
 70
    58
 90
        2
176
     1
 90
        1
176
     1
 90
        1
176
     1
 90
        2
176
     1
 40
0.6
176
     1
 40
30.0
176
     1
 62
     7
420
 16777215
176
     1
 90
        0
176
     1
 90
        4
176
     1
 62
     7
176
     1
 62
   257
176
     1
 90
        1
176
     1
 90
        1
176
     1
 40
1.0
176
     1
 90
        8
176
     1
 62
     7
176
     1
 40
1.0
176
     1
 90
        1
176
     1
 90
        6
176
     1
 90
        2
176
     1
 62
     7
176
     1
 90
        5
176
     1
 90
        0
176
     1
 90
        0
176
     1
290
     0
176
     1
 90
       13
176
     1
 40
0.0
176
     1
 90
        0
176
     1
290
     0
176
     1
290
     1
176
     1
290
     1
176
     1
290
     0
176
     1
290
     0
176
     1
290
     0
176
     1
290
     0
176
     1
290
     0
176
     1
290
     0
176
     1
 90
       50
176
     1
 40
0.0
176
     1
 40
1.0
176
     1
 90
        0
176
     1
 62
    18
420
        0
176
     1
 90
       50
176
     1
 90
        3
176
     1
 62
     5
420
      255
176
     1
290
     0
176
     1
 90
       50
176
     1
 90
       50
176
     1
 90
       50
176
     1
290
     0
176
     1
 90
       50
176
     1
 62
   256
176
     0
 40
1.0
176
     0
 90
        2
176
     1
  1
strokes_ogs.tif
176
     1
290
     0
176
     1
 40
1.0
176
     1
 40
1.0
176
     1
  0
VISUALSTYLE
  5
2C
102
{ACAD_REACTORS
330
2A
102
}
330
2A
100
AcDbVisualStyle
  2
FlatWithEdges
 70
     1
177
     3
291
     1
 70
    58
 90
        2
176
     1
 90
        1
176
     1
 90
        1
176
     1
 90
        2
176
     1
 40
0.6
176
     1
 40
30.0
176
     1
 62
     7
420
 16777215
176
     1
 90
        1
176
     1
 90
        4
176
     1
 62
     7
176
     1
 62
   257
176
     1
 90
        1
176
     1
 90
        1
176
     1
 40
1.0
176
     1
 90
        0
176
     1
 62
   257
176
     1
 40
1.0
176
     1
 90
        1
176
     1
 90
        6
176
     1
 90
        2
176
     1
 62
     7
176
     1
 90
        5
176
     1
 90
        0
176
     1
 90
        0
176
     1
290
     0
176
     1
 90
       13
176
     1
 40
0.0
176
     1
 90
        0
176
     1
290
     0
176
     1
290
     1
176
     1
290
     1
176
     1
290
     0
176
     1
290
     0
176
     1
290
     0
176
     1
290
     0
176
     1
290
     0
176
     1
290
     0
176
     1
 90
       50
176
     1
 40
0.0
176
     1
 40
1.0
176
     1
 90
        0
176
     1
 62
    18
420
        0
176
     1
 90
       50
176
     1
 90
        3
176
     1
 62
     5
420
      255
176
     1
290
     0
176
     1
 90
       50
176
     1
 90
       50
176
     1
 90
       50
176
     1
290
     0
176
     1
 90
       50
176
     1
 62
   256
176
     0
 40
1.0
176
     0
 90
        2
176
     1
  1
strokes_ogs.tif
176
     1
290
     0
176
     1
 40
1.0
176
     1
 40
1.0
176
     1
  0
VISUALSTYLE
  5
2D
102
{ACAD_REACTORS
330
2A
102
}
330
2A
100
AcDbVisualStyle
  2
Gouraud
 70
     2
177
     3
291
     1
 70
    58
 90
        2
176
     1
 90
        2
176
     1
 90
        1
176
     1
 90
        2
176
     1
 40
0.6
176
     1
 40
30.0
176
     1
 62
     7
420
 16777215
176
     1
 90
        0
176
     1
 90
        4
176
     1
 62
     7
176
     1
 62
   257
176
     1
 90
        1
176
     1
 90
        1
176
     1
 40
1.0
176
     1
 90
        0
176
     1
 62
     7
176
     1
 40
1.0
176
     1
 90
        1
176
     1
 90
        6
176
     1
 90
        2
176
     1
 62
     7
176
     1
 90
        5
176
     1
 90
        0
176
     1
 90
        0
176
     1
290
     0
176
     1
 90
       13
176
     1
 40
0.0
176
     1
 90
        0
176
     1
290
     0
176
     1
290
     1
176
     1
290
     1
176
     1
290
     0
176
     1
290
     0
176
     1
290
     0
176
     1
290
     0
176
     1
290
     0
176
     1
290
     0
176
     1
 90
       50
176
     1
 40
0.0
176
     1
 40
1.0
176
     1
 90
        0
176
     1
 62
    18
420
        0
176
     1
 90
       50
176
     1
 90
        3
176
     1
 62
     5
420
      255
176
     1
290
     0
176
     1
 90
       50
176
     1
 90
       50
176
     1
 90
       50
176
     1
290
     0
176
     1
 90
       50
176
     1
 62
   256
176
     0
 40
1.0
176
     0
 90
        2
176
     1
  1
strokes_ogs.tif
176
     1
290
     0
176
     1
 40
1.0
176
     1
 40
1.0
176
     1
  0
VISUALSTYLE
  5
2E
102
{ACAD_REACTORS
330
2A
102
}
330
2A
100
AcDbVisualStyle
  2
GouraudWithEdges
 70
     3
177
     3
291
     1
 70
    58
 90
        2
176
     1
 90
        2
176
     1
 90
        1
176
     1
 90
        2
176
     1
 40
0.6
176
     1
 40
30.0
176
     1
 62
     7
420
 16777215
176
     1
 90
        1
176
     1
 90
        4
176
     1
 62
     7
176
     1
 62
   257
176
     1
 90
        1
176
     1
 90
        1
176
     1
 40
1.0
176
     1
 90
        0
176
     1
 62
   257
176
     1
 40
1.0
176
     1
 90
        1
176
     1
 90
        6
176
     1
 90
        2
176
     1
 62
     7
176
     1
 90
        5
176
     1
 90
        0
176
     1
 90
        0
176
     1
290
     0
176
     1
 90
       13
176
     1
 40
0.0
176
     1
 90
        0
176
     1
290
     0
176
     1
290
     1
176
     1
290
     1
176
     1
290
     0
176
     1
290
     0
176
     1
290
     0
176
     1
290
     0
176
     1
290
     0
176
     1
290
     0
176
     1
 90
       50
176
     1
 40
0.0
176
     1
 40
1.0
176
     1
 90
        0
176
     1
 62
    18
420
        0
176
     1
 90
       50
176
     1
 90
        3
176
     1
 62
     5
420
      255
176
     1
290
     0
176
     1
 90
       50
176
     1
 90
       50
176
     1
 90
       50
176
     1
290
     0
176
     1
 90
       50
176
     1
 62
   256
176
     0
 40
1.0
176
     0
 90
        2
176
     1
  1
strokes_ogs.tif
176
     1
290
     0
176
     1
 40
1.0
176
     1
 40
1.0
176
     1
  0
VISUALSTYLE
  5
14D
102
{ACAD_REACTORS
330
2A
102
}
330
2A
100
AcDbVisualStyle
  2
Hidden
 70
     6
177
     3
291
     0
 70
    58
 90
        1
176
     1
 90
        2
176
     1
 90
        2
176
     1
 90
        0
176
     1
 40
0.6
176
     1
 40
30.0
176
     1
 62
     7
420
 16777215
176
     1
 90
        2
176
     1
 90
        2
176
     1
 62
     7
176
     1
 62
   257
176
     1
 90
        2
176
     1
 90
        1
176
     1
 40
40.0
176
     1
 90
        0
176
     1
 62
   257
176
     1
 40
1.0
176
     1
 90
        1
176
     1
 90
        6
176
     1
 90
        2
176
     1
 62
     7
176
     1
 90
        3
176
     1
 90
        0
176
     1
 90
        0
176
     1
290
     0
176
     1
 90
        1
176
     1
 40
0.0
176
     1
 90
        0
176
     1
290
     0
176
     1
290
     1
176
     1
290
     1
176
     1
290
     0
176
     1
290
     0
176
     1
290
     0
176
     1
290
     0
176
     1
290
     0
176
     1
290
     0
176
     1
 90
       50
176
     1
 40
0.0
176
     1
 40
1.0
176
     1
 90
        0
176
     1
 62
    18
420
        0
176
     1
 90
       50
176
     1
 90
        3
176
     1
 62
     5
420
      255
176
     1
290
     0
176
     1
 90
       50
176
     1
 90
       50
176
     1
 90
       50
176
     1
290
     0
176
     1
 90
       50
176
     1
 62
   256
176
     0
 40
1.0
176
     0
 90
        2
176
     1
  1
strokes_ogs.tif
176
     1
290
     0
176
     1
 40
1.0
176
     1
 40
1.0
176
     1
  0
VISUALSTYLE
  5
153
102
{ACAD_REACTORS
330
2A
102
}
330
2A
100
AcDbVisualStyle
  2
JitterOff
 70
    20
177
     3
291
     1
 70
    58
 90
        2
176
     0
 90
        2
176
     0
 90
        0
176
     0
 90
        0
176
     0
 40
0.6
176
     0
 40
30.0
176
     0
 62
     7
420
 16777215
176
     0
 90
        1
176
     0
 90
        4
176
     0
 62
     7
176
     0
 62
   257
176
     0
 90
        1
176
     0
 90
        1
176
     0
 40
1.0
176
     0
 90
       10
176
     2
 62
     7
176
     0
 40
1.0
176
     0
 90
        1
176
     0
 90
        6
176
     0
 90
        2
176
     0
 62
     7
176
     0
 90
        5
176
     0
 90
        0
176
     0
 90
        0
176
     0
290
     0
176
     0
 90
        1
176
     0
 40
0.0
176
     0
 90
        0
176
     0
290
     0
176
     0
290
     1
176
     0
290
     1
176
     0
290
     0
176
     0
290
     0
176
     0
290
     0
176
     0
290
     0
176
     0
290
     0
176
     0
290
     0
176
     0
 90
       50
176
     0
 40
0.0
176
     0
 40
1.0
176
     0
 90
        0
176
     0
 62
    18
420
        0
176
     0
 90
       50
176
     0
 90
        3
176
     0
 62
     5
420
      255
176
     0
290
     0
176
     0
 90
       50
176
     0
 90
       50
176
     0
 90
       50
176
     0
290
     0
176
     0
 90
       50
176
     0
 62
   256
176
     0
 40
1.0
176
     0
 90
        2
176
     0
  1
strokes_ogs.tif
176
     0
290
     0
176
     0
 40
1.0
176
     0
 40
1.0
176
     0
  0
VISUALSTYLE
  5
38
102
{ACAD_REACTORS
330
2A
102
}
330
2A
100
AcDbVisualStyle
  2
Linepattern
 70
    14
177
     3
291
     1
 70
    58
 90
        2
176
     1
 90
        2
176
     1
 90
        0
176
     1
 90
        0
176
     1
 40
0.6
176
     1
 40
30.0
176
     1
 62
     7
420
 16777215
176
     1
 90
        1
176
     1
 90
        4
176
     1
 62
     7
176
     1
 62
   257
176
     1
 90
        7
176
     1
 90
        7
176
     1
 40
1.0
176
     1
 90
        8
176
     1
 62
     7
176
     1
 40
1.0
176
     1
 90
        1
176
     1
 90
        6
176
     1
 90
        2
176
     1
 62
     7
176
     1
 90
        5
176
     1
 90
        0
176
     1
 90
        0
176
     1
290
     0
176
     1
 90
        1
176
     1
 40
0.0
176
     1
 90
        0
176
     1
290
     0
176
     1
290
     1
176
     1
290
     1
176
     1
290
     0
176
     1
290
     0
176
     1
290
     0
176
     1
290
     0
176
     1
290
     0
176
     1
290
     0
176
     1
 90
       50
176
     1
 40
0.0
176
     1
 40
1.0
176
     1
 90
        0
176
     1
 62
    18
420
        0
176
     1
 90
       50
176
     1
 90
        3
176
     1
 62
     5
420
      255
176
     1
290
     0
176
     1
 90
       50
176
     1
 90
       50
176
     1
 90
       50
176
     1
290
     0
176
     1
 90
       50
176
     1
 62
   256
176
     0
 40
1.0
176
     0
 90
        2
176
     1
  1
strokes_ogs.tif
176
     1
290
     0
176
     1
 40
1.0
176
     1
 40
1.0
176
     1
  0
VISUALSTYLE
  5
154
102
{ACAD_REACTORS
330
2A
102
}
330
2A
100
AcDbVisualStyle
  2
OverhangOff
 70
    21
177
     3
291
     1
 70
    58
 90
        2
176
     0
 90
        2
176
     0
 90
        0
176
     0
 90
        0
176
     0
 40
0.6
176
     0
 40
30.0
176
     0
 62
     7
420
 16777215
176
     0
 90
        1
176
     0
 90
        4
176
     0
 62
     7
176
     0
 62
   257
176
     0
 90
        1
176
     0
 90
        1
176
     0
 40
1.0
176
     0
 90
        9
176
     2
 62
     7
176
     0
 40
1.0
176
     0
 90
        1
176
     0
 90
        6
176
     0
 90
        2
176
     0
 62
     7
176
     0
 90
        5
176
     0
 90
        0
176
     0
 90
        0
176
     0
290
     0
176
     0
 90
        1
176
     0
 40
0.0
176
     0
 90
        0
176
     0
290
     0
176
     0
290
     1
176
     0
290
     1
176
     0
290
     0
176
     0
290
     0
176
     0
290
     0
176
     0
290
     0
176
     0
290
     0
176
     0
290
     0
176
     0
 90
       50
176
     0
 40
0.0
176
     0
 40
1.0
176
     0
 90
        0
176
     0
 62
    18
420
        0
176
     0
 90
       50
176
     0
 90
        3
176
     0
 62
     5
420
      255
176
     0
290
     0
176
     0
 90
       50
176
     0
 90
       50
176
     0
 90
       50
176
     0
290
     0
176
     0
 90
       50
176
     0
 62
   256
176
     0
 40
1.0
176
     0
 90
        2
176
     0
  1
strokes_ogs.tif
176
     0
290
     0
176
     0
 40
1.0
176
     0
 40
1.0
176
     0
  0
VISUALSTYLE
  5
33
102
{ACAD_REACTORS
330
2A
102
}
330
2A
100
AcDbVisualStyle
  2
Realistic
 70
     8
177
     3
291
     0
 70
    58
 90
        2
176
     1
 90
        2
176
     1
 90
        0
176
     1
 90
        0
176
     1
 40
0.6
176
     1
 40
30.0
176
     1
 62
     7
420
 16777215
176
     1
 90
        1
176
     1
 90
        0
176
     1
 62
     7
176
     1
 62
   257
176
     1
 90
        1
176
     1
 90
        1
176
     1
 40
1.0
176
     1
 90
        8
176
     1
 62
     8
420
  7895160
176
     1
 40
1.0
176
     1
 90
        1
176
     1
 90
        6
176
     1
 90
        2
176
     1
 62
     7
176
     1
 90
        5
176
     1
 90
        0
176
     1
 90
        0
176
     1
290
     0
176
     1
 90
       13
176
     1
 40
0.0
176
     1
 90
        0
176
     1
290
     0
176
     1
290
     1
176
     1
290
     1
176
     1
290
     0
176
     1
290
     0
176
     1
290
     0
176
     1
290
     0
176
     1
290
     0
176
     1
290
     0
176
     1
 90
       50
176
     1
 40
0.0
176
     1
 40
1.0
176
     1
 90
        0
176
     1
 62
    18
420
        0
176
     1
 90
       50
176
     1
 90
        3
176
     1
 62
     5
420
      255
176
     1
290
     0
176
     1
 90
       50
176
     1
 90
       50
176
     1
 90
       50
176
     1
290
     0
176
     1
 90
       50
176
     1
 62
   256
176
     0
 40
1.0
176
     0
 90
        2
176
     1
  1
strokes_ogs.tif
176
     1
290
     0
176
     1
 40
1.0
176
     1
 40
1.0
176
     1
  0
VISUALSTYLE
  5
152
102
{ACAD_REACTORS
330
2A
102
}
330
2A
100
AcDbVisualStyle
  2
Shaded
 70
    27
177
     3
291
     0
 70
    58
 90
        2
176
     1
 90
        2
176
     1
 90
        1
176
     1
 90
        2
176
     1
 40
0.6
176
     1
 40
30.0
176
     1
 62
     7
420
 16777215
176
     1
 90
        0
176
     1
 90
        4
176
     1
 62
     7
176
     1
 62
   257
176
     1
 90
        1
176
     1
 90
        1
176
     1
 40
1.0
176
     1
 90
        8
176
     1
 62
   257
176
     1
 40
1.0
176
     1
 90
        1
176
     1
 90
        6
176
     1
 90
        2
176
     1
 62
     8
420
  7895160
176
     1
 90
        3
176
     1
 90
        0
176
     1
 90
        0
176
     1
290
     0
176
     1
 90
        5
176
     1
 40
0.0
176
     1
 90
        0
176
     1
290
     0
176
     1
290
     1
176
     1
290
     1
176
     1
290
     0
176
     1
290
     0
176
     1
290
     0
176
     1
290
     0
176
     1
290
     0
176
     1
290
     0
176
     1
 90
       50
176
     1
 40
0.0
176
     1
 40
1.0
176
     1
 90
        0
176
     1
 62
    18
420
        0
176
     1
 90
       50
176
     1
 90
        3
176
     1
 62
     5
420
      255
176
     1
290
     0
176
     1
 90
       50
176
     1
 90
       50
176
     1
 90
       50
176
     1
290
     0
176
     1
 90
       50
176
     1
 62
   256
176
     0
 40
1.0
176
     0
 90
        2
176
     1
  1
strokes_ogs.tif
176
     1
290
     0
176
     1
 40
1.0
176
     1
 40
1.0
176
     1
  0
VISUALSTYLE
  5
151
102
{ACAD_REACTORS
330
2A
102
}
330
2A
100
AcDbVisualStyle
  2
Shaded with edges
 70
    26
177
     3
291
     0
 70
    58
 90
        2
176
     1
 90
        2
176
     1
 90
        1
176
     1
 90
        2
176
     1
 40
0.6
176
     1
 40
30.0
176
     1
 62
     7
420
 16777215
176
     1
 90
        1
176
     1
 90
       10
176
     1
 62
     7
176
     1
 62
   257
176
     1
 90
        2
176
     1
 90
        1
176
     1
 40
1.0
176
     1
 90
        8
176
     1
 62
   257
176
     1
 40
1.0
176
     1
 90
        1
176
     1
 90
        6
176
     1
 90
        2
176
     1
 62
     7
176
     1
 90
        3
176
     1
 90
        0
176
     1
 90
        0
176
     1
290
     0
176
     1
 90
        5
176
     1
 40
0.0
176
     1
 90
        0
176
     1
290
     0
176
     1
290
     1
176
     1
290
     1
176
     1
290
     0
176
     1
290
     0
176
     1
290
     0
176
     1
290
     0
176
     1
290
     0
176
     1
290
     0
176
     1
 90
       50
176
     1
 40
0.0
176
     1
 40
1.0
176
     1
 90
        0
176
     1
 62
    18
420
        0
176
     1
 90
       50
176
     1
 90
        3
176
     1
 62
     5
420
      255
176
     1
290
     0
176
     1
 90
       50
176
     1
 90
       50
176
     1
 90
       50
176
     1
290
     0
176
     1
 90
       50
176
     1
 62
   256
176
     0
 40
1.0
176
     0
 90
        2
176
     1
  1
strokes_ogs.tif
176
     1
290
     0
176
     1
 40
1.0
176
     1
 40
1.0
176
     1
  0
VISUALSTYLE
  5
14E
102
{ACAD_REACTORS
330
2A
102
}
330
2A
100
AcDbVisualStyle
  2
Shades of Gray
 70
    23
177
     3
291
     0
 70
    58
 90
        2
176
     1
 90
        2
176
     1
 90
        3
176
     1
 90
        0
176
     1
 40
0.6
176
     1
 40
30.0
176
     1
 62
     7
420
 16777215
176
     1
 90
        2
176
     1
 90
        2
176
     1
 62
     7
176
     1
 62
     7
176
     1
 90
        1
176
     1
 90
        1
176
     1
 40
40.0
176
     1
 90
        8
176
     1
 62
     7
176
     1
 40
1.0
176
     1
 90
        1
176
     1
 90
        6
176
     1
 90
        2
176
     1
 62
     7
176
     1
 90
        3
176
     1
 90
        0
176
     1
 90
        0
176
     1
290
     0
176
     1
 90
        1
176
     1
 40
0.0
176
     1
 90
        0
176
     1
290
     0
176
     1
290
     1
176
     1
290
     1
176
     1
290
     0
176
     1
290
     0
176
     1
290
     0
176
     1
290
     0
176
     1
290
     0
176
     1
290
     0
176
     1
 90
       50
176
     1
 40
0.0
176
     1
 40
1.0
176
     1
 90
        0
176
     1
 62
    18
420
        0
176
     1
 90
       50
176
     1
 90
        3
176
     1
 62
     5
420
      255
176
     1
290
     0
176
     1
 90
       50
176
     1
 90
       50
176
     1
 90
       50
176
     1
290
     0
176
     1
 90
       50
176
     1
 62
   256
176
     0
 40
1.0
176
     0
 90
        2
176
     1
  1
strokes_ogs.tif
176
     1
290
     0
176
     1
 40
1.0
176
     1
 40
1.0
176
     1
  0
VISUALSTYLE
  5
14F
102
{ACAD_REACTORS
330
2A
102
}
330
2A
100
AcDbVisualStyle
  2
Sketchy
 70
    24
177
     3
291
     0
 70
    58
 90
        1
176
     1
 90
        2
176
     1
 90
        2
176
     1
 90
        0
176
     1
 40
0.6
176
     1
 40
30.0
176
     1
 62
     7
420
 16777215
176
     1
 90
        2
176
     1
 90
        2
176
     1
 62
     7
176
     1
 62
     7
176
     1
 90
        1
176
     1
 90
        1
176
     1
 40
40.0
176
     1
 90
       11
176
     1
 62
     7
176
     1
 40
1.0
176
     1
 90
        1
176
     1
 90
        6
176
     1
 90
        2
176
     1
 62
     7
176
     1
 90
        6
176
     1
 90
        0
176
     1
 90
        0
176
     1
290
     0
176
     1
 90
        1
176
     1
 40
0.0
176
     1
 90
        0
176
     1
290
     0
176
     1
290
     1
176
     1
290
     1
176
     1
290
     0
176
     1
290
     0
176
     1
290
     0
176
     1
290
     0
176
     1
290
     0
176
     1
290
     0
176
     1
 90
       50
176
     1
 40
0.0
176
     1
 40
1.0
176
     1
 90
        0
176
     1
 62
    18
420
        0
176
     1
 90
       50
176
     1
 90
        3
176
     1
 62
     5
420
      255
176
     1
290
     0
176
     1
 90
       50
176
     1
 90
       50
176
     1
 90
       50
176
     1
290
     0
176
     1
 90
       50
176
     1
 62
   256
176
     0
 40
1.0
176
     0
 90
        2
176
     1
  1
strokes_ogs.tif
176
     1
290
     0
176
     1
 40
1.0
176
     1
 40
1.0
176
     1
  0
VISUALSTYLE
  5
37
102
{ACAD_REACTORS
330
2A
102
}
330
2A
100
AcDbVisualStyle
  2
Thicken
 70
    13
177
     3
291
     1
 70
    58
 90
        2
176
     1
 90
        2
176
     1
 90
        0
176
     1
 90
        0
176
     1
 40
0.6
176
     1
 40
30.0
176
     1
 62
     7
420
 16777215
176
     1
 90
        1
176
     1
 90
        4
176
     1
 62
     7
176
     1
 62
   257
176
     1
 90
        1
176
     1
 90
        1
176
     1
 40
1.0
176
     1
 90
       12
176
     1
 62
     7
176
     1
 40
1.0
176
     1
 90
        1
176
     1
 90
        6
176
     1
 90
        2
176
     1
 62
     7
176
     1
 90
        5
176
     1
 90
        0
176
     1
 90
        0
176
     1
290
     0
176
     1
 90
        1
176
     1
 40
0.0
176
     1
 90
        0
176
     1
290
     0
176
     1
290
     1
176
     1
290
     1
176
     1
290
     0
176
     1
290
     0
176
     1
290
     0
176
     1
290
     0
176
     1
290
     0
176
     1
290
     0
176
     1
 90
       50
176
     1
 40
0.0
176
     1
 40
1.0
176
     1
 90
        0
176
     1
 62
    18
420
        0
176
     1
 90
       50
176
     1
 90
        3
176
     1
 62
     5
420
      255
176
     1
290
     0
176
     1
 90
       50
176
     1
 90
       50
176
     1
 90
       50
176
     1
290
     0
176
     1
 90
       50
176
     1
 62
   256
176
     0
 40
1.0
176
     0
 90
        2
176
     1
  1
strokes_ogs.tif
176
     1
290
     0
176
     1
 40
1.0
176
     1
 40
1.0
176
     1
  0
VISUALSTYLE
  5
14C
102
{ACAD_REACTORS
330
2A
102
}
330
2A
100
AcDbVisualStyle
  2
Wireframe
 70
     5
177
     3
291
     0
 70
    58
 90
        0
176
     1
 90
        2
176
     1
 90
        0
176
     1
 90
        0
176
     1
 40
0.6
176
     1
 40
30.0
176
     1
 62
     7
420
 16777215
176
     1
 90
        1
176
     1
 90
        4
176
     1
 62
     7
176
     1
 62
   257
176
     1
 90
        1
176
     1
 90
        1
176
     1
 40
1.0
176
     1
 90
        0
176
     1
 62
   257
176
     1
 40
1.0
176
     1
 90
        1
176
     1
 90
        6
176
     1
 90
        2
176
     1
 62
     7
176
     1
 90
        3
176
     1
 90
        0
176
     1
 90
        0
176
     1
290
     0
176
     1
 90
        1
176
     1
 40
0.0
176
     1
 90
        0
176
     1
290
     0
176
     1
290
     1
176
     1
290
     1
176
     1
290
     0
176
     1
290
     0
176
     1
290
     0
176
     1
290
     0
176
     1
290
     0
176
     1
290
     0
176
     1
 90
       50
176
     1
 40
0.0
176
     1
 40
1.0
176
     1
 90
        0
176
     1
 62
    18
420
        0
176
     1
 90
       50
176
     1
 90
        3
176
     1
 62
     5
420
      255
176
     1
290
     0
176
     1
 90
       50
176
     1
 90
       50
176
     1
 90
       50
176
     1
290
     0
176
     1
 90
       50
176
     1
 62
   256
176
     0
 40
1.0
176
     0
 90
        2
176
     1
  1
strokes_ogs.tif
176
     1
290
     0
176
     1
 40
1.0
176
     1
 40
1.0
176
     1
  0
VISUALSTYLE
  5
150
102
{ACAD_REACTORS
330
2A
102
}
330
2A
100
AcDbVisualStyle
  2
X-Ray
 70
    25
177
     3
291
     0
 70
    58
 90
        2
176
     1
 90
        2
176
     1
 90
        1
176
     1
 90
        1
176
     1
 40
0.5
176
     1
 40
30.0
176
     1
 62
     7
420
 16777215
176
     1
 90
        1
176
     1
 90
        0
176
     1
 62
     7
176
     1
 62
   257
176
     1
 90
        1
176
     1
 90
        1
176
     1
 40
1.0
176
     1
 90
        8
176
     1
 62
     7
176
     1
 40
1.0
176
     1
 90
        1
176
     1
 90
        6
176
     1
 90
        2
176
     1
 62
     7
176
     1
 90
        3
176
     1
 90
        0
176
     1
 90
        0
176
     1
290
     0
176
     1
 90
       13
176
     1
 40
0.0
176
     1
 90
        0
176
     1
290
     0
176
     1
290
     1
176
     1
290
     1
176
     1
290
     0
176
     1
290
     0
176
     1
290
     0
176
     1
290
     0
176
     1
290
     0
176
     1
290
     0
176
     1
 90
       50
176
     1
 40
0.0
176
     1
 40
1.0
176
     1
 90
        0
176
     1
 62
    18
420
        0
176
     1
 90
       50
176
     1
 90
        3
176
     1
 62
     5
420
      255
176
     1
290
     0
176
     1
 90
       50
176
     1
 90
       50
176
     1
 90
       50
176
     1
290
     0
176
     1
 90
       50
176
     1
 62
   256
176
     0
 40
1.0
176
     0
 90
        2
176
     1
  1
strokes_ogs.tif
176
     1
290
     0
176
     1
 40
1.0
176
     1
 40
1.0
176
     1
  0
DICTIONARYVAR
  5
18C
102
{ACAD_REACTORS
330
186
102
}
330
186
100
DictionaryVariables
280
     0
  1
1:1
  0
DICTIONARYVAR
  5
188
102
{ACAD_REACTORS
330
186
102
}
330
186
100
DictionaryVariables
280
     0
  1
STANDARD
  0
DICTIONARYVAR
  5
187
102
{ACAD_REACTORS
330
186
102
}
330
186
100
DictionaryVariables
280
     0
  1
STANDARD
  0
DICTIONARYVAR
  5
189
102
{ACAD_REACTORS
330
186
102
}
330
186
100
DictionaryVariables
280
     0
  1
Imperial24
  0
DICTIONARYVAR
  5
18A
102
{ACAD_REACTORS
330
186
102
}
330
186
100
DictionaryVariables
280
     0
  1
Imperial24
  0
DICTIONARYVAR
  5
18E
102
{ACAD_REACTORS
330
186
102
}
330
186
100
DictionaryVariables
280
     0
  1
1
  0
DICTIONARYVAR
  5
18F
102
{ACAD_REACTORS
330
186
102
}
330
186
100
DictionaryVariables
280
     0
  1
15
  0
DICTIONARYVAR
  5
18D
102
{ACAD_REACTORS
330
186
102
}
330
186
100
DictionaryVariables
280
     0
  1
0
  0
DICTIONARYVAR
  5
18B
102
{ACAD_REACTORS
330
186
102
}
330
186
100
DictionaryVariables
280
     0
  1
0
  0
DICTIONARY
  5
13D
330
13C
100
AcDbDictionary
280
     1
281
     1
  3
BUMPTILE
360
13F
  3
DIFFUSETILE
360
13E
  3
OPACITYTILE
360
142
  3
REFLECTIONTILE
360
141
  3
REFRACTIONTILE
360
143
  3
SPECULARTILE
360
140
  0
DICTIONARY
  5
135
330
134
100
AcDbDictionary
280
     1
281
     1
  3
BUMPTILE
360
137
  3
DIFFUSETILE
360
136
  3
OPACITYTILE
360
13A
  3
REFLECTIONTILE
360
139
  3
REFRACTIONTILE
360
13B
  3
SPECULARTILE
360
138
  0
DICTIONARY
  5
145
330
144
100
AcDbDictionary
280
     1
281
     1
  3
BUMPTILE
360
147
  3
DIFFUSETILE
360
146
  3
OPACITYTILE
360
14A
  3
REFLECTIONTILE
360
149
  3
REFRACTIONTILE
360
14B
  3
SPECULARTILE
360
148
  0
DICTIONARY
  5
191
330
157
100
AcDbDictionary
280
     1
281
     1
  3
ACAD_ROUNDTRIP_2008_TABLESTYLE_CELLSTYLEMAP
360
192
  0
XRECORD
  5
13F
102
{ACAD_REACTORS
330
13D
102
}
330
13D
100
AcDbXrecord
280
     1
270
     1
271
     1
  0
XRECORD
  5
13E
102
{ACAD_REACTORS
330
13D
102
}
330
13D
100
AcDbXrecord
280
     1
270
     1
271
     1
  0
XRECORD
  5
142
102
{ACAD_REACTORS
330
13D
102
}
330
13D
100
AcDbXrecord
280
     1
270
     1
271
     1
  0
XRECORD
  5
141
102
{ACAD_REACTORS
330
13D
102
}
330
13D
100
AcDbXrecord
280
     1
270
     1
271
     1
  0
XRECORD
  5
143
102
{ACAD_REACTORS
330
13D
102
}
330
13D
100
AcDbXrecord
280
     1
270
     1
271
     1
  0
XRECORD
  5
140
102
{ACAD_REACTORS
330
13D
102
}
330
13D
100
AcDbXrecord
280
     1
270
     1
271
     1
  0
XRECORD
  5
137
102
{ACAD_REACTORS
330
135
102
}
330
135
100
AcDbXrecord
280
     1
270
     1
271
     1
  0
XRECORD
  5
136
102
{ACAD_REACTORS
330
135
102
}
330
135
100
AcDbXrecord
280
     1
270
     1
271
     1
  0
XRECORD
  5
13A
102
{ACAD_REACTORS
330
135
102
}
330
135
100
AcDbXrecord
280
     1
270
     1
271
     1
  0
XRECORD
  5
139
102
{ACAD_REACTORS
330
135
102
}
330
135
100
AcDbXrecord
280
     1
270
     1
271
     1
  0
XRECORD
  5
13B
102
{ACAD_REACTORS
330
135
102
}
330
135
100
AcDbXrecord
280
     1
270
     1
271
     1
  0
XRECORD
  5
138
102
{ACAD_REACTORS
330
135
102
}
330
135
100
AcDbXrecord
280
     1
270
     1
271
     1
  0
XRECORD
  5
147
102
{ACAD_REACTORS
330
145
102
}
330
145
100
AcDbXrecord
280
     1
270
     1
271
     1
  0
XRECORD
  5
146
102
{ACAD_REACTORS
330
145
102
}
330
145
100
AcDbXrecord
280
     1
270
     1
271
     1
  0
XRECORD
  5
14A
102
{ACAD_REACTORS
330
145
102
}
330
145
100
AcDbXrecord
280
     1
270
     1
271
     1
  0
XRECORD
  5
149
102
{ACAD_REACTORS
330
145
102
}
330
145
100
AcDbXrecord
280
     1
270
     1
271
     1
  0
XRECORD
  5
14B
102
{ACAD_REACTORS
330
145
102
}
330
145
100
AcDbXrecord
280
     1
270
     1
271
     1
  0
XRECORD
  5
148
102
{ACAD_REACTORS
330
145
102
}
330
145
100
AcDbXrecord
280
     1
270
     1
271
     1
  0
CELLSTYLEMAP
  5
192
102
{ACAD_REACTORS
330
191
102
}
330
191
100
AcDbCellStyleMap
 90
        3
300
CELLSTYLE
  1
TABLEFORMAT_BEGIN
 90
        5
170
     1
 91
        0
 92
    32768
 62
   257
 93
        1
300
CONTENTFORMAT
  1
CONTENTFORMAT_BEGIN
 90
        0
 91
        0
 92
      512
 93
        0
300

 40
0.0
140
1.0
 94
        5
 62
     0
340
11
144
0.25
309
CONTENTFORMAT_END
171
     0
 94
        0
309
TABLEFORMAT_END
  1
CELLSTYLE_BEGIN
 90
        1
 91
        1
300
_TITLE
309
CELLSTYLE_END
300
CELLSTYLE
  1
TABLEFORMAT_BEGIN
 90
        5
170
     1
 91
        0
 92
        0
 62
   257
 93
        1
300
CONTENTFORMAT
  1
CONTENTFORMAT_BEGIN
 90
        0
 91
        0
 92
      512
 93
        0
300

 40
0.0
140
1.0
 94
        5
 62
     0
340
11
144
0.18
309
CONTENTFORMAT_END
171
     0
 94
        0
309
TABLEFORMAT_END
  1
CELLSTYLE_BEGIN
 90
        2
 91
        1
300
_HEADER
309
CELLSTYLE_END
300
CELLSTYLE
  1
TABLEFORMAT_BEGIN
 90
        5
170
     1
 91
        0
 92
        0
 62
   257
 93
        1
300
CONTENTFORMAT
  1
CONTENTFORMAT_BEGIN
 90
        0
 91
        0
 92
      512
 93
        0
300

 40
0.0
140
1.0
 94
        2
 62
     0
340
11
144
0.18
309
CONTENTFORMAT_END
171
     0
 94
        0
309
TABLEFORMAT_END
  1
CELLSTYLE_BEGIN
 90
        3
 91
        2
300
_DATA
309
CELLSTYLE_END
  0
ENDSEC
  0
SECTION
  2
ACDSDATA
 70
     2
 71
     2
  0
ACDSSCHEMA
 90
        0
  1
AcDb_Thumbnail_Schema
  2
AcDbDs::ID
280
    10
 91
        8
  2
Thumbnail_Data
280
    15
 91
        0
101
ACDSRECORD
 95
        0
 90
        1
  2
AcDbDs::TreatedAsObjectData
280
     1
291
     1
101
ACDSRECORD
 95
        0
 90
        2
  2
AcDbDs::Legacy
280
     1
291
     1
101
ACDSRECORD
  1
AcDbDs::ID
 90
        3
  2
AcDs:Indexable
280
     1
291
     1
101
ACDSRECORD
  1
AcDbDs::ID
 90
        4
  2
AcDbDs::HandleAttribute
280
     7
282
     1
  0
ACDSSCHEMA
 90
        1
  1
AcDbDs::TreatedAsObjectDataSchema
  2
AcDbDs::TreatedAsObjectData
280
     1
 91
        0
  0
ACDSSCHEMA
 90
        2
  1
AcDbDs::LegacySchema
  2
AcDbDs::Legacy
280
     1
 91
        0
  0
ACDSSCHEMA
 90
        3
  1
AcDbDs::IndexedPropertySchema
  2
AcDs:Indexable
280
     1
 91
        0
  0
ACDSSCHEMA
 90
        4
  1
AcDbDs::HandleAttributeSchema
  2
AcDbDs::HandleAttribute
280
     7
 91
        1
284
     1
  0
ACDSRECORD
 90
        0
  2
AcDbDs::ID
280
    10
320
22
  2
Thumbnail_Data
280
    15
 94
     1037
310
89504E470D0A1A0A0000000D49484452000001000000009A0803000000712666C500000300504C54452128300000000000000000000000000000000000000000000000000000000000000000330000660000990000CC0000FF0033000033330033660033990033CC0033FF0066000066330066660066990066CC0066FF0099
310
000099330099660099990099CC0099FF00CC0000CC3300CC6600CC9900CCCC00CCFF00FF0000FF3300FF6600FF9900FFCC00FFFF3300003300333300663300993300CC3300FF3333003333333333663333993333CC3333FF3366003366333366663366993366CC3366FF3399003399333399663399993399CC3399FF33CC00
310
33CC3333CC6633CC9933CCCC33CCFF33FF0033FF3333FF6633FF9933FFCC33FFFF6600006600336600666600996600CC6600FF6633006633336633666633996633CC6633FF6666006666336666666666996666CC6666FF6699006699336699666699996699CC6699FF66CC0066CC3366CC6666CC9966CCCC66CCFF66FF0066
310
FF3366FF6666FF9966FFCC66FFFF9900009900339900669900999900CC9900FF9933009933339933669933999933CC9933FF9966009966339966669966999966CC9966FF9999009999339999669999999999CC9999FF99CC0099CC3399CC6699CC9999CCCC99CCFF99FF0099FF3399FF6699FF9999FFCC99FFFFCC0000CC00
310
33CC0066CC0099CC00CCCC00FFCC3300CC3333CC3366CC3399CC33CCCC33FFCC6600CC6633CC6666CC6699CC66CCCC66FFCC9900CC9933CC9966CC9999CC99CCCC99FFCCCC00CCCC33CCCC66CCCC99CCCCCCCCCCFFCCFF00CCFF33CCFF66CCFF99CCFFCCCCFFFFFF0000FF0033FF0066FF0099FF00CCFF00FFFF3300FF3333
310
FF3366FF3399FF33CCFF33FFFF6600FF6633FF6666FF6699FF66CCFF66FFFF9900FF9933FF9966FF9999FF99CCFF99FFFFCC00FFCC33FFCC66FFCC99FFCCCCFFCCFFFFFF00FFFF33FFFF66FFFF99FFFFCCFFFFFF0000000D0D0D1A1A1A2828283535354343435050505D5D5D6B6B6B787878868686939393A1A1A1AEAEAEBB
310
BBBBC9C9C9D6D6D6E4E4E4F1F1F1FFFFFF000000000000000000000000000000000000000000000000000000000000544354A8000000C849444154789CEDDA310A83401086516B2FB395F7BF5A0849C0625C21E04EF1BFD7D9CD7C8C4524DB06000000000000000000C05FC657F71C4DC6C9EFB17BA69546A97BAA85EA0039
310
09AEF64F2970BDBF0019050410400001041040000104080D30DB5F80EEE156104080EC00D3FD0302CCF7CF0A702406B8390001BAE77B5C7A80BBFD05E81EF069027CECE79D8FA400D509EC4901AAAB4FBA80F2B54FBA8032C01040000142F6F753C0F7A0F80F82FE21F616BC3A00000000000000000000000000000000C02A
310
2FC94BE7E3B75ED7E90000000049454E44AE426082
  0
ENDSEC
  0
EOF
