  0
SECTION
  2
HEADER
  9
$ACADVER
  1
AC1018
  9
$ACADMAINTVER
 70
     0
  9
$DWGCODEPAGE
  3
ANSI_1252
  9
$INSBASE
 10
0.0
 20
0.0
 30
0.0
  9
$EXTMIN
 10
23.63995553778022
 20
-0.0000000003329005
 30
0.0
  9
$EXTMAX
 10
117.8890976891907
 20
86.67129285645642
 30
0.0
  9
$LIMMIN
 10
0.0
 20
0.0
  9
$LIMMAX
 10
12.0
 20
9.0
  9
$ORTHOMODE
 70
     0
  9
$REGENMODE
 70
     1
  9
$FILLMODE
 70
     1
  9
$QTEXTMODE
 70
     0
  9
$MIRRTEXT
 70
     1
  9
$LTSCALE
 40
1.0
  9
$ATTMODE
 70
     1
  9
$TEXTSIZE
 40
0.2
  9
$TRACEWID
 40
0.05
  9
$TEXTSTYLE
  7
Standard
  9
$CLAYER
  8
0
  9
$CELTYPE
  6
ByLayer
  9
$CECOLOR
 62
   256
  9
$CELTSCALE
 40
1.0
  9
$DISPSILH
 70
     0
  9
$DIMSCALE
 40
1.0
  9
$DIMASZ
 40
0.18
  9
$DIMEXO
 40
0.0625
  9
$DIMDLI
 40
0.38
  9
$DIMRND
 40
0.0
  9
$DIMDLE
 40
0.0
  9
$DIMEXE
 40
0.18
  9
$DIMTP
 40
0.0
  9
$DIMTM
 40
0.0
  9
$DIMTXT
 40
0.18
  9
$DIMCEN
 40
0.09
  9
$DIMTSZ
 40
0.0
  9
$DIMTOL
 70
     0
  9
$DIMLIM
 70
     0
  9
$DIMTIH
 70
     1
  9
$DIMTOH
 70
     1
  9
$DIMSE1
 70
     0
  9
$DIMSE2
 70
     0
  9
$DIMTAD
 70
     0
  9
$DIMZIN
 70
     0
  9
$DIMBLK
  1

  9
$DIMASO
 70
     1
  9
$DIMSHO
 70
     1
  9
$DIMPOST
  1

  9
$DIMAPOST
  1

  9
$DIMALT
 70
     0
  9
$DIMALTD
 70
     2
  9
$DIMALTF
 40
25.4
  9
$DIMLFAC
 40
1.0
  9
$DIMTOFL
 70
     0
  9
$DIMTVP
 40
0.0
  9
$DIMTIX
 70
     0
  9
$DIMSOXD
 70
     0
  9
$DIMSAH
 70
     0
  9
$DIMBLK1
  1

  9
$DIMBLK2
  1

  9
$DIMSTYLE
  2
Standard
  9
$DIMCLRD
 70
     0
  9
$DIMCLRE
 70
     0
  9
$DIMCLRT
 70
     0
  9
$DIMTFAC
 40
1.0
  9
$DIMGAP
 40
0.09
  9
$DIMJUST
 70
     0
  9
$DIMSD1
 70
     0
  9
$DIMSD2
 70
     0
  9
$DIMTOLJ
 70
     1
  9
$DIMTZIN
 70
     0
  9
$DIMALTZ
 70
     0
  9
$DIMALTTZ
 70
     0
  9
$DIMUPT
 70
     0
  9
$DIMDEC
 70
     4
  9
$DIMTDEC
 70
     4
  9
$DIMALTU
 70
     2
  9
$DIMALTTD
 70
     2
  9
$DIMTXSTY
  7
Standard
  9
$DIMAUNIT
 70
     0
  9
$DIMADEC
 70
     0
  9
$DIMALTRND
 40
0.0
  9
$DIMAZIN
 70
     0
  9
$DIMDSEP
 70
    46
  9
$DIMATFIT
 70
     3
  9
$DIMFRAC
 70
     0
  9
$DIMLDRBLK
  1

  9
$DIMLUNIT
 70
     2
  9
$DIMLWD
 70
    -2
  9
$DIMLWE
 70
    -2
  9
$DIMTMOVE
 70
     2
  9
$LUNITS
 70
     2
  9
$LUPREC
 70
     2
  9
$SKETCHINC
 40
0.1
  9
$FILLETRAD
 40
0.5
  9
$AUNITS
 70
     0
  9
$AUPREC
 70
     0
  9
$MENU
  1
.
  9
$ELEVATION
 40
0.0
  9
$PELEVATION
 40
0.0
  9
$THICKNESS
 40
0.0
  9
$LIMCHECK
 70
     0
  9
$CHAMFERA
 40
0.5
  9
$CHAMFERB
 40
0.5
  9
$CHAMFERC
 40
1.0
  9
$CHAMFERD
 40
0.0
  9
$SKPOLY
 70
     0
  9
$TDCREATE
 40
2456017.490623391
  9
$TDUCREATE
 40
2456017.407290058
  9
$TDUPDATE
 40
2456017.490623403
  9
$TDUUPDATE
 40
2456017.407290069
  9
$TDINDWG
 40
0.0000000116
  9
$TDUSRTIMER
 40
0.0000000116
  9
$USRTIMER
 70
     1
  9
$ANGBASE
 50
0.0
  9
$ANGDIR
 70
     0
  9
$PDMODE
 70
     0
  9
$PDSIZE
 40
0.0
  9
$PLINEWID
 40
0.0
  9
$SPLFRAME
 70
     0
  9
$SPLINETYPE
 70
     6
  9
$SPLINESEGS
 70
     8
  9
$HANDSEED
  5
2BA
  9
$SURFTAB1
 70
     6
  9
$SURFTAB2
 70
     6
  9
$SURFTYPE
 70
     6
  9
$SURFU
 70
     6
  9
$SURFV
 70
     6
  9
$UCSBASE
  2

  9
$UCSNAME
  2

  9
$UCSORG
 10
0.0
 20
0.0
 30
0.0
  9
$UCSXDIR
 10
1.0
 20
0.0
 30
0.0
  9
$UCSYDIR
 10
0.0
 20
1.0
 30
0.0
  9
$UCSORTHOREF
  2

  9
$UCSORTHOVIEW
 70
     0
  9
$UCSORGTOP
 10
0.0
 20
0.0
 30
0.0
  9
$UCSORGBOTTOM
 10
0.0
 20
0.0
 30
0.0
  9
$UCSORGLEFT
 10
0.0
 20
0.0
 30
0.0
  9
$UCSORGRIGHT
 10
0.0
 20
0.0
 30
0.0
  9
$UCSORGFRONT
 10
0.0
 20
0.0
 30
0.0
  9
$UCSORGBACK
 10
0.0
 20
0.0
 30
0.0
  9
$PUCSBASE
  2

  9
$PUCSNAME
  2

  9
$PUCSORG
 10
0.0
 20
0.0
 30
0.0
  9
$PUCSXDIR
 10
1.0
 20
0.0
 30
0.0
  9
$PUCSYDIR
 10
0.0
 20
1.0
 30
0.0
  9
$PUCSORTHOREF
  2

  9
$PUCSORTHOVIEW
 70
     0
  9
$PUCSORGTOP
 10
0.0
 20
0.0
 30
0.0
  9
$PUCSORGBOTTOM
 10
0.0
 20
0.0
 30
0.0
  9
$PUCSORGLEFT
 10
0.0
 20
0.0
 30
0.0
  9
$PUCSORGRIGHT
 10
0.0
 20
0.0
 30
0.0
  9
$PUCSORGFRONT
 10
0.0
 20
0.0
 30
0.0
  9
$PUCSORGBACK
 10
0.0
 20
0.0
 30
0.0
  9
$USERI1
 70
     0
  9
$USERI2
 70
     0
  9
$USERI3
 70
     0
  9
$USERI4
 70
     0
  9
$USERI5
 70
     0
  9
$USERR1
 40
0.0
  9
$USERR2
 40
0.0
  9
$USERR3
 40
0.0
  9
$USERR4
 40
0.0
  9
$USERR5
 40
0.0
  9
$WORLDVIEW
 70
     1
  9
$SHADEDGE
 70
     3
  9
$SHADEDIF
 70
    70
  9
$TILEMODE
 70
     1
  9
$MAXACTVP
 70
    64
  9
$PINSBASE
 10
0.0
 20
0.0
 30
0.0
  9
$PLIMCHECK
 70
     0
  9
$PEXTMIN
 10
1.000000000000000E+20
 20
1.000000000000000E+20
 30
1.000000000000000E+20
  9
$PEXTMAX
 10
-1.000000000000000E+20
 20
-1.000000000000000E+20
 30
-1.000000000000000E+20
  9
$PLIMMIN
 10
0.0
 20
0.0
  9
$PLIMMAX
 10
12.0
 20
9.0
  9
$UNITMODE
 70
     0
  9
$VISRETAIN
 70
     1
  9
$PLINEGEN
 70
     0
  9
$PSLTSCALE
 70
     1
  9
$TREEDEPTH
 70
  3020
  9
$CMLSTYLE
  2
Standard
  9
$CMLJUST
 70
     0
  9
$CMLSCALE
 40
1.0
  9
$PROXYGRAPHICS
 70
     1
  9
$MEASUREMENT
 70
     0
  9
$CELWEIGHT
370
    -1
  9
$ENDCAPS
280
     0
  9
$JOINSTYLE
280
     0
  9
$LWDISPLAY
290
     0
  9
$INSUNITS
 70
     4
  9
$HYPERLINKBASE
  1

  9
$STYLESHEET
  1

  9
$XEDIT
290
     1
  9
$CEPSNTYPE
380
     0
  9
$PSTYLEMODE
290
     1
  9
$FINGERPRINTGUID
  2
{5B78F76C-DA28-449E-8D45-712119F9B506}
  9
$VERSIONGUID
  2
{FAEB1C32-E019-11D5-929B-00C0DF256EC4}
  9
$EXTNAMES
290
     1
  9
$PSVPSCALE
 40
0.0
  9
$OLESTARTUP
290
     0
  9
$SORTENTS
280
   127
  9
$INDEXCTL
280
     0
  9
$HIDETEXT
280
     1
  9
$XCLIPFRAME
290
     0
  9
$HALOGAP
280
     0
  9
$OBSCOLOR
 70
   257
  9
$OBSLTYPE
280
     0
  9
$INTERSECTIONDISPLAY
280
     0
  9
$INTERSECTIONCOLOR
 70
   257
  9
$DIMASSOC
280
     2
  9
$PROJECTNAME
  1

  0
ENDSEC
  0
SECTION
  2
CLASSES
  0
CLASS
  1
ACDBDICTIONARYWDFLT
  2
AcDbDictionaryWithDefault
  3
ObjectDBX Classes
 90
        0
 91
        4
280
     0
281
     0
  0
CLASS
  1
VISUALSTYLE
  2
AcDbVisualStyle
  3
ObjectDBX Classes
 90
     4095
 91
        4
280
     0
281
     0
  0
ENDSEC
  0
SECTION
  2
TABLES
  0
TABLE
  2
VPORT
  5
8
330
0
100
AcDbSymbolTable
 70
     1
  0
VPORT
  5
29
330
8
100
AcDbSymbolTableRecord
100
AcDbViewportTableRecord
  2
*Active
 70
     0
 10
0.0
 20
0.0
 11
1.0
 21
1.0
 12
70.76452661348549
 22
43.33564642806176
 13
0.0
 23
0.0
 14
0.5
 24
0.5
 15
0.5
 25
0.5
 16
0.0
 26
0.0
 36
1.0
 17
0.0
 27
0.0
 37
0.0
 40
88.4047187139251
 41
1.087432055584338
 42
50.0
 43
0.0
 44
0.0
 50
0.0
 51
0.0
 71
     0
 72
   100
 73
     1
 74
     3
 75
     0
 76
     0
 77
     0
 78
     0
281
     0
 65
     1
110
0.0
120
0.0
130
0.0
111
1.0
121
0.0
131
0.0
112
0.0
122
1.0
132
0.0
 79
     0
146
0.0
  0
ENDTAB
  0
TABLE
  2
LTYPE
  5
5
330
0
100
AcDbSymbolTable
 70
     1
  0
LTYPE
  5
14
330
5
100
AcDbSymbolTableRecord
100
AcDbLinetypeTableRecord
  2
ByBlock
 70
     0
  3

 72
    65
 73
     0
 40
0.0
  0
LTYPE
  5
15
330
5
100
AcDbSymbolTableRecord
100
AcDbLinetypeTableRecord
  2
ByLayer
 70
     0
  3

 72
    65
 73
     0
 40
0.0
  0
LTYPE
  5
16
330
5
100
AcDbSymbolTableRecord
100
AcDbLinetypeTableRecord
  2
Continuous
 70
     0
  3
Solid line
 72
    65
 73
     0
 40
0.0
  0
ENDTAB
  0
TABLE
  2
LAYER
  5
2
330
0
100
AcDbSymbolTable
 70
     2
  0
LAYER
  5
10
330
2
100
AcDbSymbolTableRecord
100
AcDbLayerTableRecord
  2
0
 70
     0
 62
     7
  6
Continuous
370
    -3
390
F
  0
LAYER
  5
3B
330
2
100
AcDbSymbolTableRecord
100
AcDbLayerTableRecord
  2
LINEE VISIBILI 2D
 70
     0
 62
     7
  6
Continuous
370
    -3
390
F
  0
ENDTAB
  0
TABLE
  2
STYLE
  5
3
330
0
100
AcDbSymbolTable
 70
     1
  0
STYLE
  5
11
330
3
100
AcDbSymbolTableRecord
100
AcDbTextStyleTableRecord
  2
Standard
 70
     0
 40
0.0
 41
1.0
 50
0.0
 71
     0
 42
0.2
  3
txt
  4

  0
ENDTAB
  0
TABLE
  2
VIEW
  5
6
330
0
100
AcDbSymbolTable
 70
     0
  0
ENDTAB
  0
TABLE
  2
UCS
  5
7
330
0
100
AcDbSymbolTable
 70
     0
  0
ENDTAB
  0
TABLE
  2
APPID
  5
9
330
0
100
AcDbSymbolTable
 70
     1
  0
APPID
  5
12
330
9
100
AcDbSymbolTableRecord
100
AcDbRegAppTableRecord
  2
ACAD
 70
     0
  0
ENDTAB
  0
TABLE
  2
DIMSTYLE
  5
A
330
0
100
AcDbSymbolTable
 70
     1
100
AcDbDimStyleTable
  0
DIMSTYLE
105
27
330
A
100
AcDbSymbolTableRecord
100
AcDbDimStyleTableRecord
  2
Standard
 70
     0
340
11
  0
ENDTAB
  0
TABLE
  2
BLOCK_RECORD
  5
1
330
0
100
AcDbSymbolTable
 70
     1
  0
BLOCK_RECORD
  5
1F
330
1
100
AcDbSymbolTableRecord
100
AcDbBlockTableRecord
  2
*Model_Space
340
22
  0
BLOCK_RECORD
  5
1B
330
1
100
AcDbSymbolTableRecord
100
AcDbBlockTableRecord
  2
*Paper_Space
340
1E
  0
BLOCK_RECORD
  5
23
330
1
100
AcDbSymbolTableRecord
100
AcDbBlockTableRecord
  2
*Paper_Space0
340
26
  0
ENDTAB
  0
ENDSEC
  0
SECTION
  2
BLOCKS
  0
BLOCK
  5
20
330
1F
100
AcDbEntity
  8
0
100
AcDbBlockBegin
  2
*Model_Space
 70
     0
 10
0.0
 20
0.0
 30
0.0
  3
*Model_Space
  1

  0
ENDBLK
  5
21
330
1F
100
AcDbEntity
  8
0
100
AcDbBlockEnd
  0
BLOCK
  5
1C
330
1B
100
AcDbEntity
 67
     1
  8
0
100
AcDbBlockBegin
  2
*Paper_Space
 70
     0
 10
0.0
 20
0.0
 30
0.0
  3
*Paper_Space
  1

  0
ENDBLK
  5
1D
330
1B
100
AcDbEntity
 67
     1
  8
0
100
AcDbBlockEnd
  0
BLOCK
  5
24
330
23
100
AcDbEntity
  8
0
100
AcDbBlockBegin
  2
*Paper_Space0
 70
     0
 10
0.0
 20
0.0
 30
0.0
  3
*Paper_Space0
  1

  0
ENDBLK
  5
25
330
23
100
AcDbEntity
  8
0
100
AcDbBlockEnd
  0
ENDSEC
  0
SECTION
  2
ENTITIES
  0
LINE
  5
3C
330
1F
100
AcDbEntity
  8
LINEE VISIBILI 2D
100
AcDbLine
 10
96.29553094511053
 20
86.6712928564564
 30
0.0
 11
96.29553094511053
 21
86.50875170951761
 31
0.0
  0
LINE
  5
3D
330
1F
100
AcDbEntity
  8
LINEE VISIBILI 2D
100
AcDbLine
 10
99.88910078523082
 20
86.6712928564564
 30
0.0
 11
103.4790979223134
 21
86.67129285645642
 31
0.0
  0
LINE
  5
3E
330
1F
100
AcDbEntity
  8
LINEE VISIBILI 2D
100
AcDbLine
 10
94.19533893033821
 20
84.73957025396443
 30
0.0
 11
94.33730114658096
 21
84.73957025396443
 31
0.0
  0
LINE
  5
3F
330
1F
100
AcDbEntity
  8
LINEE VISIBILI 2D
100
AcDbLine
 10
93.71038724090579
 20
84.73957025396443
 30
0.0
 11
93.82014652566414
 21
84.73957025396443
 31
0.0
  0
LINE
  5
40
330
1F
100
AcDbEntity
  8
LINEE VISIBILI 2D
100
AcDbLine
 10
93.82784050875702
 20
84.73957025396443
 30
0.0
 11
93.92618198052517
 21
84.7395702539644
 31
0.0
  0
LINE
  5
41
330
1F
100
AcDbEntity
  8
LINEE VISIBILI 2D
100
AcDbLine
 10
93.93477513970379
 20
84.7395702539644
 30
0.0
 11
94.04795789795969
 21
84.73957025396444
 31
0.0
  0
LINE
  5
42
330
1F
100
AcDbEntity
  8
LINEE VISIBILI 2D
100
AcDbLine
 10
94.05737946870661
 20
84.73957025396444
 30
0.0
 11
94.18514464838438
 21
84.73957025396443
 31
0.0
  0
LINE
  5
43
330
1F
100
AcDbEntity
  8
LINEE VISIBILI 2D
100
AcDbLine
 10
94.34836759387397
 20
84.73957025396444
 30
0.0
 11
94.50423140694119
 21
84.73957025396444
 31
0.0
  0
LINE
  5
44
330
1F
100
AcDbEntity
  8
LINEE VISIBILI 2D
100
AcDbLine
 10
94.5158622811253
 20
84.73957025396444
 30
0.0
 11
94.6852642835293
 21
84.73957025396444
 31
0.0
  0
LINE
  5
45
330
1F
100
AcDbEntity
  8
LINEE VISIBILI 2D
100
AcDbLine
 10
59.37996385327938
 20
58.24921976752925
 30
0.0
 11
41.63988826267942
 21
58.24921976752925
 31
0.0
  0
ARC
  5
46
330
1F
100
AcDbEntity
  8
LINEE VISIBILI 2D
100
AcDbCircle
 10
99.889100785231
 20
18.00000287782495
 30
0.0
 40
6.231542967237074
100
AcDbArc
 50
180.0000334811586
 51
359.9999805548451
  0
LINE
  5
47
330
1F
100
AcDbEntity
  8
LINEE VISIBILI 2D
100
AcDbLine
 10
41.63988610589371
 20
84.73957025396443
 30
0.0
 11
42.04881790983623
 21
84.73957025396443
 31
0.0
  0
ARC
  5
48
330
1F
100
AcDbEntity
  8
LINEE VISIBILI 2D
100
AcDbCircle
 10
99.88910078523085
 20
18.00000309570816
 30
0.0
 40
17.99999690395893
100
AcDbArc
 50
359.9999996750997
 51
180.0000193851127
  0
ARC
  5
49
330
1F
100
AcDbEntity
  8
LINEE VISIBILI 2D
100
AcDbCircle
 10
99.88910078523067
 20
18.00000540929459
 30
0.0
 40
6.231542967238807
100
AcDbArc
 50
359.9999572793052
 51
180.0000567566983
  0
ARC
  5
4A
330
1F
100
AcDbEntity
  8
LINEE VISIBILI 2D
100
AcDbCircle
 10
99.88910078523132
 20
17.9999999996671
 30
0.0
 40
3.59356984012031
100
AcDbArc
 50
359.9999999999999
 51
89.99999999999977
  0
ARC
  5
4B
330
1F
100
AcDbEntity
  8
LINEE VISIBILI 2D
100
AcDbCircle
 10
99.88910078523136
 20
17.99999999966709
 30
0.0
 40
3.593569840120292
100
AcDbArc
 50
90.00000000000045
 51
180.0
  0
ARC
  5
4C
330
1F
100
AcDbEntity
  8
LINEE VISIBILI 2D
100
AcDbCircle
 10
99.88910078523134
 20
17.99999999966706
 30
0.0
 40
5.978122479036898
100
AcDbArc
 50
179.9999999999998
 51
359.9923824640844
  0
ARC
  5
4D
330
1F
100
AcDbEntity
  8
LINEE VISIBILI 2D
100
AcDbCircle
 10
99.88910078523135
 20
17.9999999996671
 30
0.0
 40
5.978122479036912
100
AcDbArc
 50
359.9999999999998
 51
179.9921309921516
  0
LINE
  5
4E
330
1F
100
AcDbEntity
  8
LINEE VISIBILI 2D
100
AcDbLine
 10
38.04988818088992
 20
86.67129285645642
 30
0.0
 11
41.63988531797577
 21
86.6712928564564
 31
0.0
  0
LINE
  5
4F
330
1F
100
AcDbEntity
  8
LINEE VISIBILI 2D
100
AcDbLine
 10
38.04631547785547
 20
86.50875170951761
 30
0.0
 11
38.04631547785547
 21
86.6712928564564
 31
0.0
  0
LINE
  5
50
330
1F
100
AcDbEntity
  8
LINEE VISIBILI 2D
100
AcDbLine
 10
39.1183302063157
 20
85.66853303956505
 30
0.0
 11
38.07445170495697
 21
86.45515191207912
 31
0.0
  0
LINE
  5
51
330
1F
100
AcDbEntity
  8
LINEE VISIBILI 2D
100
AcDbLine
 10
45.23345515809606
 20
86.6712928564564
 30
0.0
 11
45.23345515809606
 21
86.50875170951755
 31
0.0
  0
LINE
  5
52
330
1F
100
AcDbEntity
  8
LINEE VISIBILI 2D
100
AcDbLine
 10
45.20531893099454
 20
86.45515191207915
 30
0.0
 11
44.1614404296358
 21
85.66853303956498
 31
0.0
  0
POLYLINE
  5
53
330
1F
100
AcDbEntity
  8
LINEE VISIBILI 2D
100
AcDb2dPolyline
 66
     1
 10
0.0
 20
0.0
 30
0.0
  0
VERTEX
  5
54
330
53
100
AcDbEntity
  8
LINEE VISIBILI 2D
100
AcDbVertex
100
AcDb2dVertex
 10
106.248341957549
 20
84.73955058465803
 30
0.0
  0
VERTEX
  5
55
330
53
100
AcDbEntity
  8
LINEE VISIBILI 2D
100
AcDbVertex
100
AcDb2dVertex
 10
106.2525090695313
 20
84.73955627443132
 30
0.0
  0
VERTEX
  5
56
330
53
100
AcDbEntity
  8
LINEE VISIBILI 2D
100
AcDbVertex
100
AcDb2dVertex
 10
106.2566894805888
 20
84.73942764629686
 30
0.0
  0
VERTEX
  5
57
330
53
100
AcDbEntity
  8
LINEE VISIBILI 2D
100
AcDbVertex
100
AcDb2dVertex
 10
106.260876729362
 20
84.73916352533476
 30
0.0
  0
VERTEX
  5
58
330
53
100
AcDbEntity
  8
LINEE VISIBILI 2D
100
AcDbVertex
100
AcDb2dVertex
 10
106.2650642510811
 20
84.738763150457
 30
0.0
  0
VERTEX
  5
59
330
53
100
AcDbEntity
  8
LINEE VISIBILI 2D
100
AcDbVertex
100
AcDb2dVertex
 10
106.2692454107466
 20
84.73822618444075
 30
0.0
  0
VERTEX
  5
5A
330
53
100
AcDbEntity
  8
LINEE VISIBILI 2D
100
AcDbVertex
100
AcDb2dVertex
 10
106.2734135373925
 20
84.7375527207573
 30
0.0
  0
VERTEX
  5
5B
330
53
100
AcDbEntity
  8
LINEE VISIBILI 2D
100
AcDbVertex
100
AcDb2dVertex
 10
106.2775619590716
 20
84.73674328706782
 30
0.0
  0
VERTEX
  5
5C
330
53
100
AcDbEntity
  8
LINEE VISIBILI 2D
100
AcDbVertex
100
AcDb2dVertex
 10
106.2816840381816
 20
84.73579884530317
 30
0.0
  0
VERTEX
  5
5D
330
53
100
AcDbEntity
  8
LINEE VISIBILI 2D
100
AcDbVertex
100
AcDb2dVertex
 10
106.2857732067432
 20
84.73472078829526
 30
0.0
  0
VERTEX
  5
5E
330
53
100
AcDbEntity
  8
LINEE VISIBILI 2D
100
AcDbVertex
100
AcDb2dVertex
 10
106.2898230012366
 20
84.73351093297902
 30
0.0
  0
VERTEX
  5
5F
330
53
100
AcDbEntity
  8
LINEE VISIBILI 2D
100
AcDbVertex
100
AcDb2dVertex
 10
106.2938270966121
 20
84.73217151023293
 30
0.0
  0
VERTEX
  5
60
330
53
100
AcDbEntity
  8
LINEE VISIBILI 2D
100
AcDbVertex
100
AcDb2dVertex
 10
106.297779339096
 20
84.73070515147784
 30
0.0
  0
VERTEX
  5
61
330
53
100
AcDbEntity
  8
LINEE VISIBILI 2D
100
AcDbVertex
100
AcDb2dVertex
 10
106.301673777439
 20
84.72911487219928
 30
0.0
  0
VERTEX
  5
62
330
53
100
AcDbEntity
  8
LINEE VISIBILI 2D
100
AcDbVertex
100
AcDb2dVertex
 10
106.3055046922751
 20
84.7274040526034
 30
0.0
  0
VERTEX
  5
63
330
53
100
AcDbEntity
  8
LINEE VISIBILI 2D
100
AcDbVertex
100
AcDb2dVertex
 10
106.3092666232944
 20
84.72557641565557
 30
0.0
  0
VERTEX
  5
64
330
53
100
AcDbEntity
  8
LINEE VISIBILI 2D
100
AcDbVertex
100
AcDb2dVertex
 10
106.3129543939675
 20
84.72363600278481
 30
0.0
  0
VERTEX
  5
65
330
53
100
AcDbEntity
  8
LINEE VISIBILI 2D
100
AcDbVertex
100
AcDb2dVertex
 10
106.6783053301048
 20
84.51626663977517
 30
0.0
  0
VERTEX
  5
66
330
53
100
AcDbEntity
  8
LINEE VISIBILI 2D
100
AcDbVertex
100
AcDb2dVertex
 10
107.0369017439271
 20
84.29742429641998
 30
0.0
  0
VERTEX
  5
67
330
53
100
AcDbEntity
  8
LINEE VISIBILI 2D
100
AcDbVertex
100
AcDb2dVertex
 10
107.3972537686375
 20
84.0613145942899
 30
0.0
  0
VERTEX
  5
68
330
53
100
AcDbEntity
  8
LINEE VISIBILI 2D
100
AcDbVertex
100
AcDb2dVertex
 10
107.7502974518221
 20
83.8132158713046
 30
0.0
  0
VERTEX
  5
69
330
53
100
AcDbEntity
  8
LINEE VISIBILI 2D
100
AcDbVertex
100
AcDb2dVertex
 10
108.0954406982327
 20
83.55347594974533
 30
0.0
  0
VERTEX
  5
6A
330
53
100
AcDbEntity
  8
LINEE VISIBILI 2D
100
AcDbVertex
100
AcDb2dVertex
 10
108.4321140968641
 20
83.28248126710966
 30
0.0
  0
VERTEX
  5
6B
330
53
100
AcDbEntity
  8
LINEE VISIBILI 2D
100
AcDbVertex
100
AcDb2dVertex
 10
108.7597740379787
 20
83.0006549760162
 30
0.0
  0
VERTEX
  5
6C
330
53
100
AcDbEntity
  8
LINEE VISIBILI 2D
100
AcDbVertex
100
AcDb2dVertex
 10
109.0779056345163
 20
82.70845474555952
 30
0.0
  0
VERTEX
  5
6D
330
53
100
AcDbEntity
  8
LINEE VISIBILI 2D
100
AcDbVertex
100
AcDb2dVertex
 10
109.3860254149832
 20
82.40637028805034
 30
0.0
  0
VERTEX
  5
6E
330
53
100
AcDbEntity
  8
LINEE VISIBILI 2D
100
AcDbVertex
100
AcDb2dVertex
 10
109.683683758308
 20
82.09492063914716
 30
0.0
  0
VERTEX
  5
6F
330
53
100
AcDbEntity
  8
LINEE VISIBILI 2D
100
AcDbVertex
100
AcDb2dVertex
 10
110.2948000552688
 20
81.4123096696822
 30
0.0
  0
VERTEX
  5
70
330
53
100
AcDbEntity
  8
LINEE VISIBILI 2D
100
AcDbVertex
100
AcDb2dVertex
 10
110.8855073009401
 20
80.70741411888463
 30
0.0
  0
VERTEX
  5
71
330
53
100
AcDbEntity
  8
LINEE VISIBILI 2D
100
AcDbVertex
100
AcDb2dVertex
 10
111.4546216245344
 20
79.98115056530098
 30
0.0
  0
VERTEX
  5
72
330
53
100
AcDbEntity
  8
LINEE VISIBILI 2D
100
AcDbVertex
100
AcDb2dVertex
 10
112.0010144692843
 20
79.23451773214538
 30
0.0
  0
VERTEX
  5
73
330
53
100
AcDbEntity
  8
LINEE VISIBILI 2D
100
AcDbVertex
100
AcDb2dVertex
 10
112.5236196096097
 20
78.46859225276357
 30
0.0
  0
VERTEX
  5
74
330
53
100
AcDbEntity
  8
LINEE VISIBILI 2D
100
AcDbVertex
100
AcDb2dVertex
 10
113.0214397707906
 20
77.6845237251778
 30
0.0
  0
VERTEX
  5
75
330
53
100
AcDbEntity
  8
LINEE VISIBILI 2D
100
AcDbVertex
100
AcDb2dVertex
 10
113.4935527679354
 20
76.88352910044523
 30
0.0
  0
VERTEX
  5
76
330
53
100
AcDbEntity
  8
LINEE VISIBILI 2D
100
AcDbVertex
100
AcDb2dVertex
 10
113.9391170869606
 20
76.06688646059465
 30
0.0
  0
VERTEX
  5
77
330
53
100
AcDbEntity
  8
LINEE VISIBILI 2D
100
AcDbVertex
100
AcDb2dVertex
 10
114.3573768378629
 20
75.2359282520272
 30
0.0
  0
VERTEX
  5
78
330
53
100
AcDbEntity
  8
LINEE VISIBILI 2D
100
AcDbVertex
100
AcDb2dVertex
 10
114.7476660195932
 20
74.39203404921038
 30
0.0
  0
VERTEX
  5
79
330
53
100
AcDbEntity
  8
LINEE VISIBILI 2D
100
AcDbVertex
100
AcDb2dVertex
 10
115.1094120461387
 20
73.53662293102963
 30
0.0
  0
VERTEX
  5
7A
330
53
100
AcDbEntity
  8
LINEE VISIBILI 2D
100
AcDbVertex
100
AcDb2dVertex
 10
115.4421384947324
 20
72.67114555809206
 30
0.0
  0
VERTEX
  5
7B
330
53
100
AcDbEntity
  8
LINEE VISIBILI 2D
100
AcDbVertex
100
AcDb2dVertex
 10
115.7454670491616
 20
71.79707604346073
 30
0.0
  0
VERTEX
  5
7C
330
53
100
AcDbEntity
  8
LINEE VISIBILI 2D
100
AcDbVertex
100
AcDb2dVertex
 10
116.0191186236384
 20
70.91590371163764
 30
0.0
  0
VERTEX
  5
7D
330
53
100
AcDbEntity
  8
LINEE VISIBILI 2D
100
AcDbVertex
100
AcDb2dVertex
 10
116.2629136653245
 20
70.0291248410774
 30
0.0
  0
VERTEX
  5
7E
330
53
100
AcDbEntity
  8
LINEE VISIBILI 2D
100
AcDbVertex
100
AcDb2dVertex
 10
116.4767716460447
 20
69.13823448411581
 30
0.0
  0
VERTEX
  5
7F
330
53
100
AcDbEntity
  8
LINEE VISIBILI 2D
100
AcDbVertex
100
AcDb2dVertex
 10
116.7538824085025
 20
67.82780311589555
 30
0.0
  0
VERTEX
  5
80
330
53
100
AcDbEntity
  8
LINEE VISIBILI 2D
100
AcDbVertex
100
AcDb2dVertex
 10
117.0026025570479
 20
66.51071926100828
 30
0.0
  0
VERTEX
  5
81
330
53
100
AcDbEntity
  8
LINEE VISIBILI 2D
100
AcDbVertex
100
AcDb2dVertex
 10
117.2227047287847
 20
65.18790777946553
 30
0.0
  0
VERTEX
  5
82
330
53
100
AcDbEntity
  8
LINEE VISIBILI 2D
100
AcDbVertex
100
AcDb2dVertex
 10
117.414001839646
 20
63.86030343322197
 30
0.0
  0
VERTEX
  5
83
330
53
100
AcDbEntity
  8
LINEE VISIBILI 2D
100
AcDbVertex
100
AcDb2dVertex
 10
117.5763475995117
 20
62.52884868782419
 30
0.0
  0
VERTEX
  5
84
330
53
100
AcDbEntity
  8
LINEE VISIBILI 2D
100
AcDbVertex
100
AcDb2dVertex
 10
117.7096368830502
 20
61.19449148355002
 30
0.0
  0
VERTEX
  5
85
330
53
100
AcDbEntity
  8
LINEE VISIBILI 2D
100
AcDbVertex
100
AcDb2dVertex
 10
117.8138059543203
 20
59.85818298709875
 30
0.0
  0
VERTEX
  5
86
330
53
100
AcDbEntity
  8
LINEE VISIBILI 2D
100
AcDbVertex
100
AcDb2dVertex
 10
117.8888325441378
 20
58.5208753350209
 30
0.0
  0
VERTEX
  5
87
330
53
100
AcDbEntity
  8
LINEE VISIBILI 2D
100
AcDbVertex
100
AcDb2dVertex
 10
117.889010518291
 20
58.51586918636318
 30
0.0
  0
VERTEX
  5
88
330
53
100
AcDbEntity
  8
LINEE VISIBILI 2D
100
AcDbVertex
100
AcDb2dVertex
 10
117.8890921945569
 20
58.51082818989232
 30
0.0
  0
VERTEX
  5
89
330
53
100
AcDbEntity
  8
LINEE VISIBILI 2D
100
AcDbVertex
100
AcDb2dVertex
 10
117.8890756686677
 20
58.50575485506093
 30
0.0
  0
VERTEX
  5
8A
330
53
100
AcDbEntity
  8
LINEE VISIBILI 2D
100
AcDbVertex
100
AcDb2dVertex
 10
117.8889591126577
 20
58.50065179606775
 30
0.0
  0
VERTEX
  5
8B
330
53
100
AcDbEntity
  8
LINEE VISIBILI 2D
100
AcDbVertex
100
AcDb2dVertex
 10
117.8887407811472
 20
58.49552172958261
 30
0.0
  0
VERTEX
  5
8C
330
53
100
AcDbEntity
  8
LINEE VISIBILI 2D
100
AcDbVertex
100
AcDb2dVertex
 10
117.8884190175958
 20
58.49036747205778
 30
0.0
  0
VERTEX
  5
8D
330
53
100
AcDbEntity
  8
LINEE VISIBILI 2D
100
AcDbVertex
100
AcDb2dVertex
 10
117.8879922604943
 20
58.4851919366203
 30
0.0
  0
VERTEX
  5
8E
330
53
100
AcDbEntity
  8
LINEE VISIBILI 2D
100
AcDbVertex
100
AcDb2dVertex
 10
117.8874590494662
 20
58.47999812954153
 30
0.0
  0
VERTEX
  5
8F
330
53
100
AcDbEntity
  8
LINEE VISIBILI 2D
100
AcDbVertex
100
AcDb2dVertex
 10
117.8868180312458
 20
58.47478914628327
 30
0.0
  0
VERTEX
  5
90
330
53
100
AcDbEntity
  8
LINEE VISIBILI 2D
100
AcDbVertex
100
AcDb2dVertex
 10
117.8860679655008
 20
58.46956816712217
 30
0.0
  0
VERTEX
  5
91
330
53
100
AcDbEntity
  8
LINEE VISIBILI 2D
100
AcDbVertex
100
AcDb2dVertex
 10
117.8852077304682
 20
58.46433845235639
 30
0.0
  0
VERTEX
  5
92
330
53
100
AcDbEntity
  8
LINEE VISIBILI 2D
100
AcDbVertex
100
AcDb2dVertex
 10
117.8842363283681
 20
58.45910333710187
 30
0.0
  0
VERTEX
  5
93
330
53
100
AcDbEntity
  8
LINEE VISIBILI 2D
100
AcDbVertex
100
AcDb2dVertex
 10
117.8831528905656
 20
58.45386622568796
 30
0.0
  0
VERTEX
  5
94
330
53
100
AcDbEntity
  8
LINEE VISIBILI 2D
100
AcDbVertex
100
AcDb2dVertex
 10
117.881956682445
 20
58.44863058566514
 30
0.0
  0
VERTEX
  5
95
330
53
100
AcDbEntity
  8
LINEE VISIBILI 2D
100
AcDbVertex
100
AcDb2dVertex
 10
117.8806471079668
 20
58.44339994144045
 30
0.0
  0
VERTEX
  5
96
330
53
100
AcDbEntity
  8
LINEE VISIBILI 2D
100
AcDbVertex
100
AcDb2dVertex
 10
117.8792237138749
 20
58.43817786755955
 30
0.0
  0
VERTEX
  5
97
330
53
100
AcDbEntity
  8
LINEE VISIBILI 2D
100
AcDbVertex
100
AcDb2dVertex
 10
117.8776861935249
 20
58.43296798165627
 30
0.0
  0
VERTEX
  5
98
330
53
100
AcDbEntity
  8
LINEE VISIBILI 2D
100
AcDbVertex
100
AcDb2dVertex
 10
117.8760343903037
 20
58.42777393709434
 30
0.0
  0
VERTEX
  5
99
330
53
100
AcDbEntity
  8
LINEE VISIBILI 2D
100
AcDbVertex
100
AcDb2dVertex
 10
117.8742683006149
 20
58.4225994153279
 30
0.0
  0
VERTEX
  5
9A
330
53
100
AcDbEntity
  8
LINEE VISIBILI 2D
100
AcDbVertex
100
AcDb2dVertex
 10
117.8723880764041
 20
58.41744811801059
 30
0.0
  0
VERTEX
  5
9B
330
53
100
AcDbEntity
  8
LINEE VISIBILI 2D
100
AcDbVertex
100
AcDb2dVertex
 10
117.8703940272015
 20
58.41232375888475
 30
0.0
  0
VERTEX
  5
9C
330
53
100
AcDbEntity
  8
LINEE VISIBILI 2D
100
AcDbVertex
100
AcDb2dVertex
 10
117.8682866216621
 20
58.407230055485
 30
0.0
  0
VERTEX
  5
9D
330
53
100
AcDbEntity
  8
LINEE VISIBILI 2D
100
AcDbVertex
100
AcDb2dVertex
 10
117.8660664885857
 20
58.40217072069245
 30
0.0
  0
VERTEX
  5
9E
330
53
100
AcDbEntity
  8
LINEE VISIBILI 2D
100
AcDbVertex
100
AcDb2dVertex
 10
117.8637344174023
 20
58.39714945417723
 30
0.0
  0
VERTEX
  5
9F
330
53
100
AcDbEntity
  8
LINEE VISIBILI 2D
100
AcDbVertex
100
AcDb2dVertex
 10
117.8612913581112
 20
58.3921699337685
 30
0.0
  0
VERTEX
  5
A0
330
53
100
AcDbEntity
  8
LINEE VISIBILI 2D
100
AcDbVertex
100
AcDb2dVertex
 10
117.8587384206664
 20
58.38723580679294
 30
0.0
  0
VERTEX
  5
A1
330
53
100
AcDbEntity
  8
LINEE VISIBILI 2D
100
AcDbVertex
100
AcDb2dVertex
 10
117.8560768738035
 20
58.38235068142266
 30
0.0
  0
VERTEX
  5
A2
330
53
100
AcDbEntity
  8
LINEE VISIBILI 2D
100
AcDbVertex
100
AcDb2dVertex
 10
117.8533081433067
 20
58.37751811807485
 30
0.0
  0
VERTEX
  5
A3
330
53
100
AcDbEntity
  8
LINEE VISIBILI 2D
100
AcDbVertex
100
AcDb2dVertex
 10
117.8504338097184
 20
58.37274162090491
 30
0.0
  0
VERTEX
  5
A4
330
53
100
AcDbEntity
  8
LINEE VISIBILI 2D
100
AcDbVertex
100
AcDb2dVertex
 10
117.847455605498
 20
58.36802462943552
 30
0.0
  0
VERTEX
  5
A5
330
53
100
AcDbEntity
  8
LINEE VISIBILI 2D
100
AcDbVertex
100
AcDb2dVertex
 10
117.8443754116393
 20
58.36337051036282
 30
0.0
  0
VERTEX
  5
A6
330
53
100
AcDbEntity
  8
LINEE VISIBILI 2D
100
AcDbVertex
100
AcDb2dVertex
 10
117.8411952537601
 20
58.3587825495807
 30
0.0
  0
VERTEX
  5
A7
330
53
100
AcDbEntity
  8
LINEE VISIBILI 2D
100
AcDbVertex
100
AcDb2dVertex
 10
117.8379172976804
 20
58.35426394446247
 30
0.0
  0
VERTEX
  5
A8
330
53
100
AcDbEntity
  8
LINEE VISIBILI 2D
100
AcDbVertex
100
AcDb2dVertex
 10
117.8345438445097
 20
58.34981779643798
 30
0.0
  0
VERTEX
  5
A9
330
53
100
AcDbEntity
  8
LINEE VISIBILI 2D
100
AcDbVertex
100
AcDb2dVertex
 10
117.8310773252669
 20
58.3454471039024
 30
0.0
  0
VERTEX
  5
AA
330
53
100
AcDbEntity
  8
LINEE VISIBILI 2D
100
AcDbVertex
100
AcDb2dVertex
 10
117.8275202950586
 20
58.34115475549059
 30
0.0
  0
VERTEX
  5
AB
330
53
100
AcDbEntity
  8
LINEE VISIBILI 2D
100
AcDbVertex
100
AcDb2dVertex
 10
117.8238754268454
 20
58.33694352374881
 30
0.0
  0
VERTEX
  5
AC
330
53
100
AcDbEntity
  8
LINEE VISIBILI 2D
100
AcDbVertex
100
AcDb2dVertex
 10
117.8201455048286
 20
58.33281605923244
 30
0.0
  0
VERTEX
  5
AD
330
53
100
AcDbEntity
  8
LINEE VISIBILI 2D
100
AcDbVertex
100
AcDb2dVertex
 10
117.8163334174891
 20
58.32877488505599
 30
0.0
  0
VERTEX
  5
AE
330
53
100
AcDbEntity
  8
LINEE VISIBILI 2D
100
AcDbVertex
100
AcDb2dVertex
 10
117.8124421503177
 20
58.32482239191838
 30
0.0
  0
VERTEX
  5
AF
330
53
100
AcDbEntity
  8
LINEE VISIBILI 2D
100
AcDbVertex
100
AcDb2dVertex
 10
117.8084747782716
 20
58.32096083362288
 30
0.0
  0
VERTEX
  5
B0
330
53
100
AcDbEntity
  8
LINEE VISIBILI 2D
100
AcDbVertex
100
AcDb2dVertex
 10
117.8044344579971
 20
58.31719232310827
 30
0.0
  0
VERTEX
  5
B1
330
53
100
AcDbEntity
  8
LINEE VISIBILI 2D
100
AcDbVertex
100
AcDb2dVertex
 10
117.8003244198589
 20
58.31351882900396
 30
0.0
  0
VERTEX
  5
B2
330
53
100
AcDbEntity
  8
LINEE VISIBILI 2D
100
AcDbVertex
100
AcDb2dVertex
 10
117.7961479598159
 20
58.30994217271873
 30
0.0
  0
VERTEX
  5
B3
330
53
100
AcDbEntity
  8
LINEE VISIBILI 2D
100
AcDbVertex
100
AcDb2dVertex
 10
117.7919084311851
 20
58.30646402606824
 30
0.0
  0
VERTEX
  5
B4
330
53
100
AcDbEntity
  8
LINEE VISIBILI 2D
100
AcDbVertex
100
AcDb2dVertex
 10
117.7876092363331
 20
58.30308590944431
 30
0.0
  0
VERTEX
  5
B5
330
53
100
AcDbEntity
  8
LINEE VISIBILI 2D
100
AcDbVertex
100
AcDb2dVertex
 10
117.7832538183379
 20
58.29980919052439
 30
0.0
  0
VERTEX
  5
B6
330
53
100
AcDbEntity
  8
LINEE VISIBILI 2D
100
AcDbVertex
100
AcDb2dVertex
 10
117.7788456526586
 20
58.29663508351683
 30
0.0
  0
VERTEX
  5
B7
330
53
100
AcDbEntity
  8
LINEE VISIBILI 2D
100
AcDbVertex
100
AcDb2dVertex
 10
117.7743882388532
 20
58.29356464893419
 30
0.0
  0
VERTEX
  5
B8
330
53
100
AcDbEntity
  8
LINEE VISIBILI 2D
100
AcDbVertex
100
AcDb2dVertex
 10
117.7698850923823
 20
58.2905987938837
 30
0.0
  0
VERTEX
  5
B9
330
53
100
AcDbEntity
  8
LINEE VISIBILI 2D
100
AcDbVertex
100
AcDb2dVertex
 10
117.7653397365331
 20
58.28773827286108
 30
0.0
  0
VERTEX
  5
BA
330
53
100
AcDbEntity
  8
LINEE VISIBILI 2D
100
AcDbVertex
100
AcDb2dVertex
 10
117.7607556945004
 20
58.28498368903132
 30
0.0
  0
VERTEX
  5
BB
330
53
100
AcDbEntity
  8
LINEE VISIBILI 2D
100
AcDbVertex
100
AcDb2dVertex
 10
117.7561364816543
 20
58.28233549597734
 30
0.0
  0
VERTEX
  5
BC
330
53
100
AcDbEntity
  8
LINEE VISIBILI 2D
100
AcDbVertex
100
AcDb2dVertex
 10
117.7514855980278
 20
58.27979399989522
 30
0.0
  0
VERTEX
  5
BD
330
53
100
AcDbEntity
  8
LINEE VISIBILI 2D
100
AcDbVertex
100
AcDb2dVertex
 10
117.7468065210485
 20
58.27735936221289
 30
0.0
  0
VERTEX
  5
BE
330
53
100
AcDbEntity
  8
LINEE VISIBILI 2D
100
AcDbVertex
100
AcDb2dVertex
 10
117.7421026985432
 20
58.27503160260706
 30
0.0
  0
VERTEX
  5
BF
330
53
100
AcDbEntity
  8
LINEE VISIBILI 2D
100
AcDbVertex
100
AcDb2dVertex
 10
117.7373775420361
 20
58.27281060239203
 30
0.0
  0
VERTEX
  5
C0
330
53
100
AcDbEntity
  8
LINEE VISIBILI 2D
100
AcDbVertex
100
AcDb2dVertex
 10
117.7326344203613
 20
58.27069610825243
 30
0.0
  0
VERTEX
  5
C1
330
53
100
AcDbEntity
  8
LINEE VISIBILI 2D
100
AcDbVertex
100
AcDb2dVertex
 10
117.7278766536078
 20
58.26868773629138
 30
0.0
  0
VERTEX
  5
C2
330
53
100
AcDbEntity
  8
LINEE VISIBILI 2D
100
AcDbVertex
100
AcDb2dVertex
 10
117.7231075074104
 20
58.26678497636451
 30
0.0
  0
VERTEX
  5
C3
330
53
100
AcDbEntity
  8
LINEE VISIBILI 2D
100
AcDbVertex
100
AcDb2dVertex
 10
117.718330187601
 20
58.26498719666999
 30
0.0
  0
VERTEX
  5
C4
330
53
100
AcDbEntity
  8
LINEE VISIBILI 2D
100
AcDbVertex
100
AcDb2dVertex
 10
117.7135478352269
 20
58.26329364856452
 30
0.0
  0
VERTEX
  5
C5
330
53
100
AcDbEntity
  8
LINEE VISIBILI 2D
100
AcDbVertex
100
AcDb2dVertex
 10
117.7087635219455
 20
58.26170347157522
 30
0.0
  0
VERTEX
  5
C6
330
53
100
AcDbEntity
  8
LINEE VISIBILI 2D
100
AcDbVertex
100
AcDb2dVertex
 10
117.7039802457993
 20
58.26021569857783
 30
0.0
  0
VERTEX
  5
C7
330
53
100
AcDbEntity
  8
LINEE VISIBILI 2D
100
AcDbVertex
100
AcDb2dVertex
 10
117.6994390273076
 20
58.25889598951718
 30
0.0
  0
VERTEX
  5
C8
330
53
100
AcDbEntity
  8
LINEE VISIBILI 2D
100
AcDbVertex
100
AcDb2dVertex
 10
117.6948692173381
 20
58.25765772775784
 30
0.0
  0
VERTEX
  5
C9
330
53
100
AcDbEntity
  8
LINEE VISIBILI 2D
100
AcDbVertex
100
AcDb2dVertex
 10
117.6902730088151
 20
58.25650179751412
 30
0.0
  0
VERTEX
  5
CA
330
53
100
AcDbEntity
  8
LINEE VISIBILI 2D
100
AcDbVertex
100
AcDb2dVertex
 10
117.6856526298749
 20
58.25542900411269
 30
0.0
  0
VERTEX
  5
CB
330
53
100
AcDbEntity
  8
LINEE VISIBILI 2D
100
AcDbVertex
100
AcDb2dVertex
 10
117.6810103403071
 20
58.25444007228568
 30
0.0
  0
VERTEX
  5
CC
330
53
100
AcDbEntity
  8
LINEE VISIBILI 2D
100
AcDbVertex
100
AcDb2dVertex
 10
117.676348427899
 20
58.25353564465729
 30
0.0
  0
VERTEX
  5
CD
330
53
100
AcDbEntity
  8
LINEE VISIBILI 2D
100
AcDbVertex
100
AcDb2dVertex
 10
117.6716692046951
 20
58.25271628043019
 30
0.0
  0
VERTEX
  5
CE
330
53
100
AcDbEntity
  8
LINEE VISIBILI 2D
100
AcDbVertex
100
AcDb2dVertex
 10
117.6669750031851
 20
58.25198245427676
 30
0.0
  0
VERTEX
  5
CF
330
53
100
AcDbEntity
  8
LINEE VISIBILI 2D
100
AcDbVertex
100
AcDb2dVertex
 10
117.6622681724321
 20
58.25133455544026
 30
0.0
  0
VERTEX
  5
D0
330
53
100
AcDbEntity
  8
LINEE VISIBILI 2D
100
AcDbVertex
100
AcDb2dVertex
 10
117.6575510741561
 20
58.25077288704892
 30
0.0
  0
VERTEX
  5
D1
330
53
100
AcDbEntity
  8
LINEE VISIBILI 2D
100
AcDbVertex
100
AcDb2dVertex
 10
117.6528260787852
 20
58.25029766564584
 30
0.0
  0
VERTEX
  5
D2
330
53
100
AcDbEntity
  8
LINEE VISIBILI 2D
100
AcDbVertex
100
AcDb2dVertex
 10
117.6480955614901
 20
58.24990902093595
 30
0.0
  0
VERTEX
  5
D3
330
53
100
AcDbEntity
  8
LINEE VISIBILI 2D
100
AcDbVertex
100
AcDb2dVertex
 10
117.6433618982131
 20
58.24960699575078
 30
0.0
  0
VERTEX
  5
D4
330
53
100
AcDbEntity
  8
LINEE VISIBILI 2D
100
AcDbVertex
100
AcDb2dVertex
 10
117.6386274617082
 20
58.2493915462304
 30
0.0
  0
VERTEX
  5
D5
330
53
100
AcDbEntity
  8
LINEE VISIBILI 2D
100
AcDbVertex
100
AcDb2dVertex
 10
117.6338946176047
 20
58.24926254222086
 30
0.0
  0
VERTEX
  5
D6
330
53
100
AcDbEntity
  8
LINEE VISIBILI 2D
100
AcDbVertex
100
AcDb2dVertex
 10
117.6291657205081
 20
58.24921976788506
 30
0.0
  0
SEQEND
  5
D7
330
53
100
AcDbEntity
  8
LINEE VISIBILI 2D
  0
POLYLINE
  5
D8
330
1F
100
AcDbEntity
  8
LINEE VISIBILI 2D
100
AcDb2dPolyline
 66
     1
 10
0.0
 20
0.0
 30
0.0
  0
VERTEX
  5
D9
330
D8
100
AcDbEntity
  8
LINEE VISIBILI 2D
100
AcDbVertex
100
AcDb2dVertex
 10
48.001387469539
 20
84.73957025396443
 30
0.0
  0
VERTEX
  5
DA
330
D8
100
AcDbEntity
  8
LINEE VISIBILI 2D
100
AcDbVertex
100
AcDb2dVertex
 10
48.00356422383899
 20
84.73986058381831
 30
0.0
  0
VERTEX
  5
DB
330
D8
100
AcDbEntity
  8
LINEE VISIBILI 2D
100
AcDbVertex
100
AcDb2dVertex
 10
48.0057167379293
 20
84.74007571159828
 30
0.0
  0
VERTEX
  5
DC
330
D8
100
AcDbEntity
  8
LINEE VISIBILI 2D
100
AcDbVertex
100
AcDb2dVertex
 10
48.00784578006471
 20
84.74021803757356
 30
0.0
  0
VERTEX
  5
DD
330
D8
100
AcDbEntity
  8
LINEE VISIBILI 2D
100
AcDbVertex
100
AcDb2dVertex
 10
48.00995211850011
 20
84.74028996201328
 30
0.0
  0
VERTEX
  5
DE
330
D8
100
AcDbEntity
  8
LINEE VISIBILI 2D
100
AcDbVertex
100
AcDb2dVertex
 10
48.01203652149024
 20
84.74029388518674
 30
0.0
  0
VERTEX
  5
DF
330
D8
100
AcDbEntity
  8
LINEE VISIBILI 2D
100
AcDbVertex
100
AcDb2dVertex
 10
48.01409975729001
 20
84.74023220736314
 30
0.0
  0
VERTEX
  5
E0
330
D8
100
AcDbEntity
  8
LINEE VISIBILI 2D
100
AcDbVertex
100
AcDb2dVertex
 10
48.01614259415419
 20
84.74010732881167
 30
0.0
  0
VERTEX
  5
E1
330
D8
100
AcDbEntity
  8
LINEE VISIBILI 2D
100
AcDbVertex
100
AcDb2dVertex
 10
48.01816580033761
 20
84.73992164980162
 30
0.0
  0
VERTEX
  5
E2
330
D8
100
AcDbEntity
  8
LINEE VISIBILI 2D
100
AcDbVertex
100
AcDb2dVertex
 10
48.02017014409509
 20
84.73967757060213
 30
0.0
  0
VERTEX
  5
E3
330
D8
100
AcDbEntity
  8
LINEE VISIBILI 2D
100
AcDbVertex
100
AcDb2dVertex
 10
48.02215639368143
 20
84.73937749148246
 30
0.0
  0
VERTEX
  5
E4
330
D8
100
AcDbEntity
  8
LINEE VISIBILI 2D
100
AcDbVertex
100
AcDb2dVertex
 10
48.02412531735146
 20
84.73902381271179
 30
0.0
  0
VERTEX
  5
E5
330
D8
100
AcDbEntity
  8
LINEE VISIBILI 2D
100
AcDbVertex
100
AcDb2dVertex
 10
48.02607768336003
 20
84.73861893455938
 30
0.0
  0
VERTEX
  5
E6
330
D8
100
AcDbEntity
  8
LINEE VISIBILI 2D
100
AcDbVertex
100
AcDb2dVertex
 10
48.02801425996194
 20
84.73816525729443
 30
0.0
  0
VERTEX
  5
E7
330
D8
100
AcDbEntity
  8
LINEE VISIBILI 2D
100
AcDbVertex
100
AcDb2dVertex
 10
48.02993581541199
 20
84.73766518118614
 30
0.0
  0
VERTEX
  5
E8
330
D8
100
AcDbEntity
  8
LINEE VISIBILI 2D
100
AcDbVertex
100
AcDb2dVertex
 10
48.03184311796505
 20
84.73712110650378
 30
0.0
  0
VERTEX
  5
E9
330
D8
100
AcDbEntity
  8
LINEE VISIBILI 2D
100
AcDbVertex
100
AcDb2dVertex
 10
48.03373693587594
 20
84.7365354335165
 30
0.0
  0
VERTEX
  5
EA
330
D8
100
AcDbEntity
  8
LINEE VISIBILI 2D
100
AcDbVertex
100
AcDb2dVertex
 10
48.03561803739942
 20
84.73591056249357
 30
0.0
  0
VERTEX
  5
EB
330
D8
100
AcDbEntity
  8
LINEE VISIBILI 2D
100
AcDbVertex
100
AcDb2dVertex
 10
48.03748719079036
 20
84.73524889370415
 30
0.0
  0
VERTEX
  5
EC
330
D8
100
AcDbEntity
  8
LINEE VISIBILI 2D
100
AcDbVertex
100
AcDb2dVertex
 10
48.04119272619386
 20
84.73382476390289
 30
0.0
  0
VERTEX
  5
ED
330
D8
100
AcDbEntity
  8
LINEE VISIBILI 2D
100
AcDbVertex
100
AcDb2dVertex
 10
48.044859688125
 20
84.73228224626645
 30
0.0
  0
VERTEX
  5
EE
330
D8
100
AcDbEntity
  8
LINEE VISIBILI 2D
100
AcDbVertex
100
AcDb2dVertex
 10
48.0484942226224
 20
84.7306405429485
 30
0.0
  0
VERTEX
  5
EF
330
D8
100
AcDbEntity
  8
LINEE VISIBILI 2D
100
AcDbVertex
100
AcDb2dVertex
 10
48.05569059347005
 20
84.72713638788328
 30
0.0
  0
VERTEX
  5
F0
330
D8
100
AcDbEntity
  8
LINEE VISIBILI 2D
100
AcDbVertex
100
AcDb2dVertex
 10
48.16379561581988
 20
84.66949042104505
 30
0.0
  0
VERTEX
  5
F1
330
D8
100
AcDbEntity
  8
LINEE VISIBILI 2D
100
AcDbVertex
100
AcDb2dVertex
 10
48.26364618678457
 20
84.61345504234576
 30
0.0
  0
VERTEX
  5
F2
330
D8
100
AcDbEntity
  8
LINEE VISIBILI 2D
100
AcDbVertex
100
AcDb2dVertex
 10
48.46106603633865
 20
84.4972853217325
 30
0.0
  0
VERTEX
  5
F3
330
D8
100
AcDbEntity
  8
LINEE VISIBILI 2D
100
AcDbVertex
100
AcDb2dVertex
 10
48.8281729637124
 20
84.27123274829762
 30
0.0
  0
VERTEX
  5
F4
330
D8
100
AcDbEntity
  8
LINEE VISIBILI 2D
100
AcDbVertex
100
AcDb2dVertex
 10
49.0092395928599
 20
84.15436612441685
 30
0.0
  0
VERTEX
  5
F5
330
D8
100
AcDbEntity
  8
LINEE VISIBILI 2D
100
AcDbVertex
100
AcDb2dVertex
 10
49.1882248056192
 20
84.03430689518743
 30
0.0
  0
VERTEX
  5
F6
330
D8
100
AcDbEntity
  8
LINEE VISIBILI 2D
100
AcDbVertex
100
AcDb2dVertex
 10
49.37555478918671
 20
83.90331797525678
 30
0.0
  0
VERTEX
  5
F7
330
D8
100
AcDbEntity
  8
LINEE VISIBILI 2D
100
AcDbVertex
100
AcDb2dVertex
 10
49.63963623903098
 20
83.71092962202142
 30
0.0
  0
VERTEX
  5
F8
330
D8
100
AcDbEntity
  8
LINEE VISIBILI 2D
100
AcDbVertex
100
AcDb2dVertex
 10
49.89923995469482
 20
83.51256271426668
 30
0.0
  0
VERTEX
  5
F9
330
D8
100
AcDbEntity
  8
LINEE VISIBILI 2D
100
AcDbVertex
100
AcDb2dVertex
 10
50.15382012774347
 20
83.30793017051201
 30
0.0
  0
VERTEX
  5
FA
330
D8
100
AcDbEntity
  8
LINEE VISIBILI 2D
100
AcDbVertex
100
AcDb2dVertex
 10
50.40283094974211
 20
83.0967449092769
 30
0.0
  0
VERTEX
  5
FB
330
D8
100
AcDbEntity
  8
LINEE VISIBILI 2D
100
AcDbVertex
100
AcDb2dVertex
 10
50.58723457723121
 20
82.93253364527924
 30
0.0
  0
VERTEX
  5
FC
330
D8
100
AcDbEntity
  8
LINEE VISIBILI 2D
100
AcDbVertex
100
AcDb2dVertex
 10
50.76833647429845
 20
82.76469469426401
 30
0.0
  0
VERTEX
  5
FD
330
D8
100
AcDbEntity
  8
LINEE VISIBILI 2D
100
AcDbVertex
100
AcDb2dVertex
 10
51.12142496475144
 20
82.41927839843527
 30
0.0
  0
VERTEX
  5
FE
330
D8
100
AcDbEntity
  8
LINEE VISIBILI 2D
100
AcDbVertex
100
AcDb2dVertex
 10
51.4636761962692
 20
82.06278535629956
 30
0.0
  0
VERTEX
  5
FF
330
D8
100
AcDbEntity
  8
LINEE VISIBILI 2D
100
AcDbVertex
100
AcDb2dVertex
 10
51.79666994401973
 20
81.69750490236571
 30
0.0
  0
VERTEX
  5
100
330
D8
100
AcDbEntity
  8
LINEE VISIBILI 2D
100
AcDbVertex
100
AcDb2dVertex
 10
52.21417530061333
 20
81.21706804283608
 30
0.0
  0
VERTEX
  5
101
330
D8
100
AcDbEntity
  8
LINEE VISIBILI 2D
100
AcDbVertex
100
AcDb2dVertex
 10
52.62012376828906
 20
80.72696595949917
 30
0.0
  0
VERTEX
  5
102
330
D8
100
AcDbEntity
  8
LINEE VISIBILI 2D
100
AcDbVertex
100
AcDb2dVertex
 10
53.21397955590993
 20
79.9689480444136
 30
0.0
  0
VERTEX
  5
103
330
D8
100
AcDbEntity
  8
LINEE VISIBILI 2D
100
AcDbVertex
100
AcDb2dVertex
 10
53.78221728460477
 20
79.19148151374284
 30
0.0
  0
VERTEX
  5
104
330
D8
100
AcDbEntity
  8
LINEE VISIBILI 2D
100
AcDbVertex
100
AcDb2dVertex
 10
54.19188280712746
 20
78.59376503521842
 30
0.0
  0
VERTEX
  5
105
330
D8
100
AcDbEntity
  8
LINEE VISIBILI 2D
100
AcDbVertex
100
AcDb2dVertex
 10
54.5857912905457
 20
77.98555370267476
 30
0.0
  0
VERTEX
  5
106
330
D8
100
AcDbEntity
  8
LINEE VISIBILI 2D
100
AcDbVertex
100
AcDb2dVertex
 10
54.96375243293645
 20
77.36729920205339
 30
0.0
  0
VERTEX
  5
107
330
D8
100
AcDbEntity
  8
LINEE VISIBILI 2D
100
AcDbVertex
100
AcDb2dVertex
 10
55.32557593237678
 20
76.73945321929583
 30
0.0
  0
VERTEX
  5
108
330
D8
100
AcDbEntity
  8
LINEE VISIBILI 2D
100
AcDbVertex
100
AcDb2dVertex
 10
55.67107148694365
 20
76.10246744034359
 30
0.0
  0
VERTEX
  5
109
330
D8
100
AcDbEntity
  8
LINEE VISIBILI 2D
100
AcDbVertex
100
AcDb2dVertex
 10
56.00004879471408
 20
75.45679355113822
 30
0.0
  0
VERTEX
  5
10A
330
D8
100
AcDbEntity
  8
LINEE VISIBILI 2D
100
AcDbVertex
100
AcDb2dVertex
 10
56.31231755376507
 20
74.80288323762122
 30
0.0
  0
VERTEX
  5
10B
330
D8
100
AcDbEntity
  8
LINEE VISIBILI 2D
100
AcDbVertex
100
AcDb2dVertex
 10
56.60768746217366
 20
74.14118818573414
 30
0.0
  0
VERTEX
  5
10C
330
D8
100
AcDbEntity
  8
LINEE VISIBILI 2D
100
AcDbVertex
100
AcDb2dVertex
 10
56.79928661818457
 20
73.68579932686575
 30
0.0
  0
VERTEX
  5
10D
330
D8
100
AcDbEntity
  8
LINEE VISIBILI 2D
100
AcDbVertex
100
AcDb2dVertex
 10
56.98286775415039
 20
73.22712619889549
 30
0.0
  0
VERTEX
  5
10E
330
D8
100
AcDbEntity
  8
LINEE VISIBILI 2D
100
AcDbVertex
100
AcDb2dVertex
 10
57.15835712514797
 20
72.76529346629812
 30
0.0
  0
VERTEX
  5
10F
330
D8
100
AcDbEntity
  8
LINEE VISIBILI 2D
100
AcDbVertex
100
AcDb2dVertex
 10
57.32568098625416
 20
72.30042579354833
 30
0.0
  0
VERTEX
  5
110
330
D8
100
AcDbEntity
  8
LINEE VISIBILI 2D
100
AcDbVertex
100
AcDb2dVertex
 10
57.61341712303482
 20
71.43290869098192
 30
0.0
  0
VERTEX
  5
111
330
D8
100
AcDbEntity
  8
LINEE VISIBILI 2D
100
AcDbVertex
100
AcDb2dVertex
 10
57.87234208683765
 20
70.55638498048944
 30
0.0
  0
VERTEX
  5
112
330
D8
100
AcDbEntity
  8
LINEE VISIBILI 2D
100
AcDbVertex
100
AcDb2dVertex
 10
58.11057369059156
 20
69.63926012373577
 30
0.0
  0
VERTEX
  5
113
330
D8
100
AcDbEntity
  8
LINEE VISIBILI 2D
100
AcDbVertex
100
AcDb2dVertex
 10
58.32162561727338
 20
68.71542408685137
 30
0.0
  0
VERTEX
  5
114
330
D8
100
AcDbEntity
  8
LINEE VISIBILI 2D
100
AcDbVertex
100
AcDb2dVertex
 10
58.45435924916023
 20
68.0756986626243
 30
0.0
  0
VERTEX
  5
115
330
D8
100
AcDbEntity
  8
LINEE VISIBILI 2D
100
AcDbVertex
100
AcDb2dVertex
 10
58.79404421836409
 20
66.27816458915309
 30
0.0
  0
VERTEX
  5
116
330
D8
100
AcDbEntity
  8
LINEE VISIBILI 2D
100
AcDbVertex
100
AcDb2dVertex
 10
59.03603447064577
 20
64.77889212498353
 30
0.0
  0
VERTEX
  5
117
330
D8
100
AcDbEntity
  8
LINEE VISIBILI 2D
100
AcDbVertex
100
AcDb2dVertex
 10
59.2401026815389
 20
63.27393916650212
 30
0.0
  0
VERTEX
  5
118
330
D8
100
AcDbEntity
  8
LINEE VISIBILI 2D
100
AcDbVertex
100
AcDb2dVertex
 10
59.40683625660839
 20
61.76436932906754
 30
0.0
  0
VERTEX
  5
119
330
D8
100
AcDbEntity
  8
LINEE VISIBILI 2D
100
AcDbVertex
100
AcDb2dVertex
 10
59.53682260141909
 20
60.25124622803851
 30
0.0
  0
VERTEX
  5
11A
330
D8
100
AcDbEntity
  8
LINEE VISIBILI 2D
100
AcDbVertex
100
AcDb2dVertex
 10
59.63931025974915
 20
58.5276602175276
 30
0.0
  0
VERTEX
  5
11B
330
D8
100
AcDbEntity
  8
LINEE VISIBILI 2D
100
AcDbVertex
100
AcDb2dVertex
 10
59.63964154728851
 20
58.51953628501096
 30
0.0
  0
VERTEX
  5
11C
330
D8
100
AcDbEntity
  8
LINEE VISIBILI 2D
100
AcDbVertex
100
AcDb2dVertex
 10
59.63980182592351
 20
58.51111543444733
 30
0.0
  0
VERTEX
  5
11D
330
D8
100
AcDbEntity
  8
LINEE VISIBILI 2D
100
AcDbVertex
100
AcDb2dVertex
 10
59.63972658448776
 20
58.50269236368103
 30
0.0
  0
VERTEX
  5
11E
330
D8
100
AcDbEntity
  8
LINEE VISIBILI 2D
100
AcDbVertex
100
AcDb2dVertex
 10
59.63939884764719
 20
58.49427707103141
 30
0.0
  0
VERTEX
  5
11F
330
D8
100
AcDbEntity
  8
LINEE VISIBILI 2D
100
AcDbVertex
100
AcDb2dVertex
 10
59.6388016400677
 20
58.48587955481789
 30
0.0
  0
VERTEX
  5
120
330
D8
100
AcDbEntity
  8
LINEE VISIBILI 2D
100
AcDbVertex
100
AcDb2dVertex
 10
59.63820359659815
 20
58.47991216770728
 30
0.0
  0
VERTEX
  5
121
330
D8
100
AcDbEntity
  8
LINEE VISIBILI 2D
100
AcDbVertex
100
AcDb2dVertex
 10
59.63746161652006
 20
58.47396175203119
 30
0.0
  0
VERTEX
  5
122
330
D8
100
AcDbEntity
  8
LINEE VISIBILI 2D
100
AcDbVertex
100
AcDb2dVertex
 10
59.63657719851818
 20
58.46803117733869
 30
0.0
  0
VERTEX
  5
123
330
D8
100
AcDbEntity
  8
LINEE VISIBILI 2D
100
AcDbVertex
100
AcDb2dVertex
 10
59.63555184127725
 20
58.46212331317884
 30
0.0
  0
VERTEX
  5
124
330
D8
100
AcDbEntity
  8
LINEE VISIBILI 2D
100
AcDbVertex
100
AcDb2dVertex
 10
59.63438704348201
 20
58.45624102910072
 30
0.0
  0
VERTEX
  5
125
330
D8
100
AcDbEntity
  8
LINEE VISIBILI 2D
100
AcDbVertex
100
AcDb2dVertex
 10
59.63308430381724
 20
58.45038719465338
 30
0.0
  0
VERTEX
  5
126
330
D8
100
AcDbEntity
  8
LINEE VISIBILI 2D
100
AcDbVertex
100
AcDb2dVertex
 10
59.63164512096762
 20
58.4445646793859
 30
0.0
  0
VERTEX
  5
127
330
D8
100
AcDbEntity
  8
LINEE VISIBILI 2D
100
AcDbVertex
100
AcDb2dVertex
 10
59.63007099361798
 20
58.43877635284733
 30
0.0
  0
VERTEX
  5
128
330
D8
100
AcDbEntity
  8
LINEE VISIBILI 2D
100
AcDbVertex
100
AcDb2dVertex
 10
59.62836342045304
 20
58.43302508458675
 30
0.0
  0
VERTEX
  5
129
330
D8
100
AcDbEntity
  8
LINEE VISIBILI 2D
100
AcDbVertex
100
AcDb2dVertex
 10
59.62652390015748
 20
58.42731374415323
 30
0.0
  0
VERTEX
  5
12A
330
D8
100
AcDbEntity
  8
LINEE VISIBILI 2D
100
AcDbVertex
100
AcDb2dVertex
 10
59.62455393141613
 20
58.42164520109583
 30
0.0
  0
VERTEX
  5
12B
330
D8
100
AcDbEntity
  8
LINEE VISIBILI 2D
100
AcDbVertex
100
AcDb2dVertex
 10
59.62245501291372
 20
58.41602232496361
 30
0.0
  0
VERTEX
  5
12C
330
D8
100
AcDbEntity
  8
LINEE VISIBILI 2D
100
AcDbVertex
100
AcDb2dVertex
 10
59.620228643335
 20
58.41044798530564
 30
0.0
  0
VERTEX
  5
12D
330
D8
100
AcDbEntity
  8
LINEE VISIBILI 2D
100
AcDbVertex
100
AcDb2dVertex
 10
59.61787632136472
 20
58.404925051671
 30
0.0
  0
VERTEX
  5
12E
330
D8
100
AcDbEntity
  8
LINEE VISIBILI 2D
100
AcDbVertex
100
AcDb2dVertex
 10
59.61539954568764
 20
58.39945639360876
 30
0.0
  0
VERTEX
  5
12F
330
D8
100
AcDbEntity
  8
LINEE VISIBILI 2D
100
AcDbVertex
100
AcDb2dVertex
 10
59.61279981498845
 20
58.39404488066796
 30
0.0
  0
VERTEX
  5
130
330
D8
100
AcDbEntity
  8
LINEE VISIBILI 2D
100
AcDbVertex
100
AcDb2dVertex
 10
59.61007862795194
 20
58.38869338239766
 30
0.0
  0
VERTEX
  5
131
330
D8
100
AcDbEntity
  8
LINEE VISIBILI 2D
100
AcDbVertex
100
AcDb2dVertex
 10
59.60723748326288
 20
58.38340476834697
 30
0.0
  0
VERTEX
  5
132
330
D8
100
AcDbEntity
  8
LINEE VISIBILI 2D
100
AcDbVertex
100
AcDb2dVertex
 10
59.604277879606
 20
58.37818190806492
 30
0.0
  0
VERTEX
  5
133
330
D8
100
AcDbEntity
  8
LINEE VISIBILI 2D
100
AcDbVertex
100
AcDb2dVertex
 10
59.60120131566603
 20
58.37302767110059
 30
0.0
  0
VERTEX
  5
134
330
D8
100
AcDbEntity
  8
LINEE VISIBILI 2D
100
AcDbVertex
100
AcDb2dVertex
 10
59.59800929012778
 20
58.36794492700303
 30
0.0
  0
VERTEX
  5
135
330
D8
100
AcDbEntity
  8
LINEE VISIBILI 2D
100
AcDbVertex
100
AcDb2dVertex
 10
59.59470330167593
 20
58.36293654532134
 30
0.0
  0
VERTEX
  5
136
330
D8
100
AcDbEntity
  8
LINEE VISIBILI 2D
100
AcDbVertex
100
AcDb2dVertex
 10
59.59128484899526
 20
58.35800539560457
 30
0.0
  0
VERTEX
  5
137
330
D8
100
AcDbEntity
  8
LINEE VISIBILI 2D
100
AcDbVertex
100
AcDb2dVertex
 10
59.58775543077047
 20
58.35315434740178
 30
0.0
  0
VERTEX
  5
138
330
D8
100
AcDbEntity
  8
LINEE VISIBILI 2D
100
AcDbVertex
100
AcDb2dVertex
 10
59.58411654568638
 20
58.34838627026203
 30
0.0
  0
VERTEX
  5
139
330
D8
100
AcDbEntity
  8
LINEE VISIBILI 2D
100
AcDbVertex
100
AcDb2dVertex
 10
59.58036969242772
 20
58.34370403373443
 30
0.0
  0
VERTEX
  5
13A
330
D8
100
AcDbEntity
  8
LINEE VISIBILI 2D
100
AcDbVertex
100
AcDb2dVertex
 10
59.57651636967921
 20
58.33911050736798
 30
0.0
  0
VERTEX
  5
13B
330
D8
100
AcDbEntity
  8
LINEE VISIBILI 2D
100
AcDbVertex
100
AcDb2dVertex
 10
59.57255807612563
 20
58.33460856071179
 30
0.0
  0
VERTEX
  5
13C
330
D8
100
AcDbEntity
  8
LINEE VISIBILI 2D
100
AcDbVertex
100
AcDb2dVertex
 10
59.56849631045171
 20
58.33020106331492
 30
0.0
  0
VERTEX
  5
13D
330
D8
100
AcDbEntity
  8
LINEE VISIBILI 2D
100
AcDbVertex
100
AcDb2dVertex
 10
59.56433257134222
 20
58.32589088472641
 30
0.0
  0
VERTEX
  5
13E
330
D8
100
AcDbEntity
  8
LINEE VISIBILI 2D
100
AcDbVertex
100
AcDb2dVertex
 10
59.56006835748187
 20
58.32168089449537
 30
0.0
  0
VERTEX
  5
13F
330
D8
100
AcDbEntity
  8
LINEE VISIBILI 2D
100
AcDbVertex
100
AcDb2dVertex
 10
59.55570516755546
 20
58.31757396217085
 30
0.0
  0
VERTEX
  5
140
330
D8
100
AcDbEntity
  8
LINEE VISIBILI 2D
100
AcDbVertex
100
AcDb2dVertex
 10
59.5512218143806
 20
58.31355261558124
 30
0.0
  0
VERTEX
  5
141
330
D8
100
AcDbEntity
  8
LINEE VISIBILI 2D
100
AcDbVertex
100
AcDb2dVertex
 10
59.5466430261969
 20
58.3096396062656
 30
0.0
  0
VERTEX
  5
142
330
D8
100
AcDbEntity
  8
LINEE VISIBILI 2D
100
AcDbVertex
100
AcDb2dVertex
 10
59.54197183964791
 20
58.30583626358045
 30
0.0
  0
VERTEX
  5
143
330
D8
100
AcDbEntity
  8
LINEE VISIBILI 2D
100
AcDbVertex
100
AcDb2dVertex
 10
59.53721129137705
 20
58.30214391688232
 30
0.0
  0
VERTEX
  5
144
330
D8
100
AcDbEntity
  8
LINEE VISIBILI 2D
100
AcDbVertex
100
AcDb2dVertex
 10
59.53236441802784
 20
58.29856389552772
 30
0.0
  0
VERTEX
  5
145
330
D8
100
AcDbEntity
  8
LINEE VISIBILI 2D
100
AcDbVertex
100
AcDb2dVertex
 10
59.52743425624377
 20
58.29509752887318
 30
0.0
  0
VERTEX
  5
146
330
D8
100
AcDbEntity
  8
LINEE VISIBILI 2D
100
AcDbVertex
100
AcDb2dVertex
 10
59.52242384266827
 20
58.29174614627519
 30
0.0
  0
VERTEX
  5
147
330
D8
100
AcDbEntity
  8
LINEE VISIBILI 2D
100
AcDbVertex
100
AcDb2dVertex
 10
59.51733621394487
 20
58.28851107709028
 30
0.0
  0
VERTEX
  5
148
330
D8
100
AcDbEntity
  8
LINEE VISIBILI 2D
100
AcDbVertex
100
AcDb2dVertex
 10
59.51217440671712
 20
58.285393650675
 30
0.0
  0
VERTEX
  5
149
330
D8
100
AcDbEntity
  8
LINEE VISIBILI 2D
100
AcDbVertex
100
AcDb2dVertex
 10
59.50694145762839
 20
58.28239519638584
 30
0.0
  0
VERTEX
  5
14A
330
D8
100
AcDbEntity
  8
LINEE VISIBILI 2D
100
AcDbVertex
100
AcDb2dVertex
 10
59.50164040332223
 20
58.27951704357933
 30
0.0
  0
VERTEX
  5
14B
330
D8
100
AcDbEntity
  8
LINEE VISIBILI 2D
100
AcDbVertex
100
AcDb2dVertex
 10
59.49627428044209
 20
58.27676052161198
 30
0.0
  0
VERTEX
  5
14C
330
D8
100
AcDbEntity
  8
LINEE VISIBILI 2D
100
AcDbVertex
100
AcDb2dVertex
 10
59.49084612563152
 20
58.27412695984031
 30
0.0
  0
VERTEX
  5
14D
330
D8
100
AcDbEntity
  8
LINEE VISIBILI 2D
100
AcDbVertex
100
AcDb2dVertex
 10
59.48535897553398
 20
58.27161768762085
 30
0.0
  0
VERTEX
  5
14E
330
D8
100
AcDbEntity
  8
LINEE VISIBILI 2D
100
AcDbVertex
100
AcDb2dVertex
 10
59.47981586679293
 20
58.26923403431012
 30
0.0
  0
VERTEX
  5
14F
330
D8
100
AcDbEntity
  8
LINEE VISIBILI 2D
100
AcDbVertex
100
AcDb2dVertex
 10
59.4742198360519
 20
58.26697732926463
 30
0.0
  0
VERTEX
  5
150
330
D8
100
AcDbEntity
  8
LINEE VISIBILI 2D
100
AcDbVertex
100
AcDb2dVertex
 10
59.46857391995434
 20
58.2648489018409
 30
0.0
  0
VERTEX
  5
151
330
D8
100
AcDbEntity
  8
LINEE VISIBILI 2D
100
AcDbVertex
100
AcDb2dVertex
 10
59.46288115514372
 20
58.26285008139545
 30
0.0
  0
VERTEX
  5
152
330
D8
100
AcDbEntity
  8
LINEE VISIBILI 2D
100
AcDbVertex
100
AcDb2dVertex
 10
59.45714457826358
 20
58.26098219728478
 30
0.0
  0
VERTEX
  5
153
330
D8
100
AcDbEntity
  8
LINEE VISIBILI 2D
100
AcDbVertex
100
AcDb2dVertex
 10
59.4513672259574
 20
58.25924657886545
 30
0.0
  0
VERTEX
  5
154
330
D8
100
AcDbEntity
  8
LINEE VISIBILI 2D
100
AcDbVertex
100
AcDb2dVertex
 10
59.44555213486862
 20
58.25764455549395
 30
0.0
  0
VERTEX
  5
155
330
D8
100
AcDbEntity
  8
LINEE VISIBILI 2D
100
AcDbVertex
100
AcDb2dVertex
 10
59.43970234164078
 20
58.25617745652682
 30
0.0
  0
VERTEX
  5
156
330
D8
100
AcDbEntity
  8
LINEE VISIBILI 2D
100
AcDbVertex
100
AcDb2dVertex
 10
59.43382088291736
 20
58.25484661132055
 30
0.0
  0
VERTEX
  5
157
330
D8
100
AcDbEntity
  8
LINEE VISIBILI 2D
100
AcDbVertex
100
AcDb2dVertex
 10
59.4279107953418
 20
58.25365334923168
 30
0.0
  0
VERTEX
  5
158
330
D8
100
AcDbEntity
  8
LINEE VISIBILI 2D
100
AcDbVertex
100
AcDb2dVertex
 10
59.42197511555761
 20
58.25259899961672
 30
0.0
  0
VERTEX
  5
159
330
D8
100
AcDbEntity
  8
LINEE VISIBILI 2D
100
AcDbVertex
100
AcDb2dVertex
 10
59.41601688020833
 20
58.2516848918322
 30
0.0
  0
VERTEX
  5
15A
330
D8
100
AcDbEntity
  8
LINEE VISIBILI 2D
100
AcDbVertex
100
AcDb2dVertex
 10
59.41003912593735
 20
58.25091235523463
 30
0.0
  0
VERTEX
  5
15B
330
D8
100
AcDbEntity
  8
LINEE VISIBILI 2D
100
AcDbVertex
100
AcDb2dVertex
 10
59.40404488938825
 20
58.25028271918054
 30
0.0
  0
VERTEX
  5
15C
330
D8
100
AcDbEntity
  8
LINEE VISIBILI 2D
100
AcDbVertex
100
AcDb2dVertex
 10
59.39803720720445
 20
58.24979731302643
 30
0.0
  0
VERTEX
  5
15D
330
D8
100
AcDbEntity
  8
LINEE VISIBILI 2D
100
AcDbVertex
100
AcDb2dVertex
 10
59.39201911602947
 20
58.24945746612884
 30
0.0
  0
VERTEX
  5
15E
330
D8
100
AcDbEntity
  8
LINEE VISIBILI 2D
100
AcDbVertex
100
AcDb2dVertex
 10
59.38599365250681
 20
58.24926450784428
 30
0.0
  0
VERTEX
  5
15F
330
D8
100
AcDbEntity
  8
LINEE VISIBILI 2D
100
AcDbVertex
100
AcDb2dVertex
 10
59.37996385327992
 20
58.24921976752925
 30
0.0
  0
SEQEND
  5
160
330
D8
100
AcDbEntity
  8
LINEE VISIBILI 2D
  0
LINE
  5
161
330
1F
100
AcDbEntity
  8
LINEE VISIBILI 2D
100
AcDbLine
 10
38.07218937525667
 20
86.45685669978745
 30
0.0
 11
38.04702677619366
 21
86.50732506576124
 31
0.0
  0
LINE
  5
162
330
1F
100
AcDbEntity
  8
LINEE VISIBILI 2D
100
AcDbLine
 10
39.67080528194174
 20
85.33962585336239
 30
0.0
 11
39.67080528194174
 21
85.66853303956505
 31
0.0
  0
LINE
  5
163
330
1F
100
AcDbEntity
  8
LINEE VISIBILI 2D
100
AcDbLine
 10
45.23274385975787
 20
86.50732506576118
 30
0.0
 11
45.20758126069484
 21
86.45685669978745
 31
0.0
  0
LINE
  5
164
330
1F
100
AcDbEntity
  8
LINEE VISIBILI 2D
100
AcDbLine
 10
43.60896535400977
 20
85.66853303956505
 30
0.0
 11
43.60896535400977
 21
85.33962585336239
 31
0.0
  0
LINE
  5
165
330
1F
100
AcDbEntity
  8
LINEE VISIBILI 2D
100
AcDbLine
 10
41.63989918511282
 20
85.33962585336238
 30
0.0
 11
44.40909775896694
 21
85.33962585336236
 31
0.0
  0
LINE
  5
166
330
1F
100
AcDbEntity
  8
LINEE VISIBILI 2D
100
AcDbLine
 10
44.40909776419105
 20
85.33962564188701
 30
0.0
 11
44.42442662844056
 21
84.73957025394282
 31
0.0
  0
LINE
  5
167
330
1F
100
AcDbEntity
  8
LINEE VISIBILI 2D
100
AcDbLine
 10
38.8553440070967
 20
84.73957025398956
 30
0.0
 11
38.87067287164916
 21
85.33962564188157
 31
0.0
  0
LINE
  5
168
330
1F
100
AcDbEntity
  8
LINEE VISIBILI 2D
100
AcDbLine
 10
98.16828971125182
 20
84.73957025396444
 30
0.0
 11
98.43127870447003
 21
84.7395702539644
 31
0.0
  0
LINE
  5
169
330
1F
100
AcDbEntity
  8
LINEE VISIBILI 2D
100
AcDbLine
 10
98.48546849251099
 20
84.73957025396443
 30
0.0
 11
98.7516105055056
 21
84.73957025396444
 31
0.0
  0
LINE
  5
16A
330
1F
100
AcDbEntity
  8
LINEE VISIBILI 2D
100
AcDbLine
 10
98.80638167574529
 20
84.73957025396444
 30
0.0
 11
99.075078449062
 21
84.73957025396444
 31
0.0
  0
LINE
  5
16B
330
1F
100
AcDbEntity
  8
LINEE VISIBILI 2D
100
AcDbLine
 10
95.52643023733572
 20
84.73957025396437
 30
0.0
 11
95.58593033265143
 21
84.73957025396437
 31
0.0
  0
LINE
  5
16C
330
1F
100
AcDbEntity
  8
LINEE VISIBILI 2D
100
AcDbLine
 10
97.05012150758787
 20
84.73957025396443
 30
0.0
 11
97.54867681211078
 21
84.73957025396444
 31
0.0
  0
LINE
  5
16D
330
1F
100
AcDbEntity
  8
LINEE VISIBILI 2D
100
AcDbLine
 10
97.83200879525432
 20
84.73957025396444
 30
0.0
 11
97.9200207491968
 21
84.73957025396444
 31
0.0
  0
LINE
  5
16E
330
1F
100
AcDbEntity
  8
LINEE VISIBILI 2D
100
AcDbLine
 10
96.50955857349672
 20
84.73957025396443
 30
0.0
 11
96.83285196956697
 21
84.73957025396443
 31
0.0
  0
LINE
  5
16F
330
1F
100
AcDbEntity
  8
LINEE VISIBILI 2D
100
AcDbLine
 10
99.1303025564286
 20
84.73957025396443
 30
0.0
 11
99.1813350535543
 21
84.73957025396443
 31
0.0
  0
LINE
  5
170
330
1F
100
AcDbEntity
  8
LINEE VISIBILI 2D
100
AcDbLine
 10
99.45618408644486
 20
84.73957025396444
 30
0.0
 11
99.75017603356827
 21
84.73957025396444
 31
0.0
  0
LINE
  5
171
330
1F
100
AcDbEntity
  8
LINEE VISIBILI 2D
100
AcDbLine
 10
93.58790289034272
 20
84.73957025396444
 30
0.0
 11
93.63074663673197
 21
84.73957025396443
 31
0.0
  0
LINE
  5
172
330
1F
100
AcDbEntity
  8
LINEE VISIBILI 2D
100
AcDbLine
 10
93.66202744882168
 20
84.7395702539644
 30
0.0
 11
93.68492297234172
 21
84.7395702539644
 31
0.0
  0
LINE
  5
173
330
1F
100
AcDbEntity
  8
LINEE VISIBILI 2D
100
AcDbLine
 10
98.75161050550565
 20
84.73957025396443
 30
0.0
 11
98.80638167693863
 21
84.73957025396443
 31
0.0
  0
LINE
  5
174
330
1F
100
AcDbEntity
  8
LINEE VISIBILI 2D
100
AcDbLine
 10
102.6583132316243
 20
85.33962564188643
 30
0.0
 11
102.6587140071448
 21
85.3239370570291
 31
0.0
  0
LINE
  5
175
330
1F
100
AcDbEntity
  8
LINEE VISIBILI 2D
100
AcDbLine
 10
94.89310356322878
 20
84.73957025396443
 30
0.0
 11
95.08790901030059
 21
84.73957025396443
 31
0.0
  0
LINE
  5
176
330
1F
100
AcDbEntity
  8
LINEE VISIBILI 2D
100
AcDbLine
 10
98.43127870447012
 20
84.73957025396444
 30
0.0
 11
98.48546849251099
 21
84.73957025396444
 31
0.0
  0
LINE
  5
177
330
1F
100
AcDbEntity
  8
LINEE VISIBILI 2D
100
AcDbLine
 10
97.9200207491968
 20
84.73957025396443
 30
0.0
 11
98.16828971125182
 21
84.73957025396443
 31
0.0
  0
LINE
  5
178
330
1F
100
AcDbEntity
  8
LINEE VISIBILI 2D
100
AcDbLine
 10
35.27838316641257
 20
84.73957025396443
 30
0.0
 11
41.63976344625394
 21
84.73957025396443
 31
0.0
  0
LINE
  5
179
330
1F
100
AcDbEntity
  8
LINEE VISIBILI 2D
100
AcDbLine
 10
41.63988237327212
 20
58.24921976752925
 30
0.0
 11
23.90188155491842
 21
58.24921976752925
 31
0.0
  0
LINE
  5
17A
330
1F
100
AcDbEntity
  8
LINEE VISIBILI 2D
100
AcDbLine
 10
99.07507844882488
 20
84.73957025396443
 30
0.0
 11
99.13030255610812
 21
84.73957025396443
 31
0.0
  0
LINE
  5
17B
330
1F
100
AcDbEntity
  8
LINEE VISIBILI 2D
100
AcDbLine
 10
99.18133505341743
 20
84.73957025396443
 30
0.0
 11
99.45618408689793
 21
84.73957025396443
 31
0.0
  0
LINE
  5
17C
330
1F
100
AcDbEntity
  8
LINEE VISIBILI 2D
100
AcDbLine
 10
99.75017603327228
 20
84.73957025396443
 30
0.0
 11
106.2483419575494
 21
84.73957025396443
 31
0.0
  0
LINE
  5
17D
330
1F
100
AcDbEntity
  8
LINEE VISIBILI 2D
100
AcDbLine
 10
97.54867681211078
 20
84.73957025396444
 30
0.0
 11
97.83200879525432
 21
84.73957025396444
 31
0.0
  0
LINE
  5
17E
330
1F
100
AcDbEntity
  8
LINEE VISIBILI 2D
100
AcDbLine
 10
94.69767387040758
 20
84.73957025396444
 30
0.0
 11
94.88001708176122
 21
84.73957025396444
 31
0.0
  0
LINE
  5
17F
330
1F
100
AcDbEntity
  8
LINEE VISIBILI 2D
100
AcDbLine
 10
93.63074663667189
 20
84.73957025396443
 30
0.0
 11
93.66202744881952
 21
84.73957025396443
 31
0.0
  0
LINE
  5
180
330
1F
100
AcDbEntity
  8
LINEE VISIBILI 2D
100
AcDbLine
 10
93.68492297234167
 20
84.73957025396444
 30
0.0
 11
93.71038724090582
 21
84.73957025396444
 31
0.0
  0
LINE
  5
181
330
1F
100
AcDbEntity
  8
LINEE VISIBILI 2D
100
AcDbLine
 10
93.52985961290975
 20
84.73957025396444
 30
0.0
 11
93.58790289034275
 21
84.73957025396443
 31
0.0
  0
LINE
  5
182
330
1F
100
AcDbEntity
  8
LINEE VISIBILI 2D
100
AcDbLine
 10
96.83285196956683
 20
84.73957025396443
 30
0.0
 11
97.0501215075879
 21
84.73957025396444
 31
0.0
  0
LINE
  5
183
330
1F
100
AcDbEntity
  8
LINEE VISIBILI 2D
100
AcDbLine
 10
42.04881790984177
 20
84.73957025396444
 30
0.0
 11
48.001387469539
 21
84.73957025396443
 31
0.0
  0
LINE
  5
184
330
1F
100
AcDbEntity
  8
LINEE VISIBILI 2D
100
AcDbLine
 10
95.10168341102778
 20
84.7395702539644
 30
0.0
 11
95.30846495226334
 21
84.7395702539644
 31
0.0
  0
LINE
  5
185
330
1F
100
AcDbEntity
  8
LINEE VISIBILI 2D
100
AcDbLine
 10
95.32292982119367
 20
84.73957025396443
 30
0.0
 11
95.5264302373372
 21
84.73957025396443
 31
0.0
  0
LINE
  5
186
330
1F
100
AcDbEntity
  8
LINEE VISIBILI 2D
100
AcDbLine
 10
117.6291657348719
 20
58.24921976752925
 30
0.0
 11
82.14903628837911
 21
58.24921976752925
 31
0.0
  0
LINE
  5
187
330
1F
100
AcDbEntity
  8
LINEE VISIBILI 2D
100
AcDbLine
 10
93.82014652566417
 20
84.73957025396443
 30
0.0
 11
93.82784050875705
 21
84.73957025396443
 31
0.0
  0
LINE
  5
188
330
1F
100
AcDbEntity
  8
LINEE VISIBILI 2D
100
AcDbLine
 10
93.92618198011829
 20
84.73957025396443
 30
0.0
 11
93.93477514007418
 21
84.73957025396443
 31
0.0
  0
LINE
  5
189
330
1F
100
AcDbEntity
  8
LINEE VISIBILI 2D
100
AcDbLine
 10
94.047957897754
 20
84.73957025396444
 30
0.0
 11
94.0573794684615
 21
84.73957025396444
 31
0.0
  0
LINE
  5
18A
330
1F
100
AcDbEntity
  8
LINEE VISIBILI 2D
100
AcDbLine
 10
94.18514464827078
 20
84.73957025396443
 30
0.0
 11
94.19533893019664
 21
84.73957025396443
 31
0.0
  0
LINE
  5
18B
330
1F
100
AcDbEntity
  8
LINEE VISIBILI 2D
100
AcDbLine
 10
94.33730114650993
 20
84.73957025396444
 30
0.0
 11
94.3483675937797
 21
84.73957025396444
 31
0.0
  0
LINE
  5
18C
330
1F
100
AcDbEntity
  8
LINEE VISIBILI 2D
100
AcDbLine
 10
94.50423140689935
 20
84.73957025396443
 30
0.0
 11
94.51586228107115
 21
84.73957025396443
 31
0.0
  0
LINE
  5
18D
330
1F
100
AcDbEntity
  8
LINEE VISIBILI 2D
100
AcDbLine
 10
94.68526428352482
 20
84.73957025396443
 30
0.0
 11
94.69767387041097
 21
84.73957025396443
 31
0.0
  0
LINE
  5
18E
330
1F
100
AcDbEntity
  8
LINEE VISIBILI 2D
100
AcDbLine
 10
94.88001708175838
 20
84.73957025396443
 30
0.0
 11
94.89310356323341
 21
84.73957025396443
 31
0.0
  0
LINE
  5
18F
330
1F
100
AcDbEntity
  8
LINEE VISIBILI 2D
100
AcDbLine
 10
95.0879090103005
 20
84.7395702539644
 30
0.0
 11
95.10168341037323
 21
84.7395702539644
 31
0.0
  0
LINE
  5
190
330
1F
100
AcDbEntity
  8
LINEE VISIBILI 2D
100
AcDbLine
 10
95.30846495226001
 20
84.73957025396439
 30
0.0
 11
95.32292982119262
 21
84.73957025396439
 31
0.0
  0
LINE
  5
191
330
1F
100
AcDbEntity
  8
LINEE VISIBILI 2D
100
AcDbLine
 10
41.63988531797577
 20
86.45685669978745
 30
0.0
 11
45.20403428131237
 21
86.45685669978745
 31
0.0
  0
POLYLINE
  5
192
330
1F
100
AcDbEntity
  8
LINEE VISIBILI 2D
100
AcDb2dPolyline
 66
     1
 10
0.0
 20
0.0
 30
0.0
  0
VERTEX
  5
193
330
192
100
AcDbEntity
  8
LINEE VISIBILI 2D
100
AcDbVertex
100
AcDb2dVertex
 10
23.89980678267179
 20
58.24921976752925
 30
0.0
  0
VERTEX
  5
194
330
192
100
AcDbEntity
  8
LINEE VISIBILI 2D
100
AcDbVertex
100
AcDb2dVertex
 10
23.89375676467378
 20
58.24926220209312
 30
0.0
  0
VERTEX
  5
195
330
192
100
AcDbEntity
  8
LINEE VISIBILI 2D
100
AcDbVertex
100
AcDb2dVertex
 10
23.88771168029777
 20
58.24945414249253
 30
0.0
  0
VERTEX
  5
196
330
192
100
AcDbEntity
  8
LINEE VISIBILI 2D
100
AcDbVertex
100
AcDb2dVertex
 10
23.88167455123721
 20
58.24979421903321
 30
0.0
  0
VERTEX
  5
197
330
192
100
AcDbEntity
  8
LINEE VISIBILI 2D
100
AcDbVertex
100
AcDb2dVertex
 10
23.87564839918551
 20
58.2502810620209
 30
0.0
  0
VERTEX
  5
198
330
192
100
AcDbEntity
  8
LINEE VISIBILI 2D
100
AcDbVertex
100
AcDb2dVertex
 10
23.86963624583609
 20
58.25091330176134
 30
0.0
  0
VERTEX
  5
199
330
192
100
AcDbEntity
  8
LINEE VISIBILI 2D
100
AcDbVertex
100
AcDb2dVertex
 10
23.86364111288242
 20
58.25168956856028
 30
0.0
  0
VERTEX
  5
19A
330
192
100
AcDbEntity
  8
LINEE VISIBILI 2D
100
AcDbVertex
100
AcDb2dVertex
 10
23.85766602201787
 20
58.25260849272345
 30
0.0
  0
VERTEX
  5
19B
330
192
100
AcDbEntity
  8
LINEE VISIBILI 2D
100
AcDbVertex
100
AcDb2dVertex
 10
23.85171399493592
 20
58.25366870455658
 30
0.0
  0
VERTEX
  5
19C
330
192
100
AcDbEntity
  8
LINEE VISIBILI 2D
100
AcDbVertex
100
AcDb2dVertex
 10
23.84578805332995
 20
58.25486883436544
 30
0.0
  0
VERTEX
  5
19D
330
192
100
AcDbEntity
  8
LINEE VISIBILI 2D
100
AcDbVertex
100
AcDb2dVertex
 10
23.83989121889343
 20
58.25620751245573
 30
0.0
  0
VERTEX
  5
19E
330
192
100
AcDbEntity
  8
LINEE VISIBILI 2D
100
AcDbVertex
100
AcDb2dVertex
 10
23.83402651331977
 20
58.25768336913321
 30
0.0
  0
VERTEX
  5
19F
330
192
100
AcDbEntity
  8
LINEE VISIBILI 2D
100
AcDbVertex
100
AcDb2dVertex
 10
23.82819695830239
 20
58.25929503470362
 30
0.0
  0
VERTEX
  5
1A0
330
192
100
AcDbEntity
  8
LINEE VISIBILI 2D
100
AcDbVertex
100
AcDb2dVertex
 10
23.82240557553473
 20
58.2610411394727
 30
0.0
  0
VERTEX
  5
1A1
330
192
100
AcDbEntity
  8
LINEE VISIBILI 2D
100
AcDbVertex
100
AcDb2dVertex
 10
23.81665538671021
 20
58.26292031374618
 30
0.0
  0
VERTEX
  5
1A2
330
192
100
AcDbEntity
  8
LINEE VISIBILI 2D
100
AcDbVertex
100
AcDb2dVertex
 10
23.81094941352222
 20
58.26493118782981
 30
0.0
  0
VERTEX
  5
1A3
330
192
100
AcDbEntity
  8
LINEE VISIBILI 2D
100
AcDbVertex
100
AcDb2dVertex
 10
23.80529067766426
 20
58.26707239202933
 30
0.0
  0
VERTEX
  5
1A4
330
192
100
AcDbEntity
  8
LINEE VISIBILI 2D
100
AcDbVertex
100
AcDb2dVertex
 10
23.79968220082972
 20
58.26934255665047
 30
0.0
  0
VERTEX
  5
1A5
330
192
100
AcDbEntity
  8
LINEE VISIBILI 2D
100
AcDbVertex
100
AcDb2dVertex
 10
23.79412700471204
 20
58.27174031199898
 30
0.0
  0
VERTEX
  5
1A6
330
192
100
AcDbEntity
  8
LINEE VISIBILI 2D
100
AcDbVertex
100
AcDb2dVertex
 10
23.78862811100461
 20
58.27426428838059
 30
0.0
  0
VERTEX
  5
1A7
330
192
100
AcDbEntity
  8
LINEE VISIBILI 2D
100
AcDbVertex
100
AcDb2dVertex
 10
23.78318854140088
 20
58.27691311610104
 30
0.0
  0
VERTEX
  5
1A8
330
192
100
AcDbEntity
  8
LINEE VISIBILI 2D
100
AcDbVertex
100
AcDb2dVertex
 10
23.77781131759431
 20
58.27968542546608
 30
0.0
  0
VERTEX
  5
1A9
330
192
100
AcDbEntity
  8
LINEE VISIBILI 2D
100
AcDbVertex
100
AcDb2dVertex
 10
23.77249946127827
 20
58.28257984678144
 30
0.0
  0
VERTEX
  5
1AA
330
192
100
AcDbEntity
  8
LINEE VISIBILI 2D
100
AcDbVertex
100
AcDb2dVertex
 10
23.76725599414621
 20
58.28559501035286
 30
0.0
  0
VERTEX
  5
1AB
330
192
100
AcDbEntity
  8
LINEE VISIBILI 2D
100
AcDbVertex
100
AcDb2dVertex
 10
23.76208393789159
 20
58.28872954648609
 30
0.0
  0
VERTEX
  5
1AC
330
192
100
AcDbEntity
  8
LINEE VISIBILI 2D
100
AcDbVertex
100
AcDb2dVertex
 10
23.75698631420778
 20
58.29198208548686
 30
0.0
  0
VERTEX
  5
1AD
330
192
100
AcDbEntity
  8
LINEE VISIBILI 2D
100
AcDbVertex
100
AcDb2dVertex
 10
23.75196614478827
 20
58.2953512576609
 30
0.0
  0
VERTEX
  5
1AE
330
192
100
AcDbEntity
  8
LINEE VISIBILI 2D
100
AcDbVertex
100
AcDb2dVertex
 10
23.74702645132641
 20
58.29883569331397
 30
0.0
  0
VERTEX
  5
1AF
330
192
100
AcDbEntity
  8
LINEE VISIBILI 2D
100
AcDbVertex
100
AcDb2dVertex
 10
23.7421702555157
 20
58.3024340227518
 30
0.0
  0
VERTEX
  5
1B0
330
192
100
AcDbEntity
  8
LINEE VISIBILI 2D
100
AcDbVertex
100
AcDb2dVertex
 10
23.73740057904953
 20
58.30614487628012
 30
0.0
  0
VERTEX
  5
1B1
330
192
100
AcDbEntity
  8
LINEE VISIBILI 2D
100
AcDbVertex
100
AcDb2dVertex
 10
23.73272044362133
 20
58.30996688420468
 30
0.0
  0
VERTEX
  5
1B2
330
192
100
AcDbEntity
  8
LINEE VISIBILI 2D
100
AcDbVertex
100
AcDb2dVertex
 10
23.72813287092453
 20
58.31389867683123
 30
0.0
  0
VERTEX
  5
1B3
330
192
100
AcDbEntity
  8
LINEE VISIBILI 2D
100
AcDbVertex
100
AcDb2dVertex
 10
23.72364088265257
 20
58.31793888446549
 30
0.0
  0
VERTEX
  5
1B4
330
192
100
AcDbEntity
  8
LINEE VISIBILI 2D
100
AcDbVertex
100
AcDb2dVertex
 10
23.71931596459586
 20
58.32201948849959
 30
0.0
  0
VERTEX
  5
1B5
330
192
100
AcDbEntity
  8
LINEE VISIBILI 2D
100
AcDbVertex
100
AcDb2dVertex
 10
23.7150880971088
 20
58.3262010077993
 30
0.0
  0
VERTEX
  5
1B6
330
192
100
AcDbEntity
  8
LINEE VISIBILI 2D
100
AcDbVertex
100
AcDb2dVertex
 10
23.71095881841961
 20
58.33048067087423
 30
0.0
  0
VERTEX
  5
1B7
330
192
100
AcDbEntity
  8
LINEE VISIBILI 2D
100
AcDbVertex
100
AcDb2dVertex
 10
23.70692966675651
 20
58.334855706234
 30
0.0
  0
VERTEX
  5
1B8
330
192
100
AcDbEntity
  8
LINEE VISIBILI 2D
100
AcDbVertex
100
AcDb2dVertex
 10
23.70300218034768
 20
58.33932334238823
 30
0.0
  0
VERTEX
  5
1B9
330
192
100
AcDbEntity
  8
LINEE VISIBILI 2D
100
AcDbVertex
100
AcDb2dVertex
 10
23.69917789742146
 20
58.34388080784651
 30
0.0
  0
VERTEX
  5
1BA
330
192
100
AcDbEntity
  8
LINEE VISIBILI 2D
100
AcDbVertex
100
AcDb2dVertex
 10
23.69545835620602
 20
58.34852533111849
 30
0.0
  0
VERTEX
  5
1BB
330
192
100
AcDbEntity
  8
LINEE VISIBILI 2D
100
AcDbVertex
100
AcDb2dVertex
 10
23.69184509492962
 20
58.35325414071377
 30
0.0
  0
VERTEX
  5
1BC
330
192
100
AcDbEntity
  8
LINEE VISIBILI 2D
100
AcDbVertex
100
AcDb2dVertex
 10
23.68833965182048
 20
58.35806446514197
 30
0.0
  0
VERTEX
  5
1BD
330
192
100
AcDbEntity
  8
LINEE VISIBILI 2D
100
AcDbVertex
100
AcDb2dVertex
 10
23.68494356510683
 20
58.36295353291272
 30
0.0
  0
VERTEX
  5
1BE
330
192
100
AcDbEntity
  8
LINEE VISIBILI 2D
100
AcDbVertex
100
AcDb2dVertex
 10
23.68165837301694
 20
58.36791857253562
 30
0.0
  0
VERTEX
  5
1BF
330
192
100
AcDbEntity
  8
LINEE VISIBILI 2D
100
AcDbVertex
100
AcDb2dVertex
 10
23.678485613779
 20
58.37295681252029
 30
0.0
  0
VERTEX
  5
1C0
330
192
100
AcDbEntity
  8
LINEE VISIBILI 2D
100
AcDbVertex
100
AcDb2dVertex
 10
23.67542682562129
 20
58.37806548137635
 30
0.0
  0
VERTEX
  5
1C1
330
192
100
AcDbEntity
  8
LINEE VISIBILI 2D
100
AcDbVertex
100
AcDb2dVertex
 10
23.67248354677201
 20
58.38324180761344
 30
0.0
  0
VERTEX
  5
1C2
330
192
100
AcDbEntity
  8
LINEE VISIBILI 2D
100
AcDbVertex
100
AcDb2dVertex
 10
23.66965731545943
 20
58.38848301974114
 30
0.0
  0
VERTEX
  5
1C3
330
192
100
AcDbEntity
  8
LINEE VISIBILI 2D
100
AcDbVertex
100
AcDb2dVertex
 10
23.66694966991173
 20
58.39378634626907
 30
0.0
  0
VERTEX
  5
1C4
330
192
100
AcDbEntity
  8
LINEE VISIBILI 2D
100
AcDbVertex
100
AcDb2dVertex
 10
23.66436214835721
 20
58.39914901570685
 30
0.0
  0
VERTEX
  5
1C5
330
192
100
AcDbEntity
  8
LINEE VISIBILI 2D
100
AcDbVertex
100
AcDb2dVertex
 10
23.66189628902407
 20
58.40456825656413
 30
0.0
  0
VERTEX
  5
1C6
330
192
100
AcDbEntity
  8
LINEE VISIBILI 2D
100
AcDbVertex
100
AcDb2dVertex
 10
23.65955363014055
 20
58.4100412973505
 30
0.0
  0
VERTEX
  5
1C7
330
192
100
AcDbEntity
  8
LINEE VISIBILI 2D
100
AcDbVertex
100
AcDb2dVertex
 10
23.6573357099349
 20
58.41556536657558
 30
0.0
  0
VERTEX
  5
1C8
330
192
100
AcDbEntity
  8
LINEE VISIBILI 2D
100
AcDbVertex
100
AcDb2dVertex
 10
23.6552440666353
 20
58.42113769274899
 30
0.0
  0
VERTEX
  5
1C9
330
192
100
AcDbEntity
  8
LINEE VISIBILI 2D
100
AcDbVertex
100
AcDb2dVertex
 10
23.65328023847007
 20
58.42675550438032
 30
0.0
  0
VERTEX
  5
1CA
330
192
100
AcDbEntity
  8
LINEE VISIBILI 2D
100
AcDbVertex
100
AcDb2dVertex
 10
23.65144576366743
 20
58.43241602997922
 30
0.0
  0
VERTEX
  5
1CB
330
192
100
AcDbEntity
  8
LINEE VISIBILI 2D
100
AcDbVertex
100
AcDb2dVertex
 10
23.64974218045555
 20
58.43811649805532
 30
0.0
  0
VERTEX
  5
1CC
330
192
100
AcDbEntity
  8
LINEE VISIBILI 2D
100
AcDbVertex
100
AcDb2dVertex
 10
23.64817102706272
 20
58.4438541371182
 30
0.0
  0
VERTEX
  5
1CD
330
192
100
AcDbEntity
  8
LINEE VISIBILI 2D
100
AcDbVertex
100
AcDb2dVertex
 10
23.64673384171715
 20
58.44962617567749
 30
0.0
  0
VERTEX
  5
1CE
330
192
100
AcDbEntity
  8
LINEE VISIBILI 2D
100
AcDbVertex
100
AcDb2dVertex
 10
23.6454321626471
 20
58.45542984224281
 30
0.0
  0
VERTEX
  5
1CF
330
192
100
AcDbEntity
  8
LINEE VISIBILI 2D
100
AcDbVertex
100
AcDb2dVertex
 10
23.64426752808077
 20
58.46126236532379
 30
0.0
  0
VERTEX
  5
1D0
330
192
100
AcDbEntity
  8
LINEE VISIBILI 2D
100
AcDbVertex
100
AcDb2dVertex
 10
23.64324147624643
 20
58.46712097343002
 30
0.0
  0
VERTEX
  5
1D1
330
192
100
AcDbEntity
  8
LINEE VISIBILI 2D
100
AcDbVertex
100
AcDb2dVertex
 10
23.64235554537231
 20
58.47300289507113
 30
0.0
  0
VERTEX
  5
1D2
330
192
100
AcDbEntity
  8
LINEE VISIBILI 2D
100
AcDbVertex
100
AcDb2dVertex
 10
23.64161127368664
 20
58.47890535875676
 30
0.0
  0
VERTEX
  5
1D3
330
192
100
AcDbEntity
  8
LINEE VISIBILI 2D
100
AcDbVertex
100
AcDb2dVertex
 10
23.64101019941765
 20
58.48482559299648
 30
0.0
  0
VERTEX
  5
1D4
330
192
100
AcDbEntity
  8
LINEE VISIBILI 2D
100
AcDbVertex
100
AcDb2dVertex
 10
23.64058291842409
 20
58.49029310225824
 30
0.0
  0
VERTEX
  5
1D5
330
192
100
AcDbEntity
  8
LINEE VISIBILI 2D
100
AcDbVertex
100
AcDb2dVertex
 10
23.64027022281735
 20
58.49577070134526
 30
0.0
  0
VERTEX
  5
1D6
330
192
100
AcDbEntity
  8
LINEE VISIBILI 2D
100
AcDbVertex
100
AcDb2dVertex
 10
23.64006385010143
 20
58.50125574926435
 30
0.0
  0
VERTEX
  5
1D7
330
192
100
AcDbEntity
  8
LINEE VISIBILI 2D
100
AcDbVertex
100
AcDb2dVertex
 10
23.63995553778022
 20
58.50674560502222
 30
0.0
  0
VERTEX
  5
1D8
330
192
100
AcDbEntity
  8
LINEE VISIBILI 2D
100
AcDbVertex
100
AcDb2dVertex
 10
23.64000004433782
 20
58.51772917608148
 30
0.0
  0
VERTEX
  5
1D9
330
192
100
AcDbEntity
  8
LINEE VISIBILI 2D
100
AcDbVertex
100
AcDb2dVertex
 10
23.64066844595192
 20
58.53578806731896
 30
0.0
  0
VERTEX
  5
1DA
330
192
100
AcDbEntity
  8
LINEE VISIBILI 2D
100
AcDbVertex
100
AcDb2dVertex
 10
23.73444657474897
 20
60.1373850799819
 30
0.0
  0
VERTEX
  5
1DB
330
192
100
AcDbEntity
  8
LINEE VISIBILI 2D
100
AcDbVertex
100
AcDb2dVertex
 10
23.86120102690981
 20
61.64669128282702
 30
0.0
  0
VERTEX
  5
1DC
330
192
100
AcDbEntity
  8
LINEE VISIBILI 2D
100
AcDbVertex
100
AcDb2dVertex
 10
24.02489376825304
 20
63.15245229678346
 30
0.0
  0
VERTEX
  5
1DD
330
192
100
AcDbEntity
  8
LINEE VISIBILI 2D
100
AcDbVertex
100
AcDb2dVertex
 10
24.2254205468451
 20
64.65375130735782
 30
0.0
  0
VERTEX
  5
1DE
330
192
100
AcDbEntity
  8
LINEE VISIBILI 2D
100
AcDbVertex
100
AcDb2dVertex
 10
24.46267711075259
 20
66.14967150005671
 30
0.0
  0
VERTEX
  5
1DF
330
192
100
AcDbEntity
  8
LINEE VISIBILI 2D
100
AcDbVertex
100
AcDb2dVertex
 10
24.68461837982338
 20
67.37093425740613
 30
0.0
  0
VERTEX
  5
1E0
330
192
100
AcDbEntity
  8
LINEE VISIBILI 2D
100
AcDbVertex
100
AcDb2dVertex
 10
24.93225453209561
 20
68.58730610654636
 30
0.0
  0
VERTEX
  5
1E1
330
192
100
AcDbEntity
  8
LINEE VISIBILI 2D
100
AcDbVertex
100
AcDb2dVertex
 10
25.14817844751821
 20
69.54362878597651
 30
0.0
  0
VERTEX
  5
1E2
330
192
100
AcDbEntity
  8
LINEE VISIBILI 2D
100
AcDbVertex
100
AcDb2dVertex
 10
25.39014297900968
 20
70.49345290658005
 30
0.0
  0
VERTEX
  5
1E3
330
192
100
AcDbEntity
  8
LINEE VISIBILI 2D
100
AcDbVertex
100
AcDb2dVertex
 10
25.51889972396793
 20
70.94900476364955
 30
0.0
  0
VERTEX
  5
1E4
330
192
100
AcDbEntity
  8
LINEE VISIBILI 2D
100
AcDbVertex
100
AcDb2dVertex
 10
25.65577781575166
 20
71.4022202325986
 30
0.0
  0
VERTEX
  5
1E5
330
192
100
AcDbEntity
  8
LINEE VISIBILI 2D
100
AcDbVertex
100
AcDb2dVertex
 10
25.80064804708934
 20
71.85298664747933
 30
0.0
  0
VERTEX
  5
1E6
330
192
100
AcDbEntity
  8
LINEE VISIBILI 2D
100
AcDbVertex
100
AcDb2dVertex
 10
25.95338121070947
 20
72.30119134234394
 30
0.0
  0
VERTEX
  5
1E7
330
192
100
AcDbEntity
  8
LINEE VISIBILI 2D
100
AcDbVertex
100
AcDb2dVertex
 10
26.2819195057109
 20
73.18946490823345
 30
0.0
  0
VERTEX
  5
1E8
330
192
100
AcDbEntity
  8
LINEE VISIBILI 2D
100
AcDbVertex
100
AcDb2dVertex
 10
26.64035904258381
 20
74.0661396026845
 30
0.0
  0
VERTEX
  5
1E9
330
192
100
AcDbEntity
  8
LINEE VISIBILI 2D
100
AcDbVertex
100
AcDb2dVertex
 10
27.03822027646927
 20
74.95258183306338
 30
0.0
  0
VERTEX
  5
1EA
330
192
100
AcDbEntity
  8
LINEE VISIBILI 2D
100
AcDbVertex
100
AcDb2dVertex
 10
27.46604574401579
 20
75.82482837071984
 30
0.0
  0
VERTEX
  5
1EB
330
192
100
AcDbEntity
  8
LINEE VISIBILI 2D
100
AcDbVertex
100
AcDb2dVertex
 10
27.92341252200609
 20
76.68184172531582
 30
0.0
  0
VERTEX
  5
1EC
330
192
100
AcDbEntity
  8
LINEE VISIBILI 2D
100
AcDbVertex
100
AcDb2dVertex
 10
28.40989768722301
 20
77.52258440651333
 30
0.0
  0
VERTEX
  5
1ED
330
192
100
AcDbEntity
  8
LINEE VISIBILI 2D
100
AcDbVertex
100
AcDb2dVertex
 10
28.92507831644932
 20
78.3460189239743
 30
0.0
  0
VERTEX
  5
1EE
330
192
100
AcDbEntity
  8
LINEE VISIBILI 2D
100
AcDbVertex
100
AcDb2dVertex
 10
29.46853148646775
 20
79.15110778736067
 30
0.0
  0
VERTEX
  5
1EF
330
192
100
AcDbEntity
  8
LINEE VISIBILI 2D
100
AcDbVertex
100
AcDb2dVertex
 10
29.75072811076865
 20
79.54644838304526
 30
0.0
  0
VERTEX
  5
1F0
330
192
100
AcDbEntity
  8
LINEE VISIBILI 2D
100
AcDbVertex
100
AcDb2dVertex
 10
30.03983427406109
 20
79.93681350633443
 30
0.0
  0
VERTEX
  5
1F1
330
192
100
AcDbEntity
  8
LINEE VISIBILI 2D
100
AcDbVertex
100
AcDb2dVertex
 10
30.33579711094299
 20
80.32207347093595
 30
0.0
  0
VERTEX
  5
1F2
330
192
100
AcDbEntity
  8
LINEE VISIBILI 2D
100
AcDbVertex
100
AcDb2dVertex
 10
30.63856375601213
 20
80.70209859055754
 30
0.0
  0
VERTEX
  5
1F3
330
192
100
AcDbEntity
  8
LINEE VISIBILI 2D
100
AcDbVertex
100
AcDb2dVertex
 10
31.00310293569711
 20
81.1421522340002
 30
0.0
  0
VERTEX
  5
1F4
330
192
100
AcDbEntity
  8
LINEE VISIBILI 2D
100
AcDbVertex
100
AcDb2dVertex
 10
31.37616798767493
 20
81.57487920805313
 30
0.0
  0
VERTEX
  5
1F5
330
192
100
AcDbEntity
  8
LINEE VISIBILI 2D
100
AcDbVertex
100
AcDb2dVertex
 10
31.87999504005407
 20
82.131482917834
 30
0.0
  0
VERTEX
  5
1F6
330
192
100
AcDbEntity
  8
LINEE VISIBILI 2D
100
AcDbVertex
100
AcDb2dVertex
 10
32.10849843699719
 20
82.37065137311517
 30
0.0
  0
VERTEX
  5
1F7
330
192
100
AcDbEntity
  8
LINEE VISIBILI 2D
100
AcDbVertex
100
AcDb2dVertex
 10
32.34240759522925
 20
82.60453233069214
 30
0.0
  0
VERTEX
  5
1F8
330
192
100
AcDbEntity
  8
LINEE VISIBILI 2D
100
AcDbVertex
100
AcDb2dVertex
 10
32.60960244278428
 20
82.85687529879105
 30
0.0
  0
VERTEX
  5
1F9
330
192
100
AcDbEntity
  8
LINEE VISIBILI 2D
100
AcDbVertex
100
AcDb2dVertex
 10
32.8839913409555
 20
83.10140085277254
 30
0.0
  0
VERTEX
  5
1FA
330
192
100
AcDbEntity
  8
LINEE VISIBILI 2D
100
AcDbVertex
100
AcDb2dVertex
 10
33.17266807402183
 20
83.34485289057078
 30
0.0
  0
VERTEX
  5
1FB
330
192
100
AcDbEntity
  8
LINEE VISIBILI 2D
100
AcDbVertex
100
AcDb2dVertex
 10
33.46798378071566
 20
83.5801829413682
 30
0.0
  0
VERTEX
  5
1FC
330
192
100
AcDbEntity
  8
LINEE VISIBILI 2D
100
AcDbVertex
100
AcDb2dVertex
 10
33.76985117769632
 20
83.8070032509481
 30
0.0
  0
VERTEX
  5
1FD
330
192
100
AcDbEntity
  8
LINEE VISIBILI 2D
100
AcDbVertex
100
AcDb2dVertex
 10
34.07818298162306
 20
84.02492606509382
 30
0.0
  0
VERTEX
  5
1FE
330
192
100
AcDbEntity
  8
LINEE VISIBILI 2D
100
AcDbVertex
100
AcDb2dVertex
 10
34.4312405931262
 20
84.25842119218319
 30
0.0
  0
VERTEX
  5
1FF
330
192
100
AcDbEntity
  8
LINEE VISIBILI 2D
100
AcDbVertex
100
AcDb2dVertex
 10
34.79120722959652
 20
84.48124979074079
 30
0.0
  0
VERTEX
  5
200
330
192
100
AcDbEntity
  8
LINEE VISIBILI 2D
100
AcDbVertex
100
AcDb2dVertex
 10
35.0028798284894
 20
84.6053776215734
 30
0.0
  0
VERTEX
  5
201
330
192
100
AcDbEntity
  8
LINEE VISIBILI 2D
100
AcDbVertex
100
AcDb2dVertex
 10
35.10993037890913
 20
84.66526534020913
 30
0.0
  0
VERTEX
  5
202
330
192
100
AcDbEntity
  8
LINEE VISIBILI 2D
100
AcDbVertex
100
AcDb2dVertex
 10
35.22508137487713
 20
84.7268317388555
 30
0.0
  0
VERTEX
  5
203
330
192
100
AcDbEntity
  8
LINEE VISIBILI 2D
100
AcDbVertex
100
AcDb2dVertex
 10
35.23216667282514
 20
84.73031416352097
 30
0.0
  0
VERTEX
  5
204
330
192
100
AcDbEntity
  8
LINEE VISIBILI 2D
100
AcDbVertex
100
AcDb2dVertex
 10
35.23574338563282
 20
84.73194962587706
 30
0.0
  0
VERTEX
  5
205
330
192
100
AcDbEntity
  8
LINEE VISIBILI 2D
100
AcDbVertex
100
AcDb2dVertex
 10
35.23935058745172
 20
84.7334898416736
 30
0.0
  0
VERTEX
  5
206
330
192
100
AcDbEntity
  8
LINEE VISIBILI 2D
100
AcDbVertex
100
AcDb2dVertex
 10
35.24299411312347
 20
84.7349162509792
 30
0.0
  0
VERTEX
  5
207
330
192
100
AcDbEntity
  8
LINEE VISIBILI 2D
100
AcDbVertex
100
AcDb2dVertex
 10
35.24483132079217
 20
84.73558097821935
 30
0.0
  0
VERTEX
  5
208
330
192
100
AcDbEntity
  8
LINEE VISIBILI 2D
100
AcDbVertex
100
AcDb2dVertex
 10
35.24667979748969
 20
84.73621029386251
 30
0.0
  0
VERTEX
  5
209
330
192
100
AcDbEntity
  8
LINEE VISIBILI 2D
100
AcDbVertex
100
AcDb2dVertex
 10
35.24854027257123
 20
84.73680187791726
 30
0.0
  0
VERTEX
  5
20A
330
192
100
AcDbEntity
  8
LINEE VISIBILI 2D
100
AcDbVertex
100
AcDb2dVertex
 10
35.25041347539198
 20
84.73735341039219
 30
0.0
  0
VERTEX
  5
20B
330
192
100
AcDbEntity
  8
LINEE VISIBILI 2D
100
AcDbVertex
100
AcDb2dVertex
 10
35.25230013530714
 20
84.73786257129588
 30
0.0
  0
VERTEX
  5
20C
330
192
100
AcDbEntity
  8
LINEE VISIBILI 2D
100
AcDbVertex
100
AcDb2dVertex
 10
35.25420098167191
 20
84.73832704063689
 30
0.0
  0
VERTEX
  5
20D
330
192
100
AcDbEntity
  8
LINEE VISIBILI 2D
100
AcDbVertex
100
AcDb2dVertex
 10
35.25611674384152
 20
84.73874449842381
 30
0.0
  0
VERTEX
  5
20E
330
192
100
AcDbEntity
  8
LINEE VISIBILI 2D
100
AcDbVertex
100
AcDb2dVertex
 10
35.25804815117112
 20
84.73911262466524
 30
0.0
  0
VERTEX
  5
20F
330
192
100
AcDbEntity
  8
LINEE VISIBILI 2D
100
AcDbVertex
100
AcDb2dVertex
 10
35.25999593301597
 20
84.73942909936974
 30
0.0
  0
VERTEX
  5
210
330
192
100
AcDbEntity
  8
LINEE VISIBILI 2D
100
AcDbVertex
100
AcDb2dVertex
 10
35.26196081873124
 20
84.7396916025459
 30
0.0
  0
VERTEX
  5
211
330
192
100
AcDbEntity
  8
LINEE VISIBILI 2D
100
AcDbVertex
100
AcDb2dVertex
 10
35.26394353767213
 20
84.7398978142023
 30
0.0
  0
VERTEX
  5
212
330
192
100
AcDbEntity
  8
LINEE VISIBILI 2D
100
AcDbVertex
100
AcDb2dVertex
 10
35.26594481919383
 20
84.7400454143475
 30
0.0
  0
VERTEX
  5
213
330
192
100
AcDbEntity
  8
LINEE VISIBILI 2D
100
AcDbVertex
100
AcDb2dVertex
 10
35.26796539265158
 20
84.7401320829901
 30
0.0
  0
VERTEX
  5
214
330
192
100
AcDbEntity
  8
LINEE VISIBILI 2D
100
AcDbVertex
100
AcDb2dVertex
 10
35.27000598740054
 20
84.74015550013868
 30
0.0
  0
VERTEX
  5
215
330
192
100
AcDbEntity
  8
LINEE VISIBILI 2D
100
AcDbVertex
100
AcDb2dVertex
 10
35.2720673327959
 20
84.74011334580183
 30
0.0
  0
VERTEX
  5
216
330
192
100
AcDbEntity
  8
LINEE VISIBILI 2D
100
AcDbVertex
100
AcDb2dVertex
 10
35.27415015819292
 20
84.74000329998812
 30
0.0
  0
VERTEX
  5
217
330
192
100
AcDbEntity
  8
LINEE VISIBILI 2D
100
AcDbVertex
100
AcDb2dVertex
 10
35.27625519294676
 20
84.7398230427061
 30
0.0
  0
VERTEX
  5
218
330
192
100
AcDbEntity
  8
LINEE VISIBILI 2D
100
AcDbVertex
100
AcDb2dVertex
 10
35.27838316641265
 20
84.73957025396443
 30
0.0
  0
SEQEND
  5
219
330
192
100
AcDbEntity
  8
LINEE VISIBILI 2D
  0
LINE
  5
21A
330
1F
100
AcDbEntity
  8
LINEE VISIBILI 2D
100
AcDbLine
 10
41.63988531797577
 20
86.6712928564564
 30
0.0
 11
45.22988245505832
 21
86.67129285645642
 31
0.0
  0
LINE
  5
21B
330
1F
100
AcDbEntity
  8
LINEE VISIBILI 2D
100
AcDbLine
 10
38.04988818089322
 20
86.50875171110876
 30
0.0
 11
41.63988531797577
 21
86.50875170951761
 31
0.0
  0
LINE
  5
21C
330
1F
100
AcDbEntity
  8
LINEE VISIBILI 2D
100
AcDbLine
 10
38.07573635463913
 20
86.45685670314994
 30
0.0
 11
41.63988531797577
 21
86.45685669978745
 31
0.0
  0
LINE
  5
21D
330
1F
100
AcDbEntity
  8
LINEE VISIBILI 2D
100
AcDbLine
 10
39.1183302063157
 20
85.66853303956505
 30
0.0
 11
41.63988531797577
 21
85.66853303956505
 31
0.0
  0
LINE
  5
21E
330
1F
100
AcDbEntity
  8
LINEE VISIBILI 2D
100
AcDbLine
 10
41.63988531797577
 20
86.50875170951761
 30
0.0
 11
45.22988245505829
 21
86.50875170951757
 31
0.0
  0
ARC
  5
21F
330
1F
100
AcDbEntity
  8
LINEE VISIBILI 2D
100
AcDbCircle
 10
99.8891007852313
 20
17.99999999966706
 30
0.0
 40
3.593569840120239
100
AcDbArc
 50
179.9999999999995
 51
270.0000000000009
  0
ARC
  5
220
330
1F
100
AcDbEntity
  8
LINEE VISIBILI 2D
100
AcDbCircle
 10
99.88910078523132
 20
17.99999999966705
 30
0.0
 40
3.593569840120251
100
AcDbArc
 50
270.0000000000007
 51
0.0000000000005664
  0
LINE
  5
221
330
1F
100
AcDbEntity
  8
LINEE VISIBILI 2D
100
AcDbLine
 10
41.63988531797577
 20
85.66853303956505
 30
0.0
 11
44.1614404296358
 21
85.66853303956498
 31
0.0
  0
LINE
  5
222
330
1F
100
AcDbEntity
  8
LINEE VISIBILI 2D
100
AcDbLine
 10
96.32140484251173
 20
86.45685669978745
 30
0.0
 11
103.4532497485674
 21
86.45685669978745
 31
0.0
  0
LINE
  5
223
330
1F
100
AcDbEntity
  8
LINEE VISIBILI 2D
100
AcDbLine
 10
38.8706728770193
 20
85.33962585336238
 30
0.0
 11
41.63988530454179
 21
85.33962585336236
 31
0.0
  0
LINE
  5
224
330
1F
100
AcDbEntity
  8
LINEE VISIBILI 2D
100
AcDbLine
 10
96.29553094511053
 20
86.50875170951761
 30
0.0
 11
96.32140484251173
 21
86.45685669978745
 31
0.0
  0
LINE
  5
225
330
1F
100
AcDbEntity
  8
LINEE VISIBILI 2D
100
AcDbLine
 10
103.4826706253511
 20
86.50875170951761
 30
0.0
 11
103.4826706253511
 21
86.6712928564564
 31
0.0
  0
ARC
  5
226
330
1F
100
AcDbEntity
  8
LINEE VISIBILI 2D
100
AcDbCircle
 10
99.88910078523185
 20
17.999996903626
 30
0.0
 40
17.9999969039589
100
AcDbArc
 50
179.9999996750997
 51
0.0000193851127308
  0
LINE
  5
227
330
1F
100
AcDbEntity
  8
LINEE VISIBILI 2D
100
AcDbLine
 10
96.29553094511053
 20
86.50875170951761
 30
0.0
 11
103.4790979223134
 21
86.50875170951761
 31
0.0
  0
LINE
  5
228
330
1F
100
AcDbEntity
  8
LINEE VISIBILI 2D
100
AcDbLine
 10
102.6587140071447
 20
85.3239370570292
 30
0.0
 11
102.6736420540032
 21
84.73957025396444
 31
0.0
  0
LINE
  5
229
330
1F
100
AcDbEntity
  8
LINEE VISIBILI 2D
100
AcDbLine
 10
97.10455951650121
 20
84.73957025396444
 30
0.0
 11
97.11988834539443
 21
85.33962564188643
 31
0.0
  0
POLYLINE
  5
22A
330
1F
100
AcDbEntity
  8
LINEE VISIBILI 2D
100
AcDb2dPolyline
 66
     1
 10
0.0
 20
0.0
 30
0.0
  0
VERTEX
  5
22B
330
22A
100
AcDbEntity
  8
LINEE VISIBILI 2D
100
AcDbVertex
100
AcDb2dVertex
 10
82.14903630319108
 20
58.24921976790917
 30
0.0
  0
VERTEX
  5
22C
330
22A
100
AcDbEntity
  8
LINEE VISIBILI 2D
100
AcDbVertex
100
AcDb2dVertex
 10
82.1443073779447
 20
58.24926253450825
 30
0.0
  0
VERTEX
  5
22D
330
22A
100
AcDbEntity
  8
LINEE VISIBILI 2D
100
AcDbVertex
100
AcDb2dVertex
 10
82.13957450547039
 20
58.24939153180036
 30
0.0
  0
VERTEX
  5
22E
330
22A
100
AcDbEntity
  8
LINEE VISIBILI 2D
100
AcDbVertex
100
AcDb2dVertex
 10
82.13484004041533
 20
58.24960697563189
 30
0.0
  0
VERTEX
  5
22F
330
22A
100
AcDbEntity
  8
LINEE VISIBILI 2D
100
AcDbVertex
100
AcDb2dVertex
 10
82.13010634845085
 20
58.24990899616399
 30
0.0
  0
VERTEX
  5
230
330
22A
100
AcDbEntity
  8
LINEE VISIBILI 2D
100
AcDbVertex
100
AcDb2dVertex
 10
82.12537580237358
 20
58.25029763726182
 30
0.0
  0
VERTEX
  5
231
330
22A
100
AcDbEntity
  8
LINEE VISIBILI 2D
100
AcDbVertex
100
AcDb2dVertex
 10
82.1206507781686
 20
58.25077285609697
 30
0.0
  0
VERTEX
  5
232
330
22A
100
AcDbEntity
  8
LINEE VISIBILI 2D
100
AcDbVertex
100
AcDb2dVertex
 10
82.11593365104918
 20
58.25133452296554
 30
0.0
  0
VERTEX
  5
233
330
22A
100
AcDbEntity
  8
LINEE VISIBILI 2D
100
AcDbVertex
100
AcDb2dVertex
 10
82.11122679148656
 20
58.25198242132338
 30
0.0
  0
VERTEX
  5
234
330
22A
100
AcDbEntity
  8
LINEE VISIBILI 2D
100
AcDbVertex
100
AcDb2dVertex
 10
82.1065325612434
 20
58.25271624803913
 30
0.0
  0
VERTEX
  5
235
330
22A
100
AcDbEntity
  8
LINEE VISIBILI 2D
100
AcDbVertex
100
AcDb2dVertex
 10
82.10185330942537
 20
58.25353561386434
 30
0.0
  0
VERTEX
  5
236
330
22A
100
AcDbEntity
  8
LINEE VISIBILI 2D
100
AcDbVertex
100
AcDb2dVertex
 10
82.09719136856424
 20
58.25444004411935
 30
0.0
  0
VERTEX
  5
237
330
22A
100
AcDbEntity
  8
LINEE VISIBILI 2D
100
AcDbVertex
100
AcDb2dVertex
 10
82.0925490507463
 20
58.25542897959219
 30
0.0
  0
VERTEX
  5
238
330
22A
100
AcDbEntity
  8
LINEE VISIBILI 2D
100
AcDbVertex
100
AcDb2dVertex
 10
82.08792864380007
 20
58.25650177764739
 30
0.0
  0
VERTEX
  5
239
330
22A
100
AcDbEntity
  8
LINEE VISIBILI 2D
100
AcDbVertex
100
AcDb2dVertex
 10
82.08333240755553
 20
58.25765771353953
 30
0.0
  0
VERTEX
  5
23A
330
22A
100
AcDbEntity
  8
LINEE VISIBILI 2D
100
AcDbVertex
100
AcDb2dVertex
 10
82.07876257018859
 20
58.25889598192678
 30
0.0
  0
VERTEX
  5
23B
330
22A
100
AcDbEntity
  8
LINEE VISIBILI 2D
100
AcDbVertex
100
AcDb2dVertex
 10
82.07422132466237
 20
58.26021569857782
 30
0.0
  0
VERTEX
  5
23C
330
22A
100
AcDbEntity
  8
LINEE VISIBILI 2D
100
AcDbVertex
100
AcDb2dVertex
 10
82.06943804851619
 20
58.26170347157522
 30
0.0
  0
VERTEX
  5
23D
330
22A
100
AcDbEntity
  8
LINEE VISIBILI 2D
100
AcDbVertex
100
AcDb2dVertex
 10
82.0646537352348
 20
58.26329364856451
 30
0.0
  0
VERTEX
  5
23E
330
22A
100
AcDbEntity
  8
LINEE VISIBILI 2D
100
AcDbVertex
100
AcDb2dVertex
 10
82.05987138286065
 20
58.26498719666999
 30
0.0
  0
VERTEX
  5
23F
330
22A
100
AcDbEntity
  8
LINEE VISIBILI 2D
100
AcDbVertex
100
AcDb2dVertex
 10
82.05509406305123
 20
58.26678497636451
 30
0.0
  0
VERTEX
  5
240
330
22A
100
AcDbEntity
  8
LINEE VISIBILI 2D
100
AcDbVertex
100
AcDb2dVertex
 10
82.05032491685392
 20
58.26868773629136
 30
0.0
  0
VERTEX
  5
241
330
22A
100
AcDbEntity
  8
LINEE VISIBILI 2D
100
AcDbVertex
100
AcDb2dVertex
 10
82.04556715010034
 20
58.27069610825241
 30
0.0
  0
VERTEX
  5
242
330
22A
100
AcDbEntity
  8
LINEE VISIBILI 2D
100
AcDbVertex
100
AcDb2dVertex
 10
82.04082402842556
 20
58.27281060239202
 30
0.0
  0
VERTEX
  5
243
330
22A
100
AcDbEntity
  8
LINEE VISIBILI 2D
100
AcDbVertex
100
AcDb2dVertex
 10
82.03609887191845
 20
58.27503160260705
 30
0.0
  0
VERTEX
  5
244
330
22A
100
AcDbEntity
  8
LINEE VISIBILI 2D
100
AcDbVertex
100
AcDb2dVertex
 10
82.03139504941316
 20
58.27735936221287
 30
0.0
  0
VERTEX
  5
245
330
22A
100
AcDbEntity
  8
LINEE VISIBILI 2D
100
AcDbVertex
100
AcDb2dVertex
 10
82.02671597243386
 20
58.27979399989522
 30
0.0
  0
VERTEX
  5
246
330
22A
100
AcDbEntity
  8
LINEE VISIBILI 2D
100
AcDbVertex
100
AcDb2dVertex
 10
82.02206508880735
 20
58.28233549597735
 30
0.0
  0
VERTEX
  5
247
330
22A
100
AcDbEntity
  8
LINEE VISIBILI 2D
100
AcDbVertex
100
AcDb2dVertex
 10
82.01744587596133
 20
58.28498368903134
 30
0.0
  0
VERTEX
  5
248
330
22A
100
AcDbEntity
  8
LINEE VISIBILI 2D
100
AcDbVertex
100
AcDb2dVertex
 10
82.01286183392855
 20
58.28773827286108
 30
0.0
  0
VERTEX
  5
249
330
22A
100
AcDbEntity
  8
LINEE VISIBILI 2D
100
AcDbVertex
100
AcDb2dVertex
 10
82.00831647807937
 20
58.2905987938837
 30
0.0
  0
VERTEX
  5
24A
330
22A
100
AcDbEntity
  8
LINEE VISIBILI 2D
100
AcDbVertex
100
AcDb2dVertex
 10
82.00381333160843
 20
58.29356464893419
 30
0.0
  0
VERTEX
  5
24B
330
22A
100
AcDbEntity
  8
LINEE VISIBILI 2D
100
AcDbVertex
100
AcDb2dVertex
 10
81.99935591780309
 20
58.29663508351683
 30
0.0
  0
VERTEX
  5
24C
330
22A
100
AcDbEntity
  8
LINEE VISIBILI 2D
100
AcDbVertex
100
AcDb2dVertex
 10
81.99494775212378
 20
58.2998091905244
 30
0.0
  0
VERTEX
  5
24D
330
22A
100
AcDbEntity
  8
LINEE VISIBILI 2D
100
AcDbVertex
100
AcDb2dVertex
 10
81.99059233412859
 20
58.30308590944433
 30
0.0
  0
VERTEX
  5
24E
330
22A
100
AcDbEntity
  8
LINEE VISIBILI 2D
100
AcDbVertex
100
AcDb2dVertex
 10
81.98629313927663
 20
58.30646402606826
 30
0.0
  0
VERTEX
  5
24F
330
22A
100
AcDbEntity
  8
LINEE VISIBILI 2D
100
AcDbVertex
100
AcDb2dVertex
 10
81.98205361064575
 20
58.30994217271876
 30
0.0
  0
VERTEX
  5
250
330
22A
100
AcDbEntity
  8
LINEE VISIBILI 2D
100
AcDbVertex
100
AcDb2dVertex
 10
81.97787715060278
 20
58.31351882900398
 30
0.0
  0
VERTEX
  5
251
330
22A
100
AcDbEntity
  8
LINEE VISIBILI 2D
100
AcDbVertex
100
AcDb2dVertex
 10
81.97376711246454
 20
58.31719232310827
 30
0.0
  0
VERTEX
  5
252
330
22A
100
AcDbEntity
  8
LINEE VISIBILI 2D
100
AcDbVertex
100
AcDb2dVertex
 10
81.96972679219002
 20
58.32096083362289
 30
0.0
  0
VERTEX
  5
253
330
22A
100
AcDbEntity
  8
LINEE VISIBILI 2D
100
AcDbVertex
100
AcDb2dVertex
 10
81.96575942014394
 20
58.3248223919184
 30
0.0
  0
VERTEX
  5
254
330
22A
100
AcDbEntity
  8
LINEE VISIBILI 2D
100
AcDbVertex
100
AcDb2dVertex
 10
81.96186815297261
 20
58.32877488505599
 30
0.0
  0
VERTEX
  5
255
330
22A
100
AcDbEntity
  8
LINEE VISIBILI 2D
100
AcDbVertex
100
AcDb2dVertex
 10
81.95805606563312
 20
58.33281605923242
 30
0.0
  0
VERTEX
  5
256
330
22A
100
AcDbEntity
  8
LINEE VISIBILI 2D
100
AcDbVertex
100
AcDb2dVertex
 10
81.95432614361621
 20
58.33694352374882
 30
0.0
  0
VERTEX
  5
257
330
22A
100
AcDbEntity
  8
LINEE VISIBILI 2D
100
AcDbVertex
100
AcDb2dVertex
 10
81.9506812754031
 20
58.34115475549062
 30
0.0
  0
VERTEX
  5
258
330
22A
100
AcDbEntity
  8
LINEE VISIBILI 2D
100
AcDbVertex
100
AcDb2dVertex
 10
81.94712424519474
 20
58.34544710390241
 30
0.0
  0
VERTEX
  5
259
330
22A
100
AcDbEntity
  8
LINEE VISIBILI 2D
100
AcDbVertex
100
AcDb2dVertex
 10
81.94365772595197
 20
58.34981779643799
 30
0.0
  0
VERTEX
  5
25A
330
22A
100
AcDbEntity
  8
LINEE VISIBILI 2D
100
AcDbVertex
100
AcDb2dVertex
 10
81.94028427278133
 20
58.35426394446247
 30
0.0
  0
VERTEX
  5
25B
330
22A
100
AcDbEntity
  8
LINEE VISIBILI 2D
100
AcDbVertex
100
AcDb2dVertex
 10
81.93700631670157
 20
58.35878254958069
 30
0.0
  0
VERTEX
  5
25C
330
22A
100
AcDbEntity
  8
LINEE VISIBILI 2D
100
AcDbVertex
100
AcDb2dVertex
 10
81.93382615882234
 20
58.3633705103628
 30
0.0
  0
VERTEX
  5
25D
330
22A
100
AcDbEntity
  8
LINEE VISIBILI 2D
100
AcDbVertex
100
AcDb2dVertex
 10
81.93074596496362
 20
58.3680246294355
 30
0.0
  0
VERTEX
  5
25E
330
22A
100
AcDbEntity
  8
LINEE VISIBILI 2D
100
AcDbVertex
100
AcDb2dVertex
 10
81.9277677607432
 20
58.37274162090491
 30
0.0
  0
VERTEX
  5
25F
330
22A
100
AcDbEntity
  8
LINEE VISIBILI 2D
100
AcDbVertex
100
AcDb2dVertex
 10
81.92489342715493
 20
58.37751811807485
 30
0.0
  0
VERTEX
  5
260
330
22A
100
AcDbEntity
  8
LINEE VISIBILI 2D
100
AcDbVertex
100
AcDb2dVertex
 10
81.92212469665816
 20
58.38235068142264
 30
0.0
  0
VERTEX
  5
261
330
22A
100
AcDbEntity
  8
LINEE VISIBILI 2D
100
AcDbVertex
100
AcDb2dVertex
 10
81.91946314979529
 20
58.38723580679291
 30
0.0
  0
VERTEX
  5
262
330
22A
100
AcDbEntity
  8
LINEE VISIBILI 2D
100
AcDbVertex
100
AcDb2dVertex
 10
81.91691021235047
 20
58.39216993376849
 30
0.0
  0
VERTEX
  5
263
330
22A
100
AcDbEntity
  8
LINEE VISIBILI 2D
100
AcDbVertex
100
AcDb2dVertex
 10
81.91446715305929
 20
58.39714945417723
 30
0.0
  0
VERTEX
  5
264
330
22A
100
AcDbEntity
  8
LINEE VISIBILI 2D
100
AcDbVertex
100
AcDb2dVertex
 10
81.91213508187587
 20
58.40217072069245
 30
0.0
  0
VERTEX
  5
265
330
22A
100
AcDbEntity
  8
LINEE VISIBILI 2D
100
AcDbVertex
100
AcDb2dVertex
 10
81.90991494879955
 20
58.40723005548499
 30
0.0
  0
VERTEX
  5
266
330
22A
100
AcDbEntity
  8
LINEE VISIBILI 2D
100
AcDbVertex
100
AcDb2dVertex
 10
81.90780754326016
 20
58.41232375888475
 30
0.0
  0
VERTEX
  5
267
330
22A
100
AcDbEntity
  8
LINEE VISIBILI 2D
100
AcDbVertex
100
AcDb2dVertex
 10
81.90581349405758
 20
58.4174481180106
 30
0.0
  0
VERTEX
  5
268
330
22A
100
AcDbEntity
  8
LINEE VISIBILI 2D
100
AcDbVertex
100
AcDb2dVertex
 10
81.90393326984676
 20
58.42259941532789
 30
0.0
  0
VERTEX
  5
269
330
22A
100
AcDbEntity
  8
LINEE VISIBILI 2D
100
AcDbVertex
100
AcDb2dVertex
 10
81.90216718015799
 20
58.42777393709433
 30
0.0
  0
VERTEX
  5
26A
330
22A
100
AcDbEntity
  8
LINEE VISIBILI 2D
100
AcDbVertex
100
AcDb2dVertex
 10
81.90051537693674
 20
58.43296798165627
 30
0.0
  0
VERTEX
  5
26B
330
22A
100
AcDbEntity
  8
LINEE VISIBILI 2D
100
AcDbVertex
100
AcDb2dVertex
 10
81.8989778565867
 20
58.43817786755955
 30
0.0
  0
VERTEX
  5
26C
330
22A
100
AcDbEntity
  8
LINEE VISIBILI 2D
100
AcDbVertex
100
AcDb2dVertex
 10
81.89755446249484
 20
58.44339994144046
 30
0.0
  0
VERTEX
  5
26D
330
22A
100
AcDbEntity
  8
LINEE VISIBILI 2D
100
AcDbVertex
100
AcDb2dVertex
 10
81.89624488801667
 20
58.44863058566514
 30
0.0
  0
VERTEX
  5
26E
330
22A
100
AcDbEntity
  8
LINEE VISIBILI 2D
100
AcDbVertex
100
AcDb2dVertex
 10
81.89504867989604
 20
58.45386622568798
 30
0.0
  0
VERTEX
  5
26F
330
22A
100
AcDbEntity
  8
LINEE VISIBILI 2D
100
AcDbVertex
100
AcDb2dVertex
 10
81.89396524209357
 20
58.45910333710189
 30
0.0
  0
VERTEX
  5
270
330
22A
100
AcDbEntity
  8
LINEE VISIBILI 2D
100
AcDbVertex
100
AcDb2dVertex
 10
81.89299383999352
 20
58.46433845235639
 30
0.0
  0
VERTEX
  5
271
330
22A
100
AcDbEntity
  8
LINEE VISIBILI 2D
100
AcDbVertex
100
AcDb2dVertex
 10
81.89213360496083
 20
58.46956816712218
 30
0.0
  0
VERTEX
  5
272
330
22A
100
AcDbEntity
  8
LINEE VISIBILI 2D
100
AcDbVertex
100
AcDb2dVertex
 10
81.89138353921584
 20
58.47478914628328
 30
0.0
  0
VERTEX
  5
273
330
22A
100
AcDbEntity
  8
LINEE VISIBILI 2D
100
AcDbVertex
100
AcDb2dVertex
 10
81.89074252099542
 20
58.47999812954153
 30
0.0
  0
VERTEX
  5
274
330
22A
100
AcDbEntity
  8
LINEE VISIBILI 2D
100
AcDbVertex
100
AcDb2dVertex
 10
81.89020930996736
 20
58.4851919366203
 30
0.0
  0
VERTEX
  5
275
330
22A
100
AcDbEntity
  8
LINEE VISIBILI 2D
100
AcDbVertex
100
AcDb2dVertex
 10
81.88978255286588
 20
58.49036747205779
 30
0.0
  0
VERTEX
  5
276
330
22A
100
AcDbEntity
  8
LINEE VISIBILI 2D
100
AcDbVertex
100
AcDb2dVertex
 10
81.88946078931443
 20
58.49552172958261
 30
0.0
  0
VERTEX
  5
277
330
22A
100
AcDbEntity
  8
LINEE VISIBILI 2D
100
AcDbVertex
100
AcDb2dVertex
 10
81.88924245780393
 20
58.50065179606776
 30
0.0
  0
VERTEX
  5
278
330
22A
100
AcDbEntity
  8
LINEE VISIBILI 2D
100
AcDbVertex
100
AcDb2dVertex
 10
81.88912590179393
 20
58.50575485506094
 30
0.0
  0
VERTEX
  5
279
330
22A
100
AcDbEntity
  8
LINEE VISIBILI 2D
100
AcDbVertex
100
AcDb2dVertex
 10
81.88910937590472
 20
58.51082818989232
 30
0.0
  0
VERTEX
  5
27A
330
22A
100
AcDbEntity
  8
LINEE VISIBILI 2D
100
AcDbVertex
100
AcDb2dVertex
 10
81.88919105217059
 20
58.5158691863632
 30
0.0
  0
VERTEX
  5
27B
330
22A
100
AcDbEntity
  8
LINEE VISIBILI 2D
100
AcDbVertex
100
AcDb2dVertex
 10
81.88936902632386
 20
58.52087533502091
 30
0.0
  0
VERTEX
  5
27C
330
22A
100
AcDbEntity
  8
LINEE VISIBILI 2D
100
AcDbVertex
100
AcDb2dVertex
 10
81.96439561614136
 20
59.85818298709876
 30
0.0
  0
VERTEX
  5
27D
330
22A
100
AcDbEntity
  8
LINEE VISIBILI 2D
100
AcDbVertex
100
AcDb2dVertex
 10
82.0685646874114
 20
61.19449148355003
 30
0.0
  0
VERTEX
  5
27E
330
22A
100
AcDbEntity
  8
LINEE VISIBILI 2D
100
AcDbVertex
100
AcDb2dVertex
 10
82.20185397094988
 20
62.5288486878242
 30
0.0
  0
VERTEX
  5
27F
330
22A
100
AcDbEntity
  8
LINEE VISIBILI 2D
100
AcDbVertex
100
AcDb2dVertex
 10
82.36419973081559
 20
63.86030343322199
 30
0.0
  0
VERTEX
  5
280
330
22A
100
AcDbEntity
  8
LINEE VISIBILI 2D
100
AcDbVertex
100
AcDb2dVertex
 10
82.5554968416769
 20
65.18790777946555
 30
0.0
  0
VERTEX
  5
281
330
22A
100
AcDbEntity
  8
LINEE VISIBILI 2D
100
AcDbVertex
100
AcDb2dVertex
 10
82.77559901341374
 20
66.51071926100828
 30
0.0
  0
VERTEX
  5
282
330
22A
100
AcDbEntity
  8
LINEE VISIBILI 2D
100
AcDbVertex
100
AcDb2dVertex
 10
83.02431916195917
 20
67.82780311589553
 30
0.0
  0
VERTEX
  5
283
330
22A
100
AcDbEntity
  8
LINEE VISIBILI 2D
100
AcDbVertex
100
AcDb2dVertex
 10
83.30142992441696
 20
69.13823448411581
 30
0.0
  0
VERTEX
  5
284
330
22A
100
AcDbEntity
  8
LINEE VISIBILI 2D
100
AcDbVertex
100
AcDb2dVertex
 10
83.5152879051372
 20
70.02912484107742
 30
0.0
  0
VERTEX
  5
285
330
22A
100
AcDbEntity
  8
LINEE VISIBILI 2D
100
AcDbVertex
100
AcDb2dVertex
 10
83.7590829468233
 20
70.91590371163764
 30
0.0
  0
VERTEX
  5
286
330
22A
100
AcDbEntity
  8
LINEE VISIBILI 2D
100
AcDbVertex
100
AcDb2dVertex
 10
84.03273452130003
 20
71.79707604346075
 30
0.0
  0
VERTEX
  5
287
330
22A
100
AcDbEntity
  8
LINEE VISIBILI 2D
100
AcDbVertex
100
AcDb2dVertex
 10
84.33606307572919
 20
72.67114555809206
 30
0.0
  0
VERTEX
  5
288
330
22A
100
AcDbEntity
  8
LINEE VISIBILI 2D
100
AcDbVertex
100
AcDb2dVertex
 10
84.66878952432299
 20
73.53662293102963
 30
0.0
  0
VERTEX
  5
289
330
22A
100
AcDbEntity
  8
LINEE VISIBILI 2D
100
AcDbVertex
100
AcDb2dVertex
 10
85.03053555086845
 20
74.3920340492104
 30
0.0
  0
VERTEX
  5
28A
330
22A
100
AcDbEntity
  8
LINEE VISIBILI 2D
100
AcDbVertex
100
AcDb2dVertex
 10
85.42082473259873
 20
75.23592825202721
 30
0.0
  0
VERTEX
  5
28B
330
22A
100
AcDbEntity
  8
LINEE VISIBILI 2D
100
AcDbVertex
100
AcDb2dVertex
 10
85.83908448350107
 20
76.06688646059467
 30
0.0
  0
VERTEX
  5
28C
330
22A
100
AcDbEntity
  8
LINEE VISIBILI 2D
100
AcDbVertex
100
AcDb2dVertex
 10
86.2846488025263
 20
76.88352910044524
 30
0.0
  0
VERTEX
  5
28D
330
22A
100
AcDbEntity
  8
LINEE VISIBILI 2D
100
AcDbVertex
100
AcDb2dVertex
 10
86.75676179967107
 20
77.68452372517781
 30
0.0
  0
VERTEX
  5
28E
330
22A
100
AcDbEntity
  8
LINEE VISIBILI 2D
100
AcDbVertex
100
AcDb2dVertex
 10
87.254581960852
 20
78.46859225276357
 30
0.0
  0
VERTEX
  5
28F
330
22A
100
AcDbEntity
  8
LINEE VISIBILI 2D
100
AcDbVertex
100
AcDb2dVertex
 10
87.7771871011773
 20
79.23451773214538
 30
0.0
  0
VERTEX
  5
290
330
22A
100
AcDbEntity
  8
LINEE VISIBILI 2D
100
AcDbVertex
100
AcDb2dVertex
 10
88.32357994592729
 20
79.981150565301
 30
0.0
  0
VERTEX
  5
291
330
22A
100
AcDbEntity
  8
LINEE VISIBILI 2D
100
AcDbVertex
100
AcDb2dVertex
 10
88.8926942695216
 20
80.70741411888464
 30
0.0
  0
VERTEX
  5
292
330
22A
100
AcDbEntity
  8
LINEE VISIBILI 2D
100
AcDbVertex
100
AcDb2dVertex
 10
89.48340151519292
 20
81.41230966968223
 30
0.0
  0
VERTEX
  5
293
330
22A
100
AcDbEntity
  8
LINEE VISIBILI 2D
100
AcDbVertex
100
AcDb2dVertex
 10
90.09451781215367
 20
82.09492063914715
 30
0.0
  0
VERTEX
  5
294
330
22A
100
AcDbEntity
  8
LINEE VISIBILI 2D
100
AcDbVertex
100
AcDb2dVertex
 10
90.39217615547852
 20
82.40637028805035
 30
0.0
  0
VERTEX
  5
295
330
22A
100
AcDbEntity
  8
LINEE VISIBILI 2D
100
AcDbVertex
100
AcDb2dVertex
 10
90.70029593594535
 20
82.70845474555954
 30
0.0
  0
VERTEX
  5
296
330
22A
100
AcDbEntity
  8
LINEE VISIBILI 2D
100
AcDbVertex
100
AcDb2dVertex
 10
91.01842753248289
 20
83.00065497601624
 30
0.0
  0
VERTEX
  5
297
330
22A
100
AcDbEntity
  8
LINEE VISIBILI 2D
100
AcDbVertex
100
AcDb2dVertex
 10
91.3460874735976
 20
83.2824812671097
 30
0.0
  0
VERTEX
  5
298
330
22A
100
AcDbEntity
  8
LINEE VISIBILI 2D
100
AcDbVertex
100
AcDb2dVertex
 10
91.6827608722289
 20
83.55347594974538
 30
0.0
  0
VERTEX
  5
299
330
22A
100
AcDbEntity
  8
LINEE VISIBILI 2D
100
AcDbVertex
100
AcDb2dVertex
 10
92.02790411863953
 20
83.81321587130462
 30
0.0
  0
VERTEX
  5
29A
330
22A
100
AcDbEntity
  8
LINEE VISIBILI 2D
100
AcDbVertex
100
AcDb2dVertex
 10
92.38094780182428
 20
84.06131459428993
 30
0.0
  0
VERTEX
  5
29B
330
22A
100
AcDbEntity
  8
LINEE VISIBILI 2D
100
AcDbVertex
100
AcDb2dVertex
 10
92.74129982653457
 20
84.29742429641998
 30
0.0
  0
VERTEX
  5
29C
330
22A
100
AcDbEntity
  8
LINEE VISIBILI 2D
100
AcDbVertex
100
AcDb2dVertex
 10
93.09989624035686
 20
84.51626663977515
 30
0.0
  0
VERTEX
  5
29D
330
22A
100
AcDbEntity
  8
LINEE VISIBILI 2D
100
AcDbVertex
100
AcDb2dVertex
 10
93.4652471764941
 20
84.72363600278481
 30
0.0
  0
VERTEX
  5
29E
330
22A
100
AcDbEntity
  8
LINEE VISIBILI 2D
100
AcDbVertex
100
AcDb2dVertex
 10
93.46893494716721
 20
84.7255764156556
 30
0.0
  0
VERTEX
  5
29F
330
22A
100
AcDbEntity
  8
LINEE VISIBILI 2D
100
AcDbVertex
100
AcDb2dVertex
 10
93.47269687818653
 20
84.72740405260342
 30
0.0
  0
VERTEX
  5
2A0
330
22A
100
AcDbEntity
  8
LINEE VISIBILI 2D
100
AcDbVertex
100
AcDb2dVertex
 10
93.4765277930226
 20
84.7291148721993
 30
0.0
  0
VERTEX
  5
2A1
330
22A
100
AcDbEntity
  8
LINEE VISIBILI 2D
100
AcDbVertex
100
AcDb2dVertex
 10
93.48042223136562
 20
84.73070515147785
 30
0.0
  0
VERTEX
  5
2A2
330
22A
100
AcDbEntity
  8
LINEE VISIBILI 2D
100
AcDbVertex
100
AcDb2dVertex
 10
93.48437447384958
 20
84.73217151023293
 30
0.0
  0
VERTEX
  5
2A3
330
22A
100
AcDbEntity
  8
LINEE VISIBILI 2D
100
AcDbVertex
100
AcDb2dVertex
 10
93.48837856922509
 20
84.73351093297902
 30
0.0
  0
VERTEX
  5
2A4
330
22A
100
AcDbEntity
  8
LINEE VISIBILI 2D
100
AcDbVertex
100
AcDb2dVertex
 10
93.49242836371852
 20
84.73472078829526
 30
0.0
  0
VERTEX
  5
2A5
330
22A
100
AcDbEntity
  8
LINEE VISIBILI 2D
100
AcDbVertex
100
AcDb2dVertex
 10
93.49651753228
 20
84.73579884530317
 30
0.0
  0
VERTEX
  5
2A6
330
22A
100
AcDbEntity
  8
LINEE VISIBILI 2D
100
AcDbVertex
100
AcDb2dVertex
 10
93.50063961139008
 20
84.73674328706782
 30
0.0
  0
VERTEX
  5
2A7
330
22A
100
AcDbEntity
  8
LINEE VISIBILI 2D
100
AcDbVertex
100
AcDb2dVertex
 10
93.50478803306916
 20
84.7375527207573
 30
0.0
  0
VERTEX
  5
2A8
330
22A
100
AcDbEntity
  8
LINEE VISIBILI 2D
100
AcDbVertex
100
AcDb2dVertex
 10
93.50895615971501
 20
84.73822618444073
 30
0.0
  0
VERTEX
  5
2A9
330
22A
100
AcDbEntity
  8
LINEE VISIBILI 2D
100
AcDbVertex
100
AcDb2dVertex
 10
93.51313731938049
 20
84.738763150457
 30
0.0
  0
VERTEX
  5
2AA
330
22A
100
AcDbEntity
  8
LINEE VISIBILI 2D
100
AcDbVertex
100
AcDb2dVertex
 10
93.51732484109962
 20
84.73916352533475
 30
0.0
  0
VERTEX
  5
2AB
330
22A
100
AcDbEntity
  8
LINEE VISIBILI 2D
100
AcDbVertex
100
AcDb2dVertex
 10
93.52151208987277
 20
84.73942764629685
 30
0.0
  0
VERTEX
  5
2AC
330
22A
100
AcDbEntity
  8
LINEE VISIBILI 2D
100
AcDbVertex
100
AcDb2dVertex
 10
93.52569250093032
 20
84.73955627443132
 30
0.0
  0
VERTEX
  5
2AD
330
22A
100
AcDbEntity
  8
LINEE VISIBILI 2D
100
AcDbVertex
100
AcDb2dVertex
 10
93.52985961291265
 20
84.73955058465803
 30
0.0
  0
SEQEND
  5
2AE
330
22A
100
AcDbEntity
  8
LINEE VISIBILI 2D
  0
LINE
  5
2AF
330
1F
100
AcDbEntity
  8
LINEE VISIBILI 2D
100
AcDbLine
 10
97.11988834539449
 20
85.33962585336239
 30
0.0
 11
102.6583132261873
 21
85.33962585336238
 31
0.0
  0
LINE
  5
2B0
330
1F
100
AcDbEntity
  8
LINEE VISIBILI 2D
100
AcDbLine
 10
96.32140484251173
 20
86.45685669978745
 30
0.0
 11
97.36754567357076
 21
85.66853303956505
 31
0.0
  0
LINE
  5
2B1
330
1F
100
AcDbEntity
  8
LINEE VISIBILI 2D
100
AcDbLine
 10
97.9200207491968
 20
85.66853303956505
 30
0.0
 11
97.9200207491968
 21
85.33962585336238
 31
0.0
  0
LINE
  5
2B2
330
1F
100
AcDbEntity
  8
LINEE VISIBILI 2D
100
AcDbLine
 10
97.36754567357076
 20
85.66853303956505
 30
0.0
 11
102.4106558968909
 21
85.66853303956505
 31
0.0
  0
LINE
  5
2B3
330
1F
100
AcDbEntity
  8
LINEE VISIBILI 2D
100
AcDbLine
 10
101.8581808212648
 20
85.33962585336238
 30
0.0
 11
101.8581808212648
 21
85.66853303956505
 31
0.0
  0
LINE
  5
2B4
330
1F
100
AcDbEntity
  8
LINEE VISIBILI 2D
100
AcDbLine
 10
96.29553094511053
 20
86.6712928564564
 30
0.0
 11
99.88910078523082
 21
86.6712928564564
 31
0.0
  0
LINE
  5
2B5
330
1F
100
AcDbEntity
  8
LINEE VISIBILI 2D
100
AcDbLine
 10
103.4567967279499
 20
86.45685669978745
 30
0.0
 11
103.4819593270129
 21
86.5073250657612
 31
0.0
  0
LINE
  5
2B6
330
1F
100
AcDbEntity
  8
LINEE VISIBILI 2D
100
AcDbLine
 10
102.4106558968909
 20
85.66853303956505
 30
0.0
 11
103.4545343982496
 21
86.45515191207912
 31
0.0
  0
LINE
  5
2B7
330
1F
100
AcDbEntity
  8
LINEE VISIBILI 2D
100
AcDbLine
 10
95.58593033265458
 20
84.73957025396444
 30
0.0
 11
96.50955857349715
 21
84.73957025396443
 31
0.0
  0
ENDSEC
  0
SECTION
  2
OBJECTS
  0
DICTIONARY
  5
C
330
0
100
AcDbDictionary
281
     1
  3
ACAD_GROUP
350
D
  3
ACAD_LAYOUT
350
1A
  3
ACAD_MLEADERSTYLE
350
2B9
  3
ACAD_MLINESTYLE
350
17
  3
ACAD_PLOTSETTINGS
350
19
  3
ACAD_PLOTSTYLENAME
350
E
  3
ACAD_TABLESTYLE
350
2B8
  3
ACAD_VISUALSTYLE
350
2A
  0
DICTIONARY
  5
D
102
{ACAD_REACTORS
330
C
102
}
330
C
100
AcDbDictionary
281
     1
  0
DICTIONARY
  5
1A
102
{ACAD_REACTORS
330
C
102
}
330
C
100
AcDbDictionary
281
     1
  3
Layout1
350
1E
  3
Layout2
350
26
  3
Model
350
22
  0
DICTIONARY
  5
2B9
102
{ACAD_REACTORS
330
C
102
}
330
C
100
AcDbDictionary
281
     1
  0
DICTIONARY
  5
17
102
{ACAD_REACTORS
330
C
102
}
330
C
100
AcDbDictionary
281
     1
  3
Standard
350
18
  0
DICTIONARY
  5
19
102
{ACAD_REACTORS
330
C
102
}
330
C
100
AcDbDictionary
281
     1
  0
ACDBDICTIONARYWDFLT
  5
E
102
{ACAD_REACTORS
330
C
102
}
330
C
100
AcDbDictionary
281
     1
  3
Normal
350
F
100
AcDbDictionaryWithDefault
340
F
  0
DICTIONARY
  5
2B8
102
{ACAD_REACTORS
330
C
102
}
330
C
100
AcDbDictionary
281
     1
  0
DICTIONARY
  5
2A
102
{ACAD_REACTORS
330
C
102
}
330
C
100
AcDbDictionary
281
     1
  3
2dWireframe
350
2F
  3
3D Hidden
350
31
  3
3dWireframe
350
30
  3
Basic
350
32
  3
Brighten
350
36
  3
ColorChange
350
3A
  3
Conceptual
350
34
  3
Dim
350
35
  3
Facepattern
350
39
  3
Flat
350
2B
  3
FlatWithEdges
350
2C
  3
Gouraud
350
2D
  3
GouraudWithEdges
350
2E
  3
Linepattern
350
38
  3
Realistic
350
33
  3
Thicken
350
37
  0
LAYOUT
  5
1E
102
{ACAD_REACTORS
330
1A
102
}
330
1A
100
AcDbPlotSettings
  1

  2
none_device
  4

  6

 40
0.0
 41
0.0
 42
0.0
 43
0.0
 44
0.0
 45
0.0
 46
0.0
 47
0.0
 48
0.0
 49
0.0
140
0.0
141
0.0
142
1.0
143
1.0
 70
   688
 72
     0
 73
     0
 74
     5
  7

 75
    16
 76
     0
 77
     2
 78
   300
147
1.0
148
0.0
149
0.0
100
AcDbLayout
  1
Layout1
 70
     1
 71
     1
 10
0.0
 20
0.0
 11
12.0
 21
9.0
 12
0.0
 22
0.0
 32
0.0
 14
1.000000000000000E+20
 24
1.000000000000000E+20
 34
1.000000000000000E+20
 15
-1.000000000000000E+20
 25
-1.000000000000000E+20
 35
-1.000000000000000E+20
146
0.0
 13
0.0
 23
0.0
 33
0.0
 16
1.0
 26
0.0
 36
0.0
 17
0.0
 27
1.0
 37
0.0
 76
     0
330
1B
  0
LAYOUT
  5
26
102
{ACAD_REACTORS
330
1A
102
}
330
1A
100
AcDbPlotSettings
  1

  2
none_device
  4

  6

 40
0.0
 41
0.0
 42
0.0
 43
0.0
 44
0.0
 45
0.0
 46
0.0
 47
0.0
 48
0.0
 49
0.0
140
0.0
141
0.0
142
1.0
143
1.0
 70
   688
 72
     0
 73
     0
 74
     5
  7

 75
    16
 76
     0
 77
     2
 78
   300
147
1.0
148
0.0
149
0.0
100
AcDbLayout
  1
Layout2
 70
     1
 71
     2
 10
0.0
 20
0.0
 11
0.0
 21
0.0
 12
0.0
 22
0.0
 32
0.0
 14
0.0
 24
0.0
 34
0.0
 15
0.0
 25
0.0
 35
0.0
146
0.0
 13
0.0
 23
0.0
 33
0.0
 16
1.0
 26
0.0
 36
0.0
 17
0.0
 27
1.0
 37
0.0
 76
     0
330
23
  0
LAYOUT
  5
22
102
{ACAD_REACTORS
330
1A
102
}
330
1A
100
AcDbPlotSettings
  1

  2
none_device
  4

  6

 40
0.0
 41
0.0
 42
0.0
 43
0.0
 44
0.0
 45
0.0
 46
0.0
 47
0.0
 48
0.0
 49
0.0
140
0.0
141
0.0
142
1.0
143
1.0
 70
  1712
 72
     0
 73
     0
 74
     0
  7

 75
     0
 76
     0
 77
     2
 78
   300
147
1.0
148
0.0
149
0.0
100
AcDbLayout
  1
Model
 70
     1
 71
     0
 10
0.0
 20
0.0
 11
12.0
 21
9.0
 12
0.0
 22
0.0
 32
0.0
 14
23.63995553778022
 24
-0.0000000003329005
 34
0.0
 15
117.8890976891907
 25
86.67129285645642
 35
0.0
146
0.0
 13
0.0
 23
0.0
 33
0.0
 16
1.0
 26
0.0
 36
0.0
 17
0.0
 27
1.0
 37
0.0
 76
     0
330
1F
331
29
  0
MLINESTYLE
  5
18
102
{ACAD_REACTORS
330
17
102
}
330
17
100
AcDbMlineStyle
  2
Standard
 70
     0
  3

 62
   256
 51
90.0
 52
90.0
 71
     2
 49
0.5
 62
   256
  6
BYLAYER
 49
-0.5
 62
   256
  6
BYLAYER
  0
ACDBPLACEHOLDER
  5
F
102
{ACAD_REACTORS
330
E
102
}
330
E
  0
VISUALSTYLE
  5
2F
102
{ACAD_REACTORS
330
2A
102
}
330
2A
100
AcDbVisualStyle
  2
2dWireframe
 70
     4
 71
     0
 72
     2
 73
     0
 90
        0
 40
-0.6
 41
-30.0
 62
     5
 63
     7
421
 16777215
 74
     1
 91
        4
 64
     7
 65
   257
 75
     1
175
     1
 42
1.0
 92
        0
 66
   257
 43
1.0
 76
     1
 77
     6
 78
     2
 67
     7
 79
     5
170
     0
171
     0
290
     0
174
     0
 93
        1
 44
0.0
173
     0
291
     0
 45
0.0
1001
ACAD
1000
AcDbSavedByObjectVersion
1070
     0
  0
VISUALSTYLE
  5
31
102
{ACAD_REACTORS
330
2A
102
}
330
2A
100
AcDbVisualStyle
  2
3D Hidden
 70
     6
 71
     1
 72
     2
 73
     2
 90
        0
 40
-0.6
 41
-30.0
 62
     5
 63
     7
421
 16777215
 74
     2
 91
        2
 64
     7
 65
   257
 75
     2
175
     1
 42
40.0
 92
        0
 66
   257
 43
1.0
 76
     1
 77
     6
 78
     2
 67
     7
 79
     3
170
     0
171
     0
290
     0
174
     0
 93
        1
 44
0.0
173
     0
291
     0
 45
0.0
1001
ACAD
1000
AcDbSavedByObjectVersion
1070
     0
  0
VISUALSTYLE
  5
30
102
{ACAD_REACTORS
330
2A
102
}
330
2A
100
AcDbVisualStyle
  2
3dWireframe
 70
     5
 71
     0
 72
     2
 73
     0
 90
        0
 40
-0.6
 41
-30.0
 62
     5
 63
     7
421
 16777215
 74
     1
 91
        4
 64
     7
 65
   257
 75
     1
175
     1
 42
1.0
 92
        0
 66
   257
 43
1.0
 76
     1
 77
     6
 78
     2
 67
     7
 79
     5
170
     0
171
     0
290
     0
174
     0
 93
        1
 44
0.0
173
     0
291
     0
 45
0.0
1001
ACAD
1000
AcDbSavedByObjectVersion
1070
     0
  0
VISUALSTYLE
  5
32
102
{ACAD_REACTORS
330
2A
102
}
330
2A
100
AcDbVisualStyle
  2
Basic
 70
     7
 71
     1
 72
     0
 73
     1
 90
        0
 40
-0.6
 41
-30.0
 62
     5
 63
     7
421
 16777215
 74
     0
 91
        4
 64
     7
 65
   257
 75
     1
175
     1
 42
1.0
 92
        8
 66
     7
 43
1.0
 76
     1
 77
     6
 78
     2
 67
     7
 79
     5
170
     0
171
     0
290
     0
174
     0
 93
        1
 44
0.0
173
     0
291
     1
 45
0.0
1001
ACAD
1000
AcDbSavedByObjectVersion
1070
     0
  0
VISUALSTYLE
  5
36
102
{ACAD_REACTORS
330
2A
102
}
330
2A
100
AcDbVisualStyle
  2
Brighten
 70
    12
 71
     2
 72
     2
 73
     0
 90
        0
 40
-0.6
 41
-30.0
 62
     5
 63
     7
421
 16777215
 74
     1
 91
        4
 64
     7
 65
   257
 75
     1
175
     1
 42
1.0
 92
        8
 66
     7
 43
1.0
 76
     1
 77
     6
 78
     2
 67
     7
 79
     5
170
     0
171
     0
290
     0
174
     0
 93
        1
 44
50.0
173
     0
291
     1
 45
0.0
1001
ACAD
1000
AcDbSavedByObjectVersion
1070
     0
  0
VISUALSTYLE
  5
3A
102
{ACAD_REACTORS
330
2A
102
}
330
2A
100
AcDbVisualStyle
  2
ColorChange
 70
    16
 71
     2
 72
     2
 73
     3
 90
        0
 40
-0.6
 41
-30.0
 62
     5
 63
     8
421
  8421504
 74
     1
 91
        4
 64
     7
 65
   257
 75
     1
175
     1
 42
1.0
 92
        8
 66
     8
424
  8421504
 43
1.0
 76
     1
 77
     6
 78
     2
 67
     7
 79
     5
170
     0
171
     0
290
     0
174
     0
 93
        1
 44
0.0
173
     0
291
     1
 45
0.0
1001
ACAD
1000
AcDbSavedByObjectVersion
1070
     0
  0
VISUALSTYLE
  5
34
102
{ACAD_REACTORS
330
2A
102
}
330
2A
100
AcDbVisualStyle
  2
Conceptual
 70
     9
 71
     3
 72
     2
 73
     0
 90
        0
 40
-0.6
 41
-30.0
 62
     5
 63
     7
421
 16777215
 74
     2
 91
        2
 64
     7
 65
   257
 75
     1
175
     1
 42
40.0
 92
        8
 66
     7
 43
1.0
 76
     1
 77
     6
 78
     2
 67
     7
 79
     3
170
     0
171
     0
290
     0
174
     0
 93
        1
 44
0.0
173
     0
291
     0
 45
0.0
1001
ACAD
1000
AcDbSavedByObjectVersion
1070
     0
  0
VISUALSTYLE
  5
35
102
{ACAD_REACTORS
330
2A
102
}
330
2A
100
AcDbVisualStyle
  2
Dim
 70
    11
 71
     2
 72
     2
 73
     0
 90
        0
 40
-0.6
 41
-30.0
 62
     5
 63
     7
421
 16777215
 74
     1
 91
        4
 64
     7
 65
   257
 75
     1
175
     1
 42
1.0
 92
        8
 66
     7
 43
1.0
 76
     1
 77
     6
 78
     2
 67
     7
 79
     5
170
     0
171
     0
290
     0
174
     0
 93
        1
 44
-50.0
173
     0
291
     1
 45
0.0
1001
ACAD
1000
AcDbSavedByObjectVersion
1070
     0
  0
VISUALSTYLE
  5
39
102
{ACAD_REACTORS
330
2A
102
}
330
2A
100
AcDbVisualStyle
  2
Facepattern
 70
    15
 71
     2
 72
     2
 73
     0
 90
        0
 40
-0.6
 41
-30.0
 62
     5
 63
     7
421
 16777215
 74
     1
 91
        4
 64
     7
 65
   257
 75
     1
175
     1
 42
1.0
 92
        8
 66
     7
 43
1.0
 76
     1
 77
     6
 78
     2
 67
     7
 79
     5
170
     0
171
     0
290
     0
174
     0
 93
        1
 44
0.0
173
     0
291
     1
 45
0.0
1001
ACAD
1000
AcDbSavedByObjectVersion
1070
     0
  0
VISUALSTYLE
  5
2B
102
{ACAD_REACTORS
330
2A
102
}
330
2A
100
AcDbVisualStyle
  2
Flat
 70
     0
 71
     2
 72
     1
 73
     1
 90
        2
 40
-0.6
 41
30.0
 62
     5
 63
     7
421
 16777215
 74
     0
 91
        4
 64
     7
 65
   257
 75
     1
175
     1
 42
1.0
 92
        8
 66
     7
 43
1.0
 76
     1
 77
     6
 78
     2
 67
     7
 79
     5
170
     0
171
     0
290
     0
174
     0
 93
       13
 44
0.0
173
     0
291
     1
 45
0.0
1001
ACAD
1000
AcDbSavedByObjectVersion
1070
     0
  0
VISUALSTYLE
  5
2C
102
{ACAD_REACTORS
330
2A
102
}
330
2A
100
AcDbVisualStyle
  2
FlatWithEdges
 70
     1
 71
     2
 72
     1
 73
     1
 90
        2
 40
-0.6
 41
30.0
 62
     5
 63
     7
421
 16777215
 74
     1
 91
        4
 64
     7
 65
   257
 75
     1
175
     1
 42
1.0
 92
        0
 66
   257
 43
1.0
 76
     1
 77
     6
 78
     2
 67
     7
 79
     5
170
     0
171
     0
290
     0
174
     0
 93
       13
 44
0.0
173
     0
291
     1
 45
0.0
1001
ACAD
1000
AcDbSavedByObjectVersion
1070
     0
  0
VISUALSTYLE
  5
2D
102
{ACAD_REACTORS
330
2A
102
}
330
2A
100
AcDbVisualStyle
  2
Gouraud
 70
     2
 71
     2
 72
     2
 73
     1
 90
        2
 40
-0.6
 41
30.0
 62
     5
 63
     7
421
 16777215
 74
     0
 91
        4
 64
     7
 65
   257
 75
     1
175
     1
 42
1.0
 92
        0
 66
     7
 43
1.0
 76
     1
 77
     6
 78
     2
 67
     7
 79
     5
170
     0
171
     0
290
     0
174
     0
 93
       13
 44
0.0
173
     0
291
     1
 45
0.0
1001
ACAD
1000
AcDbSavedByObjectVersion
1070
     0
  0
VISUALSTYLE
  5
2E
102
{ACAD_REACTORS
330
2A
102
}
330
2A
100
AcDbVisualStyle
  2
GouraudWithEdges
 70
     3
 71
     2
 72
     2
 73
     1
 90
        2
 40
-0.6
 41
30.0
 62
     5
 63
     7
421
 16777215
 74
     1
 91
        4
 64
     7
 65
   257
 75
     1
175
     1
 42
1.0
 92
        0
 66
   257
 43
1.0
 76
     1
 77
     6
 78
     2
 67
     7
 79
     5
170
     0
171
     0
290
     0
174
     0
 93
       13
 44
0.0
173
     0
291
     1
 45
0.0
1001
ACAD
1000
AcDbSavedByObjectVersion
1070
     0
  0
VISUALSTYLE
  5
38
102
{ACAD_REACTORS
330
2A
102
}
330
2A
100
AcDbVisualStyle
  2
Linepattern
 70
    14
 71
     2
 72
     2
 73
     0
 90
        0
 40
-0.6
 41
-30.0
 62
     5
 63
     7
421
 16777215
 74
     1
 91
        4
 64
     7
 65
   257
 75
     7
175
     7
 42
1.0
 92
        8
 66
     7
 43
1.0
 76
     1
 77
     6
 78
     2
 67
     7
 79
     5
170
     0
171
     0
290
     0
174
     0
 93
        1
 44
0.0
173
     0
291
     1
 45
0.0
1001
ACAD
1000
AcDbSavedByObjectVersion
1070
     0
  0
VISUALSTYLE
  5
33
102
{ACAD_REACTORS
330
2A
102
}
330
2A
100
AcDbVisualStyle
  2
Realistic
 70
     8
 71
     2
 72
     2
 73
     0
 90
        0
 40
-0.6
 41
-30.0
 62
     5
 63
     7
421
 16777215
 74
     1
 91
        0
 64
     7
 65
   257
 75
     1
175
     1
 42
1.0
 92
        8
 66
     8
424
  7895160
 43
1.0
 76
     1
 77
     6
 78
     2
 67
     7
 79
     5
170
     0
171
     0
290
     0
174
     0
 93
       13
 44
0.0
173
     0
291
     0
 45
0.0
1001
ACAD
1000
AcDbSavedByObjectVersion
1070
     0
  0
VISUALSTYLE
  5
37
102
{ACAD_REACTORS
330
2A
102
}
330
2A
100
AcDbVisualStyle
  2
Thicken
 70
    13
 71
     2
 72
     2
 73
     0
 90
        0
 40
-0.6
 41
-30.0
 62
     5
 63
     7
421
 16777215
 74
     1
 91
        4
 64
     7
 65
   257
 75
     1
175
     1
 42
1.0
 92
       12
 66
     7
 43
1.0
 76
     1
 77
     6
 78
     2
 67
     7
 79
     5
170
     0
171
     0
290
     0
174
     0
 93
        1
 44
0.0
173
     0
291
     1
 45
0.0
1001
ACAD
1000
AcDbSavedByObjectVersion
1070
     0
  0
ENDSEC
  0
EOF
