  0
SECTION
  2
HEADER
  9
$ACADVER
  1
AC1018
  9
$ACADMAINTVER
 70
     0
  9
$DWGCODEPAGE
  3
ANSI_1252
  9
$INSBASE
 10
0.0
 20
0.0
 30
0.0
  9
$EXTMIN
 10
-0.0028495258694936
 20
0.1292296475699462
 30
0.0
  9
$EXTMAX
 10
957.0136674292701
 20
1373.720762358247
 30
0.0
  9
$LIMMIN
 10
0.0
 20
0.0
  9
$LIMMAX
 10
12.0
 20
9.0
  9
$ORTHOMODE
 70
     0
  9
$REGENMODE
 70
     1
  9
$FILLMODE
 70
     1
  9
$QTEXTMODE
 70
     0
  9
$MIRRTEXT
 70
     1
  9
$LTSCALE
 40
1.0
  9
$ATTMODE
 70
     1
  9
$TEXTSIZE
 40
0.2
  9
$TRACEWID
 40
0.05
  9
$TEXTSTYLE
  7
Standard
  9
$CLAYER
  8
PREDEFINITO
  9
$CELTYPE
  6
ByLayer
  9
$CECOLOR
 62
   256
  9
$CELTSCALE
 40
1.0
  9
$DISPSILH
 70
     0
  9
$DIMSCALE
 40
1.0
  9
$DIMASZ
 40
0.18
  9
$DIMEXO
 40
0.0625
  9
$DIMDLI
 40
0.38
  9
$DIMRND
 40
0.0
  9
$DIMDLE
 40
0.0
  9
$DIMEXE
 40
0.18
  9
$DIMTP
 40
0.0
  9
$DIMTM
 40
0.0
  9
$DIMTXT
 40
0.18
  9
$DIMCEN
 40
0.09
  9
$DIMTSZ
 40
0.0
  9
$DIMTOL
 70
     0
  9
$DIMLIM
 70
     0
  9
$DIMTIH
 70
     1
  9
$DIMTOH
 70
     1
  9
$DIMSE1
 70
     0
  9
$DIMSE2
 70
     0
  9
$DIMTAD
 70
     0
  9
$DIMZIN
 70
     0
  9
$DIMBLK
  1

  9
$DIMASO
 70
     1
  9
$DIMSHO
 70
     1
  9
$DIMPOST
  1

  9
$DIMAPOST
  1

  9
$DIMALT
 70
     0
  9
$DIMALTD
 70
     2
  9
$DIMALTF
 40
25.4
  9
$DIMLFAC
 40
1.0
  9
$DIMTOFL
 70
     0
  9
$DIMTVP
 40
0.0
  9
$DIMTIX
 70
     0
  9
$DIMSOXD
 70
     0
  9
$DIMSAH
 70
     0
  9
$DIMBLK1
  1

  9
$DIMBLK2
  1

  9
$DIMSTYLE
  2
Standard
  9
$DIMCLRD
 70
     0
  9
$DIMCLRE
 70
     0
  9
$DIMCLRT
 70
     0
  9
$DIMTFAC
 40
1.0
  9
$DIMGAP
 40
0.09
  9
$DIMJUST
 70
     0
  9
$DIMSD1
 70
     0
  9
$DIMSD2
 70
     0
  9
$DIMTOLJ
 70
     1
  9
$DIMTZIN
 70
     0
  9
$DIMALTZ
 70
     0
  9
$DIMALTTZ
 70
     0
  9
$DIMUPT
 70
     0
  9
$DIMDEC
 70
     4
  9
$DIMTDEC
 70
     4
  9
$DIMALTU
 70
     2
  9
$DIMALTTD
 70
     2
  9
$DIMTXSTY
  7
Standard
  9
$DIMAUNIT
 70
     0
  9
$DIMADEC
 70
     0
  9
$DIMALTRND
 40
0.0
  9
$DIMAZIN
 70
     0
  9
$DIMDSEP
 70
    46
  9
$DIMATFIT
 70
     3
  9
$DIMFRAC
 70
     0
  9
$DIMLDRBLK
  1

  9
$DIMLUNIT
 70
     2
  9
$DIMLWD
 70
    -2
  9
$DIMLWE
 70
    -2
  9
$DIMTMOVE
 70
     0
  9
$LUNITS
 70
     2
  9
$LUPREC
 70
     3
  9
$SKETCHINC
 40
0.1
  9
$FILLETRAD
 40
0.5
  9
$AUNITS
 70
     0
  9
$AUPREC
 70
     0
  9
$MENU
  1
.
  9
$ELEVATION
 40
0.0
  9
$PELEVATION
 40
0.0
  9
$THICKNESS
 40
0.0
  9
$LIMCHECK
 70
     0
  9
$CHAMFERA
 40
0.5
  9
$CHAMFERB
 40
0.5
  9
$CHAMFERC
 40
1.0
  9
$CHAMFERD
 40
0.0
  9
$SKPOLY
 70
     0
  9
$TDCREATE
 40
2455873.480395312
  9
$TDUCREATE
 40
2455873.438728646
  9
$TDUPDATE
 40
2455873.480395324
  9
$TDUUPDATE
 40
2455873.438728658
  9
$TDINDWG
 40
0.0000000116
  9
$TDUSRTIMER
 40
0.0000000116
  9
$USRTIMER
 70
     1
  9
$ANGBASE
 50
0.0
  9
$ANGDIR
 70
     0
  9
$PDMODE
 70
     0
  9
$PDSIZE
 40
0.0
  9
$PLINEWID
 40
0.0
  9
$SPLFRAME
 70
     0
  9
$SPLINETYPE
 70
     6
  9
$SPLINESEGS
 70
     8
  9
$HANDSEED
  5
16F
  9
$SURFTAB1
 70
     6
  9
$SURFTAB2
 70
     6
  9
$SURFTYPE
 70
     6
  9
$SURFU
 70
     6
  9
$SURFV
 70
     6
  9
$UCSBASE
  2

  9
$UCSNAME
  2

  9
$UCSORG
 10
0.0
 20
0.0
 30
0.0
  9
$UCSXDIR
 10
1.0
 20
0.0
 30
0.0
  9
$UCSYDIR
 10
0.0
 20
1.0
 30
0.0
  9
$UCSORTHOREF
  2

  9
$UCSORTHOVIEW
 70
     0
  9
$UCSORGTOP
 10
0.0
 20
0.0
 30
0.0
  9
$UCSORGBOTTOM
 10
0.0
 20
0.0
 30
0.0
  9
$UCSORGLEFT
 10
0.0
 20
0.0
 30
0.0
  9
$UCSORGRIGHT
 10
0.0
 20
0.0
 30
0.0
  9
$UCSORGFRONT
 10
0.0
 20
0.0
 30
0.0
  9
$UCSORGBACK
 10
0.0
 20
0.0
 30
0.0
  9
$PUCSBASE
  2

  9
$PUCSNAME
  2

  9
$PUCSORG
 10
0.0
 20
0.0
 30
0.0
  9
$PUCSXDIR
 10
1.0
 20
0.0
 30
0.0
  9
$PUCSYDIR
 10
0.0
 20
1.0
 30
0.0
  9
$PUCSORTHOREF
  2

  9
$PUCSORTHOVIEW
 70
     0
  9
$PUCSORGTOP
 10
0.0
 20
0.0
 30
0.0
  9
$PUCSORGBOTTOM
 10
0.0
 20
0.0
 30
0.0
  9
$PUCSORGLEFT
 10
0.0
 20
0.0
 30
0.0
  9
$PUCSORGRIGHT
 10
0.0
 20
0.0
 30
0.0
  9
$PUCSORGFRONT
 10
0.0
 20
0.0
 30
0.0
  9
$PUCSORGBACK
 10
0.0
 20
0.0
 30
0.0
  9
$USERI1
 70
     0
  9
$USERI2
 70
     0
  9
$USERI3
 70
     0
  9
$USERI4
 70
     0
  9
$USERI5
 70
     0
  9
$USERR1
 40
0.0
  9
$USERR2
 40
0.0
  9
$USERR3
 40
0.0
  9
$USERR4
 40
0.0
  9
$USERR5
 40
0.0
  9
$WORLDVIEW
 70
     1
  9
$SHADEDGE
 70
     3
  9
$SHADEDIF
 70
    70
  9
$TILEMODE
 70
     1
  9
$MAXACTVP
 70
    64
  9
$PINSBASE
 10
0.0
 20
0.0
 30
0.0
  9
$PLIMCHECK
 70
     0
  9
$PEXTMIN
 10
1.000000000000000E+20
 20
1.000000000000000E+20
 30
1.000000000000000E+20
  9
$PEXTMAX
 10
-1.000000000000000E+20
 20
-1.000000000000000E+20
 30
-1.000000000000000E+20
  9
$PLIMMIN
 10
0.0
 20
0.0
  9
$PLIMMAX
 10
12.0
 20
9.0
  9
$UNITMODE
 70
     0
  9
$VISRETAIN
 70
     1
  9
$PLINEGEN
 70
     0
  9
$PSLTSCALE
 70
     1
  9
$TREEDEPTH
 70
  3020
  9
$CMLSTYLE
  2
Standard
  9
$CMLJUST
 70
     0
  9
$CMLSCALE
 40
1.0
  9
$PROXYGRAPHICS
 70
     1
  9
$MEASUREMENT
 70
     0
  9
$CELWEIGHT
370
    -1
  9
$ENDCAPS
280
     0
  9
$JOINSTYLE
280
     0
  9
$LWDISPLAY
290
     0
  9
$INSUNITS
 70
     4
  9
$HYPERLINKBASE
  1

  9
$STYLESHEET
  1

  9
$XEDIT
290
     1
  9
$CEPSNTYPE
380
     0
  9
$PSTYLEMODE
290
     1
  9
$FINGERPRINTGUID
  2
{3F0BFAD0-2DF7-45E9-930B-37EB6D922B31}
  9
$VERSIONGUID
  2
{FAEB1C32-E019-11D5-929B-00C0DF256EC4}
  9
$EXTNAMES
290
     1
  9
$PSVPSCALE
 40
0.0
  9
$OLESTARTUP
290
     0
  9
$SORTENTS
280
   127
  9
$INDEXCTL
280
     0
  9
$HIDETEXT
280
     1
  9
$XCLIPFRAME
290
     0
  9
$HALOGAP
280
     0
  9
$OBSCOLOR
 70
   257
  9
$OBSLTYPE
280
     0
  9
$INTERSECTIONDISPLAY
280
     0
  9
$INTERSECTIONCOLOR
 70
   257
  9
$DIMASSOC
280
     2
  9
$PROJECTNAME
  1

  0
ENDSEC
  0
SECTION
  2
CLASSES
  0
CLASS
  1
ACDBDICTIONARYWDFLT
  2
AcDbDictionaryWithDefault
  3
ObjectDBX Classes
 90
        0
 91
        3
280
     0
281
     0
  0
CLASS
  1
VISUALSTYLE
  2
AcDbVisualStyle
  3
ObjectDBX Classes
 90
     4095
 91
        3
280
     0
281
     0
  0
CLASS
  1
SCALE
  2
AcDbScale
  3
ObjectDBX Classes
 90
     1153
 91
        3
280
     0
281
     0
  0
ENDSEC
  0
SECTION
  2
TABLES
  0
TABLE
  2
VPORT
  5
8
330
0
100
AcDbSymbolTable
 70
     1
  0
VPORT
  5
29
330
8
100
AcDbSymbolTableRecord
100
AcDbViewportTableRecord
  2
*Active
 70
     0
 10
0.0
 20
0.0
 11
1.0
 21
1.0
 12
0.0
 22
0.0
 13
0.0
 23
0.0
 14
0.5
 24
0.5
 15
0.5
 25
0.5
 16
0.0
 26
0.0
 36
1.0
 17
478.5054089517003
 27
686.9249960029085
 37
0.0
 40
1401.063363364891
 41
0.6967256962239283
 42
50.0
 43
0.0
 44
0.0
 50
0.0
 51
0.0
 71
     0
 72
   100
 73
     1
 74
     3
 75
     0
 76
     0
 77
     0
 78
     0
281
     0
 65
     1
110
0.0
120
0.0
130
0.0
111
1.0
121
0.0
131
0.0
112
0.0
122
1.0
132
0.0
 79
     0
146
0.0
  0
ENDTAB
  0
TABLE
  2
LTYPE
  5
5
330
0
100
AcDbSymbolTable
 70
     1
  0
LTYPE
  5
14
330
5
100
AcDbSymbolTableRecord
100
AcDbLinetypeTableRecord
  2
ByBlock
 70
     0
  3

 72
    65
 73
     0
 40
0.0
  0
LTYPE
  5
15
330
5
100
AcDbSymbolTableRecord
100
AcDbLinetypeTableRecord
  2
ByLayer
 70
     0
  3

 72
    65
 73
     0
 40
0.0
  0
LTYPE
  5
16
330
5
100
AcDbSymbolTableRecord
100
AcDbLinetypeTableRecord
  2
Continuous
 70
     0
  3
Solid line
 72
    65
 73
     0
 40
0.0
  0
ENDTAB
  0
TABLE
  2
LAYER
  5
2
330
0
100
AcDbSymbolTable
 70
     3
  0
LAYER
  5
10
330
2
100
AcDbSymbolTableRecord
100
AcDbLayerTableRecord
  2
0
 70
     0
 62
     7
  6
Continuous
370
    -3
390
F
  0
LAYER
  5
5D
330
2
100
AcDbSymbolTableRecord
100
AcDbLayerTableRecord
  2
PREDEFINITO
 70
     0
 62
     7
  6
Continuous
370
    -3
390
F
  0
LAYER
  5
5F
330
2
100
AcDbSymbolTableRecord
100
AcDbLayerTableRecord
  2
LINEE VISIBILI 2D
 70
     0
 62
     7
  6
Continuous
370
    -3
390
F
  0
ENDTAB
  0
TABLE
  2
STYLE
  5
3
330
0
100
AcDbSymbolTable
 70
     1
  0
STYLE
  5
11
330
3
100
AcDbSymbolTableRecord
100
AcDbTextStyleTableRecord
  2
Standard
 70
     0
 40
0.0
 41
1.0
 50
0.0
 71
     0
 42
0.2
  3
txt
  4

  0
ENDTAB
  0
TABLE
  2
VIEW
  5
6
330
0
100
AcDbSymbolTable
 70
     0
  0
ENDTAB
  0
TABLE
  2
UCS
  5
7
330
0
100
AcDbSymbolTable
 70
     0
  0
ENDTAB
  0
TABLE
  2
APPID
  5
9
330
0
100
AcDbSymbolTable
 70
     1
  0
APPID
  5
12
330
9
100
AcDbSymbolTableRecord
100
AcDbRegAppTableRecord
  2
ACAD
 70
     0
  0
ENDTAB
  0
TABLE
  2
DIMSTYLE
  5
A
330
0
100
AcDbSymbolTable
 70
     1
100
AcDbDimStyleTable
  0
DIMSTYLE
105
27
330
A
100
AcDbSymbolTableRecord
100
AcDbDimStyleTableRecord
  2
Standard
 70
     0
340
11
  0
ENDTAB
  0
TABLE
  2
BLOCK_RECORD
  5
1
330
0
100
AcDbSymbolTable
 70
     1
  0
BLOCK_RECORD
  5
1F
330
1
100
AcDbSymbolTableRecord
100
AcDbBlockTableRecord
  2
*Model_Space
340
22
  0
BLOCK_RECORD
  5
1B
330
1
100
AcDbSymbolTableRecord
100
AcDbBlockTableRecord
  2
*Paper_Space
340
1E
  0
BLOCK_RECORD
  5
23
330
1
100
AcDbSymbolTableRecord
100
AcDbBlockTableRecord
  2
*Paper_Space0
340
26
  0
ENDTAB
  0
ENDSEC
  0
SECTION
  2
BLOCKS
  0
BLOCK
  5
20
330
1F
100
AcDbEntity
  8
0
100
AcDbBlockBegin
  2
*Model_Space
 70
     0
 10
0.0
 20
0.0
 30
0.0
  3
*Model_Space
  1

  0
ENDBLK
  5
21
330
1F
100
AcDbEntity
  8
0
100
AcDbBlockEnd
  0
BLOCK
  5
1C
330
1B
100
AcDbEntity
 67
     1
  8
0
100
AcDbBlockBegin
  2
*Paper_Space
 70
     0
 10
0.0
 20
0.0
 30
0.0
  3
*Paper_Space
  1

  0
ENDBLK
  5
1D
330
1B
100
AcDbEntity
 67
     1
  8
0
100
AcDbBlockEnd
  0
BLOCK
  5
24
330
23
100
AcDbEntity
  8
0
100
AcDbBlockBegin
  2
*Paper_Space0
 70
     0
 10
0.0
 20
0.0
 30
0.0
  3
*Paper_Space0
  1

  0
ENDBLK
  5
25
330
23
100
AcDbEntity
  8
0
100
AcDbBlockEnd
  0
ENDSEC
  0
SECTION
  2
ENTITIES
  0
CIRCLE
  5
5E
330
1F
100
AcDbEntity
  8
PREDEFINITO
100
AcDbCircle
 10
774.3791695538586
 20
183.0380227348373
 30
0.0
 40
89.45645305633185
  0
SPLINE
  5
60
330
1F
100
AcDbEntity
  8
LINEE VISIBILI 2D
100
AcDbSpline
210
0.0
220
0.0
230
1.0
 70
    24
 71
     2
 72
     6
 73
     3
 74
     0
 42
0.0000000001
 43
0.0000000001
 40
-0.4436090036814801
 40
-0.4436090036814801
 40
-0.4436090036814801
 40
0.0
 40
0.0
 40
0.0
 10
766.4447518330635
 20
93.93413949256974
 30
0.0
 10
766.4213769110036
 20
93.71357011560298
 30
0.0
 10
766.3980019889435
 20
93.4930007386362
 30
0.0
  0
SPLINE
  5
61
330
1F
100
AcDbEntity
  8
LINEE VISIBILI 2D
100
AcDbSpline
210
0.0
220
0.0
230
1.0
 70
    24
 71
     2
 72
     6
 73
     3
 74
     0
 42
0.0000000001
 43
0.0000000001
 40
0.0
 40
0.0
 40
0.0
 40
0.1000139072386787
 40
0.1000139072386787
 40
0.1000139072386787
 10
766.3980019889435
 20
93.4930007386362
 30
0.0
 10
766.392731993819
 20
93.44327225020477
 30
0.0
 10
766.3874619986944
 20
93.39354376177334
 30
0.0
  0
SPLINE
  5
62
330
1F
100
AcDbEntity
  8
LINEE VISIBILI 2D
100
AcDbSpline
210
0.0
220
0.0
230
1.0
 70
    12
 71
     2
 72
     6
 73
     3
 74
     0
 42
0.0000000001
 43
0.0000000001
 40
-91.24764070144084
 40
-91.24764070144084
 40
-91.24764070144084
 40
0.0
 40
0.0
 40
0.0
 10
766.3874619986944
 20
93.39354376177334
 30
0.0
 41
1.0
 10
816.1703413355893
 20
88.95545435044274
 30
0.0
 41
0.8742384474576594
 10
846.2522657684927
 20
128.8692306076181
 30
0.0
 41
1.0
  0
SPLINE
  5
63
330
1F
100
AcDbEntity
  8
LINEE VISIBILI 2D
100
AcDbSpline
210
0.0
220
0.0
230
1.0
 70
    24
 71
     2
 72
     6
 73
     3
 74
     0
 42
0.0000000001
 43
0.0000000001
 40
0.0
 40
0.0
 40
0.0
 40
0.1000139072386793
 40
0.1000139072386793
 40
0.1000139072386793
 10
846.2522657684927
 20
128.8692306076181
 30
0.0
 10
846.2118346317816
 20
128.8986588014895
 30
0.0
 10
846.1714034950705
 20
128.928086995361
 30
0.0
  0
SPLINE
  5
64
330
1F
100
AcDbEntity
  8
LINEE VISIBILI 2D
100
AcDbSpline
210
0.0
220
0.0
230
1.0
 70
    24
 71
     2
 72
     6
 73
     3
 74
     0
 42
0.0000000001
 43
0.0000000001
 40
0.0
 40
0.0
 40
0.0
 40
0.3891958640773808
 40
0.3891958640773808
 40
0.3891958640773808
 10
846.1714034950705
 20
128.928086995361
 30
0.0
 10
846.0140690640662
 20
129.0426043825748
 30
0.0
 10
845.856734633062
 20
129.1571217697887
 30
0.0
  0
SPLINE
  5
65
330
1F
100
AcDbEntity
  8
LINEE VISIBILI 2D
100
AcDbSpline
210
0.0
220
0.0
230
1.0
 70
    24
 71
     2
 72
     6
 73
     3
 74
     0
 42
0.0000000001
 43
0.0000000001
 40
-0.4436090036814801
 40
-0.4436090036814801
 40
-0.4436090036814801
 40
0.0
 40
0.0
 40
0.0
 10
693.2457342298148
 20
145.3574884241495
 30
0.0
 10
693.0430280850347
 20
145.2674470119816
 30
0.0
 10
692.8403219402546
 20
145.1774055998136
 30
0.0
  0
SPLINE
  5
66
330
1F
100
AcDbEntity
  8
LINEE VISIBILI 2D
100
AcDbSpline
210
0.0
220
0.0
230
1.0
 70
    24
 71
     2
 72
     6
 73
     3
 74
     0
 42
0.0000000001
 43
0.0000000001
 40
0.0
 40
0.0
 40
0.0
 40
0.1000139072386787
 40
0.1000139072386787
 40
0.1000139072386787
 10
692.8403219402546
 20
145.1774055998136
 30
0.0
 10
692.7946208084189
 20
145.1571053052535
 30
0.0
 10
692.7489196765832
 20
145.1368050106935
 30
0.0
  0
SPLINE
  5
67
330
1F
100
AcDbEntity
  8
LINEE VISIBILI 2D
100
AcDbSpline
210
0.0
220
0.0
230
1.0
 70
    12
 71
     2
 72
     6
 73
     3
 74
     0
 42
0.0000000001
 43
0.0000000001
 40
-91.24764070144084
 40
-91.24764070144084
 40
-91.24764070144084
 40
0.0
 40
0.0
 40
0.0
 10
692.7489196765832
 20
145.1368050106935
 30
0.0
 41
1.0
 10
713.7968611705516
 20
99.80452212574195
 30
0.0
 41
0.8742384474576594
 10
763.4041675866854
 20
93.7096995007113
 30
0.0
 41
1.0
  0
SPLINE
  5
68
330
1F
100
AcDbEntity
  8
LINEE VISIBILI 2D
100
AcDbSpline
210
0.0
220
0.0
230
1.0
 70
    24
 71
     2
 72
     6
 73
     3
 74
     0
 42
0.0000000001
 43
0.0000000001
 40
0.0
 40
0.0
 40
0.0
 40
0.1000139072386793
 40
0.1000139072386793
 40
0.1000139072386793
 10
763.4041675866854
 20
93.7096995007113
 30
0.0
 10
763.4094375818099
 20
93.75942798914272
 30
0.0
 10
763.4147075769346
 20
93.80915647757413
 30
0.0
  0
SPLINE
  5
69
330
1F
100
AcDbEntity
  8
LINEE VISIBILI 2D
100
AcDbSpline
210
0.0
220
0.0
230
1.0
 70
    24
 71
     2
 72
     6
 73
     3
 74
     0
 42
0.0000000001
 43
0.0000000001
 40
0.0
 40
0.0
 40
0.0
 40
0.3891958640773808
 40
0.3891958640773808
 40
0.3891958640773808
 10
763.4147075769346
 20
93.80915647757413
 30
0.0
 10
763.4352153279347
 20
94.00267078532076
 30
0.0
 10
763.4557230789347
 20
94.19618509306737
 30
0.0
  0
SPLINE
  5
6A
330
1F
100
AcDbEntity
  8
LINEE VISIBILI 2D
100
AcDbSpline
210
0.0
220
0.0
230
1.0
 70
    24
 71
     2
 72
     6
 73
     3
 74
     0
 42
0.0000000001
 43
0.0000000001
 40
-0.4436090036814801
 40
-0.4436090036814801
 40
-0.4436090036814801
 40
0.0
 40
0.0
 40
0.0
 10
701.1801519506099
 20
234.461371666417
 30
0.0
 10
701.0008207278897
 20
234.5918996312158
 30
0.0
 10
700.8214895051697
 20
234.7224275960147
 30
0.0
  0
SPLINE
  5
6B
330
1F
100
AcDbEntity
  8
LINEE VISIBILI 2D
100
AcDbSpline
210
0.0
220
0.0
230
1.0
 70
    24
 71
     2
 72
     6
 73
     3
 74
     0
 42
0.0000000001
 43
0.0000000001
 40
0.0
 40
0.0
 40
0.0
 40
0.1000139072386787
 40
0.1000139072386787
 40
0.1000139072386787
 10
700.8214895051697
 20
234.7224275960147
 30
0.0
 10
700.7810583684585
 20
234.751855789886
 30
0.0
 10
700.7406272317473
 20
234.7812839837574
 30
0.0
  0
SPLINE
  5
6C
330
1F
100
AcDbEntity
  8
LINEE VISIBILI 2D
100
AcDbSpline
210
0.0
220
0.0
230
1.0
 70
    12
 71
     2
 72
     6
 73
     3
 74
     0
 42
0.0000000001
 43
0.0000000001
 40
-91.24764070144084
 40
-91.24764070144084
 40
-91.24764070144084
 40
0.0
 40
0.0
 40
0.0
 10
700.7406272317473
 20
234.7812839837574
 30
0.0
 41
1.0
 10
672.005689388821
 20
193.8870905101365
 30
0.0
 41
0.8742384474576594
 10
691.5310713720512
 20
147.8784916279304
 30
0.0
 41
1.0
  0
SPLINE
  5
6D
330
1F
100
AcDbEntity
  8
LINEE VISIBILI 2D
100
AcDbSpline
210
0.0
220
0.0
230
1.0
 70
    24
 71
     2
 72
     6
 73
     3
 74
     0
 42
0.0000000001
 43
0.0000000001
 40
0.0
 40
0.0
 40
0.0
 40
0.1000139072386793
 40
0.1000139072386793
 40
0.1000139072386793
 10
691.5310713720512
 20
147.8784916279304
 30
0.0
 10
691.5767725038869
 20
147.8987919224904
 30
0.0
 10
691.6224736357226
 20
147.9190922170504
 30
0.0
  0
SPLINE
  5
6E
330
1F
100
AcDbEntity
  8
LINEE VISIBILI 2D
100
AcDbSpline
210
0.0
220
0.0
230
1.0
 70
    24
 71
     2
 72
     6
 73
     3
 74
     0
 42
0.0000000001
 43
0.0000000001
 40
0.0
 40
0.0
 40
0.0
 40
0.3891958640773808
 40
0.3891958640773808
 40
0.3891958640773808
 10
691.6224736357226
 20
147.9190922170504
 30
0.0
 10
691.800315817727
 20
147.9980891375832
 30
0.0
 10
691.9781579997314
 20
148.0770860581159
 30
0.0
  0
SPLINE
  5
6F
330
1F
100
AcDbEntity
  8
LINEE VISIBILI 2D
100
AcDbSpline
210
0.0
220
0.0
230
1.0
 70
    24
 71
     2
 72
     6
 73
     3
 74
     0
 42
0.0000000001
 43
0.0000000001
 40
-0.4436090036814801
 40
-0.4436090036814801
 40
-0.4436090036814801
 40
0.0
 40
0.0
 40
0.0
 10
782.3135872746536
 20
272.1419059771048
 30
0.0
 10
782.3369621967136
 20
272.3624753540715
 30
0.0
 10
782.3603371187736
 20
272.5830447310383
 30
0.0
  0
SPLINE
  5
70
330
1F
100
AcDbEntity
  8
LINEE VISIBILI 2D
100
AcDbSpline
210
0.0
220
0.0
230
1.0
 70
    24
 71
     2
 72
     6
 73
     3
 74
     0
 42
0.0000000001
 43
0.0000000001
 40
0.0
 40
0.0
 40
0.0
 40
0.1000139072386787
 40
0.1000139072386787
 40
0.1000139072386787
 10
782.3603371187736
 20
272.5830447310383
 30
0.0
 10
782.3656071138981
 20
272.6327732194698
 30
0.0
 10
782.3708771090227
 20
272.6825017079012
 30
0.0
  0
SPLINE
  5
71
330
1F
100
AcDbEntity
  8
LINEE VISIBILI 2D
100
AcDbSpline
210
0.0
220
0.0
230
1.0
 70
    12
 71
     2
 72
     6
 73
     3
 74
     0
 42
0.0000000001
 43
0.0000000001
 40
-91.24764070144084
 40
-91.24764070144084
 40
-91.24764070144084
 40
0.0
 40
0.0
 40
0.0
 10
782.3708771090227
 20
272.6825017079012
 30
0.0
 41
1.0
 10
732.587997772128
 20
277.1205911192318
 30
0.0
 41
0.8742384474576594
 10
702.5060733392243
 20
237.2068148620564
 30
0.0
 41
1.0
  0
SPLINE
  5
72
330
1F
100
AcDbEntity
  8
LINEE VISIBILI 2D
100
AcDbSpline
210
0.0
220
0.0
230
1.0
 70
    24
 71
     2
 72
     6
 73
     3
 74
     0
 42
0.0000000001
 43
0.0000000001
 40
0.0
 40
0.0
 40
0.0
 40
0.1000139072386793
 40
0.1000139072386793
 40
0.1000139072386793
 10
702.5060733392243
 20
237.2068148620564
 30
0.0
 10
702.5465044759354
 20
237.177386668185
 30
0.0
 10
702.5869356126466
 20
237.1479584743136
 30
0.0
  0
SPLINE
  5
73
330
1F
100
AcDbEntity
  8
LINEE VISIBILI 2D
100
AcDbSpline
210
0.0
220
0.0
230
1.0
 70
    24
 71
     2
 72
     6
 73
     3
 74
     0
 42
0.0000000001
 43
0.0000000001
 40
0.0
 40
0.0
 40
0.0
 40
0.3891958640773808
 40
0.3891958640773808
 40
0.3891958640773808
 10
702.5869356126466
 20
237.1479584743136
 30
0.0
 10
702.7442700436509
 20
237.0334410870997
 30
0.0
 10
702.9016044746551
 20
236.9189236998858
 30
0.0
  0
SPLINE
  5
74
330
1F
100
AcDbEntity
  8
LINEE VISIBILI 2D
100
AcDbSpline
210
0.0
220
0.0
230
1.0
 70
    24
 71
     2
 72
     6
 73
     3
 74
     0
 42
0.0000000001
 43
0.0000000001
 40
-0.4436090036814801
 40
-0.4436090036814801
 40
-0.4436090036814801
 40
0.0
 40
0.0
 40
0.0
 10
855.5126048779023
 20
220.7185570455251
 30
0.0
 10
855.7153110226824
 20
220.8085984576931
 30
0.0
 10
855.9180171674625
 20
220.898639869861
 30
0.0
  0
SPLINE
  5
75
330
1F
100
AcDbEntity
  8
LINEE VISIBILI 2D
100
AcDbSpline
210
0.0
220
0.0
230
1.0
 70
    24
 71
     2
 72
     6
 73
     3
 74
     0
 42
0.0000000001
 43
0.0000000001
 40
0.0
 40
0.0
 40
0.0
 40
0.1000139072386787
 40
0.1000139072386787
 40
0.1000139072386787
 10
855.9180171674625
 20
220.898639869861
 30
0.0
 10
855.9637182992982
 20
220.918940164421
 30
0.0
 10
856.0094194311339
 20
220.9392404589811
 30
0.0
  0
SPLINE
  5
76
330
1F
100
AcDbEntity
  8
LINEE VISIBILI 2D
100
AcDbSpline
210
0.0
220
0.0
230
1.0
 70
    12
 71
     2
 72
     6
 73
     3
 74
     0
 42
0.0000000001
 43
0.0000000001
 40
-91.24764070144084
 40
-91.24764070144084
 40
-91.24764070144084
 40
0.0
 40
0.0
 40
0.0
 10
856.0094194311339
 20
220.9392404589811
 30
0.0
 41
1.0
 10
834.9614779371656
 20
266.2715233439326
 30
0.0
 41
0.8742384474576594
 10
785.3541715210317
 20
272.3663459689633
 30
0.0
 41
1.0
  0
SPLINE
  5
77
330
1F
100
AcDbEntity
  8
LINEE VISIBILI 2D
100
AcDbSpline
210
0.0
220
0.0
230
1.0
 70
    24
 71
     2
 72
     6
 73
     3
 74
     0
 42
0.0000000001
 43
0.0000000001
 40
0.0
 40
0.0
 40
0.0
 40
0.1000139072386793
 40
0.1000139072386793
 40
0.1000139072386793
 10
785.3541715210317
 20
272.3663459689633
 30
0.0
 10
785.3489015259072
 20
272.3166174805319
 30
0.0
 10
785.3436315307825
 20
272.2668889921005
 30
0.0
  0
SPLINE
  5
78
330
1F
100
AcDbEntity
  8
LINEE VISIBILI 2D
100
AcDbSpline
210
0.0
220
0.0
230
1.0
 70
    24
 71
     2
 72
     6
 73
     3
 74
     0
 42
0.0000000001
 43
0.0000000001
 40
0.0
 40
0.0
 40
0.0
 40
0.3891958640773808
 40
0.3891958640773808
 40
0.3891958640773808
 10
785.3436315307825
 20
272.2668889921005
 30
0.0
 10
785.3231237797825
 20
272.0733746843538
 30
0.0
 10
785.3026160287824
 20
271.8798603766072
 30
0.0
  0
SPLINE
  5
79
330
1F
100
AcDbEntity
  8
LINEE VISIBILI 2D
100
AcDbSpline
210
0.0
220
0.0
230
1.0
 70
    24
 71
     2
 72
     6
 73
     3
 74
     0
 42
0.0000000001
 43
0.0000000001
 40
-0.4436090036814801
 40
-0.4436090036814801
 40
-0.4436090036814801
 40
0.0
 40
0.0
 40
0.0
 10
847.5781871571072
 20
131.6146738032576
 30
0.0
 10
847.7575183798274
 20
131.4841458384587
 30
0.0
 10
847.9368496025475
 20
131.3536178736599
 30
0.0
  0
SPLINE
  5
7A
330
1F
100
AcDbEntity
  8
LINEE VISIBILI 2D
100
AcDbSpline
210
0.0
220
0.0
230
1.0
 70
    24
 71
     2
 72
     6
 73
     3
 74
     0
 42
0.0000000001
 43
0.0000000001
 40
0.0
 40
0.0
 40
0.0
 40
0.1000139072386787
 40
0.1000139072386787
 40
0.1000139072386787
 10
847.9368496025475
 20
131.3536178736599
 30
0.0
 10
847.9772807392586
 20
131.3241896797886
 30
0.0
 10
848.0177118759698
 20
131.2947614859172
 30
0.0
  0
SPLINE
  5
7B
330
1F
100
AcDbEntity
  8
LINEE VISIBILI 2D
100
AcDbSpline
210
0.0
220
0.0
230
1.0
 70
    12
 71
     2
 72
     6
 73
     3
 74
     0
 42
0.0000000001
 43
0.0000000001
 40
-91.24764070144084
 40
-91.24764070144084
 40
-91.24764070144084
 40
0.0
 40
0.0
 40
0.0
 10
848.0177118759698
 20
131.2947614859172
 30
0.0
 41
1.0
 10
876.7526497188962
 20
172.1889549595381
 30
0.0
 41
0.8742384474576594
 10
857.2272677356659
 20
218.1975538417441
 30
0.0
 41
1.0
  0
SPLINE
  5
7C
330
1F
100
AcDbEntity
  8
LINEE VISIBILI 2D
100
AcDbSpline
210
0.0
220
0.0
230
1.0
 70
    24
 71
     2
 72
     6
 73
     3
 74
     0
 42
0.0000000001
 43
0.0000000001
 40
0.0
 40
0.0
 40
0.0
 40
0.1000139072386793
 40
0.1000139072386793
 40
0.1000139072386793
 10
857.2272677356659
 20
218.1975538417441
 30
0.0
 10
857.1815666038302
 20
218.1772535471841
 30
0.0
 10
857.1358654719945
 20
218.1569532526241
 30
0.0
  0
SPLINE
  5
7D
330
1F
100
AcDbEntity
  8
LINEE VISIBILI 2D
100
AcDbSpline
210
0.0
220
0.0
230
1.0
 70
    24
 71
     2
 72
     6
 73
     3
 74
     0
 42
0.0000000001
 43
0.0000000001
 40
0.0
 40
0.0
 40
0.0
 40
0.3891958640773808
 40
0.3891958640773808
 40
0.3891958640773808
 10
857.1358654719945
 20
218.1569532526241
 30
0.0
 10
856.9580232899901
 20
218.0779563320914
 30
0.0
 10
856.7801811079858
 20
217.9989594115587
 30
0.0
  0
SPLINE
  5
7E
330
1F
100
AcDbEntity
  8
LINEE VISIBILI 2D
100
AcDbSpline
210
0.0
220
0.0
230
1.0
 70
    12
 71
     2
 72
     6
 73
     3
 74
     0
 42
0.0000000001
 43
0.0000000001
 40
0.0
 40
0.0
 40
0.0
 40
0.7201607941976911
 40
0.7201607941976911
 40
0.7201607941976911
 10
179.2400832885386
 20
1069.196885475395
 30
0.0
 41
1.0
 10
178.8845699169115
 20
1069.112094265787
 30
0.0
 41
0.9779655475114121
 10
178.5946685139272
 20
1068.889526336426
 30
0.0
 41
1.0
  0
SPLINE
  5
7F
330
1F
100
AcDbEntity
  8
LINEE VISIBILI 2D
100
AcDbSpline
210
0.0
220
0.0
230
1.0
 70
    24
 71
     2
 72
     6
 73
     3
 74
     0
 42
0.0000000001
 43
0.0000000001
 40
0.0
 40
0.0
 40
0.0
 40
264.4276107861831
 40
264.4276107861831
 40
264.4276107861831
 10
179.2400832885385
 20
1068.879563392234
 30
0.0
 10
179.2400832885385
 20
1201.093368785325
 30
0.0
 10
179.2400832885385
 20
1333.307174178417
 30
0.0
  0
SPLINE
  5
80
330
1F
100
AcDbEntity
  8
LINEE VISIBILI 2D
100
AcDbSpline
210
0.0
220
0.0
230
1.0
 70
    24
 71
     2
 72
     6
 73
     3
 74
     0
 42
0.0000000001
 43
0.0000000001
 40
0.0
 40
0.0
 40
0.0
 40
130.8144548791367
 40
130.8144548791367
 40
130.8144548791367
 10
235.0471705761167
 20
1073.241944135533
 30
0.0
 10
235.0471705761167
 20
1138.649171575101
 30
0.0
 10
235.0471705761167
 20
1204.05639901467
 30
0.0
  0
SPLINE
  5
81
330
1F
100
AcDbEntity
  8
LINEE VISIBILI 2D
100
AcDbSpline
210
0.0
220
0.0
230
1.0
 70
    24
 71
     2
 72
     6
 73
     3
 74
     0
 42
0.0000000001
 43
0.0000000001
 40
0.0
 40
0.0
 40
0.0
 40
121.9678052590691
 40
121.9678052590691
 40
121.9678052590691
 10
235.0471705761167
 20
1208.756606788631
 30
0.0
 10
235.0471705761167
 20
1269.740509418165
 30
0.0
 10
235.0471705761167
 20
1330.7244120477
 30
0.0
  0
SPLINE
  5
82
330
1F
100
AcDbEntity
  8
LINEE VISIBILI 2D
100
AcDbSpline
210
0.0
220
0.0
230
1.0
 70
    24
 71
     2
 72
     6
 73
     3
 74
     0
 42
0.0000000001
 43
0.0000000001
 40
0.0
 40
0.0
 40
0.0
 40
256.4220959628467
 40
256.4220959628467
 40
256.4220959628467
 10
132.8660006464468
 20
1073.923144655466
 30
0.0
 10
132.8660006464468
 20
1202.134192636889
 30
0.0
 10
132.8660006464468
 20
1330.345240618312
 30
0.0
  0
SPLINE
  5
83
330
1F
100
AcDbEntity
  8
LINEE VISIBILI 2D
100
AcDbSpline
210
0.0
220
0.0
230
1.0
 70
     8
 71
     3
 72
    13
 73
     9
 74
     0
 42
0.0000000001
 43
0.0000000001
 40
0.0
 40
0.0
 40
0.0
 40
0.0
 40
8.131929969894275
 40
15.16797517311434
 40
30.9960329832245
 40
42.84059279263001
 40
58.24088392110286
 40
94.55432848445356
 40
94.55432848445356
 40
94.55432848445356
 40
94.55432848445356
 10
186.8981550884629
 20
1326.220719402049
 30
0.0
 10
186.8812391457103
 20
1323.499215850976
 30
0.0
 10
187.0086063138919
 20
1318.466581516138
 30
0.0
 10
188.9384630961697
 20
1308.222188617235
 30
0.0
 10
194.218956149665
 20
1297.816680923234
 30
0.0
 10
202.3805880946482
 20
1286.014802704384
 30
0.0
 10
215.4114358467839
 20
1269.291178800665
 30
0.0
 10
226.7696308573723
 20
1256.319479615345
 30
0.0
 10
235.0471705761142
 20
1247.483883228171
 30
0.0
  0
SPLINE
  5
84
330
1F
100
AcDbEntity
  8
LINEE VISIBILI 2D
100
AcDbSpline
210
0.0
220
0.0
230
1.0
 70
     8
 71
     3
 72
    21
 73
    17
 74
     0
 42
0.0000000001
 43
0.0000000001
 40
0.0
 40
0.0
 40
0.0
 40
0.0
 40
32.13832870151211
 40
60.01723591356831
 40
68.60582871644033
 40
74.62987497794099
 40
78.68175946857308
 40
81.3095409420728
 40
82.38078008125039
 40
83.14411183306746
 40
84.43352287763105
 40
86.31178115955697
 40
90.5790842285957
 40
92.85807009909037
 40
102.4010218859717
 40
109.6131628613274
 40
109.6131628613274
 40
109.6131628613274
 40
109.6131628613274
 10
180.0400832885394
 20
1183.440766963393
 30
0.0
 10
189.8260517421382
 20
1187.799445010149
 30
0.0
 10
208.0804079411705
 20
1195.986257085788
 30
0.0
 10
228.7838779798253
 20
1205.701878395704
 30
0.0
 10
241.5176988920346
 20
1211.904023212981
 30
0.0
 10
247.0451541197408
 20
1214.761589247687
 30
0.0
 10
250.71641789167
 20
1216.874222521123
 30
0.0
 10
252.8210300465473
 20
1218.381700422722
 30
0.0
 10
253.8517744115467
 20
1219.501113097102
 30
0.0
 10
253.9397880478189
 20
1220.581198521726
 30
0.0
 10
253.210963675389
 20
1221.746290046182
 30
0.0
 10
251.7801221967868
 20
1223.711700402142
 30
0.0
 10
249.7712544788678
 20
1225.729826767081
 30
0.0
 10
245.995003202164
 20
1229.512786158678
 30
0.0
 10
241.4322472665501
 20
1233.932225143277
 30
0.0
 10
237.5191314863564
 20
1237.917775514008
 30
0.0
 10
235.8471705761169
 20
1239.645112438065
 30
0.0
  0
SPLINE
  5
85
330
1F
100
AcDbEntity
  8
LINEE VISIBILI 2D
100
AcDbSpline
210
0.0
220
0.0
230
1.0
 70
     8
 71
     3
 72
    14
 73
    10
 74
     0
 42
0.0000000001
 43
0.0000000001
 40
0.0
 40
0.0
 40
0.0
 40
0.0
 40
18.90883979025769
 40
38.87547655469069
 40
55.86527984481395
 40
68.86002162052785
 40
86.29709697472266
 40
94.11980109767802
 40
103.1991017166292
 40
103.1991017166292
 40
103.1991017166292
 40
103.1991017166292
 10
235.0471705761115
 20
1240.474468693568
 30
0.0
 10
230.6693233429889
 20
1245.006447849923
 30
0.0
 10
221.8952833875845
 20
1254.553665313608
 30
0.0
 10
209.7987860099967
 20
1268.70569044681
 30
0.0
 10
199.4945874688333
 20
1281.802219962801
 30
0.0
 10
190.4367277613445
 20
1294.747085222475
 30
0.0
 10
184.6369142996645
 20
1306.227941882621
 30
0.0
 10
182.4990854093105
 20
1317.575258811627
 30
0.0
 10
182.3284182365608
 20
1323.180319235142
 30
0.0
 10
182.3512683936364
 20
1326.220762358244
 30
0.0
  0
SPLINE
  5
86
330
1F
100
AcDbEntity
  8
LINEE VISIBILI 2D
100
AcDbSpline
210
0.0
220
0.0
230
1.0
 70
    12
 71
     2
 72
     6
 73
     3
 74
     0
 42
0.0000000001
 43
0.0000000001
 40
0.0
 40
0.0
 40
0.0
 40
21.61873693225289
 40
21.61873693225289
 40
21.61873693225289
 10
181.8115017436666
 20
1083.309725746512
 30
0.0
 41
1.0
 10
181.4353510507887
 20
1094.120614658872
 30
0.0
 41
0.9988824150602603
 10
180.0400832885371
 20
1104.847684915506
 30
0.0
 41
1.0
  0
SPLINE
  5
87
330
1F
100
AcDbEntity
  8
LINEE VISIBILI 2D
100
AcDbSpline
210
0.0
220
0.0
230
1.0
 70
     8
 71
     3
 72
    11
 73
     7
 74
     0
 42
0.0000000001
 43
0.0000000001
 40
0.0
 40
0.0
 40
0.0
 40
0.0
 40
4.562680012801341
 40
9.539684585720948
 40
19.75860131638259
 40
44.30097117970302
 40
44.30097117970302
 40
44.30097117970302
 40
44.30097117970302
 10
180.0400832884408
 20
1126.89998594259
 30
0.0
 10
180.5367601063014
 20
1125.462879593807
 30
0.0
 10
181.4968606170786
 20
1122.429312708413
 30
0.0
 10
183.1770239014504
 20
1116.060391014408
 30
0.0
 10
185.6589635115474
 20
1103.032933469349
 30
0.0
 10
186.4434998778755
 20
1091.446356706423
 30
0.0
 10
186.7949403061629
 20
1083.277393223474
 30
0.0
  0
SPLINE
  5
88
330
1F
100
AcDbEntity
  8
LINEE VISIBILI 2D
100
AcDbSpline
210
0.0
220
0.0
230
1.0
 70
    12
 71
     2
 72
     6
 73
     3
 74
     0
 42
0.0000000001
 43
0.0000000001
 40
0.0
 40
0.0
 40
0.0
 40
59.92947572443114
 40
59.92947572443114
 40
59.92947572443114
 10
121.5674669295915
 20
1068.876086894281
 30
0.0
 41
1.0
 10
148.7858897863853
 20
1082.555647080773
 30
0.0
 41
0.9756619679092681
 10
179.2400832885385
 20
1083.273287548201
 30
0.0
 41
1.0
  0
SPLINE
  5
89
330
1F
100
AcDbEntity
  8
LINEE VISIBILI 2D
100
AcDbSpline
210
0.0
220
0.0
230
1.0
 70
    24
 71
     2
 72
     6
 73
     3
 74
     0
 42
0.0000000001
 43
0.0000000001
 40
0.0
 40
0.0
 40
0.0
 40
264.4176478419895
 40
264.4176478419895
 40
264.4176478419895
 10
180.0400832885387
 20
1333.307174178417
 30
0.0
 10
180.0400832885387
 20
1201.098350257422
 30
0.0
 10
180.0400832885387
 20
1068.889526336427
 30
0.0
  0
SPLINE
  5
8A
330
1F
100
AcDbEntity
  8
LINEE VISIBILI 2D
100
AcDbSpline
210
0.0
220
0.0
230
1.0
 70
    24
 71
     2
 72
     6
 73
     3
 74
     0
 42
0.0000000001
 43
0.0000000001
 40
0.0
 40
0.0
 40
0.0
 40
121.7493165666156
 40
121.7493165666156
 40
121.7493165666156
 10
235.8471705761165
 20
1330.893802952018
 30
0.0
 10
235.8471705761165
 20
1270.01914466871
 30
0.0
 10
235.8471705761165
 20
1209.144486385402
 30
0.0
  0
SPLINE
  5
8B
330
1F
100
AcDbEntity
  8
LINEE VISIBILI 2D
100
AcDbSpline
210
0.0
220
0.0
230
1.0
 70
    24
 71
     2
 72
     6
 73
     3
 74
     0
 42
0.0000000001
 43
0.0000000001
 40
0.0
 40
0.0
 40
0.0
 40
131.5296026515607
 40
131.5296026515607
 40
131.5296026515607
 10
235.8471705761165
 20
1204.441671486428
 30
0.0
 10
235.8471705761165
 20
1138.676870160647
 30
0.0
 10
235.8471705761165
 20
1072.912068834867
 30
0.0
  0
SPLINE
  5
8C
330
1F
100
AcDbEntity
  8
LINEE VISIBILI 2D
100
AcDbSpline
210
0.0
220
0.0
230
1.0
 70
    24
 71
     2
 72
     6
 73
     3
 74
     0
 42
0.0000000001
 43
0.0000000001
 40
0.0
 40
0.0
 40
0.0
 40
255.9501613524312
 40
255.9501613524312
 40
255.9501613524312
 10
133.6660006464469
 20
1330.184721744018
 30
0.0
 10
133.6660006464469
 20
1202.209641067802
 30
0.0
 10
133.6660006464469
 20
1074.234560391587
 30
0.0
  0
SPLINE
  5
8D
330
1F
100
AcDbEntity
  8
LINEE VISIBILI 2D
100
AcDbSpline
210
0.0
220
0.0
230
1.0
 70
     8
 71
     3
 72
    13
 73
     9
 74
     0
 42
0.0000000001
 43
0.0000000001
 40
0.0
 40
0.0
 40
0.0
 40
0.0
 40
15.26425790252486
 40
20.39041955407846
 40
24.49026725488248
 40
30.60027483629261
 40
32.64645141323491
 40
33.89394677729047
 40
33.89394677729047
 40
33.89394677729047
 40
33.89394677729047
 10
179.2400832885384
 20
1178.448354387061
 30
0.0
 10
174.6009571128251
 20
1176.375075451971
 30
0.0
 10
168.4043178620441
 20
1173.608637664787
 30
0.0
 10
161.0172105531458
 20
1170.156208280187
 30
0.0
 10
156.4436255474226
 20
1167.893862533148
 30
0.0
 10
152.8377367164238
 20
1165.973165566001
 30
0.0
 10
150.2505206315762
 20
1164.206111333898
 30
0.0
 10
149.4353214862576
 20
1163.462344560551
 30
0.0
 10
149.1789595300563
 20
1163.13443492103
 30
0.0
  0
SPLINE
  5
8E
330
1F
100
AcDbEntity
  8
LINEE VISIBILI 2D
100
AcDbSpline
210
0.0
220
0.0
230
1.0
 70
     8
 71
     3
 72
    14
 73
    10
 74
     0
 42
0.0000000001
 43
0.0000000001
 40
0.0
 40
0.0
 40
0.0
 40
0.0
 40
0.816514210153381
 40
2.213857606472733
 40
3.776628461842953
 40
10.32101611865149
 40
15.14860211991014
 40
24.33675491782614
 40
46.45906833285957
 40
46.45906833285957
 40
46.45906833285957
 40
46.45906833285957
 10
149.1789595300563
 20
1163.13443492103
 30
0.0
 10
149.3422470282478
 20
1162.91250640903
 30
0.0
 10
149.8584345440585
 20
1162.381190984035
 30
0.0
 10
150.8495872768845
 20
1161.600823258074
 30
0.0
 10
153.505562659913
 20
1159.88431267587
 30
0.0
 10
157.1943834291834
 20
1157.644129468588
 30
0.0
 10
162.7282933568829
 20
1153.616658437284
 30
0.0
 10
171.5417951742105
 20
1145.313343782517
 30
0.0
 10
176.657134867073
 20
1135.995692755371
 30
0.0
 10
179.2400832862262
 20
1129.113997080243
 30
0.0
  0
SPLINE
  5
8F
330
1F
100
AcDbEntity
  8
PREDEFINITO
100
AcDbSpline
210
0.0
220
0.0
230
1.0
 70
    24
 71
     2
 72
     6
 73
     3
 74
     0
 42
0.0000000001
 43
0.0000000001
 40
0.0
 40
0.0
 40
0.0
 40
0.1000101131160136
 40
0.1000101131160136
 40
0.1000101131160136
 10
203.0371875562789
 20
1326.32077247136
 30
0.0
 10
203.0356005083139
 20
1326.270767414802
 30
0.0
 10
203.0340134603488
 20
1326.220762358245
 30
0.0
  0
SPLINE
  5
90
330
1F
100
AcDbEntity
  8
PREDEFINITO
100
AcDbSpline
210
0.0
220
0.0
230
1.0
 70
    24
 71
     2
 72
     6
 73
     3
 74
     0
 42
0.0000000001
 43
0.0000000001
 40
-2.240308700067004
 40
-2.240308700067004
 40
-2.240308700067004
 40
0.0
 40
0.0
 40
0.0
 10
203.0340134603488
 20
1326.220762358245
 30
0.0
 10
201.9122720623503
 20
1326.220762358245
 30
0.0
 10
200.7905306643518
 20
1326.220762358245
 30
0.0
  0
SPLINE
  5
91
330
1F
100
AcDbEntity
  8
PREDEFINITO
100
AcDbSpline
210
0.0
220
0.0
230
1.0
 70
    24
 71
     2
 72
     6
 73
     3
 74
     0
 42
0.0000000001
 43
0.0000000001
 40
0.0
 40
0.0
 40
0.0
 40
2.187776554415905
 40
2.187776554415905
 40
2.187776554415905
 10
200.7905306643518
 20
1326.220762358245
 30
0.0
 10
199.6966423871438
 20
1326.220762358245
 30
0.0
 10
198.6027541099359
 20
1326.220762358245
 30
0.0
  0
SPLINE
  5
92
330
1F
100
AcDbEntity
  8
PREDEFINITO
100
AcDbSpline
210
0.0
220
0.0
230
1.0
 70
    24
 71
     2
 72
     6
 73
     3
 74
     0
 42
0.0000000001
 43
0.0000000001
 40
-18.56267082139553
 40
-18.56267082139553
 40
-18.56267082139553
 40
0.0
 40
0.0
 40
0.0
 10
198.6027541099359
 20
1326.220762358245
 30
0.0
 10
189.3214186992376
 20
1326.245760195455
 30
0.0
 10
180.0400832885394
 20
1326.270758032665
 30
0.0
  0
SPLINE
  5
93
330
1F
100
AcDbEntity
  8
PREDEFINITO
100
AcDbSpline
210
0.0
220
0.0
230
1.0
 70
    12
 71
     2
 72
     6
 73
     3
 74
     0
 42
0.0000000001
 43
0.0000000001
 40
0.0
 40
0.0
 40
0.0
 40
25.46299401834615
 40
25.46299401834615
 40
25.46299401834615
 10
180.0400832885394
 20
1326.270758032665
 30
0.0
 41
1.0
 10
192.7715803814069
 20
1326.320711087152
 30
0.0
 41
0.9999999999901602
 10
205.5108781234321
 20
1326.321186480575
 30
0.0
 41
1.0
  0
SPLINE
  5
94
330
1F
100
AcDbEntity
  8
PREDEFINITO
100
AcDbSpline
210
0.0
220
0.0
230
1.0
 70
    12
 71
     2
 72
     6
 73
     3
 74
     0
 42
0.0000000001
 43
0.0000000001
 40
-32.69353775906052
 40
-32.69353775906052
 40
-32.69353775906052
 40
0.0
 40
0.0
 40
0.0
 10
205.5108781234321
 20
1326.321186480575
 30
0.0
 41
1.0
 10
221.8081402487505
 20
1327.77481495023
 30
0.0
 41
0.9979153231688859
 10
237.7677639545308
 20
1331.345585346422
 30
0.0
 41
0.9999960878937804
  0
SPLINE
  5
95
330
1F
100
AcDbEntity
  8
PREDEFINITO
100
AcDbSpline
210
0.0
220
0.0
230
1.0
 70
    12
 71
     2
 72
     6
 73
     3
 74
     0
 42
0.0000000001
 43
0.0000000001
 40
0.0
 40
0.0
 40
0.0
 40
1.378248760229565
 40
1.378248760229565
 40
1.378248760229565
 10
237.7677639545308
 20
1331.345585346422
 30
0.0
 41
0.9999227872542819
 10
238.4002436009405
 20
1331.587730300419
 30
0.0
 41
0.9980583432522112
 10
239.0644877796765
 20
1331.714801359734
 30
0.0
 41
1.0
  0
SPLINE
  5
96
330
1F
100
AcDbEntity
  8
PREDEFINITO
100
AcDbSpline
210
0.0
220
0.0
230
1.0
 70
    12
 71
     2
 72
     6
 73
     3
 74
     0
 42
0.0000000001
 43
0.0000000001
 40
0.0
 40
0.0
 40
0.0
 40
34.78030648931756
 40
34.78030648931756
 40
34.78030648931756
 10
239.0644877796765
 20
1331.714801359734
 30
0.0
 41
1.0
 10
256.0377700039207
 20
1335.626102343002
 30
0.0
 41
0.9975941075095583
 10
272.306905681691
 20
1341.847501634468
 30
0.0
 41
1.0
  0
POLYLINE
  5
97
330
1F
100
AcDbEntity
  8
PREDEFINITO
100
AcDb2dPolyline
 66
     1
 10
0.0
 20
0.0
 30
0.0
  0
VERTEX
  5
99
330
97
100
AcDbEntity
  8
PREDEFINITO
100
AcDbVertex
100
AcDb2dVertex
 10
272.306905681691
 20
1341.847501634468
 30
0.0
  0
VERTEX
  5
9A
330
97
100
AcDbEntity
  8
PREDEFINITO
100
AcDbVertex
100
AcDb2dVertex
 10
272.3655107904044
 20
1341.869921801483
 30
0.0
  0
SEQEND
  5
98
330
97
100
AcDbEntity
  8
PREDEFINITO
  0
SPLINE
  5
9B
330
1F
100
AcDbEntity
  8
LINEE VISIBILI 2D
100
AcDbSpline
210
0.0
220
0.0
230
1.0
 70
    24
 71
     2
 72
     6
 73
     3
 74
     0
 42
0.0000000001
 43
0.0000000001
 40
0.0
 40
0.0
 40
0.0
 40
2.741686638847426
 40
2.741686638847426
 40
2.741686638847426
 10
218.1967186744762
 20
1346.720762358247
 30
0.0
 10
219.5574118383894
 20
1346.720762358241
 30
0.0
 10
220.9181050023026
 20
1346.720762358234
 30
0.0
  0
SPLINE
  5
9C
330
1F
100
AcDbEntity
  8
LINEE VISIBILI 2D
100
AcDbSpline
210
0.0
220
0.0
230
1.0
 70
    12
 71
     2
 72
     6
 73
     3
 74
     0
 42
0.0000000001
 43
0.0000000001
 40
0.0
 40
0.0
 40
0.0
 40
1.724506969599506
 40
1.724506969599506
 40
1.724506969599506
 10
220.9181050023026
 20
1346.720762358234
 30
0.0
 41
1.0
 10
220.3090948085559
 20
1346.090760972479
 30
0.0
 41
0.9999999999972295
 10
219.7203819599886
 20
1345.453945693569
 30
0.0
 41
1.0
  0
SPLINE
  5
9D
330
1F
100
AcDbEntity
  8
LINEE VISIBILI 2D
100
AcDbSpline
210
0.0
220
0.0
230
1.0
 70
    12
 71
     2
 72
     6
 73
     3
 74
     0
 42
0.0000000001
 43
0.0000000001
 40
0.0
 40
0.0
 40
0.0
 40
2.041755270391313
 40
2.041755270391313
 40
2.041755270391313
 10
219.7203819599886
 20
1345.453945693569
 30
0.0
 41
1.0
 10
218.966969430309
 20
1344.758167956118
 30
0.0
 41
0.9999232557174819
 10
218.1967186631817
 20
1344.088084711011
 30
0.0
 41
1.0
  0
SPLINE
  5
9E
330
1F
100
AcDbEntity
  8
LINEE VISIBILI 2D
100
AcDbSpline
210
0.0
220
0.0
230
1.0
 70
    24
 71
     2
 72
     6
 73
     3
 74
     0
 42
0.0000000001
 43
0.0000000001
 40
-2.366674316088165
 40
-2.366674316088165
 40
-2.366674316088165
 40
0.0
 40
0.0
 40
0.0
 10
131.2939261193853
 20
1346.720762358247
 30
0.0
 10
130.0958748677811
 20
1346.720762358247
 30
0.0
 10
128.8978236161769
 20
1346.720762358247
 30
0.0
  0
SPLINE
  5
9F
330
1F
100
AcDbEntity
  8
LINEE VISIBILI 2D
100
AcDbSpline
210
0.0
220
0.0
230
1.0
 70
    24
 71
     2
 72
     6
 73
     3
 74
     0
 42
0.0000000001
 43
0.0000000001
 40
0.0
 40
0.0
 40
0.0
 40
35.83076481125711
 40
35.83076481125711
 40
35.83076481125711
 10
128.8978236161769
 20
1346.720762358247
 30
0.0
 10
110.967616351608
 20
1346.720762358247
 30
0.0
 10
93.03740908703921
 20
1346.720762358247
 30
0.0
  0
SPLINE
  5
A0
330
1F
100
AcDbEntity
  8
LINEE VISIBILI 2D
100
AcDbSpline
210
0.0
220
0.0
230
1.0
 70
    24
 71
     2
 72
     6
 73
     3
 74
     0
 42
0.0000000001
 43
0.0000000001
 40
-4.850840556764069
 40
-4.850840556764069
 40
-4.850840556764069
 40
0.0
 40
0.0
 40
0.0
 10
93.03740908703921
 20
1346.720762358247
 30
0.0
 10
93.04895384230622
 20
1344.290903879342
 30
0.0
 10
93.06049859757323
 20
1341.861045400437
 30
0.0
  0
SPLINE
  5
A1
330
1F
100
AcDbEntity
  8
LINEE VISIBILI 2D
100
AcDbSpline
210
0.0
220
0.0
230
1.0
 70
    12
 71
     2
 72
     6
 73
     3
 74
     0
 42
0.0000000001
 43
0.0000000001
 40
0.0
 40
0.0
 40
0.0
 40
0.0174668426155704
 40
0.0174668426155704
 40
0.0174668426155704
 10
93.06049859757323
 20
1341.861045400437
 30
0.0
 41
1.0
 10
93.07564683979876
 20
1341.855274057286
 30
0.0
 41
0.9999999994013578
 10
93.06967997878411
 20
1341.864150740259
 30
0.0
 41
1.0
  0
SPLINE
  5
A2
330
1F
100
AcDbEntity
  8
LINEE VISIBILI 2D
100
AcDbSpline
210
0.0
220
0.0
230
1.0
 70
    12
 71
     2
 72
     6
 73
     3
 74
     0
 42
0.0000000001
 43
0.0000000001
 40
5.702977543840059
 40
5.702977543840059
 40
5.702977543840059
 40
91.24764070144094
 40
91.24764070144094
 40
91.24764070144094
 10
93.06967997878411
 20
1341.864150740259
 30
0.0
 41
0.9850630856445971
 10
91.82329407072123
 20
1341.869921801484
 30
0.0
 41
0.882212509615702
 10
128.8683954290566
 20
1341.869921801483
 30
0.0
 41
1.0
  0
SPLINE
  5
A3
330
1F
100
AcDbEntity
  8
LINEE VISIBILI 2D
100
AcDbSpline
210
0.0
220
0.0
230
1.0
 70
    24
 71
     2
 72
     6
 73
     3
 74
     0
 42
0.0000000001
 43
0.0000000001
 40
0.0
 40
0.0
 40
0.0
 40
4.850840556763842
 40
4.850840556763842
 40
4.850840556763842
 10
128.8683954290566
 20
1341.869921801483
 30
0.0
 10
128.8683954290566
 20
1344.295342079865
 30
0.0
 10
128.8683954290566
 20
1346.720762358247
 30
0.0
  0
SPLINE
  5
A4
330
1F
100
AcDbEntity
  8
LINEE VISIBILI 2D
100
AcDbSpline
210
0.0
220
0.0
230
1.0
 70
    24
 71
     2
 72
     6
 73
     3
 74
     0
 42
0.0000000001
 43
0.0000000001
 40
0.0
 40
0.0
 40
0.0
 40
0.0588563877427077
 40
0.0588563877427077
 40
0.0588563877427077
 10
128.8683954290566
 20
1346.720762358247
 30
0.0
 10
128.8978236229422
 20
1346.720762358253
 30
0.0
 10
128.9272518168278
 20
1346.720762358259
 30
0.0
  0
SPLINE
  5
A5
330
1F
100
AcDbEntity
  8
LINEE VISIBILI 2D
100
AcDbSpline
210
0.0
220
0.0
230
1.0
 70
    12
 71
     2
 72
     6
 73
     3
 74
     0
 42
0.0000000001
 43
0.0000000001
 40
-2.121535881432435
 40
-2.121535881432435
 40
-2.121535881432435
 40
0.0
 40
0.0
 40
0.0
 10
128.9272518168278
 20
1346.720762358259
 30
0.0
 41
1.0
 10
129.7806721116108
 20
1346.090760434124
 30
0.0
 41
0.9999999999974583
 10
130.6340952472998
 20
1345.453945693584
 30
0.0
 41
1.0
  0
SPLINE
  5
A6
330
1F
100
AcDbEntity
  8
LINEE VISIBILI 2D
100
AcDbSpline
210
0.0
220
0.0
230
1.0
 70
    12
 71
     2
 72
     6
 73
     3
 74
     0
 42
0.0000000001
 43
0.0000000001
 40
-0.7784796787025636
 40
-0.7784796787025636
 40
-0.7784796787025636
 40
0.0
 40
0.0
 40
0.0
 10
130.6340952472998
 20
1345.453945693584
 30
0.0
 41
1.0
 10
130.9633263577635
 20
1345.239485975921
 30
0.0
 41
0.9999945101373597
 10
131.2939263073556
 20
1345.034029326274
 30
0.0
 41
1.0
  0
SPLINE
  5
A7
330
1F
100
AcDbEntity
  8
LINEE VISIBILI 2D
100
AcDbSpline
210
0.0
220
0.0
230
1.0
 70
    12
 71
     2
 72
     6
 73
     3
 74
     0
 42
0.0000000001
 43
0.0000000001
 40
-69.39763739180232
 40
-69.39763739180232
 40
-69.39763739180232
 40
0.0
 40
0.0
 40
0.0
 10
93.13659583064181
 20
1341.83209634944
 30
0.0
 41
1.0
 10
125.7757960730414
 20
1329.424382269788
 30
0.0
 41
0.9906097590230629
 10
160.5634960053338
 20
1326.321175462724
 30
0.0
 41
1.0
  0
SPLINE
  5
A8
330
1F
100
AcDbEntity
  8
LINEE VISIBILI 2D
100
AcDbSpline
210
0.0
220
0.0
230
1.0
 70
    12
 71
     2
 72
     6
 73
     3
 74
     0
 42
0.0000000001
 43
0.0000000001
 40
0.0
 40
0.0
 40
0.0
 40
9.241400770703551
 40
9.241400770703551
 40
9.241400770703551
 10
160.5634960053338
 20
1326.321175462724
 30
0.0
 41
1.0
 10
165.1919981910704
 20
1326.320755638561
 30
0.0
 41
0.9999999999938136
 10
169.8126985764363
 20
1326.320762358426
 30
0.0
 41
1.0
  0
SPLINE
  5
A9
330
1F
100
AcDbEntity
  8
LINEE VISIBILI 2D
100
AcDbSpline
210
0.0
220
0.0
230
1.0
 70
    12
 71
     2
 72
     6
 73
     3
 74
     0
 42
0.0000000001
 43
0.0000000001
 40
0.0
 40
0.0
 40
0.0
 40
9.427384712105694
 40
9.427384712105694
 40
9.427384712105694
 10
169.8126985764363
 20
1326.320762358426
 30
0.0
 41
1.0
 10
174.5263909324896
 20
1326.320761332249
 30
0.0
 41
0.9999999999998231
 10
179.2400832885403
 20
1326.270758528328
 30
0.0
 41
1.0
  0
SPLINE
  5
AA
330
1F
100
AcDbEntity
  8
LINEE VISIBILI 2D
100
AcDbSpline
210
0.0
220
0.0
230
1.0
 70
    24
 71
     2
 72
     6
 73
     3
 74
     0
 42
0.0000000001
 43
0.0000000001
 40
-16.20289573226614
 40
-16.20289573226614
 40
-16.20289573226614
 40
0.0
 40
0.0
 40
0.0
 10
179.2400832885403
 20
1326.270758528328
 30
0.0
 10
171.1386354224083
 20
1326.245760443287
 30
0.0
 10
163.0371875562762
 20
1326.220762358245
 30
0.0
  0
SPLINE
  5
AB
330
1F
100
AcDbEntity
  8
LINEE VISIBILI 2D
100
AcDbSpline
210
0.0
220
0.0
230
1.0
 70
    24
 71
     2
 72
     6
 73
     3
 74
     0
 42
0.0000000001
 43
0.0000000001
 40
0.0
 40
0.0
 40
0.0
 40
0.1000079194864156
 40
0.1000079194864156
 40
0.1000079194864156
 10
163.0371875562762
 20
1326.220762358245
 30
0.0
 10
163.0371875562763
 20
1326.270766317988
 30
0.0
 10
163.0371875562765
 20
1326.320770277732
 30
0.0
  0
SPLINE
  5
AC
330
1F
100
AcDbEntity
  8
LINEE VISIBILI 2D
100
AcDbSpline
210
0.0
220
0.0
230
1.0
 70
    24
 71
     3
 72
     8
 73
     4
 74
     0
 42
0.0000000001
 43
0.0000000001
 40
0.0
 40
0.0
 40
0.0
 40
0.0
 40
32.29700000000105
 40
32.29700000000105
 40
32.29700000000105
 40
32.29700000000105
 10
215.0760390272274
 20
1068.889526336427
 30
0.0
 10
225.8417056938944
 20
1068.889526336427
 30
0.0
 10
236.6073723605612
 20
1068.889526336426
 30
0.0
 10
247.3730390272279
 20
1068.889526336427
 30
0.0
  0
SPLINE
  5
AD
330
1F
100
AcDbEntity
  8
LINEE VISIBILI 2D
100
AcDbSpline
210
0.0
220
0.0
230
1.0
 70
    12
 71
     2
 72
     6
 73
     3
 74
     0
 42
0.0000000001
 43
0.0000000001
 40
0.0
 40
0.0
 40
0.0
 40
0.6501219374790315
 40
0.6501219374790315
 40
0.6501219374790315
 10
247.3730390272279
 20
1068.889526336427
 30
0.0
 41
1.0
 10
247.7049764748001
 20
1068.889098616523
 30
0.0
 41
0.9692122417378033
 10
247.9964606132526
 20
1068.730291661146
 30
0.0
 41
1.0
  0
SPLINE
  5
AE
330
1F
100
AcDbEntity
  8
LINEE VISIBILI 2D
100
AcDbSpline
210
0.0
220
0.0
230
1.0
 70
     8
 71
     3
 72
    20
 73
    16
 74
     0
 42
0.0000000001
 43
0.0000000001
 40
0.0
 40
0.0
 40
0.0
 40
0.0
 40
29.50572057678944
 40
62.82065426175382
 40
103.1140752039136
 40
142.7741018831879
 40
181.9561831608658
 40
202.4207104647652
 40
229.0718344910626
 40
263.3370500485756
 40
282.3734801794374
 40
300.6618918177537
 40
302.6999069729378
 40
304.4127798117883
 40
307.9268786493645
 40
307.9268786493645
 40
307.9268786493645
 40
307.9268786493645
 10
247.9964606132526
 20
1068.730291661146
 30
0.0
 10
256.6269696221402
 20
1064.04320832813
 30
0.0
 10
273.8769231209982
 20
1051.850848913553
 30
0.0
 10
296.8583573026052
 20
1026.145693445213
 30
0.0
 10
318.513389155678
 20
995.1469485728813
 30
0.0
 10
336.5012963759515
 20
959.6071867354223
 30
0.0
 10
347.1967705317907
 20
928.2092745161254
 30
0.0
 10
353.6738738604078
 20
900.1634061412
 30
0.0
 10
358.5380688931127
 20
873.47507382998
 30
0.0
 10
362.2338575758055
 20
847.0713161991549
 30
0.0
 10
364.3513218103259
 20
823.2935569222434
 30
0.0
 10
365.315727427889
 20
810.2176259644968
 30
0.0
 10
365.6033992036853
 20
802.8648387073952
 30
0.0
 10
364.3988446738904
 20
800.5959471606368
 30
0.0
 10
362.7500702381616
 20
799.8134564773802
 30
0.0
 10
361.5429138934969
 20
799.8245693176837
 30
0.0
  0
SPLINE
  5
AF
330
1F
100
AcDbEntity
  8
LINEE VISIBILI 2D
100
AcDbSpline
210
0.0
220
0.0
230
1.0
 70
    24
 71
     2
 72
     6
 73
     3
 74
     0
 42
0.0000000001
 43
0.0000000001
 40
0.0
 40
0.0
 40
0.0
 40
0.2449896776047353
 40
0.2449896776047353
 40
0.2449896776047353
 10
361.5429138934969
 20
799.8245693176837
 30
0.0
 10
361.4204190546917
 20
799.8245693176837
 30
0.0
 10
361.2979242158865
 20
799.8245693176837
 30
0.0
  0
SPLINE
  5
B0
330
1F
100
AcDbEntity
  8
LINEE VISIBILI 2D
100
AcDbSpline
210
0.0
220
0.0
230
1.0
 70
    24
 71
     2
 72
     6
 73
     3
 74
     0
 42
0.0000000001
 43
0.0000000001
 40
0.0
 40
0.0
 40
0.0
 40
357.2827600119685
 40
357.2827600119685
 40
357.2827600119685
 10
361.2979242158865
 20
799.8245693176837
 30
0.0
 10
182.6565441991125
 20
799.8245693176837
 30
0.0
 10
4.015164182338594
 20
799.8245693176837
 30
0.0
  0
SPLINE
  5
B1
330
1F
100
AcDbEntity
  8
LINEE VISIBILI 2D
100
AcDbSpline
210
0.0
220
0.0
230
1.0
 70
     8
 71
     3
 72
    21
 73
    17
 74
     0
 42
0.0000000001
 43
0.0000000001
 40
0.0
 40
0.0
 40
0.0
 40
0.0
 40
3.567806898407739
 40
4.661696247849587
 40
5.30066270804075
 40
6.505198062732713
 40
7.308620583192476
 40
44.5890394081205
 40
79.48910882219691
 40
104.8706118161391
 40
125.4940316453858
 40
166.1051052959313
 40
204.9709090612545
 40
245.1057640578777
 40
278.4198995605857
 40
307.9262966633129
 40
307.9262966633129
 40
307.9262966633129
 40
307.9262966633129
 10
4.015164182338594
 20
799.8245693176837
 30
0.0
 10
2.825255430282477
 20
799.8156319340557
 30
0.0
 10
1.266862452904027
 20
800.5212589565017
 30
0.0
 10
0.3820114013447968
 20
802.0936287684862
 30
0.0
 10
0.0806266361599553
 20
803.0199075226949
 30
0.0
 10
-0.0290191338449483
 20
803.90726065844
 30
0.0
 10
0.6698474854933563
 20
816.9832123746644
 30
0.0
 10
2.549010234951541
 20
841.2498728283929
 30
0.0
 10
6.994861437180301
 20
873.4783540288656
 30
0.0
 10
11.88220642342542
 20
900.0044863914103
 30
0.0
 10
18.30206273044513
 20
928.1638635731897
 30
0.0
 10
29.13397711037692
 20
959.8177358496309
 30
0.0
 10
47.2530667113613
 20
995.4537864489786
 30
0.0
 10
68.73317282196075
 20
1026.177686079167
 30
0.0
 10
91.68543472330781
 20
1051.864246274968
 30
0.0
 10
108.9296207360258
 20
1064.038084375961
 30
0.0
 10
117.561617441197
 20
1068.730291661146
 30
0.0
  0
SPLINE
  5
B2
330
1F
100
AcDbEntity
  8
LINEE VISIBILI 2D
100
AcDbSpline
210
0.0
220
0.0
230
1.0
 70
    12
 71
     2
 72
     6
 73
     3
 74
     0
 42
0.0000000001
 43
0.0000000001
 40
0.0
 40
0.0
 40
0.0
 40
0.6501219374782508
 40
0.6501219374782508
 40
0.6501219374782508
 10
117.561617441197
 20
1068.730291661146
 30
0.0
 41
1.0
 10
117.8531015796476
 20
1068.889098616527
 30
0.0
 41
0.9692122417342512
 10
118.1850390282565
 20
1068.889526336427
 30
0.0
 41
1.0
  0
SPLINE
  5
B3
330
1F
100
AcDbEntity
  8
LINEE VISIBILI 2D
100
AcDbSpline
210
0.0
220
0.0
230
1.0
 70
    24
 71
     3
 72
     8
 73
     4
 74
     0
 42
0.0000000001
 43
0.0000000001
 40
0.0
 40
0.0
 40
0.0
 40
0.0
 40
96.89026970733028
 40
96.89026970733028
 40
96.89026970733028
 40
96.89026970733028
 10
118.1850390282565
 20
1068.889526336427
 30
0.0
 10
150.4817955984022
 20
1068.889526336426
 30
0.0
 10
182.7785521675124
 20
1068.889526336427
 30
0.0
 10
215.0760390272274
 20
1068.889526336427
 30
0.0
  0
SPLINE
  5
B4
330
1F
100
AcDbEntity
  8
LINEE VISIBILI 2D
100
AcDbSpline
210
0.0
220
0.0
230
1.0
 70
     8
 71
     3
 72
    11
 73
     7
 74
     0
 42
0.0000000001
 43
0.0000000001
 40
0.0
 40
0.0
 40
0.0
 40
0.0
 40
3.939777220754901
 40
7.488973835818902
 40
14.76162475875454
 40
27.38282729654654
 40
27.38282729654654
 40
27.38282729654654
 40
27.38282729654654
 10
179.2400832885385
 20
1109.926188172055
 30
0.0
 10
179.0097962359642
 20
1111.219306854147
 30
0.0
 10
178.5367474991142
 20
1113.670163821039
 30
0.0
 10
177.4358168962042
 20
1118.467624981832
 30
0.0
 10
175.2933072723185
 20
1125.985982303775
 30
0.0
 10
172.7322349124557
 20
1132.129985010251
 30
0.0
 10
170.6963360123134
 20
1135.814493676637
 30
0.0
  0
SPLINE
  5
B5
330
1F
100
AcDbEntity
  8
LINEE VISIBILI 2D
100
AcDbSpline
210
0.0
220
0.0
230
1.0
 70
     8
 71
     3
 72
    15
 73
    11
 74
     0
 42
0.0000000001
 43
0.0000000001
 40
0.0
 40
0.0
 40
0.0
 40
0.0
 40
3.819909402836387
 40
7.491086901425787
 40
15.06739221503383
 40
21.13745819967117
 40
24.8139480399482
 40
30.37070796504342
 40
32.03769716223554
 40
35.15333539263919
 40
35.15333539263919
 40
35.15333539263919
 40
35.15333539263919
 10
170.6963360123134
 20
1135.814493676637
 30
0.0
 10
170.0793327267771
 20
1136.927313211588
 30
0.0
 10
168.8042170676437
 20
1139.07859050581
 30
0.0
 10
165.9173577039942
 20
1143.189277753645
 30
0.0
 10
162.0697027560434
 20
1147.521587298731
 30
0.0
 10
157.6254950849071
 20
1151.224235006277
 30
0.0
 10
153.4410234638758
 20
1154.144749349623
 30
0.0
 10
150.3256867425287
 20
1156.020985665156
 30
0.0
 10
147.4453434248092
 20
1157.908309747947
 30
0.0
 10
146.1919604102477
 20
1158.911238239363
 30
0.0
 10
145.5346427888023
 20
1159.720370845581
 30
0.0
  0
SPLINE
  5
B6
330
1F
100
AcDbEntity
  8
LINEE VISIBILI 2D
100
AcDbSpline
210
0.0
220
0.0
230
1.0
 70
     8
 71
     3
 72
    15
 73
    11
 74
     0
 42
0.0000000001
 43
0.0000000001
 40
0.0
 40
0.0
 40
0.0
 40
0.0
 40
2.268217207180936
 40
4.523428704348859
 40
7.083206598283945
 40
10.467449833343
 40
14.89392436766162
 40
21.33688201650519
 40
30.04443066655336
 40
44.3457165634461
 40
44.3457165634461
 40
44.3457165634461
 40
44.3457165634461
 10
145.5346427888023
 20
1159.720370845581
 30
0.0
 10
145.0637625613422
 20
1160.302228177594
 30
0.0
 10
144.3525320874676
 20
1161.714699498904
 30
0.0
 10
144.6946515971966
 20
1164.144610280746
 30
0.0
 10
146.3063122393768
 20
1166.410524587619
 30
0.0
 10
149.0442251265045
 20
1168.545875385398
 30
0.0
 10
153.1446607571163
 20
1170.952436636022
 30
0.0
 10
158.9759090041572
 20
1173.886198995371
 30
0.0
 10
167.8817951535314
 20
1178.017340625038
 30
0.0
 10
174.8879112168504
 20
1181.138601480165
 30
0.0
 10
179.2400832885382
 20
1183.08359693024
 30
0.0
  0
SPLINE
  5
B7
330
1F
100
AcDbEntity
  8
LINEE VISIBILI 2D
100
AcDbSpline
210
0.0
220
0.0
230
1.0
 70
    12
 71
     3
 72
    10
 73
     6
 74
     0
 42
0.0000000001
 43
0.0000000001
 40
0.4839192854163656
 40
0.4839192854163656
 40
0.4839192854163656
 40
0.4839192854163656
 40
0.507537649960025
 40
0.507537649960025
 40
1.0
 40
1.0
 40
1.0
 40
1.0
 10
180.0400832807828
 20
1071.11220101597
 30
0.0
 41
1.0
 10
180.0758488774577
 20
1071.11317133852
 30
0.0
 41
1.0
 10
180.1112894321435
 20
1071.113558566048
 30
0.0
 41
1.0
 10
180.8761766651721
 20
1071.109246739755
 30
0.0
 41
1.0
 10
181.7615996441621
 20
1070.846336771158
 30
0.0
 41
1.0
 10
181.7043549504895
 20
1070.33083526308
 30
0.0
 41
1.0
  0
SPLINE
  5
B8
330
1F
100
AcDbEntity
  8
LINEE VISIBILI 2D
100
AcDbSpline
210
0.0
220
0.0
230
1.0
 70
    12
 71
     2
 72
     6
 73
     3
 74
     0
 42
0.0000000001
 43
0.0000000001
 40
0.0
 40
0.0
 40
0.0
 40
1.481319751748102
 40
1.481319751748102
 40
1.481319751748102
 10
181.7043549504895
 20
1070.33083526308
 30
0.0
 41
1.0
 10
181.6236229183353
 20
1069.60206490864
 30
0.0
 41
0.9999944494931927
 10
181.5604297036475
 20
1068.871453055571
 30
0.0
 41
0.9999998885765867
  0
SPLINE
  5
B9
330
1F
100
AcDbEntity
  8
LINEE VISIBILI 2D
100
AcDbSpline
210
0.0
220
0.0
230
1.0
 70
    12
 71
     2
 72
     6
 73
     3
 74
     0
 42
0.0000000001
 43
0.0000000001
 40
0.0
 40
0.0
 40
0.0
 40
1.627430622555935
 40
1.627430622555935
 40
1.627430622555935
 10
181.5604297036475
 20
1068.871453055571
 30
0.0
 41
0.9997137115327336
 10
180.8850395139682
 20
1069.384588564778
 30
0.0
 41
0.9372281432064222
 10
180.0400832805476
 20
1069.312910199835
 30
0.0
 41
1.0
  0
SPLINE
  5
BA
330
1F
100
AcDbEntity
  8
LINEE VISIBILI 2D
100
AcDbSpline
210
0.0
220
0.0
230
1.0
 70
     8
 71
     3
 72
    13
 73
     9
 74
     0
 42
0.0000000001
 43
0.0000000001
 40
0.0
 40
0.0
 40
0.0
 40
0.0
 40
4.94552584074914
 40
9.917859067514767
 40
23.45367461184505
 40
27.09879927221192
 40
30.84834634906816
 40
33.44821050755139
 40
33.44821050755139
 40
33.44821050755139
 40
33.44821050755139
 10
235.8471705761164
 20
1246.635395567424
 30
0.0
 10
236.9742479619353
 20
1245.432135489947
 30
0.0
 10
239.2730112448229
 20
1243.056534594799
 30
0.0
 10
244.7073008862161
 20
1237.435536236184
 30
0.0
 10
250.0378140722764
 20
1232.322123436963
 30
0.0
 10
254.9475384602526
 20
1227.36667857835
 30
0.0
 10
257.1441531137492
 20
1224.853313391455
 30
0.0
 10
258.2350527445661
 20
1223.02418192632
 30
0.0
 10
258.5186202538973
 20
1222.201181792425
 30
0.0
  0
SPLINE
  5
BB
330
1F
100
AcDbEntity
  8
LINEE VISIBILI 2D
100
AcDbSpline
210
0.0
220
0.0
230
1.0
 70
     8
 71
     3
 72
    15
 73
    11
 74
     0
 42
0.0000000001
 43
0.0000000001
 40
0.0
 40
0.0
 40
0.0
 40
0.0
 40
2.721116012811463
 40
5.603338972162994
 40
9.2463594312448
 40
14.83845932345085
 40
26.26501759062737
 40
45.770310602546
 40
66.16581949076944
 40
92.1458320667906
 40
92.1458320667906
 40
92.1458320667906
 40
92.1458320667906
 10
258.5186202538973
 20
1222.201181792425
 30
0.0
 10
258.8234117579165
 20
1221.358972904406
 30
0.0
 10
259.0173675002887
 20
1219.39459192701
 30
0.0
 10
257.4804812219134
 20
1216.617797743177
 30
0.0
 10
254.3311845654139
 20
1214.042271905495
 30
0.0
 10
248.3670959596795
 20
1210.590392274397
 30
0.0
 10
237.4602537526804
 20
1205.173373847878
 30
0.0
 10
222.0073397824887
 20
1197.832908041786
 30
0.0
 10
202.0667243083933
 20
1188.629959796166
 30
0.0
 10
187.9481339919953
 20
1182.335882546993
 30
0.0
 10
180.040083288539
 20
1178.805700518261
 30
0.0
  0
SPLINE
  5
BC
330
1F
100
AcDbEntity
  8
PREDEFINITO
100
AcDbSpline
210
0.0
220
0.0
230
1.0
 70
    24
 71
     2
 72
     6
 73
     3
 74
     0
 42
0.0000000001
 43
0.0000000001
 40
-4.85048737519287
 40
-4.85048737519287
 40
-4.85048737519287
 40
0.0
 40
0.0
 40
0.0
 10
273.0371875562789
 20
1341.870274983054
 30
0.0
 10
273.0371875562789
 20
1344.295518670651
 30
0.0
 10
273.0371875562789
 20
1346.720762358247
 30
0.0
  0
POLYLINE
  5
BD
330
1F
100
AcDbEntity
  8
PREDEFINITO
100
AcDb2dPolyline
 66
     1
 10
0.0
 20
0.0
 30
0.0
  0
VERTEX
  5
BF
330
BD
100
AcDbEntity
  8
PREDEFINITO
100
AcDbVertex
100
AcDb2dVertex
 10
273.0371875562789
 20
1346.720762358247
 30
0.0
  0
VERTEX
  5
C0
330
BD
100
AcDbEntity
  8
PREDEFINITO
100
AcDbVertex
100
AcDb2dVertex
 10
272.9123653101963
 20
1346.720762358247
 30
0.0
  0
SEQEND
  5
BE
330
BD
100
AcDbEntity
  8
PREDEFINITO
  0
SPLINE
  5
C1
330
1F
100
AcDbEntity
  8
PREDEFINITO
100
AcDbSpline
210
0.0
220
0.0
230
1.0
 70
    24
 71
     2
 72
     6
 73
     3
 74
     0
 42
0.0000000001
 43
0.0000000001
 40
0.0
 40
0.0
 40
0.0
 40
0.2306987808501617
 40
0.2306987808501617
 40
0.2306987808501617
 10
272.9123653101963
 20
1346.720762358247
 30
0.0
 10
272.7970159197712
 20
1346.720762358247
 30
0.0
 10
272.6816665293461
 20
1346.720762358247
 30
0.0
  0
SPLINE
  5
C2
330
1F
100
AcDbEntity
  8
PREDEFINITO
100
AcDbSpline
210
0.0
220
0.0
230
1.0
 70
    24
 71
     2
 72
     6
 73
     3
 74
     0
 42
0.0000000001
 43
0.0000000001
 40
-0.0298286114866642
 40
-0.0298286114866642
 40
-0.0298286114866642
 40
0.0
 40
0.0
 40
0.0
 10
272.6816665293461
 20
1346.720762358247
 30
0.0
 10
272.6667522340228
 20
1346.720762358247
 30
0.0
 10
272.6518379386995
 20
1346.720762358247
 30
0.0
  0
SPLINE
  5
C3
330
1F
100
AcDbEntity
  8
PREDEFINITO
100
AcDbSpline
210
0.0
220
0.0
230
1.0
 70
    24
 71
     2
 72
     6
 73
     3
 74
     0
 42
0.0000000001
 43
0.0000000001
 40
-0.2863271157258396
 40
-0.2863271157258396
 40
-0.2863271157258396
 40
0.0
 40
0.0
 40
0.0
 10
272.6518379386995
 20
1346.720762358247
 30
0.0
 10
272.5086743779043
 20
1346.697095886441
 30
0.0
 10
272.3655108171091
 20
1346.673429414635
 30
0.0
  0
SPLINE
  5
C4
330
1F
100
AcDbEntity
  8
PREDEFINITO
100
AcDbSpline
210
0.0
220
0.0
230
1.0
 70
    24
 71
     2
 72
     6
 73
     3
 74
     0
 42
0.0000000001
 43
0.0000000001
 40
0.0
 40
0.0
 40
0.0
 40
0.2364740655760471
 40
0.2364740655760471
 40
0.2364740655760471
 10
272.3655108171091
 20
1346.673429414635
 30
0.0
 10
272.4987244290118
 20
1346.697095886441
 30
0.0
 10
272.6319380409145
 20
1346.720762358247
 30
0.0
  0
SPLINE
  5
C5
330
1F
100
AcDbEntity
  8
PREDEFINITO
100
AcDbSpline
210
0.0
220
0.0
230
1.0
 70
    24
 71
     2
 72
     6
 73
     3
 74
     0
 42
0.0000000001
 43
0.0000000001
 40
0.0
 40
0.0
 40
0.0
 40
4.850840556763842
 40
4.850840556763842
 40
4.850840556763842
 10
272.6319380409145
 20
1346.720762358247
 30
0.0
 10
272.6568022851303
 20
1344.295342079865
 30
0.0
 10
272.6816665293461
 20
1341.869921801483
 30
0.0
  0
SPLINE
  5
C6
330
1F
100
AcDbEntity
  8
PREDEFINITO
100
AcDbSpline
210
0.0
220
0.0
230
1.0
 70
    12
 71
     2
 72
     6
 73
     3
 74
     0
 42
0.0000000001
 43
0.0000000001
 40
0.0
 40
0.0
 40
0.0
 40
34.8430535790124
 40
34.8430535790124
 40
34.8430535790124
 10
272.6816665293461
 20
1341.869921801483
 30
0.0
 41
1.0
 10
256.3846450259357
 20
1335.633184911396
 30
0.0
 41
0.99758543478231
 10
239.3806435186182
 20
1331.714801359734
 30
0.0
 41
1.0
  0
SPLINE
  5
C7
330
1F
100
AcDbEntity
  8
PREDEFINITO
100
AcDbSpline
210
0.0
220
0.0
230
1.0
 70
    12
 71
     2
 72
     6
 73
     3
 74
     0
 42
0.0000000001
 43
0.0000000001
 40
0.0
 40
0.0
 40
0.0
 40
1.338503116093714
 40
1.338503116093714
 40
1.338503116093714
 10
239.3806435186182
 20
1331.714801359734
 30
0.0
 41
1.0
 10
238.7287150909228
 20
1331.563332075764
 30
0.0
 41
0.9999062887624255
 10
238.0728842101284
 20
1331.429767579656
 30
0.0
 41
1.0
  0
SPLINE
  5
C8
330
1F
100
AcDbEntity
  8
LINEE VISIBILI 2D
100
AcDbSpline
210
0.0
220
0.0
230
1.0
 70
    12
 71
     2
 72
     6
 73
     3
 74
     0
 42
0.0000000001
 43
0.0000000001
 40
0.0
 40
0.0
 40
0.0
 40
1.481201379279248
 40
1.481201379279248
 40
1.481201379279248
 10
178.2256514225721
 20
1068.857986813998
 30
0.0
 41
1.0
 10
178.3019733117419
 20
1069.594647122216
 30
0.0
 41
0.9999944498304066
 10
178.3832021600331
 20
1070.330782513754
 30
0.0
 41
1.0
  0
SPLINE
  5
C9
330
1F
100
AcDbEntity
  8
LINEE VISIBILI 2D
100
AcDbSpline
210
0.0
220
0.0
230
1.0
 70
    12
 71
     2
 72
     6
 73
     3
 74
     0
 42
0.0000000001
 43
0.0000000001
 40
0.0
 40
0.0
 40
0.0
 40
1.144165989155234
 40
1.144165989155234
 40
1.144165989155234
 10
178.3832021600331
 20
1070.330782513754
 30
0.0
 41
1.0
 10
178.6021601005992
 20
1070.933247039464
 30
0.0
 41
0.846225036043234
 10
179.2400832885386
 20
1070.996176291523
 30
0.0
 41
1.0
  0
SPLINE
  5
CA
330
1F
100
AcDbEntity
  8
LINEE VISIBILI 2D
100
AcDbSpline
210
0.0
220
0.0
230
1.0
 70
    24
 71
     2
 72
     6
 73
     3
 74
     0
 42
0.0000000001
 43
0.0000000001
 40
0.0
 40
0.0
 40
0.0
 40
26.99999999999955
 40
26.99999999999955
 40
26.99999999999955
 10
117.5906928243076
 20
1346.720762358248
 30
0.0
 10
117.5910253574312
 20
1360.220762358247
 30
0.0
 10
117.5913578905548
 20
1373.720762358247
 30
0.0
  0
SPLINE
  5
CB
330
1F
100
AcDbEntity
  8
LINEE VISIBILI 2D
100
AcDbSpline
210
0.0
220
0.0
230
1.0
 70
    24
 71
     2
 72
     6
 73
     3
 74
     0
 42
0.0000000001
 43
0.0000000001
 40
0.0
 40
0.0
 40
0.0
 40
38.73018157561603
 40
38.73018157561603
 40
38.73018157561603
 10
117.5913578905548
 20
1373.720762358247
 30
0.0
 10
136.9567812114864
 20
1373.720762358247
 30
0.0
 10
156.322204532418
 20
1373.720762358247
 30
0.0
  0
SPLINE
  5
CC
330
1F
100
AcDbEntity
  8
LINEE VISIBILI 2D
100
AcDbSpline
210
0.0
220
0.0
230
1.0
 70
    24
 71
     2
 72
     6
 73
     3
 74
     0
 42
0.0000000001
 43
0.0000000001
 40
0.0
 40
0.0
 40
0.0
 40
92.1601476233306
 40
92.1601476233306
 40
92.1601476233306
 10
156.322204532418
 20
1373.720762358247
 30
0.0
 10
202.402610877207
 20
1373.720762358247
 30
0.0
 10
248.4830172219959
 20
1373.720762358247
 30
0.0
  0
SPLINE
  5
CD
330
1F
100
AcDbEntity
  8
LINEE VISIBILI 2D
100
AcDbSpline
210
0.0
220
0.0
230
1.0
 70
    24
 71
     2
 72
     6
 73
     3
 74
     0
 42
0.0000000001
 43
0.0000000001
 40
0.0
 40
0.0
 40
0.0
 40
27.00000000000023
 40
27.00000000000023
 40
27.00000000000023
 10
248.4830172219959
 20
1373.720762358247
 30
0.0
 10
248.4833497551196
 20
1360.220762358247
 30
0.0
 10
248.4836822882432
 20
1346.720762358247
 30
0.0
  0
SPLINE
  5
CE
330
1F
100
AcDbEntity
  8
PREDEFINITO
100
AcDbSpline
210
0.0
220
0.0
230
1.0
 70
    12
 71
     2
 72
     6
 73
     3
 74
     0
 42
0.0000000001
 43
0.0000000001
 40
-30.78183499874119
 40
-30.78183499874119
 40
-30.78183499874119
 40
0.0
 40
0.0
 40
0.0
 10
243.6277845489427
 20
1332.683275184973
 30
0.0
 41
1.0
 10
258.5892708611709
 20
1336.373790549241
 30
0.0
 41
0.9981502472110038
 10
272.9922564804508
 20
1341.852839880622
 30
0.0
 41
1.0
  0
POLYLINE
  5
CF
330
1F
100
AcDbEntity
  8
PREDEFINITO
100
AcDb2dPolyline
 66
     1
 10
0.0
 20
0.0
 30
0.0
  0
VERTEX
  5
D1
330
CF
100
AcDbEntity
  8
PREDEFINITO
100
AcDbVertex
100
AcDb2dVertex
 10
272.9922564804508
 20
1341.852839880622
 30
0.0
  0
VERTEX
  5
D2
330
CF
100
AcDbEntity
  8
PREDEFINITO
100
AcDbVertex
100
AcDb2dVertex
 10
273.0371876110428
 20
1341.870260369697
 30
0.0
  0
SEQEND
  5
D0
330
CF
100
AcDbEntity
  8
PREDEFINITO
  0
SPLINE
  5
D3
330
1F
100
AcDbEntity
  8
PREDEFINITO
100
AcDbSpline
210
0.0
220
0.0
230
1.0
 70
    12
 71
     2
 72
     6
 73
     3
 74
     0
 42
0.0000000001
 43
0.0000000001
 40
0.0038681163802074
 40
0.0038681163802074
 40
0.0038681163802074
 40
0.3593898172590464
 40
0.3593898172590464
 40
0.3593898172590464
 10
273.0371876110428
 20
1341.870260369697
 30
0.0
 41
0.9999999149929696
 10
272.8594275433764
 20
1341.869594210347
 30
0.0
 41
0.9999960509640723
 10
272.6816665293461
 20
1341.869921801483
 30
0.0
 41
1.0
  0
SPLINE
  5
D4
330
1F
100
AcDbEntity
  8
LINEE VISIBILI 2D
100
AcDbSpline
210
0.0
220
0.0
230
1.0
 70
    12
 71
     2
 72
     6
 73
     3
 74
     0
 42
0.0000000001
 43
0.0000000001
 40
-22.20746754981183
 40
-22.20746754981183
 40
-22.20746754981183
 40
0.0
 40
0.0
 40
0.0
 10
128.8683954290566
 20
1341.869921801483
 30
0.0
 41
1.0
 10
138.205221935357
 20
1335.789919104579
 30
0.0
 41
0.9948647488186855
 10
148.5751870929059
 20
1331.714801359734
 30
0.0
 41
1.0
  0
SPLINE
  5
D5
330
1F
100
AcDbEntity
  8
LINEE VISIBILI 2D
100
AcDbSpline
210
0.0
220
0.0
230
1.0
 70
    12
 71
     3
 72
    10
 73
     6
 74
     0
 42
0.0000000001
 43
0.0000000001
 40
0.0
 40
0.0
 40
0.0
 40
0.0
 40
0.5011964628324459
 40
0.5011964628324459
 40
1.0
 40
1.0
 40
1.0
 40
1.0
 10
148.5751870929059
 20
1331.714801359734
 30
0.0
 41
1.0
 10
149.0522468929278
 20
1331.529070320232
 30
0.0
 41
1.0
 10
149.9903536697004
 20
1331.37079197157
 30
0.0
 41
1.0
 10
151.3566776469986
 20
1331.372023819917
 30
0.0
 41
1.0
 10
151.4756329675909
 20
1331.529905344707
 30
0.0
 41
1.0
 10
151.0007179712045
 20
1331.714801359734
 30
0.0
 41
1.0
  0
SPLINE
  5
D6
330
1F
100
AcDbEntity
  8
LINEE VISIBILI 2D
100
AcDbSpline
210
0.0
220
0.0
230
1.0
 70
    12
 71
     2
 72
     6
 73
     3
 74
     0
 42
0.0000000001
 43
0.0000000001
 40
-22.20746820453884
 40
-22.20746820453884
 40
-22.20746820453884
 40
0.0
 40
0.0
 40
0.0
 10
151.0007179712045
 20
1331.714801359734
 30
0.0
 41
1.0
 10
140.6307483413862
 20
1335.789910425796
 30
0.0
 41
0.9948646605837935
 10
131.2939263073552
 20
1341.869921801483
 30
0.0
 41
1.0
  0
SPLINE
  5
D7
330
1F
100
AcDbEntity
  8
LINEE VISIBILI 2D
100
AcDbSpline
210
0.0
220
0.0
230
1.0
 70
    24
 71
     2
 72
     6
 73
     3
 74
     0
 42
0.0000000001
 43
0.0000000001
 40
0.0
 40
0.0
 40
0.0
 40
86.90279235582693
 40
86.90279235582693
 40
86.90279235582693
 10
131.2939263073552
 20
1341.869921801483
 30
0.0
 10
174.7453224852686
 20
1341.869921801483
 30
0.0
 10
218.1967186631821
 20
1341.869921801483
 30
0.0
  0
SPLINE
  5
D8
330
1F
100
AcDbEntity
  8
LINEE VISIBILI 2D
100
AcDbSpline
210
0.0
220
0.0
230
1.0
 70
    24
 71
     2
 72
     6
 73
     3
 74
     0
 42
0.0000000001
 43
0.0000000001
 40
0.0
 40
0.0
 40
0.0
 40
4.850840556763842
 40
4.850840556763842
 40
4.850840556763842
 10
218.1967186631821
 20
1341.869921801483
 30
0.0
 10
218.1967186631821
 20
1344.295342079865
 30
0.0
 10
218.1967186631821
 20
1346.720762358247
 30
0.0
  0
SPLINE
  5
D9
330
1F
100
AcDbEntity
  8
LINEE VISIBILI 2D
100
AcDbSpline
210
0.0
220
0.0
230
1.0
 70
    24
 71
     2
 72
     6
 73
     3
 74
     0
 42
0.0000000001
 43
0.0000000001
 40
0.0
 40
0.0
 40
0.0
 40
86.90279235582693
 40
86.90279235582693
 40
86.90279235582693
 10
218.1967186631821
 20
1346.720762358247
 30
0.0
 10
174.7453224852686
 20
1346.720762358247
 30
0.0
 10
131.2939263073552
 20
1346.720762358247
 30
0.0
  0
SPLINE
  5
DA
330
1F
100
AcDbEntity
  8
LINEE VISIBILI 2D
100
AcDbSpline
210
0.0
220
0.0
230
1.0
 70
    24
 71
     2
 72
     6
 73
     3
 74
     0
 42
0.0000000001
 43
0.0000000001
 40
0.0
 40
0.0
 40
0.0
 40
4.850840556763842
 40
4.850840556763842
 40
4.850840556763842
 10
131.2939263073552
 20
1346.720762358247
 30
0.0
 10
131.2939263073552
 20
1344.295342079865
 30
0.0
 10
131.2939263073552
 20
1341.869921801483
 30
0.0
  0
SPLINE
  5
DB
330
1F
100
AcDbEntity
  8
LINEE VISIBILI 2D
100
AcDbSpline
210
0.0
220
0.0
230
1.0
 70
    12
 71
     2
 72
     6
 73
     3
 74
     0
 42
0.0000000001
 43
0.0000000001
 40
-17.00891702435375
 40
-17.00891702435375
 40
-17.00891702435375
 40
0.0
 40
0.0
 40
0.0
 10
218.1967186631821
 20
1341.869921801483
 30
0.0
 41
1.0
 10
212.0090907491294
 20
1335.976466028043
 30
0.0
 41
0.9928726618164678
 10
204.602487316304
 20
1331.714801359734
 30
0.0
 41
1.0
  0
SPLINE
  5
DC
330
1F
100
AcDbEntity
  8
LINEE VISIBILI 2D
100
AcDbSpline
210
0.0
220
0.0
230
1.0
 70
    12
 71
     3
 72
    10
 73
     6
 74
     0
 42
0.0000000001
 43
0.0000000001
 40
0.0
 40
0.0
 40
0.0
 40
0.0
 40
0.4995129411727152
 40
0.4995129411727152
 40
1.0
 40
1.0
 40
1.0
 40
1.0
 10
204.602487316304
 20
1331.714801359734
 30
0.0
 41
1.0
 10
204.2741609594361
 20
1331.5294999667
 30
0.0
 41
1.0
 10
204.5895453222877
 20
1331.371657358999
 30
0.0
 41
1.0
 10
206.1385182089718
 20
1331.371157851236
 30
0.0
 41
1.0
 10
207.0157398259446
 20
1331.529439154157
 30
0.0
 41
1.0
 10
207.3441739335437
 20
1331.714801359734
 30
0.0
 41
1.0
  0
SPLINE
  5
DD
330
1F
100
AcDbEntity
  8
LINEE VISIBILI 2D
100
AcDbSpline
210
0.0
220
0.0
230
1.0
 70
    12
 71
     2
 72
     6
 73
     3
 74
     0
 42
0.0000000001
 43
0.0000000001
 40
-17.00891627430967
 40
-17.00891627430967
 40
-17.00891627430967
 40
0.0
 40
0.0
 40
0.0
 10
207.3441739335437
 20
1331.714801359734
 30
0.0
 41
1.0
 10
214.7507716679948
 20
1335.976473656217
 30
0.0
 41
0.9928727936678038
 10
220.9384052804223
 20
1341.869921801483
 30
0.0
 41
1.0
  0
SPLINE
  5
DE
330
1F
100
AcDbEntity
  8
LINEE VISIBILI 2D
100
AcDbSpline
210
0.0
220
0.0
230
1.0
 70
    24
 71
     2
 72
     6
 73
     3
 74
     0
 42
0.0000000001
 43
0.0000000001
 40
0.0
 40
0.0
 40
0.0
 40
51.42710550998208
 40
51.42710550998208
 40
51.42710550998208
 10
220.9384052804223
 20
1341.869921801483
 30
0.0
 10
246.6519580354134
 20
1341.869921801483
 30
0.0
 10
272.3655107904044
 20
1341.869921801483
 30
0.0
  0
SPLINE
  5
DF
330
1F
100
AcDbEntity
  8
LINEE VISIBILI 2D
100
AcDbSpline
210
0.0
220
0.0
230
1.0
 70
    24
 71
     2
 72
     6
 73
     3
 74
     0
 42
0.0000000001
 43
0.0000000001
 40
0.0
 40
0.0
 40
0.0
 40
4.850840556763842
 40
4.850840556763842
 40
4.850840556763842
 10
272.3655107904044
 20
1341.869921801483
 30
0.0
 10
272.3655107904046
 20
1344.295342079865
 30
0.0
 10
272.3655107904049
 20
1346.720762358247
 30
0.0
  0
SPLINE
  5
E0
330
1F
100
AcDbEntity
  8
LINEE VISIBILI 2D
100
AcDbSpline
210
0.0
220
0.0
230
1.0
 70
    24
 71
     2
 72
     6
 73
     3
 74
     0
 42
0.0000000001
 43
0.0000000001
 40
0.0
 40
0.0
 40
0.0
 40
51.42710550998254
 40
51.42710550998254
 40
51.42710550998254
 10
272.3655107904049
 20
1346.720762358247
 30
0.0
 10
246.6519580354136
 20
1346.720762358247
 30
0.0
 10
220.9384052804223
 20
1346.720762358247
 30
0.0
  0
SPLINE
  5
E1
330
1F
100
AcDbEntity
  8
LINEE VISIBILI 2D
100
AcDbSpline
210
0.0
220
0.0
230
1.0
 70
    24
 71
     2
 72
     6
 73
     3
 74
     0
 42
0.0000000001
 43
0.0000000001
 40
0.0
 40
0.0
 40
0.0
 40
4.850840556763842
 40
4.850840556763842
 40
4.850840556763842
 10
220.9384052804223
 20
1346.720762358247
 30
0.0
 10
220.9384052804223
 20
1344.295342079865
 30
0.0
 10
220.9384052804223
 20
1341.869921801483
 30
0.0
  0
SPLINE
  5
E2
330
1F
100
AcDbEntity
  8
PREDEFINITO
100
AcDbSpline
210
0.0
220
0.0
230
1.0
 70
    12
 71
     2
 72
     6
 73
     3
 74
     0
 42
0.0000000001
 43
0.0000000001
 40
0.0
 40
0.0
 40
0.0
 40
2.407268355425276
 40
2.407268355425276
 40
2.407268355425276
 10
180.040083288539
 20
1083.289839293896
 30
0.0
 41
1.0
 10
181.2435593835936
 20
1083.311205251862
 30
0.0
 41
0.9999606667856115
 10
182.4472251242753
 20
1083.311220652789
 30
0.0
 41
1.0
  0
POLYLINE
  5
E3
330
1F
100
AcDbEntity
  8
PREDEFINITO
100
AcDb2dPolyline
 66
     1
 10
0.0
 20
0.0
 30
0.0
  0
VERTEX
  5
E5
330
E3
100
AcDbEntity
  8
PREDEFINITO
100
AcDbVertex
100
AcDb2dVertex
 10
182.4472251242753
 20
1083.311220652789
 30
0.0
  0
VERTEX
  5
E6
330
E3
100
AcDbEntity
  8
PREDEFINITO
100
AcDbVertex
100
AcDb2dVertex
 10
183.7661078348808
 20
1083.311220652789
 30
0.0
  0
SEQEND
  5
E4
330
E3
100
AcDbEntity
  8
PREDEFINITO
  0
SPLINE
  5
E7
330
1F
100
AcDbEntity
  8
PREDEFINITO
100
AcDbSpline
210
0.0
220
0.0
230
1.0
 70
    12
 71
     2
 72
     6
 73
     3
 74
     0
 42
0.0000000001
 43
0.0000000001
 40
0.0
 40
0.0
 40
0.0
 40
63.0804805262127
 40
63.0804805262127
 40
63.0804805262127
 10
183.7661078348808
 20
1083.311220652789
 30
0.0
 41
1.0
 10
215.8881660201456
 20
1083.313869980493
 30
0.0
 41
0.9730510474013467
 10
244.5954468365593
 20
1068.901421985651
 30
0.0
 41
1.0
  0
SPLINE
  5
E8
330
1F
100
AcDbEntity
  8
LINEE VISIBILI 2D
100
AcDbSpline
210
0.0
220
0.0
230
1.0
 70
    12
 71
     2
 72
     6
 73
     3
 74
     0
 42
0.0000000001
 43
0.0000000001
 40
0.0
 40
0.0
 40
0.0
 40
0.2324908728045501
 40
0.2324908728045501
 40
0.2324908728045501
 10
742.657387430532
 20
1069.228705360534
 30
0.0
 41
1.0
 10
742.5438019528499
 20
1069.203841394333
 30
0.0
 41
0.9996185528309983
 10
742.4317626071332
 20
1069.17274376473
 30
0.0
 41
1.0
  0
SPLINE
  5
E9
330
1F
100
AcDbEntity
  8
LINEE VISIBILI 2D
100
AcDbSpline
210
0.0
220
0.0
230
1.0
 70
    12
 71
     2
 72
     6
 73
     3
 74
     0
 42
0.0000000001
 43
0.0000000001
 40
0.0
 40
0.0
 40
0.0
 40
5.425480891174841
 40
5.425480891174841
 40
5.425480891174841
 10
742.4317626073039
 20
1235.858427108512
 30
0.0
 41
1.0
 10
744.6801181017732
 20
1234.3359744825
 30
0.0
 41
0.9985754335568554
 10
747.0779103784787
 20
1233.061785867838
 30
0.0
 41
1.0
  0
SPLINE
  5
EA
330
1F
100
AcDbEntity
  8
LINEE VISIBILI 2D
100
AcDbSpline
210
0.0
220
0.0
230
1.0
 70
     8
 71
     3
 72
    13
 73
     9
 74
     0
 42
0.0000000001
 43
0.0000000001
 40
0.0
 40
0.0
 40
0.0
 40
0.0
 40
9.22705805126337
 40
19.77901042175053
 40
56.72035840485696
 40
69.44596273940705
 40
81.33781825146986
 40
90.3581292391171
 40
90.3581292391171
 40
90.3581292391171
 40
90.3581292391171
 10
747.8779103784929
 20
1232.642115924426
 30
0.0
 10
750.6165393387159
 20
1231.234933708081
 30
0.0
 10
756.6881837719317
 20
1228.653536839982
 30
0.0
 10
774.8323808344885
 20
1223.20592284368
 30
0.0
 10
794.7642869674402
 20
1220.382376118439
 30
0.0
 10
814.6614860424795
 20
1215.33420873806
 30
0.0
 10
825.1183714251425
 20
1211.143792022911
 30
0.0
 10
830.8376666766759
 20
1207.036332637293
 30
0.0
 10
832.8463254403027
 20
1204.784223729833
 30
0.0
  0
SPLINE
  5
EB
330
1F
100
AcDbEntity
  8
LINEE VISIBILI 2D
100
AcDbSpline
210
0.0
220
0.0
230
1.0
 70
     8
 71
     3
 72
    14
 73
    10
 74
     0
 42
0.0000000001
 43
0.0000000001
 40
0.0
 40
0.0
 40
0.0
 40
0.0
 40
13.398363806625
 40
26.17234800386983
 40
53.13798019299941
 40
66.18792686522328
 40
77.86612966952136
 40
89.06966755695267
 40
100.4771805149987
 40
100.4771805149987
 40
100.4771805149987
 40
100.4771805149987
 10
716.3737673490112
 20
1070.523277198954
 30
0.0
 10
714.3762817503026
 20
1074.517622225297
 30
0.0
 10
711.2597017974066
 20
1082.713533765474
 30
0.0
 10
708.3523599415711
 20
1100.274695131016
 30
0.0
 10
710.3700217035005
 20
1118.03399914319
 30
0.0
 10
716.5294503474929
 20
1134.185418816369
 30
0.0
 10
723.0539709653218
 20
1144.332692095958
 30
0.0
 10
731.4504820613147
 20
1152.219341019303
 30
0.0
 10
738.1311314557972
 20
1155.840862137518
 30
0.0
 10
741.6317626071348
 20
1157.31287589095
 30
0.0
  0
SPLINE
  5
EC
330
1F
100
AcDbEntity
  8
LINEE VISIBILI 2D
100
AcDbSpline
210
0.0
220
0.0
230
1.0
 70
     8
 71
     3
 72
    24
 73
    20
 74
     0
 42
0.0000000001
 43
0.0000000001
 40
0.0
 40
0.0
 40
0.0
 40
0.0
 40
13.45434685345553
 40
20.15184025844975
 40
39.31560551974295
 40
50.31056698906814
 40
69.1916647553253
 40
79.58357307468987
 40
88.03834218973326
 40
94.84819976953507
 40
100.306760448646
 40
104.5561924994476
 40
109.320712538058
 40
115.1471611690636
 40
122.3405697581003
 40
136.7407438158649
 40
164.6551928837841
 40
175.5085720811993
 40
194.0055120046044
 40
194.0055120046044
 40
194.0055120046044
 40
194.0055120046044
 10
742.4317626071378
 20
1157.643684503831
 30
0.0
 10
746.5927109795143
 20
1159.326363120051
 30
0.0
 10
753.0648805805587
 20
1161.178979354258
 30
0.0
 10
765.8756575638323
 20
1163.934722402439
 30
0.0
 10
777.967282597371
 20
1166.132378319725
 30
0.0
 10
793.882488333716
 20
1169.874605907314
 30
0.0
 10
806.7099450417525
 20
1173.919067281784
 30
0.0
 10
818.0709968576696
 20
1179.387680874436
 30
0.0
 10
825.156542381282
 20
1184.228008125172
 30
0.0
 10
829.9196977999525
 20
1189.3231561459
 30
0.0
 10
831.9845805874565
 20
1194.59849441758
 30
0.0
 10
831.1445641746748
 20
1199.527231532854
 30
0.0
 10
828.0476733822262
 20
1203.517117085252
 30
0.0
 10
823.1987368334281
 20
1206.969044267649
 30
0.0
 10
814.8542527772065
 20
1210.788137156224
 30
0.0
 10
798.897729734777
 20
1215.125860323479
 30
0.0
 10
781.3883846842576
 20
1217.956268306581
 30
0.0
 10
762.778285099871
 20
1222.21504132061
 30
0.0
 10
753.4527489664865
 20
1225.270606790773
 30
0.0
 10
747.877910378491
 20
1227.925543694254
 30
0.0
  0
SPLINE
  5
ED
330
1F
100
AcDbEntity
  8
LINEE VISIBILI 2D
100
AcDbSpline
210
0.0
220
0.0
230
1.0
 70
    12
 71
     2
 72
     6
 73
     3
 74
     0
 42
0.0000000001
 43
0.0000000001
 40
0.0
 40
0.0
 40
0.0
 40
5.291405977042705
 40
5.291405977042705
 40
5.291405977042705
 10
747.0779103784737
 20
1228.312663423146
 30
0.0
 41
1.0
 10
744.7005870585443
 20
1229.477423710851
 30
0.0
 41
0.9990808810078226
 10
742.4317626072012
 20
1230.841523525484
 30
0.0
 41
1.0
  0
SPLINE
  5
EE
330
1F
100
AcDbEntity
  8
LINEE VISIBILI 2D
100
AcDbSpline
210
0.0
220
0.0
230
1.0
 70
     8
 71
     3
 72
    14
 73
    10
 74
     0
 42
0.0000000001
 43
0.0000000001
 40
0.0
 40
0.0
 40
0.0
 40
0.0
 40
6.303161181232012
 40
13.51283270268979
 40
31.56614187614029
 40
50.37061777910617
 40
78.29112047112874
 40
85.45792375379544
 40
97.52627128679825
 40
97.52627128679825
 40
97.52627128679825
 40
97.52627128679825
 10
832.8463254258573
 20
1185.419375113248
 30
0.0
 10
831.5338443508798
 20
1183.771519007229
 30
0.0
 10
828.3150353401811
 20
1180.608859836061
 30
0.0
 10
819.6216100277103
 20
1174.589140580436
 30
0.0
 10
806.1100279355151
 20
1168.684827828824
 30
0.0
 10
785.3178894616772
 20
1162.75249891673
 30
0.0
 10
767.5992736127008
 20
1159.674644410991
 30
0.0
 10
752.2545193564553
 20
1156.290617922947
 30
0.0
 10
746.1246802953929
 20
1154.33448295027
 30
0.0
 10
742.4317626071673
 20
1152.74159010435
 30
0.0
  0
SPLINE
  5
EF
330
1F
100
AcDbEntity
  8
LINEE VISIBILI 2D
100
AcDbSpline
210
0.0
220
0.0
230
1.0
 70
     8
 71
     3
 72
    13
 73
     9
 74
     0
 42
0.0000000001
 43
0.0000000001
 40
0.0
 40
0.0
 40
0.0
 40
0.0
 40
10.38222386333058
 40
20.31844569159954
 40
31.20991876312563
 40
43.29053804804382
 40
67.90813813299103
 40
91.50014961734901
 40
91.50014961734901
 40
91.50014961734901
 40
91.50014961734901
 10
741.631762607134
 20
1152.383640455449
 30
0.0
 10
738.4861219068611
 20
1150.950112400541
 30
0.0
 10
732.605013804065
 20
1147.470884654746
 30
0.0
 10
725.2768334189166
 20
1139.973763803009
 30
0.0
 10
719.6679281601195
 20
1130.462215697299
 30
0.0
 10
714.3976303099838
 20
1115.454324326796
 30
0.0
 10
712.426726124951
 20
1095.149243850528
 30
0.0
 10
716.77191460354
 20
1079.373279806058
 30
0.0
 10
720.3100941910859
 20
1072.349755990126
 30
0.0
  0
SPLINE
  5
F0
330
1F
100
AcDbEntity
  8
LINEE VISIBILI 2D
100
AcDbSpline
210
0.0
220
0.0
230
1.0
 70
    24
 71
     2
 72
     6
 73
     3
 74
     0
 42
0.0000000001
 43
0.0000000001
 40
0.0
 40
0.0
 40
0.0
 40
73.87384976627004
 40
73.87384976627004
 40
73.87384976627004
 10
747.0779103784732
 20
1080.668548679943
 30
0.0
 10
747.0779103784732
 20
1117.605473563078
 30
0.0
 10
747.0779103784732
 20
1154.542398446213
 30
0.0
  0
SPLINE
  5
F1
330
1F
100
AcDbEntity
  8
LINEE VISIBILI 2D
100
AcDbSpline
210
0.0
220
0.0
230
1.0
 70
    24
 71
     2
 72
     6
 73
     3
 74
     0
 42
0.0000000001
 43
0.0000000001
 40
0.0
 40
0.0
 40
0.0
 40
73.98545212617819
 40
73.98545212617819
 40
73.98545212617819
 10
747.8779103784732
 20
1154.811768975228
 30
0.0
 10
747.8779103784732
 20
1117.819042912139
 30
0.0
 10
747.8779103784732
 20
1080.82631684905
 30
0.0
  0
SPLINE
  5
F2
330
1F
100
AcDbEntity
  8
PREDEFINITO
100
AcDbSpline
210
0.0
220
0.0
230
1.0
 70
    24
 71
     2
 72
     6
 73
     3
 74
     0
 42
0.0000000001
 43
0.0000000001
 40
0.0
 40
0.0
 40
0.0
 40
264.4491873644183
 40
264.4491873644183
 40
264.4491873644183
 10
741.6317626071329
 20
1068.857986813998
 30
0.0
 10
741.6317626071329
 20
1201.082580496207
 30
0.0
 10
741.6317626071329
 20
1333.307174178417
 30
0.0
  0
ARC
  5
F3
330
1F
100
AcDbEntity
  8
PREDEFINITO
100
AcDbCircle
 10
742.0317626071329
 20
1332.780291519526
 30
0.0
 40
0.6615174496864082
100
AcDbArc
 50
52.79487443587694
 51
127.2051255641231
  0
SPLINE
  5
F4
330
1F
100
AcDbEntity
  8
PREDEFINITO
100
AcDbSpline
210
0.0
220
0.0
230
1.0
 70
    24
 71
     2
 72
     6
 73
     3
 74
     0
 42
0.0000000001
 43
0.0000000001
 40
0.0
 40
0.0
 40
0.0
 40
264.2845201827183
 40
264.2845201827183
 40
264.2845201827183
 10
742.4317626071329
 20
1333.307174178417
 30
0.0
 10
742.4317626071329
 20
1201.164914087057
 30
0.0
 10
742.4317626071329
 20
1069.022653995698
 30
0.0
  0
SPLINE
  5
F5
330
1F
100
AcDbEntity
  8
LINEE VISIBILI 2D
100
AcDbSpline
210
0.0
220
0.0
230
1.0
 70
    24
 71
     2
 72
     6
 73
     3
 74
     0
 42
0.0000000001
 43
0.0000000001
 40
0.0
 40
0.0
 40
0.0
 40
130.0164710014196
 40
130.0164710014196
 40
130.0164710014196
 10
747.8779103784732
 20
1289.60306388959
 30
0.0
 10
747.8779103784732
 20
1224.594828388881
 30
0.0
 10
747.8779103784732
 20
1159.586592888171
 30
0.0
  0
SPLINE
  5
F6
330
1F
100
AcDbEntity
  8
LINEE VISIBILI 2D
100
AcDbSpline
210
0.0
220
0.0
230
1.0
 70
    24
 71
     2
 72
     6
 73
     3
 74
     0
 42
0.0000000001
 43
0.0000000001
 40
0.0
 40
0.0
 40
0.0
 40
129.5217666099777
 40
129.5217666099777
 40
129.5217666099777
 10
747.0779103784732
 20
1159.33083206009
 30
0.0
 10
747.0779103784732
 20
1224.091715365079
 30
0.0
 10
747.0779103784732
 20
1288.852598670068
 30
0.0
  0
SPLINE
  5
F7
330
1F
100
AcDbEntity
  8
LINEE VISIBILI 2D
100
AcDbSpline
210
0.0
220
0.0
230
1.0
 70
     8
 71
     3
 72
    14
 73
    10
 74
     0
 42
0.0000000001
 43
0.0000000001
 40
0.0
 40
0.0
 40
0.0
 40
0.0
 40
9.05362496536454
 40
17.41917063784669
 40
25.48258654430095
 40
33.19948041325158
 40
49.66793093479895
 40
59.24470813781124
 40
70.39538281768014
 40
70.39538281768014
 40
70.39538281768014
 40
70.39538281768014
 10
741.6317626071475
 20
1231.333655667542
 30
0.0
 10
739.0781248683717
 20
1232.937732933155
 30
0.0
 10
734.4047349883491
 20
1236.443267029071
 30
0.0
 10
728.9580975690353
 20
1243.047425514019
 30
0.0
 10
725.4898708276746
 20
1250.379773833601
 30
0.0
 10
724.035302131204
 20
1261.206041265417
 30
0.0
 10
727.3724288816203
 20
1272.283078793337
 30
0.0
 10
734.3172967233373
 20
1282.57766027773
 30
0.0
 10
738.990633224206
 20
1287.702115954739
 30
0.0
 10
741.6317626071336
 20
1290.311313545174
 30
0.0
  0
SPLINE
  5
F8
330
1F
100
AcDbEntity
  8
LINEE VISIBILI 2D
100
AcDbSpline
210
0.0
220
0.0
230
1.0
 70
     8
 71
     3
 72
    13
 73
     9
 74
     0
 42
0.0000000001
 43
0.0000000001
 40
0.0
 40
0.0
 40
0.0
 40
0.0
 40
8.561968369313883
 40
16.12076701029529
 40
29.12817161832645
 40
35.06728376784233
 40
41.23259666870938
 40
54.7089195757212
 40
54.7089195757212
 40
54.7089195757212
 40
54.7089195757212
 10
741.6317626071339
 20
1283.353600592646
 30
0.0
 10
739.7046967329702
 20
1281.253728541809
 30
0.0
 10
736.2680846064404
 20
1277.094214228356
 30
0.0
 10
731.1966155052165
 20
1268.804519987892
 30
0.0
 10
728.7684582002877
 20
1260.08119015684
 30
0.0
 10
729.8091990751842
 20
1251.66792874352
 30
0.0
 10
733.2576508465864
 20
1243.784904331147
 30
0.0
 10
737.9744105546414
 20
1239.00538247599
 30
0.0
 10
741.6317626071865
 20
1236.416233604766
 30
0.0
  0
SPLINE
  5
F9
330
1F
100
AcDbEntity
  8
LINEE VISIBILI 2D
100
AcDbSpline
210
0.0
220
0.0
230
1.0
 70
    24
 71
     2
 72
     6
 73
     3
 74
     0
 42
0.0000000001
 43
0.0000000001
 40
0.0
 40
0.0
 40
0.0
 40
262.4597077940173
 40
262.4597077940173
 40
262.4597077940173
 10
833.6463254403029
 20
1332.360792772086
 30
0.0
 10
833.6463254403029
 20
1201.151865453255
 30
0.0
 10
833.6463254403029
 20
1069.942938134423
 30
0.0
  0
SPLINE
  5
FA
330
1F
100
AcDbEntity
  8
LINEE VISIBILI 2D
100
AcDbSpline
210
0.0
220
0.0
230
1.0
 70
    12
 71
     2
 72
     6
 73
     3
 74
     0
 42
0.0000000001
 43
0.0000000001
 40
0.0
 40
0.0
 40
0.0
 40
2.429329019414749
 40
2.429329019414749
 40
2.429329019414749
 10
833.6463254403029
 20
1069.942938134423
 30
0.0
 41
0.9999994008886616
 10
834.7494381115929
 20
1069.454958026308
 30
0.0
 41
0.9999598408088437
 10
835.826722030493
 20
1068.913646574185
 30
0.0
 41
1.0
  0
SPLINE
  5
FB
330
1F
100
AcDbEntity
  8
LINEE VISIBILI 2D
100
AcDbSpline
210
0.0
220
0.0
230
1.0
 70
    12
 71
     2
 72
     6
 73
     3
 74
     0
 42
0.0000000001
 43
0.0000000001
 40
-23.52000170748794
 40
-23.52000170748794
 40
-23.52000170748794
 40
0.0
 40
0.0
 40
0.0
 10
741.6317626071333
 20
1079.460551266876
 30
0.0
 41
1.0
 10
730.1768133261689
 20
1076.67135374222
 30
0.0
 41
0.9962339374981675
 10
719.3759579350058
 20
1071.945147695999
 30
0.0
 41
1.0
  0
SPLINE
  5
FC
330
1F
100
AcDbEntity
  8
LINEE VISIBILI 2D
100
AcDbSpline
210
0.0
220
0.0
230
1.0
 70
    12
 71
     2
 72
     6
 73
     3
 74
     0
 42
0.0000000001
 43
0.0000000001
 40
0.0
 40
0.0
 40
0.0
 40
4.601874370251189
 40
4.601874370251189
 40
4.601874370251189
 10
719.3759579350058
 20
1071.945147695999
 30
0.0
 41
1.0
 10
717.2941176886344
 20
1070.965201991858
 30
0.0
 41
0.9999946830538476
 10
715.218672511553
 20
1069.971680486038
 30
0.0
 41
1.0
  0
SPLINE
  5
FD
330
1F
100
AcDbEntity
  8
LINEE VISIBILI 2D
100
AcDbSpline
210
0.0
220
0.0
230
1.0
 70
    12
 71
     2
 72
     6
 73
     3
 74
     0
 42
0.0000000001
 43
0.0000000001
 40
0.0
 40
0.0
 40
0.0
 40
2.475913004016656
 40
2.475913004016656
 40
2.475913004016656
 10
715.218672511553
 20
1069.971680486038
 30
0.0
 41
1.0
 10
714.1020187963717
 20
1069.437060605767
 30
0.0
 41
0.999958104239917
 10
712.9953797147962
 20
1068.882108483788
 30
0.0
 41
1.0
  0
SPLINE
  5
FE
330
1F
100
AcDbEntity
  8
LINEE VISIBILI 2D
100
AcDbSpline
210
0.0
220
0.0
230
1.0
 70
    24
 71
     3
 72
     8
 73
     4
 74
     0
 42
0.0000000001
 43
0.0000000001
 40
0.0
 40
0.0
 40
0.0
 40
0.0
 40
129.187999999908
 40
129.187999999908
 40
129.187999999908
 40
129.187999999908
 10
709.6732071438471
 20
1068.889526336427
 30
0.0
 10
752.7358738105389
 20
1068.889526336426
 30
0.0
 10
795.7985404771699
 20
1068.889526336429
 30
0.0
 10
838.8612071438055
 20
1068.889526336427
 30
0.0
  0
SPLINE
  5
FF
330
1F
100
AcDbEntity
  8
LINEE VISIBILI 2D
100
AcDbSpline
210
0.0
220
0.0
230
1.0
 70
    12
 71
     2
 72
     6
 73
     3
 74
     0
 42
0.0000000001
 43
0.0000000001
 40
0.0
 40
0.0
 40
0.0
 40
0.6501219374786079
 40
0.6501219374786079
 40
0.6501219374786079
 10
838.8612071438055
 20
1068.889526336427
 30
0.0
 41
0.9999999999991622
 10
839.193144591374
 20
1068.889098616524
 30
0.0
 41
0.9692122417350738
 10
839.4846287298205
 20
1068.730291661146
 30
0.0
 41
1.0
  0
SPLINE
  5
100
330
1F
100
AcDbEntity
  8
LINEE VISIBILI 2D
100
AcDbSpline
210
0.0
220
0.0
230
1.0
 70
     8
 71
     3
 72
    20
 73
    16
 74
     0
 42
0.0000000001
 43
0.0000000001
 40
0.0
 40
0.0
 40
0.0
 40
0.0
 40
29.50572057678991
 40
62.82065426175406
 40
103.1140752039135
 40
142.7741018831889
 40
181.9561831608661
 40
202.4207104647652
 40
229.0718344910629
 40
263.3370500485759
 40
282.3734801794376
 40
300.6618918177536
 40
302.6999069729378
 40
304.4127798117878
 40
307.9268786494014
 40
307.9268786494014
 40
307.9268786494014
 40
307.9268786494014
 10
839.4846287298205
 20
1068.730291661146
 30
0.0
 10
848.115137738707
 20
1064.04320832813
 30
0.0
 10
865.3650912375657
 20
1051.850848913552
 30
0.0
 10
888.3465254191718
 20
1026.145693445212
 30
0.0
 10
910.0015572722465
 20
995.1469485728815
 30
0.0
 10
927.989464492519
 20
959.6071867354221
 30
0.0
 10
938.6849386483575
 20
928.2092745161225
 30
0.0
 10
945.1620419769747
 20
900.1634061411985
 30
0.0
 10
950.02623700968
 20
873.4750738299795
 30
0.0
 10
953.7220256923753
 20
847.0713161991579
 30
0.0
 10
955.839489926896
 20
823.2935569222458
 30
0.0
 10
956.8038955444594
 20
810.2176259644991
 30
0.0
 10
957.0915673202536
 20
802.864838707395
 30
0.0
 10
955.8870127904537
 20
800.595947160626
 30
0.0
 10
954.2382383547014
 20
799.8134564773734
 30
0.0
 10
953.0310820100267
 20
799.8245693176832
 30
0.0
  0
SPLINE
  5
101
330
1F
100
AcDbEntity
  8
LINEE VISIBILI 2D
100
AcDbSpline
210
0.0
220
0.0
230
1.0
 70
    24
 71
     2
 72
     6
 73
     3
 74
     0
 42
0.0000000001
 43
0.0000000001
 40
0.0
 40
0.0
 40
0.0
 40
357.527748685947
 40
357.527748685947
 40
357.527748685947
 10
953.0310820100267
 20
799.8245693176832
 30
0.0
 10
774.2672076670533
 20
799.8245693176832
 30
0.0
 10
595.5033333240799
 20
799.8245693176832
 30
0.0
  0
SPLINE
  5
102
330
1F
100
AcDbEntity
  8
LINEE VISIBILI 2D
100
AcDbSpline
210
0.0
220
0.0
230
1.0
 70
     8
 71
     3
 72
    21
 73
    17
 74
     0
 42
0.0000000001
 43
0.0000000001
 40
0.0
 40
0.0
 40
0.0
 40
0.0
 40
3.56780689840342
 40
4.661696247842083
 40
5.300662708032343
 40
6.505198062725399
 40
7.308620583185278
 40
44.58903940811365
 40
79.48910882218956
 40
104.870611816132
 40
125.4940316453794
 40
166.1051052959241
 40
204.9709090612475
 40
245.1057640578705
 40
278.4198995605781
 40
307.9262966633054
 40
307.9262966633054
 40
307.9262966633054
 40
307.9262966633054
 10
595.503332277327
 20
799.8245693176832
 30
0.0
 10
594.3134235468457
 20
799.8156319340554
 30
0.0
 10
592.755030569475
 20
800.5212589565091
 30
0.0
 10
591.8701795179118
 20
802.0936287684846
 30
0.0
 10
591.5687947527296
 20
803.0199075226951
 30
0.0
 10
591.4591489827233
 20
803.9072606584392
 30
0.0
 10
592.1580156020611
 20
816.9832123746638
 30
0.0
 10
594.0371783515205
 20
841.2498728283927
 30
0.0
 10
598.483029553747
 20
873.4783540288655
 30
0.0
 10
603.3703745399937
 20
900.0044863914108
 30
0.0
 10
609.7902308470142
 20
928.1638635731907
 30
0.0
 10
620.6221452269443
 20
959.8177358496296
 30
0.0
 10
638.7412348279287
 20
995.4537864489781
 30
0.0
 10
660.2213409385292
 20
1026.177686079166
 30
0.0
 10
683.1736028398744
 20
1051.864246274969
 30
0.0
 10
700.417788852593
 20
1064.038084375959
 30
0.0
 10
709.049785557765
 20
1068.730291661146
 30
0.0
  0
SPLINE
  5
103
330
1F
100
AcDbEntity
  8
LINEE VISIBILI 2D
100
AcDbSpline
210
0.0
220
0.0
230
1.0
 70
    12
 71
     2
 72
     6
 73
     3
 74
     0
 42
0.0000000001
 43
0.0000000001
 40
0.0
 40
0.0
 40
0.0
 40
0.6501219374772959
 40
0.6501219374772959
 40
0.6501219374772959
 10
709.049785557765
 20
1068.730291661146
 30
0.0
 41
1.0
 10
709.3412696962156
 20
1068.889098616525
 30
0.0
 41
0.9692122417356013
 10
709.6732071438471
 20
1068.889526336427
 30
0.0
 41
1.0
  0
SPLINE
  5
104
330
1F
100
AcDbEntity
  8
LINEE VISIBILI 2D
100
AcDbSpline
210
0.0
220
0.0
230
1.0
 70
    12
 71
     3
 72
    11
 73
     7
 74
     0
 42
0.0000000001
 43
0.0000000001
 40
246.8134577549456
 40
246.8134577549456
 40
246.8134577549456
 40
246.8134577549456
 40
251.8260492664502
 40
256.6162648147119
 40
261.4064581077188
 40
270.1453333284526
 40
270.1453333284526
 40
270.1453333284526
 40
270.1453333284526
 10
833.646325440024
 20
1203.823767876856
 30
0.0
 41
1.0
 10
834.2274362466285
 20
1203.076624321916
 30
0.0
 41
1.0
 10
835.2055717282719
 20
1201.582870587538
 30
0.0
 41
1.0
 10
836.1919250237902
 20
1199.292535399074
 30
0.0
 41
1.0
 10
836.8546435206993
 20
1196.381387530336
 30
0.0
 41
1.0
 10
836.766990519202
 20
1194.249188816142
 30
0.0
 41
1.0
 10
836.5050332222274
 20
1192.904646508308
 30
0.0
 41
1.0
  0
SPLINE
  5
105
330
1F
100
AcDbEntity
  8
LINEE VISIBILI 2D
100
AcDbSpline
210
0.0
220
0.0
230
1.0
 70
    12
 71
     2
 72
     6
 73
     3
 74
     0
 42
0.0000000001
 43
0.0000000001
 40
0.0
 40
0.0
 40
0.0
 40
7.075640439968296
 40
7.075640439968296
 40
7.075640439968296
 10
836.5050332222274
 20
1192.904646508308
 30
0.0
 41
1.0
 10
835.7618545490759
 20
1189.391245212396
 30
0.0
 41
0.9778757493691593
 10
833.6463254377477
 20
1186.489376885703
 30
0.0
 41
1.0
  0
SPLINE
  5
106
330
1F
100
AcDbEntity
  8
LINEE VISIBILI 2D
100
AcDbSpline
210
0.0
220
0.0
230
1.0
 70
    12
 71
     3
 72
    10
 73
     6
 74
     0
 42
0.0000000001
 43
0.0000000001
 40
0.326444064859687
 40
0.326444064859687
 40
0.326444064859687
 40
0.326444064859687
 40
0.4988201302761441
 40
0.4988201302761441
 40
0.9999999999999978
 40
0.9999999999999978
 40
0.9999999999999978
 40
0.9999999999999978
 10
742.4317626071336
 20
1070.972034580859
 30
0.0
 41
1.0
 10
742.7404288072693
 20
1071.057621398337
 30
0.0
 41
1.0
 10
743.0734884672445
 20
1071.113059031529
 30
0.0
 41
1.0
 10
744.3732112955115
 20
1071.114425372969
 30
0.0
 41
1.0
 10
744.2664925731947
 20
1070.649944236383
 30
0.0
 41
1.0
 10
743.8984625323312
 20
1070.330835147463
 30
0.0
 41
1.0
  0
SPLINE
  5
107
330
1F
100
AcDbEntity
  8
LINEE VISIBILI 2D
100
AcDbSpline
210
0.0
220
0.0
230
1.0
 70
    12
 71
     2
 72
     6
 73
     3
 74
     0
 42
0.0000000001
 43
0.0000000001
 40
0.0
 40
0.0
 40
0.0
 40
2.208569816086125
 40
2.208569816086125
 40
2.208569816086125
 10
743.8984625323312
 20
1070.330835147463
 30
0.0
 41
1.0
 10
743.0641043115638
 20
1069.607308195935
 30
0.0
 41
0.9998771776702836
 10
742.2528322507108
 20
1068.857986813998
 30
0.0
 41
1.0
  0
SPLINE
  5
108
330
1F
100
AcDbEntity
  8
LINEE VISIBILI 2D
100
AcDbSpline
210
0.0
220
0.0
230
1.0
 70
    12
 71
     2
 72
     6
 73
     3
 74
     0
 42
0.0000000001
 43
0.0000000001
 40
-57.90328399579251
 40
-57.90328399579251
 40
-57.90328399579251
 40
0.0
 40
0.0
 40
0.0
 10
775.0374728068662
 20
1083.308130374726
 30
0.0
 41
1.0
 10
804.4377172358527
 20
1083.314331631206
 30
0.0
 41
0.9772686478003653
 10
831.1976851004242
 20
1071.137364405051
 30
0.0
 41
1.0
  0
POLYLINE
  5
109
330
1F
100
AcDbEntity
  8
LINEE VISIBILI 2D
100
AcDb2dPolyline
 66
     1
 10
0.0
 20
0.0
 30
0.0
  0
VERTEX
  5
10B
330
109
100
AcDbEntity
  8
LINEE VISIBILI 2D
100
AcDbVertex
100
AcDb2dVertex
 10
831.1976851004242
 20
1071.137364405051
 30
0.0
  0
VERTEX
  5
10C
330
109
100
AcDbEntity
  8
LINEE VISIBILI 2D
100
AcDbVertex
100
AcDb2dVertex
 10
831.5469054789825
 20
1070.961750780632
 30
0.0
  0
SEQEND
  5
10A
330
109
100
AcDbEntity
  8
LINEE VISIBILI 2D
  0
SPLINE
  5
10D
330
1F
100
AcDbEntity
  8
LINEE VISIBILI 2D
100
AcDbSpline
210
0.0
220
0.0
230
1.0
 70
    12
 71
     2
 72
     6
 73
     3
 74
     0
 42
0.0000000001
 43
0.0000000001
 40
0.0
 40
0.0
 40
0.0
 40
1.429567179595127
 40
1.429567179595127
 40
1.429567179595127
 10
831.5469054789825
 20
1070.961750780632
 30
0.0
 41
1.0
 10
832.2004504264613
 20
1070.67217776064
 30
0.0
 41
0.9999124378888178
 10
832.8463254403031
 20
1070.324625256053
 30
0.0
 41
0.9999905372265061
  0
SPLINE
  5
10E
330
1F
100
AcDbEntity
  8
LINEE VISIBILI 2D
100
AcDbSpline
210
0.0
220
0.0
230
1.0
 70
    24
 71
     2
 72
     6
 73
     3
 74
     0
 42
0.0000000001
 43
0.0000000001
 40
0.0
 40
0.0
 40
0.0
 40
261.8860317772462
 40
261.8860317772462
 40
261.8860317772462
 10
832.846325440303
 20
1070.324625256053
 30
0.0
 10
832.846325440303
 20
1201.247014328211
 30
0.0
 10
832.846325440303
 20
1332.169403400368
 30
0.0
  0
SPLINE
  5
10F
330
1F
100
AcDbEntity
  8
PREDEFINITO
100
AcDbSpline
210
0.0
220
0.0
230
1.0
 70
    12
 71
     2
 72
     6
 73
     3
 74
     0
 42
0.0000000001
 43
0.0000000001
 40
0.0
 40
0.0
 40
0.0
 40
31.57514713144482
 40
31.57514713144482
 40
31.57514713144482
 10
742.431762607133
 20
1079.652774527478
 30
0.0
 41
1.0
 10
757.8632479850593
 20
1083.311399260395
 30
0.0
 41
0.9932330891067352
 10
773.7225126550734
 20
1083.311220652789
 30
0.0
 41
1.0
  0
POLYLINE
  5
110
330
1F
100
AcDbEntity
  8
PREDEFINITO
100
AcDb2dPolyline
 66
     1
 10
0.0
 20
0.0
 30
0.0
  0
VERTEX
  5
112
330
110
100
AcDbEntity
  8
PREDEFINITO
100
AcDbVertex
100
AcDb2dVertex
 10
773.7225126550734
 20
1083.311220652789
 30
0.0
  0
VERTEX
  5
113
330
110
100
AcDbEntity
  8
PREDEFINITO
100
AcDbVertex
100
AcDb2dVertex
 10
775.3479099062154
 20
1083.307840305821
 30
0.0
  0
SEQEND
  5
111
330
110
100
AcDbEntity
  8
PREDEFINITO
  0
SPLINE
  5
114
330
1F
100
AcDbEntity
  8
LINEE VISIBILI 2D
100
AcDbSpline
210
0.0
220
0.0
230
1.0
 70
    12
 71
     2
 72
     6
 73
     3
 74
     0
 42
0.0000000001
 43
0.0000000001
 40
0.0
 40
0.0
 40
0.0
 40
2.208103383694953
 40
2.208103383694953
 40
2.208103383694953
 10
739.4641577185996
 20
1068.857986813998
 30
0.0
 41
1.0
 10
740.2751404794716
 20
1069.607277647761
 30
0.0
 41
0.999877173943951
 10
741.109208929
 20
1070.330782736543
 30
0.0
 41
1.0
  0
SPLINE
  5
115
330
1F
100
AcDbEntity
  8
LINEE VISIBILI 2D
100
AcDbSpline
210
0.0
220
0.0
230
1.0
 70
    12
 71
     2
 72
     6
 73
     3
 74
     0
 42
0.0000000001
 43
0.0000000001
 40
0.0
 40
0.0
 40
0.0
 40
0.6211989827657091
 40
0.6211989827657091
 40
0.6211989827657091
 10
741.109208929
 20
1070.330782736543
 30
0.0
 41
1.0
 10
741.3508004476344
 20
1070.528272096637
 30
0.0
 41
0.9930931829836688
 10
741.6317626071332
 20
1070.664024717812
 30
0.0
 41
1.0
  0
SPLINE
  5
116
330
1F
100
AcDbEntity
  8
PREDEFINITO
100
AcDbSpline
210
0.0
220
0.0
230
1.0
 70
    12
 71
     2
 72
     6
 73
     3
 74
     0
 42
0.0000000001
 43
0.0000000001
 40
0.0
 40
0.0
 40
0.0
 40
3.266369996022079
 40
3.266369996022079
 40
3.266369996022079
 10
835.6819069692782
 20
1068.898984105726
 30
0.0
 41
1.0
 10
834.2226930043644
 20
1069.632637968593
 30
0.0
 41
0.9999268574696163
 10
832.7461607223051
 20
1070.330782513753
 30
0.0
 41
1.0
  0
SPLINE
  5
117
330
1F
100
AcDbEntity
  8
PREDEFINITO
100
AcDbSpline
210
0.0
220
0.0
230
1.0
 70
    12
 71
     2
 72
     6
 73
     3
 74
     0
 42
0.0000000001
 43
0.0000000001
 40
0.0
 40
0.0
 40
0.0
 40
1.74463270501769
 40
1.74463270501769
 40
1.74463270501769
 10
832.7461607223051
 20
1070.330782513753
 30
0.0
 41
1.0
 10
831.9515789846812
 20
1070.691472438858
 30
0.0
 41
0.9994862976377887
 10
831.1817371954023
 20
1071.102326402351
 30
0.0
 41
1.0
  0
SPLINE
  5
118
330
1F
100
AcDbEntity
  8
PREDEFINITO
100
AcDbSpline
210
0.0
220
0.0
230
1.0
 70
     8
 71
     2
 72
     6
 73
     3
 74
     0
 42
0.0000000001
 43
0.0000000001
 40
0.0
 40
0.0
 40
0.0
 40
1.0
 40
1.0
 40
1.0
 10
831.1817371954023
 20
1071.102326402351
 30
0.0
 10
831.1208120590181
 20
1071.135502589794
 30
0.0
 10
831.1346781671951
 20
1071.166015923555
 30
0.0
  0
SPLINE
  5
119
330
1F
100
AcDbEntity
  8
LINEE VISIBILI 2D
100
AcDbSpline
210
0.0
220
0.0
230
1.0
 70
    24
 71
     2
 72
     6
 73
     3
 74
     0
 42
0.0000000001
 43
0.0000000001
 40
0.0
 40
0.0
 40
0.0
 40
4.850840556763842
 40
4.850840556763842
 40
4.850840556763842
 10
692.748062897019
 20
1346.720762358247
 30
0.0
 10
692.7480628970192
 20
1344.295342079865
 30
0.0
 10
692.7480628970193
 20
1341.869921801483
 30
0.0
  0
SPLINE
  5
11A
330
1F
100
AcDbEntity
  8
LINEE VISIBILI 2D
100
AcDbSpline
210
0.0
220
0.0
230
1.0
 70
     8
 71
     3
 72
    13
 73
     9
 74
     0
 42
0.0000000001
 43
0.0000000001
 40
0.0
 40
0.0
 40
0.0
 40
0.0
 40
4.62496088128047
 40
8.980720558664391
 40
18.06241148497286
 40
27.25461187250023
 40
46.22344033806208
 40
54.72124245348851
 40
54.72124245348851
 40
54.72124245348851
 40
54.72124245348851
 10
774.9619060034033
 20
1326.220364335997
 30
0.0
 10
774.9237518964899
 20
1324.67371615765
 30
0.0
 10
774.6347337078358
 20
1321.70251973237
 30
0.0
 10
773.0587697514101
 20
1315.836853838004
 30
0.0
 10
769.0675467175182
 20
1309.342291590515
 30
0.0
 10
760.4342636607723
 20
1300.384429636072
 30
0.0
 10
750.9391152607212
 20
1292.667568481991
 30
0.0
 10
744.3756121556701
 20
1286.275805620159
 30
0.0
 10
742.4317626073141
 20
1284.215432192931
 30
0.0
  0
SPLINE
  5
11B
330
1F
100
AcDbEntity
  8
LINEE VISIBILI 2D
100
AcDbSpline
210
0.0
220
0.0
230
1.0
 70
     8
 71
     3
 72
    12
 73
     8
 74
     0
 42
0.0000000001
 43
0.0000000001
 40
0.0
 40
0.0
 40
0.0
 40
0.0
 40
6.019551689302475
 40
21.98020236078096
 40
30.88306057715828
 40
38.66799416898685
 40
46.05038909765526
 40
46.05038909765526
 40
46.05038909765526
 40
46.05038909765526
 10
742.4317626071736
 20
1291.097327510251
 30
0.0
 10
743.8699654624036
 20
1292.497134816453
 30
0.0
 10
749.2358827863375
 20
1297.485959277758
 30
0.0
 10
757.1643608151413
 20
1304.065804214193
 30
0.0
 10
764.8177914739296
 20
1311.825761948813
 30
0.0
 10
769.1872957068937
 20
1318.663013032128
 30
0.0
 10
770.0406187546818
 20
1323.776575297568
 30
0.0
 10
770.1018690105681
 20
1326.220762358245
 30
0.0
  0
SPLINE
  5
11C
330
1F
100
AcDbEntity
  8
LINEE VISIBILI 2D
100
AcDbSpline
210
0.0
220
0.0
230
1.0
 70
    24
 71
     2
 72
     6
 73
     3
 74
     0
 42
0.0000000001
 43
0.0000000001
 40
0.0
 40
0.0
 40
0.0
 40
31.36852401786928
 40
31.36852401786928
 40
31.36852401786928
 10
747.0779103784732
 20
1295.429499868771
 30
0.0
 10
747.0779103784732
 20
1311.113761877706
 30
0.0
 10
747.0779103784732
 20
1326.79802388664
 30
0.0
  0
SPLINE
  5
11D
330
1F
100
AcDbEntity
  8
LINEE VISIBILI 2D
100
AcDbSpline
210
0.0
220
0.0
230
1.0
 70
    24
 71
     2
 72
     6
 73
     3
 74
     0
 42
0.0000000001
 43
0.0000000001
 40
0.0
 40
0.0
 40
0.0
 40
30.56694460517406
 40
30.56694460517406
 40
30.56694460517406
 10
747.8779103784732
 20
1326.712488528036
 30
0.0
 10
747.8779103784732
 20
1311.429016225449
 30
0.0
 10
747.8779103784732
 20
1296.145543922862
 30
0.0
  0
SPLINE
  5
11E
330
1F
100
AcDbEntity
  8
LINEE VISIBILI 2D
100
AcDbSpline
210
0.0
220
0.0
230
1.0
 70
    12
 71
     2
 72
     6
 73
     3
 74
     0
 42
0.0000000001
 43
0.0000000001
 40
0.0
 40
0.0
 40
0.0
 40
59.04478041710457
 40
59.04478041710457
 40
59.04478041710457
 10
741.631762607133
 20
1327.448973498583
 30
0.0
 41
1.0
 10
712.2241075621318
 20
1331.287557100943
 30
0.0
 41
0.993199424501731
 10
684.5014281040557
 20
1341.82311323163
 30
0.0
 41
1.0
  0
SPLINE
  5
11F
330
1F
100
AcDbEntity
  8
LINEE VISIBILI 2D
100
AcDbSpline
210
0.0
220
0.0
230
1.0
 70
    24
 71
     2
 72
     6
 73
     3
 74
     0
 42
0.0000000001
 43
0.0000000001
 40
0.0
 40
0.0
 40
0.0
 40
1.684583820872376
 40
1.684583820872376
 40
1.684583820872376
 10
846.2514090021092
 20
1346.720762358247
 30
0.0
 10
847.0937009125473
 20
1346.720762358247
 30
0.0
 10
847.9359928229853
 20
1346.720762358247
 30
0.0
  0
SPLINE
  5
120
330
1F
100
AcDbEntity
  8
LINEE VISIBILI 2D
100
AcDbSpline
210
0.0
220
0.0
230
1.0
 70
    24
 71
     2
 72
     6
 73
     3
 74
     0
 42
0.0000000001
 43
0.0000000001
 40
0.0
 40
0.0
 40
0.0
 40
0.0808622734223263
 40
0.0808622734223263
 40
0.0808622734223263
 10
847.9359928229853
 20
1346.720762358247
 30
0.0
 10
847.9764239596984
 20
1346.720762358247
 30
0.0
 10
848.0168550964115
 20
1346.720762358247
 30
0.0
  0
SPLINE
  5
121
330
1F
100
AcDbEntity
  8
LINEE VISIBILI 2D
100
AcDbSpline
210
0.0
220
0.0
230
1.0
 70
    28
 71
     2
 72
     6
 73
     3
 74
     0
 42
0.0000000001
 43
0.0000000001
 40
0.0
 40
0.0
 40
0.0
 40
57.02977543840055
 40
57.02977543840055
 40
57.02977543840055
 10
848.0168550964115
 20
1346.720762358247
 30
0.0
 41
1.0
 10
864.8576471589138
 20
1346.720762358247
 30
0.0
 41
0.9222469445164495
 10
864.3656149976741
 20
1346.720762358247
 30
0.0
 41
0.9406367485128322
  0
SPLINE
  5
122
330
1F
100
AcDbEntity
  8
LINEE VISIBILI 2D
100
AcDbSpline
210
0.0
220
0.0
230
1.0
 70
    24
 71
     2
 72
     6
 73
     3
 74
     0
 42
0.0000000001
 43
0.0000000001
 40
0.0
 40
0.0
 40
0.0
 40
4.850840556764069
 40
4.850840556764069
 40
4.850840556764069
 10
864.3656149976741
 20
1346.720762358247
 30
0.0
 10
864.3711474868076
 20
1344.295342079865
 30
0.0
 10
864.376679975941
 20
1341.869921801483
 30
0.0
  0
SPLINE
  5
123
330
1F
100
AcDbEntity
  8
LINEE VISIBILI 2D
100
AcDbSpline
210
0.0
220
0.0
230
1.0
 70
    24
 71
     2
 72
     6
 73
     3
 74
     0
 42
0.0000000001
 43
0.0000000001
 40
-16.35819208117232
 40
-16.35819208117232
 40
-16.35819208117232
 40
0.0
 40
0.0
 40
0.0
 10
864.376679975941
 20
1341.869921801483
 30
0.0
 10
856.1967675361761
 20
1341.869921801483
 30
0.0
 10
848.0168550964113
 20
1341.869921801483
 30
0.0
  0
SPLINE
  5
124
330
1F
100
AcDbEntity
  8
LINEE VISIBILI 2D
100
AcDbSpline
210
0.0
220
0.0
230
1.0
 70
    24
 71
     2
 72
     6
 73
     3
 74
     0
 42
0.0000000001
 43
0.0000000001
 40
-4.850840556764069
 40
-4.850840556764069
 40
-4.850840556764069
 40
0.0
 40
0.0
 40
0.0
 10
684.3783127742984
 20
1346.720762358247
 30
0.0
 10
684.3810853741123
 20
1344.294290880148
 30
0.0
 10
684.3838579739263
 20
1341.867819402049
 30
0.0
  0
SPLINE
  5
125
330
1F
100
AcDbEntity
  8
LINEE VISIBILI 2D
100
AcDbSpline
210
0.0
220
0.0
230
1.0
 70
    12
 71
     2
 72
     6
 73
     3
 74
     0
 42
0.0000000001
 43
0.0000000001
 40
0.0
 40
0.0
 40
0.0
 40
0.0088087344915394
 40
0.0088087344915394
 40
0.0088087344915394
 10
684.3838579739263
 20
1341.867819402049
 30
0.0
 41
0.9999999999337805
 10
684.3825155937523
 20
1341.868338362955
 30
0.0
 41
0.9999999999508201
 10
684.381374457633
 20
1341.869386055977
 30
0.0
 41
1.0
  0
SPLINE
  5
126
330
1F
100
AcDbEntity
  8
LINEE VISIBILI 2D
100
AcDbSpline
210
0.0
220
0.0
230
1.0
 70
    12
 71
     2
 72
     6
 73
     3
 74
     0
 42
0.0000000001
 43
0.0000000001
 40
54.17828666648059
 40
54.17828666648059
 40
54.17828666648059
 40
91.247640701441
 40
91.247640701441
 40
91.247640701441
 10
684.381374457633
 20
1341.869386055977
 30
0.0
 41
0.9393422231232562
 10
684.2271784717166
 20
1341.869921801483
 30
0.0
 41
0.948942249042674
 10
691.5302145924893
 20
1341.869921801483
 30
0.0
 41
1.0
  0
SPLINE
  5
127
330
1F
100
AcDbEntity
  8
PREDEFINITO
100
AcDbSpline
210
0.0
220
0.0
230
1.0
 70
    12
 71
     2
 72
     6
 73
     3
 74
     0
 42
0.0000000001
 43
0.0000000001
 40
-9.534023131324671
 40
-9.534023131324671
 40
-9.534023131324671
 40
0.0
 40
0.0
 40
0.0
 10
742.4317626071324
 20
1327.345833923469
 30
0.0
 41
1.0
 10
747.1611760639263
 20
1326.743812976863
 30
0.0
 41
0.9998224258012688
 10
751.9199042324124
 20
1326.320593104871
 30
0.0
 41
1.0
  0
SPLINE
  5
128
330
1F
100
AcDbEntity
  8
PREDEFINITO
100
AcDbSpline
210
0.0
220
0.0
230
1.0
 70
    12
 71
     2
 72
     6
 73
     3
 74
     0
 42
0.0000000001
 43
0.0000000001
 40
0.0
 40
0.0
 40
0.0
 40
40.61742952097003
 40
40.61742952097003
 40
40.61742952097003
 10
751.9199042324124
 20
1326.320593104871
 30
0.0
 41
1.0
 10
772.2386071013303
 20
1326.320806233395
 30
0.0
 41
0.9999999999970213
 10
792.5473218618083
 20
1326.320762357985
 30
0.0
 41
1.0
  0
SPLINE
  5
129
330
1F
100
AcDbEntity
  8
PREDEFINITO
100
AcDbSpline
210
0.0
220
0.0
230
1.0
 70
    12
 71
     2
 72
     6
 73
     3
 74
     0
 42
0.0000000001
 43
0.0000000001
 40
0.0
 40
0.0
 40
0.0
 40
4.279411346184795
 40
4.279411346184795
 40
4.279411346184795
 10
792.5473218618083
 20
1326.320762357985
 30
0.0
 41
1.0
 10
794.6870275349136
 20
1326.320768205719
 30
0.0
 41
0.9999999999854522
 10
796.8367225343839
 20
1326.320579454689
 30
0.0
 41
1.0
  0
SPLINE
  5
12A
330
1F
100
AcDbEntity
  8
PREDEFINITO
100
AcDbSpline
210
0.0
220
0.0
230
1.0
 70
    12
 71
     2
 72
     6
 73
     3
 74
     0
 42
0.0000000001
 43
0.0000000001
 40
-36.50332797686486
 40
-36.50332797686486
 40
-36.50332797686486
 40
0.0
 40
0.0
 40
0.0
 10
796.8367225343839
 20
1326.320579454689
 30
0.0
 41
1.0
 10
815.0578641768635
 20
1327.944108408298
 30
0.0
 41
0.9973989032480726
 10
832.8463254403025
 20
1332.169403400368
 30
0.0
 41
1.0
  0
POLYLINE
  5
12B
330
1F
100
AcDbEntity
  8
PREDEFINITO
100
AcDb2dPolyline
 66
     1
 10
0.0
 20
0.0
 30
0.0
  0
VERTEX
  5
12D
330
12B
100
AcDbEntity
  8
PREDEFINITO
100
AcDbVertex
100
AcDb2dVertex
 10
832.8463254403025
 20
1332.169403400368
 30
0.0
  0
VERTEX
  5
12E
330
12B
100
AcDbEntity
  8
PREDEFINITO
100
AcDbVertex
100
AcDb2dVertex
 10
833.6463254403029
 20
1332.360792772086
 30
0.0
  0
SEQEND
  5
12C
330
12B
100
AcDbEntity
  8
PREDEFINITO
  0
SPLINE
  5
12F
330
1F
100
AcDbEntity
  8
PREDEFINITO
100
AcDbSpline
210
0.0
220
0.0
230
1.0
 70
    12
 71
     2
 72
     6
 73
     3
 74
     0
 42
0.0000000001
 43
0.0000000001
 40
-32.05952421503351
 40
-32.05952421503351
 40
-32.05952421503351
 40
0.0
 40
0.0
 40
0.0
 10
833.6463254403029
 20
1332.360792772086
 30
0.0
 41
1.0
 10
849.2509177617003
 20
1336.121002072945
 30
0.0
 41
0.9979935899145881
 10
864.2551986227
 20
1341.823109696229
 30
0.0
 41
1.0
  0
SPLINE
  5
130
330
1F
100
AcDbEntity
  8
PREDEFINITO
100
AcDbSpline
210
0.0
220
0.0
230
1.0
 70
    12
 71
     2
 72
     6
 73
     3
 74
     0
 42
0.0000000001
 43
0.0000000001
 40
0.0
 40
0.0
 40
0.0
 40
0.4234871913502695
 40
0.4234871913502695
 40
0.4234871913502695
 10
768.2224638926375
 20
1335.956065292077
 30
0.0
 41
1.0
 10
768.0109324304627
 20
1335.967445078767
 30
0.0
 41
0.9993363305870586
 10
767.8003745205408
 20
1335.99424913359
 30
0.0
 41
1.0
  0
SPLINE
  5
131
330
1F
100
AcDbEntity
  8
PREDEFINITO
100
AcDbSpline
210
0.0
220
0.0
230
1.0
 70
    12
 71
     2
 72
     6
 73
     3
 74
     0
 42
0.0000000001
 43
0.0000000001
 40
0.0
 40
0.0
 40
0.0
 40
0.9368865093166531
 40
0.9368865093166531
 40
0.9368865093166531
 10
767.8003745205408
 20
1335.99424913359
 30
0.0
 41
1.0
 10
767.3113183718312
 20
1335.984885455665
 30
0.0
 41
0.9388820292401465
 10
766.9323991515623
 20
1336.293556485884
 30
0.0
 41
1.0
  0
SPLINE
  5
132
330
1F
100
AcDbEntity
  8
PREDEFINITO
100
AcDbSpline
210
0.0
220
0.0
230
1.0
 70
    12
 71
     2
 72
     6
 73
     3
 74
     0
 42
0.0000000001
 43
0.0000000001
 40
0.0
 40
0.0
 40
0.0
 40
9.70965939218977
 40
9.70965939218977
 40
9.70965939218977
 10
766.9323991515623
 20
1336.293556485884
 30
0.0
 41
1.0
 10
764.9916554116475
 20
1340.753004016445
 30
0.0
 41
0.997343019671966
 10
763.7195119805338
 20
1345.447129028898
 30
0.0
 41
1.0
  0
POLYLINE
  5
133
330
1F
100
AcDbEntity
  8
PREDEFINITO
100
AcDb2dPolyline
 66
     1
 10
0.0
 20
0.0
 30
0.0
  0
VERTEX
  5
135
330
133
100
AcDbEntity
  8
PREDEFINITO
100
AcDbVertex
100
AcDb2dVertex
 10
763.7195119805338
 20
1345.447129028898
 30
0.0
  0
VERTEX
  5
136
330
133
100
AcDbEntity
  8
PREDEFINITO
100
AcDbVertex
100
AcDb2dVertex
 10
763.4033108727323
 20
1346.720762358247
 30
0.0
  0
SEQEND
  5
134
330
133
100
AcDbEntity
  8
PREDEFINITO
  0
SPLINE
  5
137
330
1F
100
AcDbEntity
  8
PREDEFINITO
100
AcDbSpline
210
0.0
220
0.0
230
1.0
 70
    24
 71
     2
 72
     6
 73
     3
 74
     0
 42
0.0000000001
 43
0.0000000001
 40
0.0
 40
0.0
 40
0.0
 40
2.983294444155263
 40
2.983294444155263
 40
2.983294444155263
 10
763.4033108727323
 20
1346.720762358247
 30
0.0
 10
764.8949580948099
 20
1346.720762358247
 30
0.0
 10
766.3866053168875
 20
1346.720762358247
 30
0.0
  0
SPLINE
  5
138
330
1F
100
AcDbEntity
  8
LINEE VISIBILI 2D
100
AcDbSpline
210
0.0
220
0.0
230
1.0
 70
    24
 71
     2
 72
     6
 73
     3
 74
     0
 42
0.0000000001
 43
0.0000000001
 40
0.0
 40
0.0
 40
0.0
 40
27.00000000000023
 40
27.00000000000023
 40
27.00000000000023
 10
708.9318180423327
 20
1346.720762358246
 30
0.0
 10
708.9321505754564
 20
1360.220762358247
 30
0.0
 10
708.9324831085801
 20
1373.720762358247
 30
0.0
  0
SPLINE
  5
139
330
1F
100
AcDbEntity
  8
LINEE VISIBILI 2D
100
AcDbSpline
210
0.0
220
0.0
230
1.0
 70
    24
 71
     2
 72
     6
 73
     3
 74
     0
 42
0.0000000001
 43
0.0000000001
 40
0.0
 40
0.0
 40
0.0
 40
125.1909038177345
 40
125.1909038177345
 40
125.1909038177345
 10
708.9324831085801
 20
1373.720762358247
 30
0.0
 10
771.528267550571
 20
1373.720762358247
 30
0.0
 10
834.1240519925618
 20
1373.720762358247
 30
0.0
  0
SPLINE
  5
13A
330
1F
100
AcDbEntity
  8
LINEE VISIBILI 2D
100
AcDbSpline
210
0.0
220
0.0
230
1.0
 70
    24
 71
     2
 72
     6
 73
     3
 74
     0
 42
0.0000000001
 43
0.0000000001
 40
0.0
 40
0.0
 40
0.0
 40
5.699425381211881
 40
5.699425381211881
 40
5.699425381211881
 10
834.1240519925618
 20
1373.720762358247
 30
0.0
 10
836.9740972162914
 20
1373.720762358247
 30
0.0
 10
839.824142440021
 20
1373.720762358247
 30
0.0
  0
SPLINE
  5
13B
330
1F
100
AcDbEntity
  8
LINEE VISIBILI 2D
100
AcDbSpline
210
0.0
220
0.0
230
1.0
 70
    24
 71
     2
 72
     6
 73
     3
 74
     0
 42
0.0000000001
 43
0.0000000001
 40
0.0
 40
0.0
 40
0.0
 40
27.00000000000023
 40
27.00000000000023
 40
27.00000000000023
 10
839.824142440021
 20
1373.720762358247
 30
0.0
 10
839.8244749731446
 20
1360.220762358247
 30
0.0
 10
839.8248075062681
 20
1346.720762358246
 30
0.0
  0
SPLINE
  5
13C
330
1F
100
AcDbEntity
  8
LINEE VISIBILI 2D
100
AcDbSpline
210
0.0
220
0.0
230
1.0
 70
    24
 71
     2
 72
     6
 73
     3
 74
     0
 42
0.0000000001
 43
0.0000000001
 40
-0.0999810156235981
 40
-0.0999810156235981
 40
-0.0999810156235981
 40
0.0
 40
0.0
 40
0.0
 10
754.3783127742984
 20
1326.320743373867
 30
0.0
 10
754.3914066776583
 20
1326.270752866056
 30
0.0
 10
754.4045005810183
 20
1326.220762358244
 30
0.0
  0
SPLINE
  5
13D
330
1F
100
AcDbEntity
  8
LINEE VISIBILI 2D
100
AcDbSpline
210
0.0
220
0.0
230
1.0
 70
    28
 71
     2
 72
     8
 73
     5
 74
     0
 42
0.0000000001
 43
0.0000000001
 40
39.59522511094387
 40
39.59522511094387
 40
39.59522511094387
 40
54.06525243911374
 40
54.06525243911374
 40
72.40269734572594
 40
72.40269734572594
 40
72.40269734572594
 10
754.4045005810183
 20
1326.220762358244
 30
0.0
 41
0.9664972800074949
 10
754.01941439662
 20
1326.220762358245
 30
0.0
 41
0.9205730607539335
 10
758.6494992079552
 20
1326.220762358245
 30
0.0
 41
1.0
 10
764.6555717294807
 20
1326.220762358245
 30
0.0
 41
0.8993445492884365
 10
774.3792194911666
 20
1326.220762358245
 30
0.0
 41
1.0
  0
SPLINE
  5
13E
330
1F
100
AcDbEntity
  8
LINEE VISIBILI 2D
100
AcDbSpline
210
0.0
220
0.0
230
1.0
 70
    24
 71
     2
 72
     6
 73
     3
 74
     0
 42
0.0000000001
 43
0.0000000001
 40
0.0
 40
0.0
 40
0.0
 40
19.98414387785238
 40
19.98414387785238
 40
19.98414387785238
 10
774.3792194911666
 20
1326.220762358245
 30
0.0
 10
784.3750287814127
 20
1326.220762358244
 30
0.0
 10
794.3708380716587
 20
1326.220762358244
 30
0.0
  0
SPLINE
  5
13F
330
1F
100
AcDbEntity
  8
LINEE VISIBILI 2D
100
AcDbSpline
210
0.0
220
0.0
230
1.0
 70
    24
 71
     2
 72
     6
 73
     3
 74
     0
 42
0.0000000001
 43
0.0000000001
 40
-0.0999989324873241
 40
-0.0999989324873241
 40
-0.0999989324873241
 40
0.0
 40
0.0
 40
0.0
 10
794.3708380716587
 20
1326.220762358244
 30
0.0
 10
794.3745754229785
 20
1326.270761824488
 30
0.0
 10
794.3783127742984
 20
1326.320761290731
 30
0.0
  0
SPLINE
  5
140
330
1F
100
AcDbEntity
  8
LINEE VISIBILI 2D
100
AcDbSpline
210
0.0
220
0.0
230
1.0
 70
    24
 71
     2
 72
     6
 73
     3
 74
     0
 42
0.0000000001
 43
0.0000000001
 40
0.0
 40
0.0
 40
0.0
 40
4.850162929402813
 40
4.850162929402813
 40
4.850162929402813
 10
763.4033108071212
 20
1341.870599428844
 30
0.0
 10
763.4033108071213
 20
1344.295680893545
 30
0.0
 10
763.4033108071214
 20
1346.720762358247
 30
0.0
  0
SPLINE
  5
141
330
1F
100
AcDbEntity
  8
LINEE VISIBILI 2D
100
AcDbSpline
210
0.0
220
0.0
230
1.0
 70
    24
 71
     2
 72
     6
 73
     3
 74
     0
 42
0.0000000001
 43
0.0000000001
 40
0.0
 40
0.0
 40
0.0
 40
27.69336864212494
 40
27.69336864212494
 40
27.69336864212494
 10
763.4033108071214
 20
1346.720762358247
 30
0.0
 10
749.5566264889225
 20
1346.720762358247
 30
0.0
 10
735.7099421707235
 20
1346.720762358247
 30
0.0
  0
SPLINE
  5
142
330
1F
100
AcDbEntity
  8
LINEE VISIBILI 2D
100
AcDbSpline
210
0.0
220
0.0
230
1.0
 70
    24
 71
     2
 72
     6
 73
     3
 74
     0
 42
0.0000000001
 43
0.0000000001
 40
-51.68702965697958
 40
-51.68702965697958
 40
-51.68702965697958
 40
0.0
 40
0.0
 40
0.0
 10
735.7099421707235
 20
1346.720762358247
 30
0.0
 10
709.8664273450972
 20
1346.720762358247
 30
0.0
 10
684.022912519471
 20
1346.720762358247
 30
0.0
  0
SPLINE
  5
143
330
1F
100
AcDbEntity
  8
LINEE VISIBILI 2D
100
AcDbSpline
210
0.0
220
0.0
230
1.0
 70
    24
 71
     2
 72
     6
 73
     3
 74
     0
 42
0.0000000001
 43
0.0000000001
 40
-4.850315939104803
 40
-4.850315939104803
 40
-4.850315939104803
 40
0.0
 40
0.0
 40
0.0
 10
766.386605219132
 20
1341.870446419142
 30
0.0
 10
766.386605219132
 20
1344.295604388694
 30
0.0
 10
766.386605219132
 20
1346.720762358247
 30
0.0
  0
SPLINE
  5
144
330
1F
100
AcDbEntity
  8
LINEE VISIBILI 2D
100
AcDbSpline
210
0.0
220
0.0
230
1.0
 70
    24
 71
     2
 72
     6
 73
     3
 74
     0
 42
0.0000000001
 43
0.0000000001
 40
-79.86480376979853
 40
-79.86480376979853
 40
-79.86480376979853
 40
0.0
 40
0.0
 40
0.0
 10
766.386605219132
 20
1346.720762358247
 30
0.0
 10
806.3190071040312
 20
1346.720762358247
 30
0.0
 10
846.2514089889305
 20
1346.720762358247
 30
0.0
  0
SPLINE
  5
145
330
1F
100
AcDbEntity
  8
LINEE VISIBILI 2D
100
AcDbSpline
210
0.0
220
0.0
230
1.0
 70
    24
 71
     2
 72
     6
 73
     3
 74
     0
 42
0.0000000001
 43
0.0000000001
 40
-4.850840556763842
 40
-4.850840556763842
 40
-4.850840556763842
 40
0.0
 40
0.0
 40
0.0
 10
846.2514089889305
 20
1346.720762358247
 30
0.0
 10
846.2514089889305
 20
1344.295342079865
 30
0.0
 10
846.2514089889305
 20
1341.869921801483
 30
0.0
  0
SPLINE
  5
146
330
1F
100
AcDbEntity
  8
LINEE VISIBILI 2D
100
AcDbSpline
210
0.0
220
0.0
230
1.0
 70
    24
 71
     2
 72
     6
 73
     3
 74
     0
 42
0.0000000001
 43
0.0000000001
 40
-79.86480371640027
 40
-79.86480371640027
 40
-79.86480371640027
 40
0.0
 40
0.0
 40
0.0
 10
846.2514089889305
 20
1341.869921801483
 30
0.0
 10
806.3190071173808
 20
1341.869921801483
 30
0.0
 10
766.3866052458311
 20
1341.869921801483
 30
0.0
  0
SPLINE
  5
147
330
1F
100
AcDbEntity
  8
LINEE VISIBILI 2D
100
AcDbSpline
210
0.0
220
0.0
230
1.0
 70
    12
 71
     2
 72
     6
 73
     3
 74
     0
 42
0.0000000001
 43
0.0000000001
 40
0.0
 40
0.0
 40
0.0
 40
10.76177358006313
 40
10.76177358006313
 40
10.76177358006313
 10
766.3866052458311
 20
1341.869921801483
 30
0.0
 41
0.9999999999961673
 10
767.7541663370139
 20
1336.654402773073
 30
0.0
 41
0.9969575860876412
 10
769.9156935635731
 20
1331.714801359734
 30
0.0
 41
1.0
  0
SPLINE
  5
148
330
1F
100
AcDbEntity
  8
LINEE VISIBILI 2D
100
AcDbSpline
210
0.0
220
0.0
230
1.0
 70
    12
 71
     2
 72
     6
 73
     3
 74
     0
 42
0.0000000001
 43
0.0000000001
 40
0.0
 40
0.0
 40
0.0
 40
0.0550143803046207
 40
0.0550143803046207
 40
0.0550143803046207
 10
769.9156935635731
 20
1331.714801359734
 30
0.0
 41
1.0
 10
769.9282352984196
 20
1331.689133464583
 30
0.0
 41
0.9452157089785137
 10
769.9197159139485
 20
1331.653368147249
 30
0.0
 41
1.0
  0
SPLINE
  5
149
330
1F
100
AcDbEntity
  8
LINEE VISIBILI 2D
100
AcDbSpline
210
0.0
220
0.0
230
1.0
 70
    12
 71
     3
 72
    10
 73
     6
 74
     0
 42
0.0000000001
 43
0.0000000001
 40
-0.9373947644764784
 40
-0.9373947644764784
 40
-0.9373947644764784
 40
-0.9373947644764784
 40
-0.4991581158118272
 40
-0.4991581158118272
 40
0.0
 40
0.0
 40
0.0
 40
0.0
 10
769.9197159139485
 20
1331.653368147249
 30
0.0
 41
1.0
 10
769.8497631161993
 20
1331.488904122939
 30
0.0
 41
1.0
 10
769.3010569974499
 20
1331.370894910795
 30
0.0
 41
1.0
 10
767.7545453531918
 20
1331.371995095697
 30
0.0
 41
1.0
 10
767.0194146955646
 20
1331.525627161362
 30
0.0
 41
1.0
 10
766.9323991515623
 20
1331.714801359734
 30
0.0
 41
1.0
  0
SPLINE
  5
14A
330
1F
100
AcDbEntity
  8
LINEE VISIBILI 2D
100
AcDbSpline
210
0.0
220
0.0
230
1.0
 70
    12
 71
     2
 72
     6
 73
     3
 74
     0
 42
0.0000000001
 43
0.0000000001
 40
0.0
 40
0.0
 40
0.0
 40
10.76177358893369
 40
10.76177358893369
 40
10.76177358893369
 10
766.9323991515623
 20
1331.714801359734
 30
0.0
 41
1.0
 10
764.7708717617998
 20
1336.654402719952
 30
0.0
 41
0.9969575836164382
 10
763.4033108071212
 20
1341.869921801483
 30
0.0
 41
1.0
  0
SPLINE
  5
14B
330
1F
100
AcDbEntity
  8
LINEE VISIBILI 2D
100
AcDbSpline
210
0.0
220
0.0
230
1.0
 70
    24
 71
     2
 72
     6
 73
     3
 74
     0
 42
0.0000000001
 43
0.0000000001
 40
-70.65524791010193
 40
-70.65524791010193
 40
-70.65524791010193
 40
0.0
 40
0.0
 40
0.0
 10
763.4033108071212
 20
1341.869921801483
 30
0.0
 10
728.0756868520702
 20
1341.869921801483
 30
0.0
 10
692.7480628970193
 20
1341.869921801483
 30
0.0
  0
SPLINE
  5
14C
330
1F
100
AcDbEntity
  8
LINEE VISIBILI 2D
100
AcDbSpline
210
0.0
220
0.0
230
1.0
 70
    12
 71
     2
 72
     6
 73
     3
 74
     0
 42
0.0000000001
 43
0.0000000001
 40
0.0
 40
0.0
 40
0.0
 40
32.27474519111995
 40
32.27474519111995
 40
32.27474519111995
 10
692.7480628970193
 20
1341.869921801483
 30
0.0
 41
1.0
 10
707.6713681595652
 20
1335.650989927881
 30
0.0
 41
0.9972297558930123
 10
723.3521389685402
 20
1331.714801359734
 30
0.0
 41
1.0
  0
SPLINE
  5
14D
330
1F
100
AcDbEntity
  8
LINEE VISIBILI 2D
100
AcDbSpline
210
0.0
220
0.0
230
1.0
 70
    12
 71
     2
 72
     6
 73
     3
 74
     0
 42
0.0000000001
 43
0.0000000001
 40
0.0
 40
0.0
 40
0.0
 40
0.9532947564732565
 40
0.9532947564732565
 40
0.9532947564732565
 10
723.3521389685402
 20
1331.714801359734
 30
0.0
 41
1.0
 10
723.8269283475428
 20
1331.652173314863
 30
0.0
 41
0.9784099272419647
 10
724.2272180700473
 20
1331.388689785969
 30
0.0
 41
0.999578794601835
  0
SPLINE
  5
14E
330
1F
100
AcDbEntity
  8
LINEE VISIBILI 2D
100
AcDbSpline
210
0.0
220
0.0
230
1.0
 70
    12
 71
     2
 72
     6
 73
     3
 74
     0
 42
0.0000000001
 43
0.0000000001
 40
0.0
 40
0.0
 40
0.0
 40
2.107605492323086
 40
2.107605492323086
 40
2.107605492323086
 10
724.2272180700473
 20
1331.388689785969
 30
0.0
 41
1.0
 10
723.1529148363405
 20
1331.42724519321
 30
0.0
 41
0.993448736559675
 10
722.1342906640102
 20
1331.714801359734
 30
0.0
 41
1.0
  0
SPLINE
  5
14F
330
1F
100
AcDbEntity
  8
LINEE VISIBILI 2D
100
AcDbSpline
210
0.0
220
0.0
230
1.0
 70
    12
 71
     2
 72
     6
 73
     3
 74
     0
 42
0.0000000001
 43
0.0000000001
 40
0.0
 40
0.0
 40
0.0
 40
32.27474523832495
 40
32.27474523832495
 40
32.27474523832495
 10
722.1342906640102
 20
1331.714801359734
 30
0.0
 41
1.0
 10
706.4535195542363
 20
1335.650989021376
 30
0.0
 41
0.9972297515108893
 10
691.5302145924893
 20
1341.869921801483
 30
0.0
 41
1.0
  0
SPLINE
  5
150
330
1F
100
AcDbEntity
  8
LINEE VISIBILI 2D
100
AcDbSpline
210
0.0
220
0.0
230
1.0
 70
    24
 71
     2
 72
     6
 73
     3
 74
     0
 42
0.0000000001
 43
0.0000000001
 40
0.0
 40
0.0
 40
0.0
 40
4.850840556763842
 40
4.850840556763842
 40
4.850840556763842
 10
691.5302145924893
 20
1341.869921801483
 30
0.0
 10
691.5530651584174
 20
1344.295342079892
 30
0.0
 10
691.5759157243456
 20
1346.720762358301
 30
0.0
  0
SPLINE
  5
151
330
1F
100
AcDbEntity
  8
LINEE VISIBILI 2D
100
AcDbSpline
210
0.0
220
0.0
230
1.0
 70
    12
 71
     2
 72
     6
 73
     3
 74
     0
 42
0.0000000001
 43
0.0000000001
 40
-1.247235148861299
 40
-1.247235148861299
 40
-1.247235148861299
 40
0.0
 40
0.0
 40
0.0
 10
691.5759157243456
 20
1346.720762358301
 30
0.0
 41
1.0
 10
692.1848396743202
 20
1346.453033136436
 30
0.0
 41
0.9999999999997146
 10
692.7480628970079
 20
1346.18530476559
 30
0.0
 41
1.0
  0
SPLINE
  5
152
330
1F
100
AcDbEntity
  8
LINEE VISIBILI 2D
100
AcDbSpline
210
0.0
220
0.0
230
1.0
 70
    12
 71
     2
 72
     6
 73
     3
 74
     0
 42
0.0000000001
 43
0.0000000001
 40
-1.9123568035366
 40
-1.9123568035366
 40
-1.9123568035366
 40
0.0
 40
0.0
 40
0.0
 10
846.251408988968
 20
1345.815618253726
 30
0.0
 41
1.0
 10
847.0937015366624
 20
1346.268189132198
 30
0.0
 41
0.9999999999990288
 10
847.976423959697
 20
1346.720762358263
 30
0.0
 41
1.0
  0
SPLINE
  5
153
330
1F
100
AcDbEntity
  8
LINEE VISIBILI 2D
100
AcDbSpline
210
0.0
220
0.0
230
1.0
 70
    24
 71
     2
 72
     6
 73
     3
 74
     0
 42
0.0000000001
 43
0.0000000001
 40
0.0
 40
0.0
 40
0.0
 40
4.850840556763842
 40
4.850840556763842
 40
4.850840556763842
 10
847.976423959697
 20
1346.720762358263
 30
0.0
 10
847.9966395280542
 20
1344.295342079873
 30
0.0
 10
848.0168550964113
 20
1341.869921801483
 30
0.0
  0
SPLINE
  5
154
330
1F
100
AcDbEntity
  8
LINEE VISIBILI 2D
100
AcDbSpline
210
0.0
220
0.0
230
1.0
 70
    12
 71
     2
 72
     6
 73
     3
 74
     0
 42
0.0000000001
 43
0.0000000001
 40
0.0
 40
0.0
 40
0.0
 40
28.94914213180654
 40
28.94914213180654
 40
28.94914213180654
 10
848.0168550964113
 20
1341.869921801483
 30
0.0
 41
1.0
 10
834.8960669561378
 20
1335.681365171657
 30
0.0
 41
0.9966493294695936
 10
820.9418673693312
 20
1331.714801359734
 30
0.0
 41
1.0
  0
SPLINE
  5
155
330
1F
100
AcDbEntity
  8
LINEE VISIBILI 2D
100
AcDbSpline
210
0.0
220
0.0
230
1.0
 70
    12
 71
     3
 72
    10
 73
     6
 74
     0
 42
0.0000000001
 43
0.0000000001
 40
-1.0
 40
-1.0
 40
-1.0
 40
-1.0
 40
-0.5011964628324459
 40
-0.5011964628324459
 40
0.0
 40
0.0
 40
0.0
 40
0.0
 10
820.9418673693312
 20
1331.714801359734
 30
0.0
 41
1.0
 10
820.2893858331229
 20
1331.529905344706
 30
0.0
 41
1.0
 10
819.3491885445583
 20
1331.372023819917
 30
0.0
 41
1.0
 10
818.3480705961852
 20
1331.370791971569
 30
0.0
 41
1.0
 10
818.5209929987927
 20
1331.529070320232
 30
0.0
 41
1.0
 10
819.1764212618505
 20
1331.714801359734
 30
0.0
 41
1.0
  0
SPLINE
  5
156
330
1F
100
AcDbEntity
  8
LINEE VISIBILI 2D
100
AcDbSpline
210
0.0
220
0.0
230
1.0
 70
    12
 71
     2
 72
     6
 73
     3
 74
     0
 42
0.0000000001
 43
0.0000000001
 40
0.0
 40
0.0
 40
0.0
 40
28.94914177450653
 40
28.94914177450653
 40
28.94914177450653
 10
819.1764212618505
 20
1331.714801359734
 30
0.0
 41
1.0
 10
833.1306185382225
 20
1335.681371331603
 30
0.0
 41
0.9966493664386985
 10
846.2514089889305
 20
1341.869921801483
 30
0.0
 41
1.0
  0
SPLINE
  5
157
330
1F
100
AcDbEntity
  8
LINEE VISIBILI 2D
100
AcDbSpline
210
0.0
220
0.0
230
1.0
 70
    15
 71
     2
 72
    12
 73
     9
 74
     0
 42
0.0000000001
 43
0.0000000001
 40
0.0
 40
0.0
 40
0.0
 40
287.1100076145435
 40
287.1100076145435
 40
574.220015229087
 40
574.220015229087
 40
861.3300228436306
 40
861.3300228436306
 40
1148.440030458174
 40
1148.440030458174
 40
1148.440030458174
 10
783.8340233911713
 20
365.309254360506
 30
0.0
 41
1.0
 10
966.3634391392549
 20
355.7433230117815
 30
0.0
 41
0.7071067811865476
 10
956.7975077905304
 20
173.2139072636979
 30
0.0
 41
1.0
 10
947.2315764418058
 20
-9.315508484385711
 30
0.0
 41
0.7071067811865476
 10
764.7021606937224
 20
0.250422864338758
 30
0.0
 41
1.0
 10
582.1727449456388
 20
9.81635421306316
 30
0.0
 41
0.7071067811865476
 10
591.7386762943632
 20
192.3457699611468
 30
0.0
 41
1.0
 10
601.3046076430878
 20
374.8751857092304
 30
0.0
 41
0.7071067811865476
 10
783.8340233911713
 20
365.309254360506
 30
0.0
 41
1.0
  0
SPLINE
  5
158
330
1F
100
AcDbEntity
  8
LINEE VISIBILI 2D
100
AcDbSpline
210
0.0
220
0.0
230
1.0
 70
    24
 71
     2
 72
     6
 73
     3
 74
     0
 42
0.0000000001
 43
0.0000000001
 40
0.0
 40
0.0
 40
0.0
 40
0.3797327755285145
 40
0.3797327755285145
 40
0.3797327755285145
 10
855.9180171674645
 20
220.8986398698644
 30
0.0
 10
855.7444991226655
 20
220.8215637170557
 30
0.0
 10
855.5709810778666
 20
220.744487564247
 30
0.0
  0
SPLINE
  5
159
330
1F
100
AcDbEntity
  8
LINEE VISIBILI 2D
100
AcDbSpline
210
0.0
220
0.0
230
1.0
 70
    24
 71
     2
 72
     6
 73
     3
 74
     0
 42
0.0000000001
 43
0.0000000001
 40
0.0
 40
0.0
 40
0.0
 40
0.1000139072388871
 40
0.1000139072388871
 40
0.1000139072388871
 10
855.9180171674645
 20
220.8986398698644
 30
0.0
 10
855.9637182993004
 20
220.9189401644244
 30
0.0
 10
856.0094194311362
 20
220.9392404589844
 30
0.0
  0
SPLINE
  5
15A
330
1F
100
AcDbEntity
  8
LINEE VISIBILI 2D
100
AcDbSpline
210
0.0
220
0.0
230
1.0
 70
    24
 71
     2
 72
     6
 73
     3
 74
     0
 42
0.0000000001
 43
0.0000000001
 40
0.0
 40
0.0
 40
0.0
 40
0.0552242116660347
 40
0.0552242116660347
 40
0.0552242116660347
 10
763.4147075769288
 20
93.80915647757797
 30
0.0
 10
763.4176174855032
 20
93.8366148245898
 30
0.0
 10
763.4205273940777
 20
93.86407317160163
 30
0.0
  0
SPLINE
  5
15B
330
1F
100
AcDbEntity
  8
LINEE VISIBILI 2D
100
AcDbSpline
210
0.0
220
0.0
230
1.0
 70
    24
 71
     2
 72
     6
 73
     3
 74
     0
 42
0.0000000001
 43
0.0000000001
 40
0.0
 40
0.0
 40
0.0
 40
0.1000139072387721
 40
0.1000139072387721
 40
0.1000139072387721
 10
763.4041675866797
 20
93.70969950071503
 30
0.0
 10
763.4094375818042
 20
93.7594279891465
 30
0.0
 10
763.4147075769288
 20
93.80915647757797
 30
0.0
  0
SPLINE
  5
15C
330
1F
100
AcDbEntity
  8
LINEE VISIBILI 2D
100
AcDbSpline
210
0.0
220
0.0
230
1.0
 70
    24
 71
     2
 72
     6
 73
     3
 74
     0
 42
0.0000000001
 43
0.0000000001
 40
0.0
 40
0.0
 40
0.0
 40
0.0708960379826706
 40
0.0708960379826706
 40
0.0708960379826706
 10
766.3980019889395
 20
93.49300073863651
 30
0.0
 10
766.4017376871523
 20
93.52825136429442
 30
0.0
 10
766.405473385365
 20
93.56350198995231
 30
0.0
  0
SPLINE
  5
15D
330
1F
100
AcDbEntity
  8
LINEE VISIBILI 2D
100
AcDbSpline
210
0.0
220
0.0
230
1.0
 70
    24
 71
     2
 72
     6
 73
     3
 74
     0
 42
0.0000000001
 43
0.0000000001
 40
0.0
 40
0.0
 40
0.0
 40
0.1000139072385699
 40
0.1000139072385699
 40
0.1000139072385699
 10
766.3980019889395
 20
93.49300073863651
 30
0.0
 10
766.3927319938149
 20
93.44327225020515
 30
0.0
 10
766.3874619986902
 20
93.3935437617738
 30
0.0
  0
SPLINE
  5
15E
330
1F
100
AcDbEntity
  8
LINEE VISIBILI 2D
100
AcDbSpline
210
0.0
220
0.0
230
1.0
 70
    12
 71
     2
 72
     6
 73
     3
 74
     0
 42
0.0000000001
 43
0.0000000001
 40
0.0
 40
0.0
 40
0.0
 40
91.24764070144096
 40
91.24764070144096
 40
91.24764070144096
 10
691.5310713720476
 20
147.8784916279376
 30
0.0
 41
1.0
 10
672.0056893888176
 20
193.8870905101437
 30
0.0
 41
0.8742384474576631
 10
700.7406272317437
 20
234.7812839837648
 30
0.0
 41
1.0
  0
SPLINE
  5
15F
330
1F
100
AcDbEntity
  8
LINEE VISIBILI 2D
100
AcDbSpline
210
0.0
220
0.0
230
1.0
 70
    12
 71
     2
 72
     6
 73
     3
 74
     0
 42
0.0000000001
 43
0.0000000001
 40
0.0
 40
0.0
 40
0.0
 40
91.24764070144114
 40
91.24764070144114
 40
91.24764070144114
 10
763.4041675866797
 20
93.70969950071503
 30
0.0
 41
1.0
 10
713.7968611705455
 20
99.80452212574568
 30
0.0
 41
0.8742384474576593
 10
692.7489196765773
 20
145.1368050106974
 30
0.0
 41
1.0
  0
SPLINE
  5
160
330
1F
100
AcDbEntity
  8
LINEE VISIBILI 2D
100
AcDbSpline
210
0.0
220
0.0
230
1.0
 70
    12
 71
     2
 72
     6
 73
     3
 74
     0
 42
0.0000000001
 43
0.0000000001
 40
0.0
 40
0.0
 40
0.0
 40
91.24764070144093
 40
91.24764070144093
 40
91.24764070144093
 10
846.2522657684888
 20
128.8692306076184
 30
0.0
 41
1.0
 10
816.1703413355849
 20
88.95545435044336
 30
0.0
 41
0.8742384474576627
 10
766.3874619986902
 20
93.39354376177369
 30
0.0
 41
1.0
  0
SPLINE
  5
161
330
1F
100
AcDbEntity
  8
LINEE VISIBILI 2D
100
AcDbSpline
210
0.0
220
0.0
230
1.0
 70
    12
 71
     2
 72
     6
 73
     3
 74
     0
 42
0.0000000001
 43
0.0000000001
 40
0.0
 40
0.0
 40
0.0
 40
91.247640701441
 40
91.247640701441
 40
91.247640701441
 10
785.3541715210338
 20
272.3663459689667
 30
0.0
 41
1.0
 10
834.9614779371676
 20
266.2715233439358
 30
0.0
 41
0.8742384474576627
 10
856.009419431136
 20
220.9392404589844
 30
0.0
 41
1.0
  0
SPLINE
  5
162
330
1F
100
AcDbEntity
  8
LINEE VISIBILI 2D
100
AcDbSpline
210
0.0
220
0.0
230
1.0
 70
    12
 71
     2
 72
     6
 73
     3
 74
     0
 42
0.0000000001
 43
0.0000000001
 40
0.0
 40
0.0
 40
0.0
 40
0.4643780394333205
 40
0.4643780394333205
 40
0.4643780394333205
 10
781.9071035874744
 20
272.6827443520374
 30
0.0
 41
1.0
 10
782.139001100002
 20
272.7031732012827
 30
0.0
 41
0.9960960880781823
 10
782.3708771090232
 20
272.6825017079082
 30
0.0
 41
1.0
  0
SPLINE
  5
163
330
1F
100
AcDbEntity
  8
LINEE VISIBILI 2D
100
AcDbSpline
210
0.0
220
0.0
230
1.0
 70
    12
 71
     2
 72
     6
 73
     3
 74
     0
 42
0.0000000001
 43
0.0000000001
 40
0.0
 40
0.0
 40
0.0
 40
90.76858110031273
 40
90.76858110031273
 40
90.76858110031273
 10
702.5060733392247
 20
237.2068148620635
 30
0.0
 41
1.0
 10
732.405146713257
 20
276.8779777761835
 30
0.0
 41
0.8752941540844964
 10
781.9041757058047
 20
272.6825178038654
 30
0.0
 41
1.0
  0
SPLINE
  5
164
330
1F
100
AcDbEntity
  8
LINEE VISIBILI 2D
100
AcDbSpline
210
0.0
220
0.0
230
1.0
 70
    24
 71
     2
 72
     6
 73
     3
 74
     0
 42
0.0000000001
 43
0.0000000001
 40
0.0
 40
0.0
 40
0.0
 40
0.4374004193585674
 40
0.4374004193585674
 40
0.4374004193585674
 10
845.8177607539548
 20
129.185489284617
 30
0.0
 10
845.9945821245105
 20
129.0567881399892
 30
0.0
 10
846.1714034950664
 20
128.9280869953614
 30
0.0
  0
SPLINE
  5
165
330
1F
100
AcDbEntity
  8
LINEE VISIBILI 2D
100
AcDbSpline
210
0.0
220
0.0
230
1.0
 70
    24
 71
     2
 72
     6
 73
     3
 74
     0
 42
0.0000000001
 43
0.0000000001
 40
0.0
 40
0.0
 40
0.0
 40
0.1000139072388125
 40
0.1000139072388125
 40
0.1000139072388125
 10
846.2522657684888
 20
128.8692306076184
 30
0.0
 10
846.2118346317776
 20
128.8986588014899
 30
0.0
 10
846.1714034950664
 20
128.9280869953614
 30
0.0
  0
SPLINE
  5
166
330
1F
100
AcDbEntity
  8
LINEE VISIBILI 2D
100
AcDbSpline
210
0.0
220
0.0
230
1.0
 70
    24
 71
     2
 72
     6
 73
     3
 74
     0
 42
0.0000000001
 43
0.0000000001
 40
0.0
 40
0.0
 40
0.0
 40
0.1000139072387721
 40
0.1000139072387721
 40
0.1000139072387721
 10
785.3541715210338
 20
272.3663459689667
 30
0.0
 10
785.3489015259092
 20
272.3166174805352
 30
0.0
 10
785.3436315307847
 20
272.2668889921038
 30
0.0
  0
SPLINE
  5
167
330
1F
100
AcDbEntity
  8
LINEE VISIBILI 2D
100
AcDbSpline
210
0.0
220
0.0
230
1.0
 70
    24
 71
     2
 72
     6
 73
     3
 74
     0
 42
0.0000000001
 43
0.0000000001
 40
0.0
 40
0.0
 40
0.0
 40
0.100013907238796
 40
0.100013907238796
 40
0.100013907238796
 10
782.3603371187739
 20
272.5830447310452
 30
0.0
 10
782.3656071138986
 20
272.6327732194767
 30
0.0
 10
782.3708771090232
 20
272.6825017079082
 30
0.0
  0
SPLINE
  5
168
330
1F
100
AcDbEntity
  8
LINEE VISIBILI 2D
100
AcDbSpline
210
0.0
220
0.0
230
1.0
 70
    24
 71
     2
 72
     6
 73
     3
 74
     0
 42
0.0000000001
 43
0.0000000001
 40
0.0
 40
0.0
 40
0.0
 40
0.1000139072388125
 40
0.1000139072388125
 40
0.1000139072388125
 10
702.5060733392247
 20
237.2068148620635
 30
0.0
 10
702.5465044759359
 20
237.1773866681921
 30
0.0
 10
702.586935612647
 20
237.1479584743206
 30
0.0
  0
SPLINE
  5
169
330
1F
100
AcDbEntity
  8
LINEE VISIBILI 2D
100
AcDbSpline
210
0.0
220
0.0
230
1.0
 70
    24
 71
     2
 72
     6
 73
     3
 74
     0
 42
0.0000000001
 43
0.0000000001
 40
0.0
 40
0.0
 40
0.0
 40
0.1000139072388125
 40
0.1000139072388125
 40
0.1000139072388125
 10
700.821489505166
 20
234.7224275960218
 30
0.0
 10
700.7810583684549
 20
234.7518557898933
 30
0.0
 10
700.7406272317437
 20
234.7812839837648
 30
0.0
  0
SPLINE
  5
16A
330
1F
100
AcDbEntity
  8
LINEE VISIBILI 2D
100
AcDbSpline
210
0.0
220
0.0
230
1.0
 70
    24
 71
     2
 72
     6
 73
     3
 74
     0
 42
0.0000000001
 43
0.0000000001
 40
0.0
 40
0.0
 40
0.0
 40
0.1000139072386793
 40
0.1000139072386793
 40
0.1000139072386793
 10
691.5310713720476
 20
147.8784916279376
 30
0.0
 10
691.5767725038833
 20
147.8987919224976
 30
0.0
 10
691.622473635719
 20
147.9190922170576
 30
0.0
  0
SPLINE
  5
16B
330
1F
100
AcDbEntity
  8
LINEE VISIBILI 2D
100
AcDbSpline
210
0.0
220
0.0
230
1.0
 70
    24
 71
     2
 72
     6
 73
     3
 74
     0
 42
0.0000000001
 43
0.0000000001
 40
0.0
 40
0.0
 40
0.0
 40
0.1000139072389794
 40
0.1000139072389794
 40
0.1000139072389794
 10
692.8403219402489
 20
145.1774055998176
 30
0.0
 10
692.7946208084131
 20
145.1571053052575
 30
0.0
 10
692.7489196765773
 20
145.1368050106973
 30
0.0
  0
SPLINE
  5
16C
330
1F
100
AcDbEntity
  8
LINEE VISIBILI 2D
100
AcDbSpline
210
0.0
220
0.0
230
1.0
 70
    15
 71
     2
 72
    12
 73
     9
 74
     0
 42
0.0000000001
 43
0.0000000001
 40
0.0
 40
0.0
 40
0.0
 40
102.8031135265766
 40
102.8031135265766
 40
205.6062270531532
 40
205.6062270531532
 40
308.4093405797294
 40
308.4093405797294
 40
411.2124541063058
 40
411.2124541063058
 40
411.2124541063058
 10
834.1249087721201
 20
156.3230397109799
 30
0.0
 41
1.0
 10
860.8398917959775
 20
216.0687789292413
 30
0.0
 41
0.7071067811865476
 10
801.0941525777162
 20
242.7837619530987
 30
0.0
 41
1.0
 10
741.3484133594549
 20
269.4987449769565
 30
0.0
 41
0.7071067811865449
 10
714.6334303355973
 20
209.7530057586949
 30
0.0
 41
1.0
 10
687.9184473117406
 20
150.0072665404339
 30
0.0
 41
0.7071067811865513
 10
747.6641865300012
 20
123.2922835165762
 30
0.0
 41
1.0
 10
807.4099257482625
 20
96.57730049271895
 30
0.0
 41
0.7071067811865511
 10
834.1249087721202
 20
156.3230397109798
 30
0.0
 41
1.0
  0
ENDSEC
  0
SECTION
  2
OBJECTS
  0
DICTIONARY
  5
C
330
0
100
AcDbDictionary
281
     1
  3
ACAD_GROUP
350
D
  3
ACAD_LAYOUT
350
1A
  3
ACAD_MLEADERSTYLE
350
16E
  3
ACAD_MLINESTYLE
350
17
  3
ACAD_PLOTSETTINGS
350
19
  3
ACAD_PLOTSTYLENAME
350
E
  3
ACAD_SCALELIST
350
3B
  3
ACAD_TABLESTYLE
350
16D
  3
ACAD_VISUALSTYLE
350
2A
  0
DICTIONARY
  5
D
102
{ACAD_REACTORS
330
C
102
}
330
C
100
AcDbDictionary
281
     1
  0
DICTIONARY
  5
1A
102
{ACAD_REACTORS
330
C
102
}
330
C
100
AcDbDictionary
281
     1
  3
Layout1
350
1E
  3
Layout2
350
26
  3
Model
350
22
  0
DICTIONARY
  5
16E
102
{ACAD_REACTORS
330
C
102
}
330
C
100
AcDbDictionary
281
     1
  0
DICTIONARY
  5
17
102
{ACAD_REACTORS
330
C
102
}
330
C
100
AcDbDictionary
281
     1
  3
Standard
350
18
  0
DICTIONARY
  5
19
102
{ACAD_REACTORS
330
C
102
}
330
C
100
AcDbDictionary
281
     1
  0
ACDBDICTIONARYWDFLT
  5
E
102
{ACAD_REACTORS
330
C
102
}
330
C
100
AcDbDictionary
281
     1
  3
Normal
350
F
100
AcDbDictionaryWithDefault
340
F
  0
DICTIONARY
  5
3B
102
{ACAD_REACTORS
330
C
102
}
330
C
100
AcDbDictionary
281
     1
  3
A0
350
3C
  3
A1
350
3D
  3
A2
350
3E
  3
A3
350
3F
  3
A4
350
40
  3
A5
350
41
  3
A6
350
42
  3
A7
350
43
  3
A8
350
44
  3
A9
350
45
  3
B0
350
46
  3
B1
350
47
  3
B2
350
48
  3
B3
350
49
  3
B4
350
4A
  3
B5
350
4B
  3
B6
350
4C
  3
B7
350
4D
  3
B8
350
4E
  3
B9
350
4F
  3
C0
350
50
  3
C1
350
51
  3
C2
350
52
  3
C3
350
53
  3
C4
350
54
  3
C5
350
55
  3
C6
350
56
  3
C7
350
57
  3
C8
350
58
  3
C9
350
59
  3
D0
350
5A
  3
D1
350
5B
  3
D2
350
5C
  0
DICTIONARY
  5
16D
102
{ACAD_REACTORS
330
C
102
}
330
C
100
AcDbDictionary
281
     1
  0
DICTIONARY
  5
2A
102
{ACAD_REACTORS
330
C
102
}
330
C
100
AcDbDictionary
281
     1
  3
2dWireframe
350
2F
  3
3D Hidden
350
31
  3
3dWireframe
350
30
  3
Basic
350
32
  3
Brighten
350
36
  3
ColorChange
350
3A
  3
Conceptual
350
34
  3
Dim
350
35
  3
Facepattern
350
39
  3
Flat
350
2B
  3
FlatWithEdges
350
2C
  3
Gouraud
350
2D
  3
GouraudWithEdges
350
2E
  3
Linepattern
350
38
  3
Realistic
350
33
  3
Thicken
350
37
  0
LAYOUT
  5
1E
102
{ACAD_REACTORS
330
1A
102
}
330
1A
100
AcDbPlotSettings
  1

  2
none_device
  4

  6

 40
0.0
 41
0.0
 42
0.0
 43
0.0
 44
0.0
 45
0.0
 46
0.0
 47
0.0
 48
0.0
 49
0.0
140
0.0
141
0.0
142
1.0
143
1.0
 70
   688
 72
     0
 73
     0
 74
     5
  7

 75
    16
 76
     0
 77
     2
 78
   300
147
1.0
148
0.0
149
0.0
100
AcDbLayout
  1
Layout1
 70
     1
 71
     1
 10
0.0
 20
0.0
 11
12.0
 21
9.0
 12
0.0
 22
0.0
 32
0.0
 14
1.000000000000000E+20
 24
1.000000000000000E+20
 34
1.000000000000000E+20
 15
-1.000000000000000E+20
 25
-1.000000000000000E+20
 35
-1.000000000000000E+20
146
0.0
 13
0.0
 23
0.0
 33
0.0
 16
1.0
 26
0.0
 36
0.0
 17
0.0
 27
1.0
 37
0.0
 76
     0
330
1B
  0
LAYOUT
  5
26
102
{ACAD_REACTORS
330
1A
102
}
330
1A
100
AcDbPlotSettings
  1

  2
none_device
  4

  6

 40
0.0
 41
0.0
 42
0.0
 43
0.0
 44
0.0
 45
0.0
 46
0.0
 47
0.0
 48
0.0
 49
0.0
140
0.0
141
0.0
142
1.0
143
1.0
 70
   688
 72
     0
 73
     0
 74
     5
  7

 75
    16
 76
     0
 77
     2
 78
   300
147
1.0
148
0.0
149
0.0
100
AcDbLayout
  1
Layout2
 70
     1
 71
     2
 10
0.0
 20
0.0
 11
0.0
 21
0.0
 12
0.0
 22
0.0
 32
0.0
 14
0.0
 24
0.0
 34
0.0
 15
0.0
 25
0.0
 35
0.0
146
0.0
 13
0.0
 23
0.0
 33
0.0
 16
1.0
 26
0.0
 36
0.0
 17
0.0
 27
1.0
 37
0.0
 76
     0
330
23
  0
LAYOUT
  5
22
102
{ACAD_REACTORS
330
1A
102
}
330
1A
100
AcDbPlotSettings
  1

  2
none_device
  4

  6

 40
0.0
 41
0.0
 42
0.0
 43
0.0
 44
0.0
 45
0.0
 46
0.0
 47
0.0
 48
0.0
 49
0.0
140
0.0
141
0.0
142
1.0
143
1.0
 70
  1712
 72
     0
 73
     0
 74
     0
  7

 75
     0
 76
     0
 77
     2
 78
   300
147
1.0
148
0.0
149
0.0
100
AcDbLayout
  1
Model
 70
     1
 71
     0
 10
0.0
 20
0.0
 11
12.0
 21
9.0
 12
0.0
 22
0.0
 32
0.0
 14
-0.0028495258694936
 24
0.1292296475699462
 34
0.0
 15
957.0136674292701
 25
1373.720762358247
 35
0.0
146
0.0
 13
0.0
 23
0.0
 33
0.0
 16
1.0
 26
0.0
 36
0.0
 17
0.0
 27
1.0
 37
0.0
 76
     0
330
1F
331
29
  0
MLINESTYLE
  5
18
102
{ACAD_REACTORS
330
17
102
}
330
17
100
AcDbMlineStyle
  2
Standard
 70
     0
  3

 62
   256
 51
90.0
 52
90.0
 71
     2
 49
0.5
 62
   256
  6
BYLAYER
 49
-0.5
 62
   256
  6
BYLAYER
  0
ACDBPLACEHOLDER
  5
F
102
{ACAD_REACTORS
330
E
102
}
330
E
  0
SCALE
  5
3C
102
{ACAD_REACTORS
330
3B
102
}
330
3B
100
AcDbScale
 70
     0
300
1:1
140
1.0
141
1.0
290
     1
  0
SCALE
  5
3D
102
{ACAD_REACTORS
330
3B
102
}
330
3B
100
AcDbScale
 70
     0
300
1:2
140
1.0
141
2.0
290
     0
  0
SCALE
  5
3E
102
{ACAD_REACTORS
330
3B
102
}
330
3B
100
AcDbScale
 70
     0
300
1:4
140
1.0
141
4.0
290
     0
  0
SCALE
  5
3F
102
{ACAD_REACTORS
330
3B
102
}
330
3B
100
AcDbScale
 70
     0
300
1:5
140
1.0
141
5.0
290
     0
  0
SCALE
  5
40
102
{ACAD_REACTORS
330
3B
102
}
330
3B
100
AcDbScale
 70
     0
300
1:8
140
1.0
141
8.0
290
     0
  0
SCALE
  5
41
102
{ACAD_REACTORS
330
3B
102
}
330
3B
100
AcDbScale
 70
     0
300
1:10
140
1.0
141
10.0
290
     0
  0
SCALE
  5
42
102
{ACAD_REACTORS
330
3B
102
}
330
3B
100
AcDbScale
 70
     0
300
1:16
140
1.0
141
16.0
290
     0
  0
SCALE
  5
43
102
{ACAD_REACTORS
330
3B
102
}
330
3B
100
AcDbScale
 70
     0
300
1:20
140
1.0
141
20.0
290
     0
  0
SCALE
  5
44
102
{ACAD_REACTORS
330
3B
102
}
330
3B
100
AcDbScale
 70
     0
300
1:30
140
1.0
141
30.0
290
     0
  0
SCALE
  5
45
102
{ACAD_REACTORS
330
3B
102
}
330
3B
100
AcDbScale
 70
     0
300
1:40
140
1.0
141
40.0
290
     0
  0
SCALE
  5
46
102
{ACAD_REACTORS
330
3B
102
}
330
3B
100
AcDbScale
 70
     0
300
1:50
140
1.0
141
50.0
290
     0
  0
SCALE
  5
47
102
{ACAD_REACTORS
330
3B
102
}
330
3B
100
AcDbScale
 70
     0
300
1:100
140
1.0
141
100.0
290
     0
  0
SCALE
  5
48
102
{ACAD_REACTORS
330
3B
102
}
330
3B
100
AcDbScale
 70
     0
300
2:1
140
2.0
141
1.0
290
     0
  0
SCALE
  5
49
102
{ACAD_REACTORS
330
3B
102
}
330
3B
100
AcDbScale
 70
     0
300
4:1
140
4.0
141
1.0
290
     0
  0
SCALE
  5
4A
102
{ACAD_REACTORS
330
3B
102
}
330
3B
100
AcDbScale
 70
     0
300
8:1
140
8.0
141
1.0
290
     0
  0
SCALE
  5
4B
102
{ACAD_REACTORS
330
3B
102
}
330
3B
100
AcDbScale
 70
     0
300
10:1
140
10.0
141
1.0
290
     0
  0
SCALE
  5
4C
102
{ACAD_REACTORS
330
3B
102
}
330
3B
100
AcDbScale
 70
     0
300
100:1
140
100.0
141
1.0
290
     0
  0
SCALE
  5
4D
102
{ACAD_REACTORS
330
3B
102
}
330
3B
100
AcDbScale
 70
     0
300
1/128" = 1'-0"
140
0.0078125
141
12.0
290
     0
  0
SCALE
  5
4E
102
{ACAD_REACTORS
330
3B
102
}
330
3B
100
AcDbScale
 70
     0
300
1/64" = 1'-0"
140
0.015625
141
12.0
290
     0
  0
SCALE
  5
4F
102
{ACAD_REACTORS
330
3B
102
}
330
3B
100
AcDbScale
 70
     0
300
1/32" = 1'-0"
140
0.03125
141
12.0
290
     0
  0
SCALE
  5
50
102
{ACAD_REACTORS
330
3B
102
}
330
3B
100
AcDbScale
 70
     0
300
1/16" = 1'-0"
140
0.0625
141
12.0
290
     0
  0
SCALE
  5
51
102
{ACAD_REACTORS
330
3B
102
}
330
3B
100
AcDbScale
 70
     0
300
3/32" = 1'-0"
140
0.09375
141
12.0
290
     0
  0
SCALE
  5
52
102
{ACAD_REACTORS
330
3B
102
}
330
3B
100
AcDbScale
 70
     0
300
1/8" = 1'-0"
140
0.125
141
12.0
290
     0
  0
SCALE
  5
53
102
{ACAD_REACTORS
330
3B
102
}
330
3B
100
AcDbScale
 70
     0
300
3/16" = 1'-0"
140
0.1875
141
12.0
290
     0
  0
SCALE
  5
54
102
{ACAD_REACTORS
330
3B
102
}
330
3B
100
AcDbScale
 70
     0
300
1/4" = 1'-0"
140
0.25
141
12.0
290
     0
  0
SCALE
  5
55
102
{ACAD_REACTORS
330
3B
102
}
330
3B
100
AcDbScale
 70
     0
300
3/8" = 1'-0"
140
0.375
141
12.0
290
     0
  0
SCALE
  5
56
102
{ACAD_REACTORS
330
3B
102
}
330
3B
100
AcDbScale
 70
     0
300
1/2" = 1'-0"
140
0.5
141
12.0
290
     0
  0
SCALE
  5
57
102
{ACAD_REACTORS
330
3B
102
}
330
3B
100
AcDbScale
 70
     0
300
3/4" = 1'-0"
140
0.75
141
12.0
290
     0
  0
SCALE
  5
58
102
{ACAD_REACTORS
330
3B
102
}
330
3B
100
AcDbScale
 70
     0
300
1" = 1'-0"
140
1.0
141
12.0
290
     0
  0
SCALE
  5
59
102
{ACAD_REACTORS
330
3B
102
}
330
3B
100
AcDbScale
 70
     0
300
1-1/2" = 1'-0"
140
1.5
141
12.0
290
     0
  0
SCALE
  5
5A
102
{ACAD_REACTORS
330
3B
102
}
330
3B
100
AcDbScale
 70
     0
300
3" = 1'-0"
140
3.0
141
12.0
290
     0
  0
SCALE
  5
5B
102
{ACAD_REACTORS
330
3B
102
}
330
3B
100
AcDbScale
 70
     0
300
6" = 1'-0"
140
6.0
141
12.0
290
     0
  0
SCALE
  5
5C
102
{ACAD_REACTORS
330
3B
102
}
330
3B
100
AcDbScale
 70
     0
300
1'-0" = 1'-0"
140
12.0
141
12.0
290
     0
  0
VISUALSTYLE
  5
2F
102
{ACAD_REACTORS
330
2A
102
}
330
2A
100
AcDbVisualStyle
  2
2dWireframe
 70
     4
 71
     0
 72
     2
 73
     0
 90
        0
 40
-0.6
 41
-30.0
 62
     5
 63
     7
421
 16777215
 74
     1
 91
        4
 64
     7
 65
   257
 75
     1
175
     1
 42
1.0
 92
        0
 66
   257
 43
1.0
 76
     1
 77
     6
 78
     2
 67
     7
 79
     5
170
     0
171
     0
290
     0
174
     0
 93
        1
 44
0.0
173
     0
291
     0
 45
0.0
1001
ACAD
1000
AcDbSavedByObjectVersion
1070
     0
  0
VISUALSTYLE
  5
31
102
{ACAD_REACTORS
330
2A
102
}
330
2A
100
AcDbVisualStyle
  2
3D Hidden
 70
     6
 71
     1
 72
     2
 73
     2
 90
        0
 40
-0.6
 41
-30.0
 62
     5
 63
     7
421
 16777215
 74
     2
 91
        2
 64
     7
 65
   257
 75
     2
175
     1
 42
40.0
 92
        0
 66
   257
 43
1.0
 76
     1
 77
     6
 78
     2
 67
     7
 79
     3
170
     0
171
     0
290
     0
174
     0
 93
        1
 44
0.0
173
     0
291
     0
 45
0.0
1001
ACAD
1000
AcDbSavedByObjectVersion
1070
     0
  0
VISUALSTYLE
  5
30
102
{ACAD_REACTORS
330
2A
102
}
330
2A
100
AcDbVisualStyle
  2
3dWireframe
 70
     5
 71
     0
 72
     2
 73
     0
 90
        0
 40
-0.6
 41
-30.0
 62
     5
 63
     7
421
 16777215
 74
     1
 91
        4
 64
     7
 65
   257
 75
     1
175
     1
 42
1.0
 92
        0
 66
   257
 43
1.0
 76
     1
 77
     6
 78
     2
 67
     7
 79
     5
170
     0
171
     0
290
     0
174
     0
 93
        1
 44
0.0
173
     0
291
     0
 45
0.0
1001
ACAD
1000
AcDbSavedByObjectVersion
1070
     0
  0
VISUALSTYLE
  5
32
102
{ACAD_REACTORS
330
2A
102
}
330
2A
100
AcDbVisualStyle
  2
Basic
 70
     7
 71
     1
 72
     0
 73
     1
 90
        0
 40
-0.6
 41
-30.0
 62
     5
 63
     7
421
 16777215
 74
     0
 91
        4
 64
     7
 65
   257
 75
     1
175
     1
 42
1.0
 92
        8
 66
     7
 43
1.0
 76
     1
 77
     6
 78
     2
 67
     7
 79
     5
170
     0
171
     0
290
     0
174
     0
 93
        1
 44
0.0
173
     0
291
     1
 45
0.0
1001
ACAD
1000
AcDbSavedByObjectVersion
1070
     0
  0
VISUALSTYLE
  5
36
102
{ACAD_REACTORS
330
2A
102
}
330
2A
100
AcDbVisualStyle
  2
Brighten
 70
    12
 71
     2
 72
     2
 73
     0
 90
        0
 40
-0.6
 41
-30.0
 62
     5
 63
     7
421
 16777215
 74
     1
 91
        4
 64
     7
 65
   257
 75
     1
175
     1
 42
1.0
 92
        8
 66
     7
 43
1.0
 76
     1
 77
     6
 78
     2
 67
     7
 79
     5
170
     0
171
     0
290
     0
174
     0
 93
        1
 44
50.0
173
     0
291
     1
 45
0.0
1001
ACAD
1000
AcDbSavedByObjectVersion
1070
     0
  0
VISUALSTYLE
  5
3A
102
{ACAD_REACTORS
330
2A
102
}
330
2A
100
AcDbVisualStyle
  2
ColorChange
 70
    16
 71
     2
 72
     2
 73
     3
 90
        0
 40
-0.6
 41
-30.0
 62
     5
 63
     8
421
  8421504
 74
     1
 91
        4
 64
     7
 65
   257
 75
     1
175
     1
 42
1.0
 92
        8
 66
     8
424
  8421504
 43
1.0
 76
     1
 77
     6
 78
     2
 67
     7
 79
     5
170
     0
171
     0
290
     0
174
     0
 93
        1
 44
0.0
173
     0
291
     1
 45
0.0
1001
ACAD
1000
AcDbSavedByObjectVersion
1070
     0
  0
VISUALSTYLE
  5
34
102
{ACAD_REACTORS
330
2A
102
}
330
2A
100
AcDbVisualStyle
  2
Conceptual
 70
     9
 71
     3
 72
     2
 73
     0
 90
        0
 40
-0.6
 41
-30.0
 62
     5
 63
     7
421
 16777215
 74
     2
 91
        2
 64
     7
 65
   257
 75
     1
175
     1
 42
40.0
 92
        8
 66
     7
 43
1.0
 76
     1
 77
     6
 78
     2
 67
     7
 79
     3
170
     0
171
     0
290
     0
174
     0
 93
        1
 44
0.0
173
     0
291
     0
 45
0.0
1001
ACAD
1000
AcDbSavedByObjectVersion
1070
     0
  0
VISUALSTYLE
  5
35
102
{ACAD_REACTORS
330
2A
102
}
330
2A
100
AcDbVisualStyle
  2
Dim
 70
    11
 71
     2
 72
     2
 73
     0
 90
        0
 40
-0.6
 41
-30.0
 62
     5
 63
     7
421
 16777215
 74
     1
 91
        4
 64
     7
 65
   257
 75
     1
175
     1
 42
1.0
 92
        8
 66
     7
 43
1.0
 76
     1
 77
     6
 78
     2
 67
     7
 79
     5
170
     0
171
     0
290
     0
174
     0
 93
        1
 44
-50.0
173
     0
291
     1
 45
0.0
1001
ACAD
1000
AcDbSavedByObjectVersion
1070
     0
  0
VISUALSTYLE
  5
39
102
{ACAD_REACTORS
330
2A
102
}
330
2A
100
AcDbVisualStyle
  2
Facepattern
 70
    15
 71
     2
 72
     2
 73
     0
 90
        0
 40
-0.6
 41
-30.0
 62
     5
 63
     7
421
 16777215
 74
     1
 91
        4
 64
     7
 65
   257
 75
     1
175
     1
 42
1.0
 92
        8
 66
     7
 43
1.0
 76
     1
 77
     6
 78
     2
 67
     7
 79
     5
170
     0
171
     0
290
     0
174
     0
 93
        1
 44
0.0
173
     0
291
     1
 45
0.0
1001
ACAD
1000
AcDbSavedByObjectVersion
1070
     0
  0
VISUALSTYLE
  5
2B
102
{ACAD_REACTORS
330
2A
102
}
330
2A
100
AcDbVisualStyle
  2
Flat
 70
     0
 71
     2
 72
     1
 73
     1
 90
        2
 40
-0.6
 41
30.0
 62
     5
 63
     7
421
 16777215
 74
     0
 91
        4
 64
     7
 65
   257
 75
     1
175
     1
 42
1.0
 92
        8
 66
     7
 43
1.0
 76
     1
 77
     6
 78
     2
 67
     7
 79
     5
170
     0
171
     0
290
     0
174
     0
 93
       13
 44
0.0
173
     0
291
     1
 45
0.0
1001
ACAD
1000
AcDbSavedByObjectVersion
1070
     0
  0
VISUALSTYLE
  5
2C
102
{ACAD_REACTORS
330
2A
102
}
330
2A
100
AcDbVisualStyle
  2
FlatWithEdges
 70
     1
 71
     2
 72
     1
 73
     1
 90
        2
 40
-0.6
 41
30.0
 62
     5
 63
     7
421
 16777215
 74
     1
 91
        4
 64
     7
 65
   257
 75
     1
175
     1
 42
1.0
 92
        0
 66
   257
 43
1.0
 76
     1
 77
     6
 78
     2
 67
     7
 79
     5
170
     0
171
     0
290
     0
174
     0
 93
       13
 44
0.0
173
     0
291
     1
 45
0.0
1001
ACAD
1000
AcDbSavedByObjectVersion
1070
     0
  0
VISUALSTYLE
  5
2D
102
{ACAD_REACTORS
330
2A
102
}
330
2A
100
AcDbVisualStyle
  2
Gouraud
 70
     2
 71
     2
 72
     2
 73
     1
 90
        2
 40
-0.6
 41
30.0
 62
     5
 63
     7
421
 16777215
 74
     0
 91
        4
 64
     7
 65
   257
 75
     1
175
     1
 42
1.0
 92
        0
 66
     7
 43
1.0
 76
     1
 77
     6
 78
     2
 67
     7
 79
     5
170
     0
171
     0
290
     0
174
     0
 93
       13
 44
0.0
173
     0
291
     1
 45
0.0
1001
ACAD
1000
AcDbSavedByObjectVersion
1070
     0
  0
VISUALSTYLE
  5
2E
102
{ACAD_REACTORS
330
2A
102
}
330
2A
100
AcDbVisualStyle
  2
GouraudWithEdges
 70
     3
 71
     2
 72
     2
 73
     1
 90
        2
 40
-0.6
 41
30.0
 62
     5
 63
     7
421
 16777215
 74
     1
 91
        4
 64
     7
 65
   257
 75
     1
175
     1
 42
1.0
 92
        0
 66
   257
 43
1.0
 76
     1
 77
     6
 78
     2
 67
     7
 79
     5
170
     0
171
     0
290
     0
174
     0
 93
       13
 44
0.0
173
     0
291
     1
 45
0.0
1001
ACAD
1000
AcDbSavedByObjectVersion
1070
     0
  0
VISUALSTYLE
  5
38
102
{ACAD_REACTORS
330
2A
102
}
330
2A
100
AcDbVisualStyle
  2
Linepattern
 70
    14
 71
     2
 72
     2
 73
     0
 90
        0
 40
-0.6
 41
-30.0
 62
     5
 63
     7
421
 16777215
 74
     1
 91
        4
 64
     7
 65
   257
 75
     7
175
     7
 42
1.0
 92
        8
 66
     7
 43
1.0
 76
     1
 77
     6
 78
     2
 67
     7
 79
     5
170
     0
171
     0
290
     0
174
     0
 93
        1
 44
0.0
173
     0
291
     1
 45
0.0
1001
ACAD
1000
AcDbSavedByObjectVersion
1070
     0
  0
VISUALSTYLE
  5
33
102
{ACAD_REACTORS
330
2A
102
}
330
2A
100
AcDbVisualStyle
  2
Realistic
 70
     8
 71
     2
 72
     2
 73
     0
 90
        0
 40
-0.6
 41
-30.0
 62
     5
 63
     7
421
 16777215
 74
     1
 91
        0
 64
     7
 65
   257
 75
     1
175
     1
 42
1.0
 92
        8
 66
     8
424
  7895160
 43
1.0
 76
     1
 77
     6
 78
     2
 67
     7
 79
     5
170
     0
171
     0
290
     0
174
     0
 93
       13
 44
0.0
173
     0
291
     0
 45
0.0
1001
ACAD
1000
AcDbSavedByObjectVersion
1070
     0
  0
VISUALSTYLE
  5
37
102
{ACAD_REACTORS
330
2A
102
}
330
2A
100
AcDbVisualStyle
  2
Thicken
 70
    13
 71
     2
 72
     2
 73
     0
 90
        0
 40
-0.6
 41
-30.0
 62
     5
 63
     7
421
 16777215
 74
     1
 91
        4
 64
     7
 65
   257
 75
     1
175
     1
 42
1.0
 92
       12
 66
     7
 43
1.0
 76
     1
 77
     6
 78
     2
 67
     7
 79
     5
170
     0
171
     0
290
     0
174
     0
 93
        1
 44
0.0
173
     0
291
     1
 45
0.0
1001
ACAD
1000
AcDbSavedByObjectVersion
1070
     0
  0
ENDSEC
  0
EOF
