  0
SECTION
  2
HEADER
  9
$ACADVER
  1
AC1015
  9
$ACADMAINTVER
 70
    20
  9
$DWGCODEPAGE
  3
ANSI_1252
  9
$INSBASE
 10
0.0
 20
0.0
 30
0.0
  9
$EXTMIN
 10
-182.4706207353796
 20
-649.1964237722989
 30
0.0
  9
$EXTMAX
 10
902.5864704715576
 20
377.1371705180206
 30
0.0
  9
$LIMMIN
 10
0.0
 20
0.0
  9
$LIMMAX
 10
0.0
 20
0.0
  9
$ORTHOMODE
 70
     0
  9
$REGENMODE
 70
     1
  9
$FILLMODE
 70
     1
  9
$QTEXTMODE
 70
     0
  9
$MIRRTEXT
 70
     1
  9
$LTSCALE
 40
1.0
  9
$ATTMODE
 70
     1
  9
$TEXTSIZE
 40
0.0
  9
$TRACEWID
 40
0.05
  9
$TEXTSTYLE
  7
STANDARD
  9
$CLAYER
  8
0
  9
$CELTYPE
  6
CONTINUOUS
  9
$CECOLOR
 62
   256
  9
$CELTSCALE
 40
1.0
  9
$DISPSILH
 70
     0
  9
$DIMSCALE
 40
1.0
  9
$DIMASZ
 40
6.0
  9
$DIMEXO
 40
1.0
  9
$DIMDLI
 40
0.38
  9
$DIMRND
 40
0.0
  9
$DIMDLE
 40
1.0
  9
$DIMEXE
 40
0.18
  9
$DIMTP
 40
0.0
  9
$DIMTM
 40
0.0
  9
$DIMTXT
 40
3.5
  9
$DIMCEN
 40
0.09
  9
$DIMTSZ
 40
0.0
  9
$DIMTOL
 70
     0
  9
$DIMLIM
 70
     0
  9
$DIMTIH
 70
     1
  9
$DIMTOH
 70
     1
  9
$DIMSE1
 70
     0
  9
$DIMSE2
 70
     0
  9
$DIMTAD
 70
     1
  9
$DIMZIN
 70
     0
  9
$DIMBLK
  1

  9
$DIMASO
 70
     1
  9
$DIMSHO
 70
     1
  9
$DIMPOST
  1

  9
$DIMAPOST
  1

  9
$DIMALT
 70
     0
  9
$DIMALTD
 70
     2
  9
$DIMALTF
 40
0.0394
  9
$DIMLFAC
 40
1.0
  9
$DIMTOFL
 70
     0
  9
$DIMTVP
 40
0.0
  9
$DIMTIX
 70
     0
  9
$DIMSOXD
 70
     0
  9
$DIMSAH
 70
     0
  9
$DIMBLK1
  1

  9
$DIMBLK2
  1

  9
$DIMSTYLE
  2
STANDARD
  9
$DIMCLRD
 70
     0
  9
$DIMCLRE
 70
     0
  9
$DIMCLRT
 70
     0
  9
$DIMTFAC
 40
1.0
  9
$DIMGAP
 40
1.0
  9
$DIMJUST
 70
     0
  9
$DIMSD1
 70
     0
  9
$DIMSD2
 70
     0
  9
$DIMTOLJ
 70
     1
  9
$DIMTZIN
 70
     0
  9
$DIMALTZ
 70
     0
  9
$DIMALTTZ
 70
     0
  9
$DIMUPT
 70
     0
  9
$DIMDEC
 70
     4
  9
$DIMTDEC
 70
     4
  9
$DIMALTU
 70
     2
  9
$DIMALTTD
 70
     2
  9
$DIMTXSTY
  7
STANDARD
  9
$DIMAUNIT
 70
     0
  9
$DIMADEC
 70
     0
  9
$DIMALTRND
 40
0.0
  9
$DIMAZIN
 70
     0
  9
$DIMDSEP
 70
    46
  9
$DIMATFIT
 70
     3
  9
$DIMFRAC
 70
     0
  9
$DIMLDRBLK
  1

  9
$DIMLUNIT
 70
     2
  9
$DIMLWD
 70
    -2
  9
$DIMLWE
 70
    -2
  9
$DIMTMOVE
 70
     0
  9
$LUNITS
 70
     2
  9
$LUPREC
 70
     2
  9
$SKETCHINC
 40
0.1
  9
$FILLETRAD
 40
0.0
  9
$AUNITS
 70
     0
  9
$AUPREC
 70
     2
  9
$MENU
  1
acad
  9
$ELEVATION
 40
0.0
  9
$PELEVATION
 40
0.0
  9
$THICKNESS
 40
0.0
  9
$LIMCHECK
 70
     0
  9
$CHAMFERA
 40
0.0
  9
$CHAMFERB
 40
0.0
  9
$CHAMFERC
 40
0.0
  9
$CHAMFERD
 40
0.0
  9
$SKPOLY
 70
     0
  9
$TDCREATE
 40
2444972.083333333
  9
$TDUCREATE
 40
2444972.000000000
  9
$TDUPDATE
 40
2453848.797411563
  9
$TDUUPDATE
 40
2453848.714078230
  9
$TDINDWG
 40
0.0006852315
  9
$TDUSRTIMER
 40
0.0006852315
  9
$USRTIMER
 70
     1
  9
$ANGBASE
 50
0.0
  9
$ANGDIR
 70
     0
  9
$PDMODE
 70
     0
  9
$PDSIZE
 40
-1.0
  9
$PLINEWID
 40
0.0
  9
$SPLFRAME
 70
     0
  9
$SPLINETYPE
 70
     6
  9
$SPLINESEGS
 70
     8
  9
$HANDSEED
  5
5B6
  9
$SURFTAB1
 70
     6
  9
$SURFTAB2
 70
     6
  9
$SURFTYPE
 70
     6
  9
$SURFU
 70
     6
  9
$SURFV
 70
     6
  9
$UCSBASE
  2

  9
$UCSNAME
  2

  9
$UCSORG
 10
0.0
 20
0.0
 30
0.0
  9
$UCSXDIR
 10
1.0
 20
0.0
 30
0.0
  9
$UCSYDIR
 10
0.0
 20
1.0
 30
0.0
  9
$UCSORTHOREF
  2

  9
$UCSORTHOVIEW
 70
     1
  9
$UCSORGTOP
 10
0.0
 20
0.0
 30
0.0
  9
$UCSORGBOTTOM
 10
0.0
 20
0.0
 30
0.0
  9
$UCSORGLEFT
 10
0.0
 20
0.0
 30
0.0
  9
$UCSORGRIGHT
 10
0.0
 20
0.0
 30
0.0
  9
$UCSORGFRONT
 10
0.0
 20
0.0
 30
0.0
  9
$UCSORGBACK
 10
0.0
 20
0.0
 30
0.0
  9
$PUCSBASE
  2

  9
$PUCSNAME
  2

  9
$PUCSORG
 10
0.0
 20
0.0
 30
0.0
  9
$PUCSXDIR
 10
1.0
 20
0.0
 30
0.0
  9
$PUCSYDIR
 10
0.0
 20
1.0
 30
0.0
  9
$PUCSORTHOREF
  2

  9
$PUCSORTHOVIEW
 70
     0
  9
$PUCSORGTOP
 10
0.0
 20
0.0
 30
0.0
  9
$PUCSORGBOTTOM
 10
0.0
 20
0.0
 30
0.0
  9
$PUCSORGLEFT
 10
0.0
 20
0.0
 30
0.0
  9
$PUCSORGRIGHT
 10
0.0
 20
0.0
 30
0.0
  9
$PUCSORGFRONT
 10
0.0
 20
0.0
 30
0.0
  9
$PUCSORGBACK
 10
0.0
 20
0.0
 30
0.0
  9
$USERI1
 70
     0
  9
$USERI2
 70
     0
  9
$USERI3
 70
     0
  9
$USERI4
 70
     0
  9
$USERI5
 70
     0
  9
$USERR1
 40
0.0
  9
$USERR2
 40
0.0
  9
$USERR3
 40
0.0
  9
$USERR4
 40
0.0
  9
$USERR5
 40
0.0
  9
$WORLDVIEW
 70
     1
  9
$SHADEDGE
 70
     3
  9
$SHADEDIF
 70
    70
  9
$TILEMODE
 70
     1
  9
$MAXACTVP
 70
    16
  9
$PINSBASE
 10
0.0
 20
0.0
 30
0.0
  9
$PLIMCHECK
 70
     0
  9
$PEXTMIN
 10
1.000000000000000E+20
 20
1.000000000000000E+20
 30
1.000000000000000E+20
  9
$PEXTMAX
 10
-1.000000000000000E+20
 20
-1.000000000000000E+20
 30
-1.000000000000000E+20
  9
$PLIMMIN
 10
0.0
 20
0.0
  9
$PLIMMAX
 10
12.0
 20
9.0
  9
$UNITMODE
 70
     0
  9
$VISRETAIN
 70
     0
  9
$PLINEGEN
 70
     1
  9
$PSLTSCALE
 70
     1
  9
$TREEDEPTH
 70
  3020
  9
$CMLSTYLE
  2
STANDARD
  9
$CMLJUST
 70
     0
  9
$CMLSCALE
 40
1.0
  9
$PROXYGRAPHICS
 70
     0
  9
$MEASUREMENT
 70
     0
  9
$CELWEIGHT
370
    -1
  9
$ENDCAPS
280
     0
  9
$JOINSTYLE
280
     0
  9
$LWDISPLAY
290
     0
  9
$INSUNITS
 70
     0
  9
$HYPERLINKBASE
  1

  9
$STYLESHEET
  1

  9
$XEDIT
290
     1
  9
$CEPSNTYPE
380
     0
  9
$PSTYLEMODE
290
     1
  9
$FINGERPRINTGUID
  2
{9331F140-2546-4D26-BFB5-E07E9565679A}
  9
$VERSIONGUID
  2
{8D5782D8-BA88-4349-8D1F-FC78DB0CD97F}
  9
$EXTNAMES
290
     1
  9
$PSVPSCALE
 40
0.0
  9
$OLESTARTUP
290
     0
  0
ENDSEC
  0
SECTION
  2
CLASSES
  0
CLASS
  1
IMAGE
  2
AcDbRasterImage
  3
ISM
 90
    32895
280
     0
281
     1
  0
CLASS
  1
DICTIONARYVAR
  2
AcDbDictionaryVar
  3
ObjectDBX Classes
 90
        0
280
     0
281
     0
  0
CLASS
  1
RASTERVARIABLES
  2
AcDbRasterVariables
  3
ISM
 90
    32768
280
     0
281
     0
  0
CLASS
  1
IMAGEDEF
  2
AcDbRasterImageDef
  3
ISM
 90
    32768
280
     0
281
     0
  0
CLASS
  1
IMAGEDEF_REACTOR
  2
AcDbRasterImageDefReactor
  3
ISM
 90
    32769
280
     0
281
     0
  0
CLASS
  1
IDBUFFER
  2
AcDbIdBuffer
  3
ObjectDBX Classes
 90
    32768
280
     0
281
     0
  0
CLASS
  1
SPATIAL_FILTER
  2
AcDbSpatialFilter
  3
ObjectDBX Classes
 90
    32768
280
     0
281
     0
  0
CLASS
  1
SORTENTSTABLE
  2
AcDbSortentsTable
  3
ObjectDBX Classes
 90
    32768
280
     0
281
     0
  0
CLASS
  1
LAYER_INDEX
  2
AcDbLayerIndex
  3
ObjectDBX Classes
 90
    32768
280
     0
281
     0
  0
CLASS
  1
SPATIAL_INDEX
  2
AcDbSpatialIndex
  3
ObjectDBX Classes
 90
    32768
280
     0
281
     0
  0
CLASS
  1
OBJECT_PTR
  2
CAseDLPNTableRecord
  3
ASE-LPNTableRecord
 90
    32769
280
     0
281
     0
  0
CLASS
  1
LAYOUT
  2
AcDbLayout
  3
ObjectDBX Classes
 90
        0
280
     0
281
     0
  0
CLASS
  1
PLOTSETTINGS
  2
AcDbPlotSettings
  3
ObjectDBX Classes
 90
    32768
280
     0
281
     0
  0
CLASS
  1
ACDBDICTIONARYWDFLT
  2
AcDbDictionaryWithDefault
  3
ObjectDBX Classes
 90
        0
280
     0
281
     0
  0
CLASS
  1
ACDBPLACEHOLDER
  2
AcDbPlaceHolder
  3
ObjectDBX Classes
 90
        0
280
     0
281
     0
  0
CLASS
  1
VBA_PROJECT
  2
AcDbVbaProject
  3
acad
 90
    32768
280
     0
281
     0
  0
CLASS
  1
WIPEOUT
  2
AcDbWipeout
  3
"WipeOut|Product Desc: Object Enabler for WipeOut entity^I^I^I^I^I^I|Company: Autodesk, Inc.^I^I^I^I^I^I|WEB Address: www.autodesk.com"
 90
    32895
280
     0
281
     1
  0
CLASS
  1
WIPEOUTVARIABLES
  2
AcDbWipeoutVariables
  3
"WipeOut|Product Desc:     WipeOut Dbx Application|Company:          Autodesk, Inc.|WEB Address:      www.autodesk.com"
 90
    32768
280
     0
281
     0
  0
CLASS
  1
RTEXT
  2
RText
  3
RText|AutoCAD Express Tool|expresstools@autodesk.com
 90
    32768
280
     0
281
     1
  0
CLASS
  1
ARCALIGNEDTEXT
  2
AcDbArcAlignedText
  3
ATEXT|AutoCAD Express Tool|expresstools@autodesk.com
 90
    32768
280
     0
281
     1
  0
ENDSEC
  0
SECTION
  2
TABLES
  0
TABLE
  2
VPORT
  5
7
330
0
100
AcDbSymbolTable
 70
     3
  0
VPORT
  5
5B0
330
7
100
AcDbSymbolTableRecord
100
AcDbViewportTableRecord
  2
*Active
 70
     0
 10
0.0
 20
0.0
 11
1.0
 21
1.0
 12
415.8188024143679
 22
-137.3634426131301
 13
0.0
 23
0.0
 14
1.0
 24
1.0
 15
0.0
 25
0.0
 16
0.0
 26
0.0
 36
1.0
 17
0.0
 27
0.0
 37
0.0
 40
1002.729154777295
 41
1.569570871261378
 42
50.0
 43
0.0
 44
0.0
 50
0.0
 51
0.0
 71
     0
 72
  2000
 73
     1
 74
     1
 75
     0
 76
     0
 77
     0
 78
     0
281
     0
 65
     1
110
0.0
120
0.0
130
0.0
111
1.0
121
0.0
131
0.0
112
0.0
122
1.0
132
0.0
 79
     1
146
0.0
  0
ENDTAB
  0
TABLE
  2
LTYPE
  5
4
330
0
100
AcDbSymbolTable
 70
     6
  0
LTYPE
  5
11
330
4
100
AcDbSymbolTableRecord
100
AcDbLinetypeTableRecord
  2
BYBLOCK
 70
     0
  3

 72
    65
 73
     0
 40
0.0
  0
LTYPE
  5
12
330
4
100
AcDbSymbolTableRecord
100
AcDbLinetypeTableRecord
  2
BYLAYER
 70
     0
  3

 72
    65
 73
     0
 40
0.0
  0
LTYPE
  5
13
330
4
100
AcDbSymbolTableRecord
100
AcDbLinetypeTableRecord
  2
CONTINUOUS
 70
     0
  3
Solid line
 72
    65
 73
     0
 40
0.0
  0
LTYPE
  5
1E
330
4
100
AcDbSymbolTableRecord
100
AcDbLinetypeTableRecord
  2
HIDDEN
 70
     0
  3
Hidden __ __ __ __ __ __ __ __ __ __ __ __ __ __
 72
    65
 73
     2
 40
1.905
 49
1.27
 74
     0
 49
-0.635
 74
     0
  0
LTYPE
  5
1F
330
4
100
AcDbSymbolTableRecord
100
AcDbLinetypeTableRecord
  2
PHANTOM
 70
     0
  3
Phantom ______  __  __  ______  __  __  ______
 72
    65
 73
     6
 40
12.7
 49
6.349999999999999
 74
     0
 49
-1.27
 74
     0
 49
1.27
 74
     0
 49
-1.27
 74
     0
 49
1.27
 74
     0
 49
-1.27
 74
     0
  0
LTYPE
  5
20
330
4
100
AcDbSymbolTableRecord
100
AcDbLinetypeTableRecord
  2
CENTER
 70
     0
  3
Center ____ _ ____ _ ____ _ ____ _ ____ _ ____
 72
    65
 73
     4
 40
10.16
 49
6.349999999999999
 74
     0
 49
-1.27
 74
     0
 49
1.27
 74
     0
 49
-1.27
 74
     0
  0
LTYPE
  5
21
330
4
100
AcDbSymbolTableRecord
100
AcDbLinetypeTableRecord
  2
CENTERX2
 70
     0
  3
Center (2x) ________  __  ________  __  _____
 72
    65
 73
     4
 40
20.32
 49
12.7
 74
     0
 49
-2.54
 74
     0
 49
2.54
 74
     0
 49
-2.54
 74
     0
  0
LTYPE
  5
22
330
4
100
AcDbSymbolTableRecord
100
AcDbLinetypeTableRecord
  2
DOT2
 70
     0
  3
Dot (.5x) ........................................
 72
    65
 73
     2
 40
0.635
 49
0.0
 74
     0
 49
-0.635
 74
     0
  0
ENDTAB
  0
TABLE
  2
LAYER
  5
2
330
0
100
AcDbSymbolTable
 70
     2
  0
LAYER
  5
14
330
2
100
AcDbSymbolTableRecord
100
AcDbLayerTableRecord
  2
0
 70
     0
 62
     7
  6
CONTINUOUS
370
    -3
390
58D
  0
LAYER
  5
26
330
2
100
AcDbSymbolTableRecord
100
AcDbLayerTableRecord
  2
DEFPOINTS
 70
     0
 62
     7
  6
CONTINUOUS
290
     0
370
    -3
390
58D
  0
ENDTAB
  0
TABLE
  2
STYLE
  5
3
330
0
100
AcDbSymbolTable
 70
     1
  0
STYLE
  5
17
330
3
100
AcDbSymbolTableRecord
100
AcDbTextStyleTableRecord
  2
STANDARD
 70
     0
 40
0.0
 41
1.0
 50
0.0
 71
     0
 42
0.0
  3
Century Gothic
  4

  0
ENDTAB
  0
TABLE
  2
VIEW
  5
5
330
0
100
AcDbSymbolTable
 70
     0
  0
ENDTAB
  0
TABLE
  2
UCS
  5
6
330
0
100
AcDbSymbolTable
 70
     0
  0
ENDTAB
  0
TABLE
  2
APPID
  5
8
330
0
100
AcDbSymbolTable
 70
     2
  0
APPID
  5
16
330
8
100
AcDbSymbolTableRecord
100
AcDbRegAppTableRecord
  2
ACAD
 70
     0
  0
APPID
  5
598
330
8
100
AcDbSymbolTableRecord
100
AcDbRegAppTableRecord
  2
DCO15
 70
     0
  0
ENDTAB
  0
TABLE
  2
DIMSTYLE
  5
9
330
0
100
AcDbSymbolTable
 70
     1
100
AcDbDimStyleTable
 71
     0
  0
DIMSTYLE
105
18
330
9
100
AcDbSymbolTableRecord
100
AcDbDimStyleTableRecord
  2
STANDARD
 70
     0
289
     0
340
17
  0
ENDTAB
  0
TABLE
  2
BLOCK_RECORD
  5
1
330
0
100
AcDbSymbolTable
 70
     0
  0
BLOCK_RECORD
  5
A
330
1
100
AcDbSymbolTableRecord
100
AcDbBlockTableRecord
  2
*MODEL_SPACE
340
592
  0
BLOCK_RECORD
  5
B
330
1
100
AcDbSymbolTableRecord
100
AcDbBlockTableRecord
  2
*PAPER_SPACE
340
593
  0
ENDTAB
  0
ENDSEC
  0
SECTION
  2
BLOCKS
  0
BLOCK
  5
D
330
A
100
AcDbEntity
  8
0
100
AcDbBlockBegin
  2
*MODEL_SPACE
 70
     0
 10
0.0
 20
0.0
 30
0.0
  3
*MODEL_SPACE
  1

  0
ENDBLK
  5
E
330
A
100
AcDbEntity
  8
0
100
AcDbBlockEnd
  0
BLOCK
  5
F
330
B
100
AcDbEntity
 67
     1
  8
0
100
AcDbBlockBegin
  2
*PAPER_SPACE
 70
     0
 10
0.0
 20
0.0
 30
0.0
  3
*PAPER_SPACE
  1

  0
ENDBLK
  5
10
330
B
100
AcDbEntity
 67
     1
  8
0
100
AcDbBlockEnd
  0
ENDSEC
  0
SECTION
  2
ENTITIES
  0
ARC
  5
27
330
A
100
AcDbEntity
  8
0
  6
Continuous
 62
     7
100
AcDbCircle
 10
-90.04422922141761
 20
162.8929999999999
 30
0.0
 40
72.53840000000001
100
AcDbArc
 50
133.8869798835895
 51
270.0000000000008
  0
ARC
  5
28
330
A
100
AcDbEntity
  8
0
  6
Continuous
 62
     7
100
AcDbCircle
 10
229.7442292214176
 20
162.8929999999999
 30
0.0
 40
72.5384
100
AcDbArc
 50
270.0000000000008
 51
46.11302011641058
  0
LINE
  5
29
330
A
100
AcDbEntity
  8
0
  6
Continuous
 62
     7
100
AcDbLine
 10
-90.04422922141761
 20
90.35459999999991
 30
0.0
 11
-61.89453305328546
 21
90.35459999999991
 31
0.0
  0
LINE
  5
2A
330
A
100
AcDbEntity
  8
0
  6
Continuous
 62
     7
100
AcDbLine
 10
201.5945330532861
 20
90.35459999999991
 30
0.0
 11
229.7442292214176
 21
90.35459999999991
 31
0.0
  0
ARC
  5
2B
330
A
100
AcDbEntity
  8
0
  6
Continuous
 62
     7
100
AcDbCircle
 10
-115.0676328677266
 20
253.9828002821288
 30
0.0
 40
43.10298010032491
100
AcDbArc
 50
127.2483492716132
 51
233.8638619076694
  0
ARC
  5
2C
330
A
100
AcDbEntity
  8
0
  6
Continuous
 62
     7
100
AcDbCircle
 10
254.7676328677266
 20
253.9828002821288
 30
0.0
 40
43.10298010032492
100
AcDbArc
 50
306.1361380923322
 51
52.75165072838673
  0
ARC
  5
2D
330
A
100
AcDbEntity
  8
0
  6
Continuous
 62
     7
100
AcDbCircle
 10
66.80702922141756
 20
18.43199999999997
 30
0.0
 40
148.414564305529
100
AcDbArc
 50
338.4531558188138
 51
26.73781359743511
  0
ARC
  5
2E
330
A
100
AcDbEntity
  8
0
  6
Continuous
 62
     7
100
AcDbCircle
 10
72.89297077858242
 20
18.43199999999997
 30
0.0
 40
148.414564305529
100
AcDbArc
 50
153.2621864025657
 51
201.5468441811878
  0
ARC
  5
2F
330
A
100
AcDbEntity
  8
0
  6
Continuous
 62
     7
100
AcDbCircle
 10
-141.1300143133913
 20
217.1720533824668
 30
0.0
 40
2.000000000000028
100
AcDbArc
 50
90.0
 51
270.0000000000008
  0
ARC
  5
30
330
A
100
AcDbEntity
  8
0
  6
Continuous
 62
     7
100
AcDbCircle
 10
280.8300143133913
 20
217.1720533824668
 30
0.0
 40
2.000000000000028
100
AcDbArc
 50
270.0000000000008
 51
90.0
  0
LINE
  5
31
330
A
100
AcDbEntity
  8
0
  6
Continuous
 62
     7
100
AcDbLine
 10
-141.1300143133913
 20
215.1720533824667
 30
0.0
 11
-111.8760486093841
 21
215.1720533824667
 31
0.0
  0
LINE
  5
32
330
A
100
AcDbEntity
  8
0
  6
Continuous
 62
     7
100
AcDbLine
 10
251.5760486093849
 20
215.1720533824667
 30
0.0
 11
280.8300143133913
 21
215.1720533824667
 31
0.0
  0
LINE
  5
33
330
A
100
AcDbEntity
  8
0
  6
Continuous
 62
     7
100
AcDbLine
 10
280.8300143133913
 20
219.1720533824668
 30
0.0
 11
253.1777962561004
 21
219.1720533824668
 31
0.0
  0
LINE
  5
34
330
A
100
AcDbEntity
  8
0
  6
Continuous
 62
     7
100
AcDbLine
 10
-113.4777962560996
 20
219.1720533824668
 30
0.0
 11
-141.1300143133913
 21
219.1720533824668
 31
0.0
  0
LINE
  5
35
330
A
100
AcDbEntity
  8
0
  6
Continuous
 62
     7
100
AcDbLine
 10
-90.12204535414372
 20
160.8463840428605
 30
0.0
 11
-67.09246962556928
 21
103.3352629226329
 31
0.0
  0
LINE
  5
36
330
A
100
AcDbEntity
  8
0
  6
Continuous
 62
     7
100
AcDbLine
 10
-63.37912257527769
 20
104.8222241474436
 30
0.0
 11
-86.40869830385211
 21
162.3333452676712
 31
0.0
  0
LINE
  5
37
330
A
100
AcDbEntity
  8
0
  6
Continuous
 62
     7
100
AcDbLine
 10
-116.8488025822232
 20
227.5903740412445
 30
0.0
 11
-90.12204535414372
 21
160.8463840428605
 31
0.0
  0
LINE
  5
38
330
A
100
AcDbEntity
  8
0
  6
Continuous
 62
     7
100
AcDbLine
 10
-86.40869830385215
 20
162.3333452676712
 30
0.0
 11
-113.1354555319316
 21
229.0773352660552
 31
0.0
  0
LINE
  5
39
330
A
100
AcDbEntity
  8
0
  6
Continuous
 62
     7
100
AcDbLine
 10
-67.09246962556928
 20
103.3352629226329
 30
0.0
 11
-61.03224864445483
 21
88.20124104711169
 31
0.0
  0
LINE
  5
3A
330
A
100
AcDbEntity
  8
0
  6
Continuous
 62
     7
100
AcDbLine
 10
-57.3189015941632
 20
89.68820227192239
 30
0.0
 11
-63.37912257527769
 21
104.8222241474436
 31
0.0
  0
LINE
  5
3B
330
A
100
AcDbEntity
  8
0
  6
Continuous
 62
     7
100
AcDbLine
 10
-139.9700956276201
 20
285.3305382745005
 30
0.0
 11
-116.8488025822232
 21
227.5903740412445
 31
0.0
  0
LINE
  5
3C
330
A
100
AcDbEntity
  8
0
  6
Continuous
 62
     7
100
AcDbLine
 10
-113.1354555319316
 20
229.0773352660552
 30
0.0
 11
-124.4452595458293
 21
257.320995338449
 31
0.0
  0
LINE
  5
3D
330
A
100
AcDbEntity
  8
0
  6
Continuous
 62
     7
100
AcDbLine
 10
-135.1847801013786
 20
284.1405023377472
 30
0.0
 11
-136.2567485773285
 21
286.8174994993112
 31
0.0
  0
ARC
  5
3E
330
A
100
AcDbEntity
  8
0
  6
Continuous
 62
     7
100
AcDbCircle
 10
-58.24846526379515
 20
86.629475915495
 30
0.0
 40
2.000000000000011
100
AcDbArc
 50
201.8229865752532
 51
21.82298657525184
  0
LINE
  5
3F
330
A
100
AcDbEntity
  8
0
  6
Continuous
 62
     7
100
AcDbLine
 10
-61.03224864445483
 20
88.20124104711169
 30
0.0
 11
-60.10513878894097
 21
85.88599530308966
 31
0.0
  0
LINE
  5
40
330
A
100
AcDbEntity
  8
0
  6
Continuous
 62
     7
100
AcDbLine
 10
-56.39179173864933
 20
87.37295652790034
 30
0.0
 11
-57.3189015941632
 21
89.68820227192239
 31
0.0
  0
ARC
  5
41
330
A
100
AcDbEntity
  8
0
  6
Continuous
 62
     7
100
AcDbCircle
 10
-140.3654990695366
 20
291.6980682724136
 30
0.0
 40
2.000000000000027
100
AcDbArc
 50
21.82298657525298
 51
201.8229865752538
  0
LINE
  5
42
330
A
100
AcDbEntity
  8
0
  6
Continuous
 62
     7
100
AcDbLine
 10
-136.2567485773285
 20
286.8174994993112
 30
0.0
 11
-138.5088255443907
 21
292.441548884819
 31
0.0
  0
LINE
  5
43
330
A
100
AcDbEntity
  8
0
  6
Continuous
 62
     7
100
AcDbLine
 10
-142.2221725946824
 20
290.9545876600083
 30
0.0
 11
-139.9700956276201
 21
285.3305382745006
 31
0.0
  0
LINE
  5
44
330
A
100
AcDbEntity
  8
0
  6
Continuous
 62
     7
100
AcDbLine
 10
226.1086983038534
 20
162.3333452676712
 30
0.0
 11
203.0791225752788
 21
104.8222241474436
 31
0.0
  0
LINE
  5
45
330
A
100
AcDbEntity
  8
0
  6
Continuous
 62
     7
100
AcDbLine
 10
206.7924696255704
 20
103.3352629226329
 30
0.0
 11
229.822045354145
 21
160.8463840428605
 31
0.0
  0
LINE
  5
46
330
A
100
AcDbEntity
  8
0
  6
Continuous
 62
     7
100
AcDbLine
 10
252.8354555319326
 20
229.0773352660552
 30
0.0
 11
226.1086983038534
 21
162.3333452676712
 31
0.0
  0
LINE
  5
47
330
A
100
AcDbEntity
  8
0
  6
Continuous
 62
     7
100
AcDbLine
 10
229.822045354145
 20
160.8463840428605
 30
0.0
 11
256.5488025822243
 21
227.5903740412446
 31
0.0
  0
LINE
  5
48
330
A
100
AcDbEntity
  8
0
  6
Continuous
 62
     7
100
AcDbLine
 10
203.0791225752788
 20
104.8222241474436
 30
0.0
 11
197.0189015941641
 21
89.68820227192239
 31
0.0
  0
LINE
  5
49
330
A
100
AcDbEntity
  8
0
  6
Continuous
 62
     7
100
AcDbLine
 10
200.7322486444557
 20
88.20124104711169
 30
0.0
 11
206.7924696255704
 21
103.3352629226329
 31
0.0
  0
LINE
  5
4A
330
A
100
AcDbEntity
  8
0
  6
Continuous
 62
     7
100
AcDbLine
 10
275.9567485773289
 20
286.8174994993112
 30
0.0
 11
274.8847801013792
 21
284.1405023377472
 31
0.0
  0
LINE
  5
4B
330
A
100
AcDbEntity
  8
0
  6
Continuous
 62
     7
100
AcDbLine
 10
264.1452595458302
 20
257.320995338449
 30
0.0
 11
252.8354555319326
 21
229.0773352660552
 31
0.0
  0
LINE
  5
4C
330
A
100
AcDbEntity
  8
0
  6
Continuous
 62
     7
100
AcDbLine
 10
256.5488025822243
 20
227.5903740412445
 30
0.0
 11
279.6700956276206
 21
285.3305382745005
 31
0.0
  0
ARC
  5
4D
330
A
100
AcDbEntity
  8
0
  6
Continuous
 62
     7
100
AcDbCircle
 10
197.9484652637958
 20
86.629475915495
 30
0.0
 40
2.000000000000011
100
AcDbArc
 50
158.1770134247481
 51
338.1770134247489
  0
LINE
  5
4E
330
A
100
AcDbEntity
  8
0
  6
Continuous
 62
     7
100
AcDbLine
 10
197.0189015941641
 20
89.68820227192239
 30
0.0
 11
196.09179173865
 21
87.37295652790034
 31
0.0
  0
LINE
  5
4F
330
A
100
AcDbEntity
  8
0
  6
Continuous
 62
     7
100
AcDbLine
 10
199.8051387889416
 20
85.88599530308966
 30
0.0
 11
200.7322486444557
 21
88.20124104711167
 31
0.0
  0
ARC
  5
50
330
A
100
AcDbEntity
  8
0
  6
Continuous
 62
     7
100
AcDbCircle
 10
280.0654990695366
 20
291.6980682724136
 30
0.0
 40
2.000000000000059
100
AcDbArc
 50
338.1770134247412
 51
158.1770134247491
  0
LINE
  5
51
330
A
100
AcDbEntity
  8
0
  6
Continuous
 62
     7
100
AcDbLine
 10
278.2088255443907
 20
292.441548884819
 30
0.0
 11
275.9567485773289
 21
286.8174994993112
 31
0.0
  0
LINE
  5
52
330
A
100
AcDbEntity
  8
0
  6
Continuous
 62
     7
100
AcDbLine
 10
279.6700956276205
 20
285.3305382745006
 30
0.0
 11
281.9221725946824
 21
290.9545876600083
 31
0.0
  0
ARC
  5
53
330
A
100
AcDbEntity
  8
0
  6
Continuous
 62
     7
100
AcDbCircle
 10
70.01792287015773
 20
8.924999999999878
 30
0.0
 40
351.0000000000002
100
AcDbArc
 50
53.67776272902601
 51
90.0
  0
ARC
  5
54
330
A
100
AcDbEntity
  8
0
  6
Continuous
 62
     7
100
AcDbCircle
 10
69.68207712984225
 20
8.924999999999878
 30
0.0
 40
351.0000000000001
100
AcDbArc
 50
90.00000000000001
 51
126.3223229084056
  0
LINE
  5
55
330
A
100
AcDbEntity
  8
0
  6
Continuous
 62
     7
100
AcDbLine
 10
69.84999999999999
 20
-36.075
 30
0.0
 11
204.8500292214176
 21
-36.075
 31
0.0
  0
LINE
  5
56
330
A
100
AcDbEntity
  8
0
  6
Continuous
 62
     7
100
AcDbLine
 10
-65.15002922141762
 20
-36.075
 30
0.0
 11
69.84999999999999
 21
-36.075
 31
0.0
  0
LINE
  5
57
330
A
100
AcDbEntity
  8
0
  6
Continuous
 62
     7
100
AcDbLine
 10
196.9228578347396
 20
89.44835485370864
 30
0.0
 11
227.7687437254965
 21
166.4789306850704
 31
0.0
  0
LINE
  5
58
330
A
100
AcDbEntity
  8
0
  6
Continuous
 62
     7
100
AcDbLine
 10
-88.06874372549655
 20
166.4789306850704
 30
0.0
 11
-57.2228578347396
 21
89.44835485370864
 31
0.0
  0
LINE
  5
59
330
A
100
AcDbEntity
  8
0
  6
Continuous
 62
     7
100
AcDbLine
 10
263.6696947350129
 20
256.1333805183702
 30
0.0
 11
276.9104317457151
 21
289.1991060409962
 31
0.0
  0
LINE
  5
5A
330
A
100
AcDbEntity
  8
0
  6
Continuous
 62
     7
100
AcDbLine
 10
-137.210431745715
 20
289.1991060409962
 30
0.0
 11
-123.9696947350129
 21
256.1333805183701
 31
0.0
  0
LINE
  5
5B
330
A
100
AcDbEntity
  8
0
  6
Continuous
 62
     7
100
AcDbLine
 10
70.01792287015779
 20
359.925
 30
0.0
 11
69.6820771298422
 21
359.925
 31
0.0
  0
LINE
  5
5C
330
A
100
AcDbEntity
  8
0
  6
Continuous
 62
     7
100
AcDbLine
 10
276.9104317457151
 20
289.1991060409962
 30
0.0
 11
277.9224285316573
 21
291.7263375634332
 31
0.0
  0
LINE
  5
5D
330
A
100
AcDbEntity
  8
0
  6
Continuous
 62
     7
100
AcDbLine
 10
-138.2184387010226
 20
291.7163738699817
 30
0.0
 11
-137.210431745715
 21
289.1991060409962
 31
0.0
  0
LWPOLYLINE
  5
5E
330
A
100
AcDbEntity
  8
0
  6
PHANTOM
 62
     7
100
AcDbPolyline
 90
       10
 70
   128
 43
0.0
 10
-63.37912257527769
 20
104.8222241474436
 10
-63.37261345070338
 20
104.8055935092229
 10
-63.30783918030553
 20
104.2100000503427
 10
-63.53657887402264
 20
103.5944239768506
 10
-64.02400898701677
 20
103.0525811657249
 10
-64.69592270314953
 20
102.6669622731421
 10
-65.45002725005272
 20
102.496274279854
 10
-66.17151704643504
 20
102.5665028855481
 10
-66.75055181111864
 20
102.8669564216315
 10
-67.09246962556928
 20
103.3352629226329
  0
LWPOLYLINE
  5
6A
330
A
100
AcDbEntity
  8
0
  6
PHANTOM
 62
     7
100
AcDbPolyline
 90
       10
 70
   128
 43
0.0
 10
-86.40869830385211
 20
162.3333452676712
 10
-86.41125963743832
 20
162.3393660331946
 10
-86.63954231460516
 20
162.4756155663503
 10
-87.11534279715706
 20
162.4770175526454
 10
-87.76622477476761
 20
162.3433585523755
 10
-88.49309736660542
 20
162.0949869367098
 10
-89.18530080967959
 20
161.7697150326392
 10
-89.73745340462199
 20
161.4170625389612
 10
-90.06549492412833
 20
161.0907176010355
 10
-90.12204535414372
 20
160.8463840428605
  0
LWPOLYLINE
  5
76
330
A
100
AcDbEntity
  8
0
  6
PHANTOM
 62
     7
100
AcDbPolyline
 90
       10
 70
   128
 43
0.0
 10
-113.1354555319316
 20
229.0773352660552
 10
-113.1398214314828
 20
229.0878625241431
 10
-113.4264077338951
 20
229.3697120845315
 10
-113.9513609144627
 20
229.4938617411391
 10
-114.6347616101568
 20
229.4414108341669
 10
-115.3725682601004
 20
229.2203445387328
 10
-116.0524564900739
 20
228.8643181943456
 10
-116.5709194802657
 20
228.4275335845515
 10
-116.8490259402979
 20
227.9764872067292
 10
-116.8488025822232
 20
227.5903740412445
  0
LWPOLYLINE
  5
82
330
A
100
AcDbEntity
  8
0
  6
PHANTOM
 62
     7
100
AcDbPolyline
 90
       10
 70
   128
 43
0.0
 10
-57.3189015941632
 20
89.68820227192239
 10
-57.31034656696973
 20
89.66646245780024
 10
-57.17947133827528
 20
88.90579690798952
 10
-57.35248481551739
 20
88.15105729874508
 10
-57.80304726515703
 20
87.51714589384283
 10
-58.46256463859534
 20
87.10056995825793
 10
-59.23063139426618
 20
86.96474940191292
 10
-59.99031633116117
 20
87.13036167329496
 10
-60.62596430419914
 20
87.57219380536506
 10
-61.03224864445483
 20
88.20124104711169
  0
LWPOLYLINE
  5
8E
330
A
100
AcDbEntity
  8
0
  6
PHANTOM
 62
     7
100
AcDbPolyline
 90
       10
 70
   128
 43
0.0
 10
-136.2567485773285
 20
286.8174994993112
 10
-136.2654856362686
 20
286.8389427325787
 10
-136.6932994935814
 20
287.4734759511954
 10
-137.3373141446547
 20
287.8949545178839
 10
-138.0994841968698
 20
288.0392121415786
 10
-138.8637761688658
 20
287.8842869067705
 10
-139.5138335362302
 20
287.4537647760586
 10
-139.9506909575665
 20
286.8131888411507
 10
-140.1078408505988
 20
286.0600809813014
 10
-139.9700956276201
 20
285.3305382745005
  0
LWPOLYLINE
  5
9A
330
A
100
AcDbEntity
  8
0
  6
PHANTOM
 62
     7
100
AcDbPolyline
 90
       10
 70
   128
 43
0.0
 10
203.0791225752788
 20
104.8222241474436
 10
203.0726134507045
 20
104.8055935092229
 10
203.0078391803066
 20
104.2100000503427
 10
203.2365788740237
 20
103.5944239768506
 10
203.7240089870179
 20
103.0525811657249
 10
204.3959227031507
 20
102.666962273142
 10
205.1500272500538
 20
102.4962742798539
 10
205.8715170464362
 20
102.5665028855481
 10
206.4505518111197
 20
102.8669564216315
 10
206.7924696255704
 20
103.3352629226329
  0
LWPOLYLINE
  5
A6
330
A
100
AcDbEntity
  8
0
  6
PHANTOM
 62
     7
100
AcDbPolyline
 90
       10
 70
   128
 43
0.0
 10
226.1086983038534
 20
162.3333452676712
 10
226.1112596374396
 20
162.3393660331946
 10
226.3395423146064
 20
162.4756155663503
 10
226.8153427971584
 20
162.4770175526454
 10
227.4662247747689
 20
162.3433585523755
 10
228.1930973666067
 20
162.0949869367098
 10
228.8853008096809
 20
161.7697150326392
 10
229.4374534046232
 20
161.4170625389612
 10
229.7654949241296
 20
161.0907176010355
 10
229.822045354145
 20
160.8463840428605
  0
LWPOLYLINE
  5
B2
330
A
100
AcDbEntity
  8
0
  6
PHANTOM
 62
     7
100
AcDbPolyline
 90
       10
 70
   128
 43
0.0
 10
252.8354555319326
 20
229.0773352660552
 10
252.8398214314839
 20
229.0878625241431
 10
253.1264077338962
 20
229.3697120845315
 10
253.6513609144638
 20
229.4938617411391
 10
254.3347616101578
 20
229.4414108341669
 10
255.0725682601016
 20
229.2203445387328
 10
255.7524564900749
 20
228.8643181943456
 10
256.2709194802668
 20
228.4275335845514
 10
256.549025940299
 20
227.9764872067292
 10
256.5488025822243
 20
227.5903740412446
  0
LWPOLYLINE
  5
BE
330
A
100
AcDbEntity
  8
0
  6
PHANTOM
 62
     7
100
AcDbPolyline
 90
       10
 70
   128
 43
0.0
 10
197.0189015941641
 20
89.68820227192239
 10
197.0103465669706
 20
89.66646245780024
 10
196.8794713382762
 20
88.90579690798952
 10
197.0524848155183
 20
88.15105729874508
 10
197.5030472651579
 20
87.51714589384283
 10
198.1625646385962
 20
87.10056995825793
 10
198.9306313942671
 20
86.96474940191292
 10
199.690316331162
 20
87.13036167329496
 10
200.3259643042
 20
87.57219380536506
 10
200.7322486444557
 20
88.20124104711169
  0
LWPOLYLINE
  5
CA
330
A
100
AcDbEntity
  8
0
  6
PHANTOM
 62
     7
100
AcDbPolyline
 90
       10
 70
   128
 43
0.0
 10
275.9567485773289
 20
286.8174994993112
 10
275.965485636269
 20
286.8389427325787
 10
276.3932994935819
 20
287.4734759511954
 10
277.0373141446552
 20
287.8949545178839
 10
277.7994841968703
 20
288.0392121415786
 10
278.5637761688663
 20
287.8842869067705
 10
279.2138335362307
 20
287.4537647760586
 10
279.650690957567
 20
286.8131888411507
 10
279.8078408505992
 20
286.0600809813014
 10
279.6700956276206
 20
285.3305382745005
  0
LINE
  5
D6
330
A
100
AcDbEntity
  8
0
  6
PHANTOM
 62
     7
100
AcDbLine
 10
196.9228578347396
 20
89.44835485370864
 30
0.0
 11
-57.2228578347396
 21
89.44835485370864
 31
0.0
  0
LINE
  5
D7
330
A
100
AcDbEntity
  8
0
  6
PHANTOM
 62
     7
100
AcDbLine
 10
227.7687437254965
 20
166.4789306850704
 30
0.0
 11
-88.06874372549655
 21
166.4789306850704
 31
0.0
  0
LINE
  5
D8
330
A
100
AcDbEntity
  8
0
  6
PHANTOM
 62
     7
100
AcDbLine
 10
263.6696947350129
 20
256.1333805183702
 30
0.0
 11
-123.9696947350129
 21
256.1333805183701
 31
0.0
  0
LINE
  5
D9
330
A
100
AcDbEntity
  8
0
  6
PHANTOM
 62
     7
100
AcDbLine
 10
276.9104317457151
 20
289.1991060409962
 30
0.0
 11
-137.210431745715
 21
289.1991060409962
 31
0.0
  0
ARC
  5
DA
330
A
100
AcDbEntity
  8
0
  6
Continuous
 62
     7
100
AcDbCircle
 10
69.84999999999999
 20
-401.2192560048432
 30
0.0
 40
228.0206129680515
100
AcDbArc
 50
333.2360719683354
 51
26.80458264082668
  0
ARC
  5
DB
330
A
100
AcDbEntity
  8
0
  6
Continuous
 62
     7
100
AcDbCircle
 10
69.84999999999999
 20
-401.2192560048432
 30
0.0
 40
228.0206129680516
100
AcDbArc
 50
153.2909509196848
 51
206.7541845697392
  0
ARC
  5
DC
330
A
100
AcDbEntity
  8
0
  6
Continuous
 62
     7
100
AcDbCircle
 10
69.84999999999999
 20
-401.2192560048428
 30
0.0
 40
232.4326292214176
100
AcDbArc
 50
315.3667628585793
 51
322.7127265270565
  0
ARC
  5
DD
330
A
100
AcDbEntity
  8
0
  6
Continuous
 62
     7
100
AcDbCircle
 10
69.84999999999999
 20
-401.2192560048428
 30
0.0
 40
232.4326292214176
100
AcDbArc
 50
328.5148851998879
 51
31.42485304661578
  0
ARC
  5
DE
330
A
100
AcDbEntity
  8
0
  6
Continuous
 62
     7
100
AcDbCircle
 10
69.84999999999999
 20
-401.2192560048428
 30
0.0
 40
232.4326292214176
100
AcDbArc
 50
37.12494169734717
 51
44.63323714142185
  0
ARC
  5
DF
330
A
100
AcDbEntity
  8
0
  6
Continuous
 62
     7
100
AcDbCircle
 10
69.84999999999999
 20
-401.2192560048428
 30
0.0
 40
232.4326292214176
100
AcDbArc
 50
135.3667628585839
 51
142.8676295256085
  0
ARC
  5
E0
330
A
100
AcDbEntity
  8
0
  6
Continuous
 62
     7
100
AcDbCircle
 10
69.84999999999999
 20
-401.2192560048428
 30
0.0
 40
232.4326292214176
100
AcDbArc
 50
148.5910467508196
 51
211.4610905489983
  0
ARC
  5
E1
330
A
100
AcDbEntity
  8
0
  6
Continuous
 62
     7
100
AcDbCircle
 10
69.84999999999999
 20
-401.2192560048428
 30
0.0
 40
232.4326292214176
100
AcDbArc
 50
217.3479754775487
 51
224.6332371414166
  0
LWPOLYLINE
  5
E2
330
A
100
AcDbEntity
  8
0
  6
Continuous
 62
     7
100
AcDbPolyline
 90
        4
 70
   128
 43
0.0
 10
-136.1191523644928
 20
-461.0531153776878
 10
-136.4830254369448
 20
-456.0384105018901
 10
-137.0866298450751
 20
-446.4647759247823
 10
-137.1431938376866
 20
-445.3491368483526
  0
LWPOLYLINE
  5
E8
330
A
100
AcDbEntity
  8
0
  6
Continuous
 62
     7
100
AcDbPolyline
 90
       11
 70
   128
 43
0.0
 10
-137.2269971961164
 20
-443.6962425407946
 10
-137.5744754599928
 20
-436.8427601133262
 10
-137.9460142442083
 20
-427.1828275021012
 10
-138.2008408852641
 20
-417.495250544012
 10
-138.3386770658821
 20
-407.7903299615126
 10
-138.3593716382178
 20
-398.0783841726693
 10
-138.2629007120774
 20
-388.3697386837695
 10
-138.0493680555992
 20
-378.6747297397276
 10
-137.7190048480454
 20
-369.0036682103202
 10
-137.2721692569343
 20
-359.3668371843758
 10
-137.2141954830209
 20
-358.3787737539803
  0
LWPOLYLINE
  5
F5
330
A
100
AcDbEntity
  8
0
  6
Continuous
 62
     7
100
AcDbPolyline
 90
        3
 70
   128
 43
0.0
 10
-137.1069679438755
 20
-356.5512644681597
 10
-136.7093461926907
 20
-349.7744844699813
 10
-136.1191523644928
 20
-341.385396631999
  0
LWPOLYLINE
  5
FA
330
A
100
AcDbEntity
  8
0
  6
Continuous
 62
     7
100
AcDbPolyline
 90
       14
 70
   128
 43
0.0
 10
-140.1076918404557
 20
-341.0828196191815
 10
-140.4734626667916
 20
-346.1236766271278
 10
-141.0800532198435
 20
-355.7444444181981
 10
-141.5702977618421
 20
-365.4129229815173
 10
-141.9436754837656
 20
-375.1187127710464
 10
-142.1998066622244
 20
-384.851695414955
 10
-142.3384309481474
 20
-394.6017231325205
 10
-142.359407751751
 20
-404.3586296500137
 10
-142.2627164560596
 20
-414.1122411667956
 10
-142.0484568574241
 20
-423.8523730968605
 10
-141.7168488780185
 20
-433.5688664573569
 10
-141.2682320146366
 20
-443.2515907266252
 10
-140.7030648788885
 20
-452.8904516829989
 10
-140.1076918404557
 20
-461.3556923905053
  0
LWPOLYLINE
  5
10A
330
A
100
AcDbEntity
  8
0
  6
Continuous
 62
     7
100
AcDbPolyline
 90
        7
 70
   128
 43
0.0
 10
-123.6197472871187
 20
-278.691821650005
 10
-122.0734041549709
 20
-274.6956638281749
 10
-120.3445015251819
 20
-270.6557309049796
 10
-118.5478597006338
 20
-266.8649104868041
 10
-116.6894562182671
 20
-263.3330517706963
 10
-114.7756575951195
 20
-260.0691489935929
 10
-113.3346850217524
 20
-257.8414208759248
  0
LWPOLYLINE
  5
113
330
A
100
AcDbEntity
  8
0
  6
Continuous
 62
     7
100
AcDbPolyline
 90
       19
 70
   128
 43
0.0
 10
-116.6495730924025
 20
-255.6027790825461
 10
-117.749196017027
 20
-257.282381743393
 10
-119.796168342865
 20
-260.6956117411413
 10
-121.769212821141
 20
-264.3691900213509
 10
-123.6645311555258
 20
-268.2931750562195
 10
-125.4785617252129
 20
-272.4574591907402
 10
-127.2078627761918
 20
-276.8516086594086
 10
-128.8490834755277
 20
-281.4647931723188
 10
-130.3989627021089
 20
-286.2857424627624
 10
-131.8543423637659
 20
-291.3027255753676
 10
-133.2121872099141
 20
-296.5035476539698
 10
-134.4696065931682
 20
-301.8755595900283
 10
-135.6238757766774
 20
-307.4056769090368
 10
-136.6724556262788
 20
-313.0804052319458
 10
-137.6130102122153
 20
-318.8858704139729
 10
-138.4434222039213
 20
-324.8078520285127
 10
-139.1618061152228
 20
-330.8318192644768
 10
-139.7665195300515
 20
-336.9429685826405
 10
-140.1076918404557
 20
-341.0828196191814
  0
LWPOLYLINE
  5
128
330
A
100
AcDbEntity
  8
0
  6
Continuous
 62
     7
100
AcDbPolyline
 90
       19
 70
   128
 43
0.0
 10
-140.1076918404557
 20
-461.3556923905053
 10
-139.8444088138402
 20
-464.606240235616
 10
-139.256389560012
 20
-470.727340912682
 10
-138.5545349756035
 20
-476.7634656530275
 10
-137.7404961472979
 20
-482.6994732922294
 10
-136.8161457768491
 20
-488.5207851286814
 10
-135.7835929764243
 20
-494.2131291785081
 10
-134.6451705332972
 20
-499.7625781141343
 10
-133.4034197453703
 20
-505.1555858052623
 10
-132.0610724903491
 20
-510.3790219337184
 10
-130.6210301451033
 20
-515.4202039793741
 10
-129.0863389667046
 20
-520.2669255532283
 10
-127.460161628501
 20
-524.90747957699
 10
-125.7457448686617
 20
-529.3306741125737
 10
-123.9463838312367
 20
-533.5258376565231
 10
-122.0653849763507
 20
-537.4828093766487
 10
-120.1060319470179
 20
-541.1919081168299
 10
-118.071563367995
 20
-544.64387235252
 10
-116.6495730924024
 20
-546.8357329271401
  0
LWPOLYLINE
  5
13D
330
A
100
AcDbEntity
  8
0
  6
Continuous
 62
     7
100
AcDbPolyline
 90
        8
 70
   128
 43
0.0
 10
-113.3346850217523
 20
-544.5970911337614
 10
-114.3724338318851
 20
-543.0119574316095
 10
-116.2953537281557
 20
-539.8073682227203
 10
-118.1637028671901
 20
-536.3347513179387
 10
-119.9715183573786
 20
-532.6022784632191
 10
-121.7130008450774
 20
-528.6191669767044
 10
-123.3826108332008
 20
-524.395530947241
 10
-123.625703318311
 20
-523.7157489577521
  0
LWPOLYLINE
  5
147
330
A
100
AcDbEntity
  8
0
  6
Continuous
 62
     7
100
AcDbPolyline
 90
        9
 70
   128
 43
0.0
 10
-113.3346850217524
 20
-257.8414208759248
 10
-111.5449576391903
 20
-255.2406363860249
 10
-108.1130976972888
 20
-250.5232712720118
 10
-104.6344759431481
 20
-246.0901873264862
 10
-101.1126959949688
 20
-241.945127114741
 10
-97.55136682706098
 20
-238.0914589838036
 10
-93.9539676216931
 20
-234.5320716055416
 10
-90.32387364216306
 20
-231.2694744351613
 10
-88.07884091940902
 20
-229.4412301602698
  0
LWPOLYLINE
  5
152
330
A
100
AcDbEntity
  8
0
  6
Continuous
 62
     7
100
AcDbPolyline
 90
        9
 70
   128
 43
0.0
 10
-89.49042443149751
 20
-225.433708321976
 10
-91.5066115011999
 20
-227.0425958068744
 10
-95.29763486960657
 20
-230.323586656285
 10
-99.04628653862813
 20
-233.9051179951473
 10
-102.7503204502019
 20
-237.7847323889117
 10
-106.4060796601547
 20
-241.958322721999
 10
-110.0101159955524
 20
-246.4215313169773
 10
-113.5591684110567
 20
-251.169793065645
 10
-116.6495730924025
 20
-255.6027790825461
  0
LWPOLYLINE
  5
15D
330
A
100
AcDbEntity
  8
0
  6
Continuous
 62
     7
100
AcDbPolyline
 90
        9
 70
   128
 43
0.0
 10
-116.6495730924024
 20
-546.8357329271401
 10
-114.8198041164393
 20
-549.4946952836365
 10
-111.2907266972382
 20
-554.3448962724579
 10
-107.7045616730908
 20
-558.9128139020759
 10
-104.0643040451141
 20
-563.1937703179454
 10
-100.3730302778528
 20
-567.1833200156759
 10
-96.63392729288688
 20
-570.8772402764234
 10
-92.85038820368235
 20
-574.2714794845761
 10
-89.49042443149746
 20
-577.0048036877097
  0
LWPOLYLINE
  5
168
330
A
100
AcDbEntity
  8
0
  6
Continuous
 62
     7
100
AcDbPolyline
 90
        9
 70
   128
 43
0.0
 10
-87.96846783442545
 20
-573.1023453839201
 10
-88.9681129025252
 20
-572.3046341282464
 10
-92.61602611790435
 20
-569.1468956945205
 10
-96.23120970289134
 20
-565.6915975406274
 10
-99.80982214803619
 20
-561.9419890699053
 10
-103.3488048073153
 20
-557.9008239104081
 10
-106.8449756273574
 20
-553.5711722978235
 10
-110.2950681016333
 20
-548.9564417546763
 10
-113.3346850217523
 20
-544.5970911337614
  0
LWPOLYLINE
  5
173
330
A
100
AcDbEntity
  8
0
  6
Continuous
 62
     7
100
AcDbPolyline
 90
        7
 70
   128
 43
0.0
 10
-80.46216542273603
 20
-222.8405244371185
 10
-81.31573414740387
 20
-222.6993525443424
 10
-83.12832951869959
 20
-222.7224022987709
 10
-84.9119231461327
 20
-223.0588528089853
 10
-86.65993878147649
 20
-223.6993488311965
 10
-88.37812157915067
 20
-224.6445412665766
 10
-89.49042443149757
 20
-225.433708321976
  0
LWPOLYLINE
  5
17C
330
A
100
AcDbEntity
  8
0
  6
Continuous
 62
     7
100
AcDbPolyline
 90
        7
 70
   128
 43
0.0
 10
-89.49042443149746
 20
-577.0048036877097
 10
-88.55054531647368
 20
-577.6810235764145
 10
-86.74463973850421
 20
-578.700060086559
 10
-84.90605009028602
 20
-579.3812855177442
 10
-83.06946978589936
 20
-579.721880793798
 10
-81.25391063444217
 20
-579.7343100691509
 10
-80.6082576186923
 20
-579.6251108762354
  0
LWPOLYLINE
  5
185
330
A
100
AcDbEntity
  8
0
  6
Continuous
 62
     7
100
AcDbPolyline
 90
        4
 70
   128
 43
0.0
 10
275.8191523644924
 20
-341.3853966319974
 10
276.1830254369444
 20
-346.4001015077951
 10
276.7866298450747
 20
-355.9737360849029
 10
276.8431938376842
 20
-357.0893751612914
  0
LWPOLYLINE
  5
18B
330
A
100
AcDbEntity
  8
0
  6
Continuous
 62
     7
100
AcDbPolyline
 90
       11
 70
   128
 43
0.0
 10
276.9269971961171
 20
-358.7422694689087
 10
277.2744754599925
 20
-365.5957518963589
 10
277.6460142442081
 20
-375.255684507584
 10
277.900840885264
 20
-384.9432614656732
 10
278.0386770658821
 20
-394.6481820481725
 10
278.0593716382179
 20
-404.3601278370159
 10
277.9629007120774
 20
-414.0687733259157
 10
277.7493680555993
 20
-423.7637822699576
 10
277.4190048480457
 20
-433.4348437993649
 10
276.9721692569347
 20
-443.0716748253093
 10
276.9141954830208
 20
-444.0597382557131
  0
LWPOLYLINE
  5
198
330
A
100
AcDbEntity
  8
0
  6
Continuous
 62
     7
100
AcDbPolyline
 90
        3
 70
   128
 43
0.0
 10
276.8069679438831
 20
-445.8872475414008
 10
276.4093461926911
 20
-452.6640275397038
 10
275.8191523644933
 20
-461.0531153776862
  0
LWPOLYLINE
  5
19D
330
A
100
AcDbEntity
  8
0
  6
Continuous
 62
     7
100
AcDbPolyline
 90
       14
 70
   128
 43
0.0
 10
279.8076918404562
 20
-461.3556923905036
 10
280.173462666792
 20
-456.3148353825574
 10
280.7800532198438
 20
-446.694067591487
 10
281.2702977618423
 20
-437.0255890281677
 10
281.6436754837658
 20
-427.3197992386388
 10
281.8998066622246
 20
-417.5868165947302
 10
282.0384309481474
 20
-407.8367888771646
 10
282.059407751751
 20
-398.0798823596714
 10
281.9627164560595
 20
-388.3262708428895
 10
281.7484568574239
 20
-378.5861389128247
 10
281.4168488780183
 20
-368.8696455523282
 10
280.9682320146363
 20
-359.1869212830598
 10
280.4030648788881
 20
-349.5480603266862
 10
279.8076918404553
 20
-341.0828196191798
  0
LWPOLYLINE
  5
1AD
330
A
100
AcDbEntity
  8
0
  6
Continuous
 62
     7
100
AcDbPolyline
 90
       19
 70
   128
 43
0.0
 10
279.8076918404553
 20
-341.0828196191799
 10
279.5444088138398
 20
-337.8322717740691
 10
278.9563895600116
 20
-331.7111710970032
 10
278.254534975603
 20
-325.6750463566576
 10
277.4404961472974
 20
-319.7390387174557
 10
276.5161457768485
 20
-313.9177268810037
 10
275.4835929764238
 20
-308.225382831177
 10
274.3451705332965
 20
-302.6759338955508
 10
273.1034197453696
 20
-297.2829262044228
 10
271.7610724903484
 20
-292.0594900759669
 10
270.3210301451027
 20
-287.0183080303112
 10
268.786338966704
 20
-282.1715864564573
 10
267.1601616285002
 20
-277.5310324326949
 10
265.4457448686606
 20
-273.107837897111
 10
263.6463838312355
 20
-268.9126743531612
 10
261.7653849763498
 20
-264.955702633036
 10
259.8060319470169
 20
-261.2466038928548
 10
257.7715633679939
 20
-257.7946396571648
 10
256.3495730924015
 20
-255.6027790825448
  0
LWPOLYLINE
  5
1C2
330
A
100
AcDbEntity
  8
0
  6
Continuous
 62
     7
100
AcDbPolyline
 90
        8
 70
   128
 43
0.0
 10
253.0346850217513
 20
-257.8414208759234
 10
254.0724338318841
 20
-259.4265545780754
 10
255.9953537281547
 20
-262.6311437869646
 10
257.8637028671892
 20
-266.1037606917462
 10
259.6715183573779
 20
-269.8362335464662
 10
261.4130008450763
 20
-273.8193450329802
 10
263.0826108331998
 20
-278.0429810624437
 10
263.32570331831
 20
-278.7227630519326
  0
LWPOLYLINE
  5
1CC
330
A
100
AcDbEntity
  8
0
  6
Continuous
 62
     7
100
AcDbPolyline
 90
        7
 70
   128
 43
0.0
 10
263.3197472871198
 20
-523.7466903596793
 10
261.7734041549719
 20
-527.7428481815099
 10
260.0445015251828
 20
-531.7827811047054
 10
258.2478597006346
 20
-535.5736015228813
 10
256.389456218268
 20
-539.1054602389888
 10
254.4756575951205
 20
-542.3693630160921
 10
253.0346850217534
 20
-544.59709113376
  0
LWPOLYLINE
  5
1D5
330
A
100
AcDbEntity
  8
0
  6
Continuous
 62
     7
100
AcDbPolyline
 90
       19
 70
   128
 43
0.0
 10
256.3495730924036
 20
-546.8357329271387
 10
257.449196017028
 20
-545.1561302662919
 10
259.496168342866
 20
-541.7429002685436
 10
261.469212821142
 20
-538.0693219883339
 10
263.3645311555268
 20
-534.1453369534653
 10
265.1785617252138
 20
-529.9810528189448
 10
266.9078627761927
 20
-525.5869033502764
 10
268.5490834755285
 20
-520.9737188373662
 10
270.0989627021098
 20
-516.1527695469226
 10
271.5543423637667
 20
-511.1357864343174
 10
272.9121872099148
 20
-505.9349643557153
 10
274.1696065931689
 20
-500.5629524196567
 10
275.323875776678
 20
-495.0328351006483
 10
276.3724556262794
 20
-489.3581067777394
 10
277.313010212216
 20
-483.5526415957115
 10
278.1434222039217
 20
-477.630659981173
 10
278.8618061152233
 20
-471.6066927452088
 10
279.4665195300519
 20
-465.4955434270451
 10
279.8076918404562
 20
-461.3556923905037
  0
LWPOLYLINE
  5
1EA
330
A
100
AcDbEntity
  8
0
  6
Continuous
 62
     7
100
AcDbPolyline
 90
        9
 70
   128
 43
0.0
 10
256.3495730924015
 20
-255.6027790825448
 10
254.5198041164383
 20
-252.9438167260483
 10
250.990726697237
 20
-248.0936157372267
 10
247.4045616730891
 20
-243.5256981076082
 10
243.7643040451124
 20
-239.2447416917385
 10
240.0730302778506
 20
-235.2551919940077
 10
236.3339272928853
 20
-231.5612717332609
 10
232.5503882036807
 20
-228.1670325251081
 10
229.1904244314963
 20
-225.4337083219748
  0
LWPOLYLINE
  5
1F5
330
A
100
AcDbEntity
  8
0
  6
Continuous
 62
     7
100
AcDbPolyline
 90
        9
 70
   128
 43
0.0
 10
227.6684678344235
 20
-229.3361666257638
 10
228.668112902524
 20
-230.1338778814382
 10
232.316026117902
 20
-233.2916163151631
 10
235.9312097028888
 20
-236.7469144690559
 10
239.5098221480335
 20
-240.4965229397777
 10
243.0488048073131
 20
-244.5376880992754
 10
246.5449756273554
 20
-248.8673397118601
 10
249.9950681016308
 20
-253.4820702550064
 10
253.0346850217513
 20
-257.8414208759234
  0
LWPOLYLINE
  5
200
330
A
100
AcDbEntity
  8
0
  6
Continuous
 62
     7
100
AcDbPolyline
 90
        9
 70
   128
 43
0.0
 10
253.0346850217534
 20
-544.59709113376
 10
251.2449576391913
 20
-547.1978756236599
 10
247.8130976972887
 20
-551.9152407376745
 10
244.3344759431483
 20
-556.3483246831997
 10
240.8126959949695
 20
-560.4933848949442
 10
237.251366827061
 20
-564.3470530258823
 10
233.6539676216923
 20
-567.9064404041448
 10
230.0238736421633
 20
-571.1690375745241
 10
227.7788409194092
 20
-572.9972818494156
  0
LWPOLYLINE
  5
20B
330
A
100
AcDbEntity
  8
0
  6
Continuous
 62
     7
100
AcDbPolyline
 90
        9
 70
   128
 43
0.0
 10
229.1904244314987
 20
-577.0048036877086
 10
231.2066115012011
 20
-575.3959162028102
 10
234.997634869609
 20
-572.1149253533986
 10
238.7462865386301
 20
-568.5333940145367
 10
242.4503204502041
 20
-564.6537796207719
 10
246.106079660157
 20
-560.4801892876844
 10
249.7101159955547
 20
-556.0169806927059
 10
253.2591684110585
 20
-551.2687189440388
 10
256.3495730924036
 20
-546.8357329271387
  0
LWPOLYLINE
  5
216
330
A
100
AcDbEntity
  8
0
  6
Continuous
 62
     7
100
AcDbPolyline
 90
        7
 70
   128
 43
0.0
 10
229.1904244314963
 20
-225.4337083219748
 10
228.2505453164725
 20
-224.7574884332701
 10
226.444639738503
 20
-223.7384519231256
 10
224.6060500902848
 20
-223.0572264919404
 10
222.7694697858981
 20
-222.7166312158865
 10
220.9539106344409
 20
-222.7042019405338
 10
220.1503028831249
 20
-222.8401159930102
  0
LWPOLYLINE
  5
21F
330
A
100
AcDbEntity
  8
0
  6
Continuous
 62
     7
100
AcDbPolyline
 90
        7
 70
   128
 43
0.0
 10
220.3380315985184
 20
-579.6270741126335
 10
221.0157341474054
 20
-579.7391594653421
 10
222.8283295187012
 20
-579.7161097109135
 10
224.6119231461342
 20
-579.3796592006993
 10
226.3599387814781
 20
-578.7391631784879
 10
228.0781215791522
 20
-577.7939707431079
 10
229.1904244314988
 20
-577.0048036877085
  0
ARC
  5
228
330
A
100
AcDbEntity
  8
0
  6
Continuous
 62
     7
100
AcDbCircle
 10
69.84999999999999
 20
-401.2192560048428
 30
0.0
 40
233.4326292214176
100
AcDbArc
 50
47.89170617286369
 51
132.110695854236
  0
ARC
  5
229
330
A
100
AcDbEntity
  8
0
  6
Continuous
 62
     7
100
AcDbCircle
 10
69.84999999999999
 20
-401.2192560048428
 30
0.0
 40
233.4326292214176
100
AcDbArc
 50
227.891193816187
 51
270.0000000000008
  0
ARC
  5
22A
330
A
100
AcDbEntity
  8
0
  6
Continuous
 62
     7
100
AcDbCircle
 10
69.84999999999999
 20
-401.2192560048428
 30
0.0
 40
233.4326292214176
100
AcDbArc
 50
270.0000000000008
 51
312.1102366047951
  0
CIRCLE
  5
22B
330
A
100
AcDbEntity
  8
0
  6
Continuous
 62
     7
100
AcDbCircle
 10
69.84999999999999
 20
-401.2192560048435
 30
0.0
 40
0.1679228701577813
  0
LWPOLYLINE
  5
22C
330
A
100
AcDbEntity
  8
0
  6
Continuous
 62
     7
100
AcDbPolyline
 90
        5
 70
   128
 43
0.0
 10
276.9104317457151
 20
-444.165679383304
 10
277.6641344839148
 20
-422.9505648659321
 10
277.9224285316573
 20
-401.5658031183717
 10
277.6743161602125
 20
-379.9200247579601
 10
276.9104317457151
 20
-358.2728326263826
  0
LWPOLYLINE
  5
233
330
A
100
AcDbEntity
  8
0
  6
Continuous
 62
     7
100
AcDbPolyline
 90
        5
 70
   128
 43
0.0
 10
-137.210431745715
 20
-358.2728326263822
 10
-137.9641344839148
 20
-379.4879471437543
 10
-138.2224285316573
 20
-400.8727088913149
 10
-137.9743161602124
 20
-422.5184872517267
 10
-137.210431745715
 20
-444.1656793833044
  0
LWPOLYLINE
  5
23A
330
A
100
AcDbEntity
  8
0
  6
Continuous
 62
     7
100
AcDbPolyline
 90
       12
 70
   128
 43
0.0
 10
276.9104317457151
 20
-358.2728326263826
 10
276.1979898463426
 20
-345.7331104823087
 10
275.2175942797113
 20
-333.3278950186461
 10
274.370533233094
 20
-325.0112057604172
 10
273.3503455074999
 20
-316.8307685431204
 10
272.1335853950388
 20
-308.8593486863167
 10
271.1970772195623
 20
-303.6816693736916
 10
270.1498548664811
 20
-298.6607403101833
 10
268.9597051791856
 20
-293.7550549246994
 10
267.6319037653602
 20
-289.1141993887192
 10
265.7942497222316
 20
-283.8910505996152
 10
263.6696947350129
 20
-279.3162675213189
  0
LWPOLYLINE
  5
248
330
A
100
AcDbEntity
  8
0
  6
Continuous
 62
     7
100
AcDbPolyline
 90
       12
 70
   128
 43
0.0
 10
-123.9696947350129
 20
-279.3162675213189
 10
-125.6060337291487
 20
-282.7094140895148
 10
-127.0935636230049
 20
-286.572127662085
 10
-128.4930093353025
 20
-290.977754363316
 10
-129.7505559724449
 20
-295.6853749637285
 10
-131.307739553251
 20
-302.7172891687528
 10
-132.6368891226052
 20
-310.0840192441344
 10
-133.7911633777702
 20
-317.8712306190184
 10
-134.7621454060814
 20
-325.8391925091512
 10
-135.5614819013168
 20
-333.8070441321642
 10
-136.224392717979
 20
-341.8658056011369
 10
-137.210431745715
 20
-358.2728326263822
  0
LWPOLYLINE
  5
256
330
A
100
AcDbEntity
  8
0
  6
Continuous
 62
     7
100
AcDbPolyline
 90
       12
 70
   128
 43
0.0
 10
263.6696947350129
 20
-523.1222444883675
 10
265.3060337291488
 20
-519.7290979201716
 10
266.793563623005
 20
-515.8663843476012
 10
268.1930093353027
 20
-511.4607576463703
 10
269.4505559724449
 20
-506.7531370459579
 10
271.0077395532511
 20
-499.7212228409336
 10
272.3368891226053
 20
-492.354492765552
 10
273.4911633777703
 20
-484.567281390668
 10
274.4621454060815
 20
-476.5993195005351
 10
275.2614819013168
 20
-468.6314678775221
 10
275.9243927179791
 20
-460.5727064085495
 10
276.9104317457151
 20
-444.165679383304
  0
LWPOLYLINE
  5
264
330
A
100
AcDbEntity
  8
0
  6
Continuous
 62
     7
100
AcDbPolyline
 90
       12
 70
   128
 43
0.0
 10
-137.210431745715
 20
-444.1656793833044
 10
-136.4979898463425
 20
-456.7054015273783
 10
-135.5175942797113
 20
-469.1106169910408
 10
-134.6705332330939
 20
-477.4273062492696
 10
-133.6503455074998
 20
-485.6077434665664
 10
-132.4335853950387
 20
-493.5791633233701
 10
-131.4970772195622
 20
-498.7568426359952
 10
-130.4498548664811
 20
-503.7777716995034
 10
-129.2597051791855
 20
-508.6834570849872
 10
-127.9319037653601
 20
-513.3243126209674
 10
-126.0942497222316
 20
-518.5474614100713
 10
-123.9696947350129
 20
-523.1222444883676
  0
LWPOLYLINE
  5
272
330
A
100
AcDbEntity
  8
0
  6
Continuous
 62
     7
100
AcDbPolyline
 90
       10
 70
   128
 43
0.0
 10
263.6696947350129
 20
-279.3162675213189
 10
260.2937601733102
 20
-273.3668481948488
 10
256.7582334556366
 20
-267.5094621963536
 10
253.0656595969477
 20
-261.7483259088951
 10
249.2186966610752
 20
-256.0875864311046
 10
245.2201138473454
 20
-250.5313185919344
 10
241.0727894971979
 20
-245.0835220174305
 10
236.7797090222387
 20
-239.7481182516411
 10
232.3439627552205
 20
-234.5289479337304
 10
227.7687437254965
 20
-229.4297680333311
  0
LWPOLYLINE
  5
27E
330
A
100
AcDbEntity
  8
0
  6
Continuous
 62
     7
100
AcDbPolyline
 90
       10
 70
   128
 43
0.0
 10
-88.06874372549655
 20
-229.429768033331
 10
-92.64396275522058
 20
-234.5289479337303
 10
-97.07970902223877
 20
-239.748118251641
 10
-101.3727894971979
 20
-245.0835220174304
 10
-105.5201138473455
 20
-250.5313185919343
 10
-109.5186966610752
 20
-256.0875864311046
 10
-113.3656595969477
 20
-261.7483259088951
 10
-117.0582334556367
 20
-267.5094621963536
 10
-120.5937601733102
 20
-273.3668481948488
 10
-123.9696947350129
 20
-279.3162675213189
  0
LWPOLYLINE
  5
28A
330
A
100
AcDbEntity
  8
0
  6
Continuous
 62
     7
100
AcDbPolyline
 90
       10
 70
   128
 43
0.0
 10
227.7687437254965
 20
-573.0087439763547
 10
232.3439627552205
 20
-567.9095640759554
 10
236.7797090222387
 20
-562.6903937580448
 10
241.0727894971979
 20
-557.3549899922555
 10
245.2201138473454
 20
-551.9071934177516
 10
249.2186966610752
 20
-546.3509255785814
 10
253.0656595969477
 20
-540.6901861007911
 10
256.7582334556366
 20
-534.9290498133326
 10
260.2937601733102
 20
-529.0716638148376
 10
263.6696947350129
 20
-523.1222444883674
  0
LWPOLYLINE
  5
296
330
A
100
AcDbEntity
  8
0
  6
Continuous
 62
     7
100
AcDbPolyline
 90
       10
 70
   128
 43
0.0
 10
-123.9696947350129
 20
-523.1222444883676
 10
-120.5937601733102
 20
-529.0716638148376
 10
-117.0582334556367
 20
-534.9290498133327
 10
-113.3656595969477
 20
-540.6901861007912
 10
-109.5186966610751
 20
-546.3509255785817
 10
-105.5201138473454
 20
-551.9071934177519
 10
-101.3727894971979
 20
-557.3549899922556
 10
-97.0797090222387
 20
-562.6903937580449
 10
-92.64396275522051
 20
-567.9095640759555
 10
-88.0687437254965
 20
-573.0087439763548
  0
LINE
  5
2A2
330
A
100
AcDbEntity
  8
0
  6
Continuous
 62
     7
100
AcDbLine
 10
227.7687437254965
 20
-229.429768033331
 30
0.0
 11
226.3326334991937
 21
-228.0892470250881
 31
0.0
  0
LINE
  5
2A3
330
A
100
AcDbEntity
  8
0
  6
Continuous
 62
     7
100
AcDbLine
 10
-86.63297090844471
 20
-228.0980733290505
 30
0.0
 11
-88.0687437254965
 21
-229.429768033331
 31
0.0
  0
LINE
  5
2A4
330
A
100
AcDbEntity
  8
0
  6
Continuous
 62
     7
100
AcDbLine
 10
226.3330798428343
 20
-574.3403376428191
 30
0.0
 11
227.7687437254965
 21
-573.0087439763547
 31
0.0
  0
LINE
  5
2A5
330
A
100
AcDbEntity
  8
0
  6
Continuous
 62
     7
100
AcDbLine
 10
-88.06874372549655
 20
-573.0087439763547
 30
0.0
 11
-86.63291865656086
 21
-574.3489988076468
 31
0.0
  0
LWPOLYLINE
  5
2A6
330
A
100
AcDbEntity
  8
0
  6
PHANTOM
 62
     7
100
AcDbPolyline
 90
        9
 70
   128
 43
0.0
 10
-136.1895156274607
 20
-341.2768567888979
 10
-136.2654856362686
 20
-341.2293829601724
 10
-136.6932994935814
 20
-341.0767178434209
 10
-137.3373141446547
 20
-340.9480139703831
 10
-138.0994841968698
 20
-340.8628653390256
 10
-138.8637761688658
 20
-340.8342350565984
 10
-139.5138335362303
 20
-340.8664818240667
 10
-139.9506909575666
 20
-340.9546963634012
 10
-140.1077058123634
 20
-341.0830071888544
  0
LWPOLYLINE
  5
2B1
330
A
100
AcDbEntity
  8
0
  6
PHANTOM
 62
     7
100
AcDbPolyline
 90
        9
 70
   128
 43
0.0
 10
-136.1895156274606
 20
-461.1616552207888
 10
-136.2654856362686
 20
-461.2091290495142
 10
-136.6932994935814
 20
-461.3617941662659
 10
-137.3373141446547
 20
-461.4904980393036
 10
-138.0994841968698
 20
-461.5756466706611
 10
-138.8637761688658
 20
-461.6042769530883
 10
-139.5138335362302
 20
-461.57203018562
 10
-139.9506909575665
 20
-461.4838156462854
 10
-140.1077058308464
 20
-461.3555045680385
  0
LWPOLYLINE
  5
2BC
330
A
100
AcDbEntity
  8
0
  6
PHANTOM
 62
     7
100
AcDbPolyline
 90
       10
 70
   128
 43
0.0
 10
-113.3342685229244
 20
-257.8408037673457
 10
-113.1352321738569
 20
-257.3734236107485
 10
-113.1398214314829
 20
-256.7013975301443
 10
-113.4264077338952
 20
-256.0325232097459
 10
-113.9513609144628
 20
-255.4686307014735
 10
-114.6347616101568
 20
-255.095567528013
 10
-115.3725682601005
 20
-254.9701291756977
 10
-116.0524564900739
 20
-255.1114124965662
 10
-116.5709194802658
 20
-255.4979083857527
 10
-116.6493245496243
 20
-255.6024111838252
  0
LWPOLYLINE
  5
2C8
330
A
100
AcDbEntity
  8
0
  6
PHANTOM
 62
     7
100
AcDbPolyline
 90
       10
 70
   128
 43
0.0
 10
-113.3340916688655
 20
-544.5979705061978
 10
-113.1352321738569
 20
-545.0650883989377
 10
-113.1398214314828
 20
-545.737114479542
 10
-113.4264077338951
 20
-546.4059887999402
 10
-113.9513609144627
 20
-546.9698813082127
 10
-114.6347616101568
 20
-547.3429444816733
 10
-115.3725682601004
 20
-547.4683828339886
 10
-116.0524564900739
 20
-547.32709951312
 10
-116.5709194802657
 20
-546.9406036239336
 10
-116.6493248501745
 20
-546.8361003811403
  0
LWPOLYLINE
  5
2D4
330
A
100
AcDbEntity
  8
0
  6
PHANTOM
 62
     7
100
AcDbPolyline
 90
        9
 70
   128
 43
0.0
 10
-86.52475416496734
 20
-227.9052962524044
 10
-86.46524873386759
 20
-227.7290379218238
 10
-86.41125963743837
 20
-226.9919004651836
 10
-86.63954231460522
 20
-226.2582201370229
 10
-87.11534279715712
 20
-225.6396931164752
 10
-87.76622477476767
 20
-225.2304845354577
 10
-88.49309736660545
 20
-225.0928926909453
 10
-89.18530080967965
 20
-225.2478646939917
 10
-89.48999913360927
 20
-225.4333788702066
  0
LWPOLYLINE
  5
2DF
330
A
100
AcDbEntity
  8
0
  6
PHANTOM
 62
     7
100
AcDbPolyline
 90
        9
 70
   128
 43
0.0
 10
-86.52475416496731
 20
-574.5332157572813
 10
-86.46524873386754
 20
-574.7094740878619
 10
-86.41125963743832
 20
-575.4466115445023
 10
-86.63954231460516
 20
-576.1802918726629
 10
-87.11534279715706
 20
-576.7988188932106
 10
-87.76622477476761
 20
-577.208027474228
 10
-88.49309736660542
 20
-577.3456193187405
 10
-89.18530080967959
 20
-577.1906473156941
 10
-89.49000157148859
 20
-577.0051312516613
  0
LWPOLYLINE
  5
2EA
330
A
100
AcDbEntity
  8
0
  6
PHANTOM
 62
     7
100
AcDbPolyline
 90
        9
 70
   128
 43
0.0
 10
275.8895156274611
 20
-461.1616552207872
 10
275.965485636269
 20
-461.2091290495127
 10
276.3932994935819
 20
-461.3617941662643
 10
277.0373141446552
 20
-461.4904980393021
 10
277.7994841968703
 20
-461.5756466706596
 10
278.5637761688663
 20
-461.6042769530868
 10
279.2138335362307
 20
-461.5720301856184
 10
279.650690957567
 20
-461.4838156462838
 10
279.8077058123638
 20
-461.3555048208308
  0
LWPOLYLINE
  5
2F5
330
A
100
AcDbEntity
  8
0
  6
PHANTOM
 62
     7
100
AcDbPolyline
 90
        9
 70
   128
 43
0.0
 10
275.8895156274602
 20
-341.2768567888964
 10
275.9654856362682
 20
-341.229382960171
 10
276.393299493581
 20
-341.0767178434193
 10
277.0373141446543
 20
-340.9480139703816
 10
277.7994841968694
 20
-340.862865339024
 10
278.5637761688654
 20
-340.8342350565968
 10
279.2138335362299
 20
-340.8664818240652
 10
279.6506909575661
 20
-340.9546963633997
 10
279.807705830846
 20
-341.0830074416466
  0
LWPOLYLINE
  5
300
330
A
100
AcDbEntity
  8
0
  6
PHANTOM
 62
     7
100
AcDbPolyline
 90
       10
 70
   128
 43
0.0
 10
253.0340916688646
 20
-257.840541503487
 10
252.8352321738559
 20
-257.3734236107471
 10
252.8398214314818
 20
-256.7013975301429
 10
253.126407733894
 20
-256.0325232097446
 10
253.6513609144617
 20
-255.4686307014721
 10
254.3347616101558
 20
-255.0955675280116
 10
255.0725682600994
 20
-254.9701291756963
 10
255.7524564900729
 20
-255.1114124965648
 10
256.2709194802647
 20
-255.4979083857513
 10
256.3493248501735
 20
-255.6024116285445
  0
LWPOLYLINE
  5
30C
330
A
100
AcDbEntity
  8
0
  6
PHANTOM
 62
     7
100
AcDbPolyline
 90
       10
 70
   128
 43
0.0
 10
253.0342685229254
 20
-544.5977082423391
 10
252.835232173858
 20
-545.0650883989363
 10
252.8398214314839
 20
-545.7371144795406
 10
253.1264077338962
 20
-546.405988799939
 10
253.6513609144638
 20
-546.9698813082113
 10
254.3347616101578
 20
-547.3429444816718
 10
255.0725682601016
 20
-547.4683828339871
 10
255.7524564900749
 20
-547.3270995131188
 10
256.2709194802668
 20
-546.9406036239321
 10
256.3493245496253
 20
-546.8361008258596
  0
LWPOLYLINE
  5
318
330
A
100
AcDbEntity
  8
0
  6
PHANTOM
 62
     7
100
AcDbPolyline
 90
        9
 70
   128
 43
0.0
 10
226.2247541649661
 20
-227.9052962524032
 10
226.1652487338663
 20
-227.7290379218226
 10
226.1112596374371
 20
-226.9919004651824
 10
226.339542314604
 20
-226.2582201370217
 10
226.8153427971558
 20
-225.639693116474
 10
227.4662247747663
 20
-225.2304845354566
 10
228.1930973666042
 20
-225.0928926909441
 10
228.8853008096784
 20
-225.2478646939905
 10
229.1900015714873
 20
-225.4333807580232
  0
LWPOLYLINE
  5
323
330
A
100
AcDbEntity
  8
0
  6
PHANTOM
 62
     7
100
AcDbPolyline
 90
        9
 70
   128
 43
0.0
 10
226.2247541649686
 20
-574.5332157572802
 10
226.1652487338688
 20
-574.7094740878607
 10
226.1112596374396
 20
-575.446611544501
 10
226.3395423146064
 20
-576.1802918726618
 10
226.8153427971584
 20
-576.7988188932093
 10
227.4662247747689
 20
-577.2080274742267
 10
228.1930973666067
 20
-577.3456193187394
 10
228.8853008096809
 20
-577.1906473156929
 10
229.1899991336105
 20
-577.005133139478
  0
ARC
  5
32E
330
A
100
AcDbEntity
  8
0
  6
PHANTOM
 62
     7
100
AcDbCircle
 10
69.84999999999999
 20
-401.2192560048433
 30
0.0
 40
211.4672969414513
100
AcDbArc
 50
191.7175822229213
 51
348.2824177770804
  0
ARC
  5
32F
330
A
100
AcDbEntity
  8
0
  6
PHANTOM
 62
     7
100
AcDbCircle
 10
69.84999999999999
 20
-401.2192560048433
 30
0.0
 40
211.4672969414513
100
AcDbArc
 50
11.71758222292037
 51
168.2824177770795
  0
ARC
  5
330
330
A
100
AcDbEntity
  8
0
  6
PHANTOM
 62
     7
100
AcDbCircle
 10
69.84999999999999
 20
-401.2192560048432
 30
0.0
 40
228.9681477157639
100
AcDbArc
 50
32.16785950744622
 51
147.8321404925537
  0
ARC
  5
331
330
A
100
AcDbEntity
  8
0
  6
PHANTOM
 62
     7
100
AcDbCircle
 10
69.84999999999999
 20
-401.2192560048432
 30
0.0
 40
228.9681477157639
100
AcDbArc
 50
212.167859507447
 51
327.8321404925546
  0
ARC
  5
332
330
A
100
AcDbEntity
  8
0
  6
PHANTOM
 62
     7
100
AcDbCircle
 10
69.84999999999999
 20
-401.2192560048428
 30
0.0
 40
233.3451473619138
100
AcDbArc
 50
47.40899882733951
 51
132.5910011726605
  0
ARC
  5
333
330
A
100
AcDbEntity
  8
0
  6
PHANTOM
 62
     7
100
AcDbCircle
 10
69.84999999999999
 20
-401.2192560048428
 30
0.0
 40
233.3451473619138
100
AcDbArc
 50
227.4089988273403
 51
312.5910011726613
  0
LINE
  5
334
330
A
100
AcDbEntity
  8
0
  6
Continuous
 62
     7
100
AcDbLine
 10
556.7344198228359
 20
90.35459999999991
 30
0.0
 11
749.8798954694336
 21
90.35459999999991
 31
0.0
  0
ARC
  5
335
330
A
100
AcDbEntity
  8
0
  6
Continuous
 62
     7
100
AcDbCircle
 10
650.2641868675519
 20
18.43199999999997
 30
0.0
 40
148.414564305529
100
AcDbArc
 50
338.4531558188138
 51
27.80438226063697
  0
ARC
  5
336
330
A
100
AcDbEntity
  8
0
  6
Continuous
 62
     7
100
AcDbCircle
 10
656.3501284247167
 20
18.43199999999997
 30
0.0
 40
148.4145643055291
100
AcDbArc
 50
152.195617739363
 51
201.5468441811878
  0
LINE
  5
337
330
A
100
AcDbEntity
  8
0
  6
Continuous
 62
     7
100
AcDbLine
 10
506.9930923052194
 20
215.1720533824667
 30
0.0
 11
799.6212229870504
 21
215.1720533824667
 31
0.0
  0
LINE
  5
338
330
A
100
AcDbEntity
  8
0
  6
Continuous
 62
     7
100
AcDbLine
 10
797.3457137654387
 20
219.1720533824668
 30
0.0
 11
509.2686015268311
 21
219.1720533824668
 31
0.0
  0
LINE
  5
339
330
A
100
AcDbEntity
  8
0
  6
Continuous
 62
     7
100
AcDbLine
 10
625.7968684055618
 20
88.18699999999997
 30
0.0
 11
680.8174468867077
 21
88.18699999999997
 31
0.0
  0
LWPOLYLINE
  5
33A
330
A
100
AcDbEntity
  8
0
  6
Continuous
 62
     7
100
AcDbPolyline
 90
       14
 70
   128
 43
0.0
 10
713.6645781203736
 20
288.0390667527409
 10
708.6054423077116
 20
288.9558082158512
 10
698.9744852395769
 20
290.4726171688708
 10
689.2954533432905
 20
291.6993684282365
 10
679.5787483807218
 20
292.6347296768607
 10
669.8345371745654
 20
293.2777208913048
 10
660.0730153042761
 20
293.6276678936522
 10
650.3043964887713
 20
293.6842030421781
 10
640.5389019300029
 20
293.4472656104521
 10
630.786751694872
 20
292.9171019936015
 10
621.0581504441651
 20
292.0942654072736
 10
611.3632778608046
 20
290.9796152277997
 10
601.7122785174209
 20
289.574316118762
 10
592.9497371718968
 20
288.0390667527409
  0
LWPOLYLINE
  5
34A
330
A
100
AcDbEntity
  8
0
  6
Continuous
 62
     7
100
AcDbPolyline
 90
       14
 70
   128
 43
0.0
 10
593.6942823618672
 20
284.1089710210708
 10
598.6907084329494
 20
285.0143490417232
 10
608.2540788670833
 20
286.519713636155
 10
617.8654972267557
 20
287.7355108021516
 10
627.5144541249404
 20
288.6603970568048
 10
637.1907255433341
 20
289.2933934862848
 10
646.884058542898
 20
289.6338305475698
 10
656.5841821284656
 20
289.6813487848933
 10
666.2808181647879
 20
289.4358992154748
 10
675.9636901324766
 20
288.8977435330168
 10
685.6225379781631
 20
288.0674537545594
 10
695.247127684955
 20
286.9459115096441
 10
704.8272617275552
 20
285.5343070891458
 10
712.9200329304032
 20
284.1089710210708
  0
LWPOLYLINE
  5
35A
330
A
100
AcDbEntity
  8
0
  6
Continuous
 62
     7
100
AcDbPolyline
 90
       19
 70
   128
 43
0.0
 10
592.9497371718968
 20
288.0390667527409
 10
589.671153106378
 20
287.3759068669627
 10
583.5357476845705
 20
285.9049780260853
 10
577.4863777177151
 20
284.1513003565036
 10
571.5386187053479
 20
282.1193418286737
 10
565.7072871772988
 20
279.814155415062
 10
560.006911292847
 20
277.2414762000139
 10
554.4516945143231
 20
274.4077076160908
 10
549.0554798493932
 20
271.3199059486289
 10
543.8317148671516
 20
267.9857631450395
 10
538.7934175849018
 20
264.4135879382988
 10
533.9531433286285
 20
260.6122852987799
 10
529.3229526765319
 20
256.5913342353464
 10
524.9143806011318
 20
252.3607639758281
 10
520.7384069306313
 20
247.9311285688431
 10
516.8054282536119
 20
243.3134799634217
 10
513.1252313917866
 20
238.5193396397929
 10
509.7069685625315
 20
233.5606688834025
 10
507.0896885748429
 20
229.3539149581652
  0
LWPOLYLINE
  5
36F
330
A
100
AcDbEntity
  8
0
  6
Continuous
 62
     7
100
AcDbPolyline
 90
       19
 70
   128
 43
0.0
 10
510.5303146662118
 20
227.3137943491345
 10
512.1340718240287
 20
229.935815802338
 10
515.414837000543
 20
234.8482088239891
 10
518.9600281716152
 20
239.6006272157023
 10
522.7601880386591
 20
244.1803539492716
 10
526.805541945021
 20
248.5756476766513
 10
531.0856900202362
 20
252.7752432330492
 10
535.5896338379809
 20
256.7683793792773
 10
540.3058044794692
 20
260.5448254849215
 10
545.2220918795902
 20
264.0949069881201
 10
550.3258754335766
 20
267.4095295943322
 10
555.6040558387803
 20
270.4802021638508
 10
561.0430881392891
 20
273.2990582273321
 10
566.629015931675
 20
275.8588760608933
 10
572.3475066792397
 20
278.1530972476732
 10
578.1838880705887
 20
280.1758436510599
 10
584.1231853470445
 20
281.9219327258429
 10
590.1501595126542
 20
283.3868910968767
 10
593.6942823618671
 20
284.1089710210708
  0
LWPOLYLINE
  5
384
330
A
100
AcDbEntity
  8
0
  6
Continuous
 62
     7
100
AcDbPolyline
 90
       19
 70
   128
 43
0.0
 10
712.9200329304032
 20
284.1089710210708
 10
716.1017500410622
 20
283.4654049039748
 10
722.1324829551349
 20
282.0176260256666
 10
728.0767635572146
 20
280.2884769519711
 10
733.918943753933
 20
278.2824906405835
 10
739.6440451426866
 20
276.0048215555613
 10
745.2373917369745
 20
273.4613191203169
 10
750.6846472936018
 20
270.6585121510764
 10
755.9718516978223
 20
267.603591553998
 10
761.0854562367732
 20
264.3043913866467
 10
766.0123576769144
 20
260.769368371669
 10
770.7399310737103
 20
257.0075799554073
 10
775.256061255414
 20
253.0286610066348
 10
779.5491729371827
 20
248.8427992499401
 10
783.6082594360765
 20
244.4607095240745
 10
787.4229099707256
 20
239.8936069475528
 10
790.9833355404982
 20
235.1531790619224
 10
794.2803933864497
 20
230.2515570078428
 10
796.0840006260582
 20
227.3137943491345
  0
LWPOLYLINE
  5
399
330
A
100
AcDbEntity
  8
0
  6
Continuous
 62
     7
100
AcDbPolyline
 90
       19
 70
   128
 43
0.0
 10
799.5246267174271
 20
229.3539149581652
 10
797.8636475122453
 20
232.0694926932981
 10
794.525368883803
 20
237.0727165365638
 10
790.9226369676932
 20
241.915270111004
 10
787.064500941781
 20
246.5849245860105
 10
782.960539363114
 20
251.0700503017179
 10
778.6209458828133
 20
255.3594736196758
 10
774.0565041272073
 20
259.4425056125202
 10
769.2785608769146
 20
263.308969528424
 10
764.2989976587191
 20
266.9492268947978
 10
759.1302008622011
 20
270.3542021622916
 10
753.785030499986
 20
273.5154058071504
 10
748.2767877334321
 20
276.4249558264372
 10
742.6191812853804
 20
279.0755975756545
 10
736.8262928590142
 20
281.4607219114019
 10
730.9125416777463
 20
283.5743816126637
 10
724.8926482559404
 20
285.4113060631628
 10
718.7815975049549
 20
286.9669141840364
 10
713.6645781203734
 20
288.0390667527409
  0
LWPOLYLINE
  5
3AE
330
A
100
AcDbEntity
  8
0
  6
Continuous
 62
     7
100
AcDbPolyline
 90
        9
 70
   128
 43
0.0
 10
507.0896885748429
 20
229.3539149581653
 10
504.4432840421816
 20
224.8060720295013
 10
499.6431671194282
 20
216.0856759383184
 10
495.1263493417349
 20
207.2354143940354
 10
490.8970405133814
 20
198.2635177110151
 10
486.9590302915664
 20
189.1780416308153
 10
483.3158464694228
 20
179.9871430445428
 10
479.9707519191009
 20
170.699072633334
 10
477.1923588521269
 20
162.1825881560949
  0
LWPOLYLINE
  5
3B9
330
A
100
AcDbEntity
  8
0
  6
Continuous
 62
     7
100
AcDbPolyline
 90
        9
 70
   128
 43
0.0
 10
481.0126619037524
 20
160.9971411544367
 10
482.5760558334135
 20
165.8897103454772
 10
485.7864431437183
 20
175.1506383384587
 10
489.2961114438249
 20
184.3178828057243
 10
493.1017728870394
 20
193.382827621203
 10
497.1999673734469
 20
202.3372439405145
 10
501.5869692736365
 20
211.1730040923906
 10
506.2587909105742
 20
219.8820889101713
 10
510.5303146662118
 20
227.3137943491346
  0
LWPOLYLINE
  5
3C4
330
A
100
AcDbEntity
  8
0
  6
Continuous
 62
     7
100
AcDbPolyline
 90
        9
 70
   128
 43
0.0
 10
796.0840006260582
 20
227.3137943491345
 10
798.6973429397932
 20
222.8227693488902
 10
803.4650006519713
 20
214.1594128518159
 10
807.9493904621092
 20
205.366515252386
 10
812.1463472814941
 20
196.4522086831852
 10
816.0520559034885
 20
187.4245792328899
 10
819.6629649619721
 20
178.2918166008204
 10
822.9757902462704
 20
169.0622067495016
 10
825.6016533885173
 20
160.9971411544368
  0
LWPOLYLINE
  5
3CF
330
A
100
AcDbEntity
  8
0
  6
Continuous
 62
     7
100
AcDbPolyline
 90
        9
 70
   128
 43
0.0
 10
829.4219564401428
 20
162.1825881560949
 10
827.8380941547855
 20
167.139212759886
 10
824.6075158907455
 20
176.4614621591961
 10
821.0776525000332
 20
185.6898774703399
 10
817.2517299052406
 20
194.8159859648207
 10
813.1331758959854
 20
203.8315994096119
 10
808.7256807768863
 20
212.728627948039
 10
804.0331941670459
 20
221.4990873576503
 10
799.5246267174271
 20
229.3539149581652
  0
LWPOLYLINE
  5
3DA
330
A
100
AcDbEntity
  8
0
  6
Continuous
 62
     7
100
AcDbPolyline
 90
       18
 70
   128
 43
0.0
 10
477.192358852127
 20
162.182588156095
 10
476.5781815886565
 20
160.0512246031958
 10
475.6676473402528
 20
156.020054309011
 10
475.0683807974298
 20
151.9382811658922
 10
474.7835494088811
 20
147.8275001363226
 10
474.8145157409688
 20
143.7086085570883
 10
475.1610547760777
 20
139.6025289750197
 10
475.8213469890137
 20
135.5301632544714
 10
476.792003095274
 20
131.5121629756473
 10
478.0680834528441
 20
127.5689028891992
 10
479.643119915018
 20
123.7203867374557
 10
481.5091428219941
 20
119.98615299988
 10
483.6567139970677
 20
116.3851803445403
 10
486.0749667093728
 20
112.9357930021599
 10
488.7516534545825
 20
109.6555667285384
 10
491.6732021307556
 20
106.5612363726916
 10
494.8247808175313
 20
103.6686062716071
 10
496.209487481266
 20
102.5204500835683
  0
LWPOLYLINE
  5
3EE
330
A
100
AcDbEntity
  8
0
  6
Continuous
 62
     7
100
AcDbPolyline
 90
       17
 70
   128
 43
0.0
 10
498.7168538438912
 20
105.6370369865081
 10
497.0735479479648
 20
107.0109440135108
 10
494.0660611248151
 20
109.823535365551
 10
491.2902307604317
 20
112.8337842001736
 10
488.7612566170045
 20
116.025301064209
 10
486.492880228594
 20
119.3808500164605
 10
484.4974579533097
 20
122.8823102196461
 10
482.7858964529537
 20
126.5107638635224
 10
481.3675925323858
 20
130.2465871545951
 10
480.2503771650002
 20
134.0695452390872
 10
479.4404640508164
 20
137.9588921976378
 10
478.942403719832
 20
141.8934772190615
 10
478.7590448391058
 20
145.8518576828442
 10
478.8915048323791
 20
149.8124191701107
 10
479.3391460685678
 20
153.7534628803196
 10
480.0995621493178
 20
157.6533640403616
 10
481.0126619037525
 20
160.9971411544368
  0
LWPOLYLINE
  5
401
330
A
100
AcDbEntity
  8
0
  6
Continuous
 62
     7
100
AcDbPolyline
 90
       17
 70
   128
 43
0.0
 10
825.6016533885173
 20
160.9971411544368
 10
826.1707909700577
 20
159.0220863461332
 10
827.0407615684218
 20
155.1442456560886
 10
827.5996980988059
 20
151.2167803462314
 10
827.8443519937559
 20
147.2613354788116
 10
827.7732676118327
 20
143.2995018585012
 10
827.3867388312872
 20
139.3529616574054
 10
826.6868306699844
 20
135.4433857898648
 10
825.6773539818908
 20
131.5921749315438
 10
824.3638398838323
 20
127.8204015731396
 10
822.7535023768043
 20
124.1486846883126
 10
820.8551892424202
 20
120.5970705855859
 10
818.6793232126918
 20
117.1849211065071
 10
816.2378353519624
 20
113.930809489079
 10
813.5440922330541
 20
110.8524235859215
 10
810.6128179760252
 20
107.9664757715863
 10
807.8974614483785
 20
105.6370369865082
  0
LWPOLYLINE
  5
414
330
A
100
AcDbEntity
  8
0
  6
Continuous
 62
     7
100
AcDbPolyline
 90
       18
 70
   128
 43
0.0
 10
810.4048278110036
 20
102.5204500835684
 10
812.1640092631688
 20
103.9912417376043
 10
815.2916421066594
 20
106.9096700409217
 10
818.1879019118536
 20
110.029075912166
 10
820.837267504706
 20
113.3328276896833
 10
823.2262259731406
 20
116.8039756462782
 10
825.342618697026
 20
120.4247151105373
 10
827.1757036815495
 20
124.1764849121517
 10
828.7162084599021
 20
128.0400704567395
 10
829.9563727561713
 20
131.9957095343693
 10
830.8899809301804
 20
136.0231992884727
 10
831.5123846821276
 20
140.102002872608
 10
831.8205168922066
 20
144.2113546061589
 10
831.8128977278469
 20
148.3303628731948
 10
831.4896344230467
 20
152.4381086912714
 10
830.8524295111803
 20
156.5136750447143
 10
829.9045569762339
 20
160.5363936458411
 10
829.4219564401428
 20
162.1825881560949
  0
LWPOLYLINE
  5
428
330
A
100
AcDbEntity
  8
0
  6
Continuous
 62
     7
100
AcDbPolyline
 90
       10
 70
   128
 43
0.0
 10
496.209487481266
 20
102.5204500835684
 10
498.1617562606365
 20
101.0050284166139
 10
501.9750460977177
 20
98.33849333412629
 10
505.9701889496552
 20
95.91252304709835
 10
510.1294802980487
 20
93.7379375609815
 10
514.4346609828925
 20
91.82432203370877
 10
518.8668263214238
 20
90.18011335860427
 10
523.4065106350747
 20
88.81256302738718
 10
528.0337739217587
 20
87.72770564176285
 10
532.4844004633225
 20
86.96442890458286
  0
LWPOLYLINE
  5
434
330
A
100
AcDbEntity
  8
0
  6
Continuous
 62
     7
100
AcDbPolyline
 90
       10
 70
   128
 43
0.0
 10
533.0445454615336
 20
90.9250144144512
 10
530.6715681422291
 20
91.30055688277128
 10
526.1544508595608
 20
92.24048504444535
 10
521.7164577777149
 20
93.46307702429859
 10
517.3786991551013
 20
94.96253562321994
 10
513.1612598488914
 20
96.7318814588315
 10
509.0836591495695
 20
98.76289130872558
 10
505.1647616964379
 20
101.0461389881579
 10
501.42269216035
 20
103.5710416506818
 10
498.7168538438912
 20
105.6370369865082
  0
LWPOLYLINE
  5
440
330
A
100
AcDbEntity
  8
0
  6
Continuous
 62
     7
100
AcDbPolyline
 90
       10
 70
   128
 43
0.0
 10
807.8974614483785
 20
105.6370369865082
 10
806.0550785273072
 20
104.2069164895136
 10
802.3562261188477
 20
101.6251593077673
 10
798.4756262235432
 20
99.28223645488804
 10
794.4320272589155
 20
97.189533343616
 10
790.2441915769473
 20
95.35672622060149
 10
785.9315469104489
 20
93.7922890023106
 10
781.5140983276592
 20
92.50345369631075
 10
777.0123365470023
 20
91.49617588978751
 10
773.569769830736
 20
90.9250144144512
  0
LWPOLYLINE
  5
44C
330
A
100
AcDbEntity
  8
0
  6
Continuous
 62
     7
100
AcDbPolyline
 90
       10
 70
   128
 43
0.0
 10
774.1299148289471
 20
86.96442890458286
 10
776.6329874110519
 20
87.36056089519992
 10
781.2910074571796
 20
88.32629917947324
 10
785.8707876235156
 20
89.57719548045202
 10
790.3515045924578
 20
91.10765675027948
 10
794.7134427341879
 20
92.910975552966
 10
798.9374031147053
 20
94.97923866716453
 10
803.0047888969644
 20
97.30335970149962
 10
806.8976890767338
 20
99.87311720194275
 10
810.4048278110036
 20
102.5204500835684
  0
LWPOLYLINE
  5
458
330
A
100
AcDbEntity
  8
0
  6
Continuous
 62
     7
100
AcDbPolyline
 90
        4
 70
   128
 43
0.0
 10
605.1327483543925
 20
87.93037252270035
 10
609.8992999533022
 20
88.69381005631396
 10
619.0219791100004
 20
89.92834490189929
 10
623.1595164349006
 20
90.35459999999991
  0
LWPOLYLINE
  5
45E
330
A
100
AcDbEntity
  8
0
  6
Continuous
 62
     7
100
AcDbPolyline
 90
        3
 70
   128
 43
0.0
 10
683.7511179627838
 20
90.35459999999991
 10
692.5476174983614
 20
89.29450652670956
 10
701.4815669378772
 20
87.93037252270032
  0
LWPOLYLINE
  5
463
330
A
100
AcDbEntity
  8
0
  6
Continuous
 62
     7
100
AcDbPolyline
 90
       11
 70
   128
 43
0.0
 10
532.4844004633225
 20
86.96442890458286
 10
536.8507658205437
 20
86.38831016899523
 10
545.1483319416913
 20
85.52001595568794
 10
553.4756819032419
 20
84.94397687988342
 10
561.8205608308012
 20
84.66106079949428
 10
570.1710160138125
 20
84.67167577372636
 10
578.5150865022732
 20
84.9758095789809
 10
586.8408165234081
 20
85.57302937514286
 10
595.1362802154423
 20
86.46248259448887
 10
602.9565663919344
 20
87.57356086083065
 10
605.1327483543924
 20
87.93037252270027
  0
LWPOLYLINE
  5
470
330
A
100
AcDbEntity
  8
0
  6
Continuous
 62
     7
100
AcDbPolyline
 90
       10
 70
   128
 43
0.0
 10
593.8096302761405
 20
90.35459999999991
 10
592.0058976064114
 20
90.11734819665207
 10
583.7792145208854
 20
89.33102520515898
 10
575.5261997785554
 20
88.8365763614068
 10
567.2588808156881
 20
88.63471994280727
 10
558.9893057820416
 20
88.72574763689033
 10
550.7295272562331
 20
89.10952403392704
 10
542.4915848759156
 20
89.78548657864465
 10
534.7180110181151
 20
90.69453564471807
 10
533.0445454615336
 20
90.9250144144512
  0
LWPOLYLINE
  5
47C
330
A
100
AcDbEntity
  8
0
  6
Continuous
 62
     7
100
AcDbPolyline
 90
        9
 70
   128
 43
0.0
 10
773.5697698307359
 20
90.9250144144512
 10
769.2772381956477
 20
90.35863778051036
 10
761.0593697813482
 20
89.49976527025635
 10
752.8117947847034
 20
88.93247474601492
 10
744.5469147242238
 20
88.657637477662
 10
736.2767742712101
 20
88.67565156019592
 10
728.0134258331827
 20
88.98648810358247
 10
719.768915362525
 20
89.58969093246436
 10
712.7466784198857
 20
90.35459999999991
  0
LWPOLYLINE
  5
487
330
A
100
AcDbEntity
  8
0
  6
Continuous
 62
     7
100
AcDbPolyline
 90
       11
 70
   128
 43
0.0
 10
701.4815669378772
 20
87.93037252270027
 10
705.8284357001261
 20
87.23839516981795
 10
714.0958346046322
 20
86.14985344442962
 10
722.4020041241678
 20
85.35265490397078
 10
730.7347265138283
 20
84.84799196009587
 10
739.0820665406381
 20
84.63659017125655
 10
747.4320679776312
 20
84.71875520041246
 10
755.7727694913678
 20
85.09437231665215
 10
764.0922210650435
 20
85.76290628607585
 10
771.9435409318674
 20
86.66560956880037
 10
774.129914828947
 20
86.96442890458286
  0
ARC
  5
494
330
A
100
AcDbEntity
  8
0
  6
Continuous
 62
     7
100
AcDbCircle
 10
653.4750805162921
 20
8.924999999999878
 30
0.0
 40
351.0000000000001
100
AcDbArc
 50
52.98726503052559
 51
90.0
  0
ARC
  5
495
330
A
100
AcDbEntity
  8
0
  6
Continuous
 62
     7
100
AcDbCircle
 10
653.1392347759765
 20
8.924999999999878
 30
0.0
 40
351.0000000000001
100
AcDbArc
 50
90.0
 51
127.0127349694744
  0
ARC
  5
496
330
A
100
AcDbEntity
  8
0
  6
Continuous
 62
     7
100
AcDbCircle
 10
838.2247905138608
 20
253.9828002821288
 30
0.0
 40
44.10298010032496
100
AcDbArc
 50
2.795005118800822
 51
52.98726503052566
  0
ARC
  5
497
330
A
100
AcDbEntity
  8
0
  6
Continuous
 62
     7
100
AcDbCircle
 10
468.3895247784077
 20
253.9828002821288
 30
0.0
 40
44.10298010032494
100
AcDbArc
 50
127.0127349694742
 51
177.2049948811995
  0
LINE
  5
498
330
A
100
AcDbEntity
  8
0
  6
Continuous
 62
     7
100
AcDbLine
 10
424.3390099303704
 20
256.1333805183701
 30
0.0
 11
419.9620102842205
 21
166.4789306850704
 31
0.0
  0
LINE
  5
499
330
A
100
AcDbEntity
  8
0
  6
Continuous
 62
     7
100
AcDbLine
 10
886.6523050080482
 20
166.4789306850704
 30
0.0
 11
882.2753053618981
 21
256.1333805183701
 31
0.0
  0
ARC
  5
49A
330
A
100
AcDbEntity
  8
0
  6
Continuous
 62
     7
100
AcDbCircle
 10
493.4129284247167
 20
162.8929999999999
 30
0.0
 40
73.53840000000001
100
AcDbArc
 50
177.2049948811995
 51
267.1064994213877
  0
ARC
  5
49B
330
A
100
AcDbEntity
  8
0
  6
Continuous
 62
     7
100
AcDbCircle
 10
813.2013868675519
 20
162.8929999999999
 30
0.0
 40
73.53840000000007
100
AcDbArc
 50
272.893500578614
 51
2.795005118800431
  0
LINE
  5
49C
330
A
100
AcDbEntity
  8
0
  6
Continuous
 62
     7
100
AcDbLine
 10
489.7007358252741
 20
89.44835485370864
 30
0.0
 11
525.0707229530087
 21
87.66061111559915
 31
0.0
  0
LINE
  5
49D
330
A
100
AcDbEntity
  8
0
  6
Continuous
 62
     7
100
AcDbLine
 10
781.5435923392599
 20
87.66061111559915
 30
0.0
 11
816.9135794669944
 21
89.44835485370864
 31
0.0
  0
LINE
  5
49E
330
A
100
AcDbEntity
  8
0
  6
Continuous
 62
     7
100
AcDbLine
 10
518.3071284247167
 20
-36.075
 30
0.0
 11
788.307186867552
 21
-36.075
 31
0.0
  0
LINE
  5
49F
330
A
100
AcDbEntity
  8
0
  6
Continuous
 62
     7
100
AcDbLine
 10
653.4750804960652
 20
359.925
 30
0.0
 11
653.1392347759765
 21
359.925
 31
0.0
  0
LWPOLYLINE
  5
4A0
330
A
100
AcDbEntity
  8
0
  6
Continuous
 62
     7
100
AcDbPolyline
 90
       10
 70
   128
 43
0.0
 10
776.040358836755
 20
252.3990628540655
 10
779.3656750618652
 20
247.6866496016532
 10
785.2834993915904
 20
238.8816456045958
 10
791.104240792414
 20
229.6760828670909
 10
796.8236174770392
 20
220.0767330800407
 10
802.4374222229237
 20
210.0906576074788
 10
807.9415254671488
 20
199.7252022921698
 10
813.3318783441614
 20
188.9879920519447
 10
818.6045156641542
 20
177.886925270745
 10
823.7555588298928
 20
166.4301679885049
  0
LWPOLYLINE
  5
4AC
330
A
100
AcDbEntity
  8
0
  6
Continuous
 62
     7
100
AcDbPolyline
 90
       10
 70
   128
 43
0.0
 10
482.8587564623773
 20
166.4301679885056
 10
488.0097996281159
 20
177.8869252707455
 10
493.2824369481086
 20
188.9879920519452
 10
498.6727898251213
 20
199.7252022921704
 10
504.1768930693463
 20
210.0906576074794
 10
509.790697815231
 20
220.0767330800411
 10
515.5100744998561
 20
229.6760828670913
 10
521.3308159006799
 20
238.8816456045964
 10
527.248640230405
 20
247.6866496016537
 10
530.3254208375512
 20
252.0525718550766
  0
LWPOLYLINE
  5
4B8
330
A
100
AcDbEntity
  8
0
  6
Continuous
 62
     7
100
AcDbPolyline
 90
        8
 70
   128
 43
0.0
 10
550.8316215330747
 20
90.44707994354324
 10
541.6330754774818
 20
91.01594017889416
 10
532.4700342648609
 20
92.20668266713779
 10
523.4767730050939
 20
94.13085555087667
 10
514.7875668080631
 20
96.90000697271344
 10
508.6187081688175
 20
99.56664885273244
 10
502.7497551372381
 20
102.7909915717343
 10
499.3944198278692
 20
105.1196933765437
  0
LINE
  5
4C2
330
A
100
AcDbEntity
  8
0
  6
Continuous
 62
     7
100
AcDbLine
 10
482.0916274293181
 20
164.3737139992174
 30
0.0
 11
482.8587564623774
 21
166.4301679885054
 31
0.0
  0
LINE
  5
4C3
330
A
100
AcDbEntity
  8
0
  6
Continuous
 62
     7
100
AcDbLine
 10
620.5988151089816
 20
88.87227300876054
 30
0.0
 11
612.1535809590294
 21
88.9988726816141
 31
0.0
  0
LINE
  5
4C4
330
A
100
AcDbEntity
  8
0
  6
Continuous
 62
     7
100
AcDbLine
 10
585.484332599872
 20
89.49400383637405
 30
0.0
 11
550.8316215330747
 21
90.44707994354324
 31
0.0
  0
LINE
  5
4C5
330
A
100
AcDbEntity
  8
0
  6
Continuous
 62
     7
100
AcDbLine
 10
632.4379360235082
 20
87.65196413499941
 30
0.0
 11
633.9574620710148
 21
88.18700000000005
 31
0.0
  0
LINE
  5
4C6
330
A
100
AcDbEntity
  8
0
  6
Continuous
 62
     7
100
AcDbLine
 10
632.4379360235082
 20
87.65196413499937
 30
0.0
 11
606.0119334754353
 21
88.07118772347404
 31
0.0
  0
LINE
  5
4C7
330
A
100
AcDbEntity
  8
0
  6
Continuous
 62
     7
100
AcDbLine
 10
573.7642084590569
 20
88.79355524912663
 30
0.0
 11
550.2559564753706
 21
89.44835485370864
 31
0.0
  0
LWPOLYLINE
  5
4C8
330
A
100
AcDbEntity
  8
0
  6
Continuous
 62
     7
100
AcDbPolyline
 90
        4
 70
   128
 43
0.0
 10
550.2559564753706
 20
89.44835485370864
 10
540.9278660707173
 20
90.03011983375932
 10
531.6365125404798
 20
91.24919618340157
 10
522.9055355742366
 20
93.13550621681001
  0
LWPOLYLINE
  5
4CE
330
A
100
AcDbEntity
  8
0
  6
Continuous
 62
     7
100
AcDbPolyline
 90
        8
 70
   128
 43
0.0
 10
487.4956688785747
 20
179.8122632823619
 10
491.8360198929329
 20
188.9817645496172
 10
497.1714236587224
 20
199.7027554217121
 10
502.6192202332262
 20
210.059753563465
 10
508.1754880723965
 20
220.0453035892233
 10
513.836227550187
 20
229.652217496694
 10
519.5973638376454
 20
238.8735798411575
 10
524.3220343950689
 20
246.0370497339513
  0
LWPOLYLINE
  5
4D8
330
A
100
AcDbEntity
  8
0
  6
Continuous
 62
     7
100
AcDbPolyline
 90
        8
 70
   128
 43
0.0
 10
782.3222318944743
 20
245.9927376894718
 10
787.0169514546246
 20
238.8735798411574
 10
792.7780877420831
 20
229.6522174966939
 10
798.4388272198734
 20
220.0453035892232
 10
803.9950950590437
 20
210.0597535634648
 10
809.4428916335477
 20
199.7027554217119
 10
814.778295399337
 20
188.981764549617
 10
819.2710451030094
 20
179.4826912398912
  0
LWPOLYLINE
  5
4E2
330
A
100
AcDbEntity
  8
0
  6
Continuous
 62
     7
100
AcDbPolyline
 90
        4
 70
   128
 43
0.0
 10
783.7444897235372
 20
93.15419294620383
 10
775.2091329006661
 20
91.2827592440945
 10
765.815770618041
 20
90.03922354843997
 10
756.3583588168988
 20
89.44835485370864
  0
LINE
  5
4E8
330
A
100
AcDbEntity
  8
0
  6
Continuous
 62
     7
100
AcDbLine
 10
756.3583588168988
 20
89.44835485370864
 30
0.0
 11
733.018352974577
 21
88.79822129331785
 31
0.0
  0
LINE
  5
4E9
330
A
100
AcDbEntity
  8
0
  6
Continuous
 62
     7
100
AcDbLine
 10
700.5632183245332
 20
88.07059612475656
 30
0.0
 11
674.1763792687613
 21
87.65196413499937
 31
0.0
  0
LINE
  5
4EA
330
A
100
AcDbEntity
  8
0
  6
Continuous
 62
     7
100
AcDbLine
 10
672.6568532212546
 20
88.18700000000005
 30
0.0
 11
674.1763792687613
 21
87.65196413499941
 31
0.0
  0
LINE
  5
4EB
330
A
100
AcDbEntity
  8
0
  6
Continuous
 62
     7
100
AcDbLine
 10
755.7826937591947
 20
90.44707994354324
 30
0.0
 11
721.0916382179113
 21
89.49291500246385
 31
0.0
  0
LINE
  5
4EC
330
A
100
AcDbEntity
  8
0
  6
Continuous
 62
     7
100
AcDbLine
 10
694.4815376895928
 20
88.99921424732498
 30
0.0
 11
686.0154997472218
 21
88.87229189246141
 31
0.0
  0
LINE
  5
4ED
330
A
100
AcDbEntity
  8
0
  6
Continuous
 62
     7
100
AcDbLine
 10
823.7555588298924
 20
166.4301679885054
 30
0.0
 11
824.3226633368784
 21
164.9254261042223
 31
0.0
  0
LWPOLYLINE
  5
4EE
330
A
100
AcDbEntity
  8
0
  6
Continuous
 62
     7
100
AcDbPolyline
 90
        8
 70
   128
 43
0.0
 10
806.9544340533308
 20
104.9050269404651
 10
805.1495592267908
 20
103.6012749841727
 10
798.4713677185594
 20
99.80159014748785
 10
791.3424154651283
 20
96.72307875918493
 10
783.9294210787561
 20
94.33972245292951
 10
774.6937132135501
 20
92.29555451332338
 10
765.2708193977741
 20
91.04047795222482
 10
755.7826937591947
 20
90.44707994354324
  0
LINE
  5
4F8
330
A
100
AcDbEntity
  8
0
  6
PHANTOM
 62
     7
100
AcDbLine
 10
624.7928452527282
 20
288.4006043143835
 30
0.0
 11
681.7706612383992
 21
288.4006043143835
 31
0.0
  0
LWPOLYLINE
  5
4F9
330
A
100
AcDbEntity
  8
0
  6
PHANTOM
 62
     7
100
AcDbPolyline
 90
       10
 70
   128
 43
0.0
 10
592.9496971773704
 20
288.03905909953
 10
592.92213669789
 20
287.8842869067705
 10
592.9543834653584
 20
287.4537647760586
 10
593.0425980046931
 20
286.8131888411507
 10
593.1733504519469
 20
286.0600809813014
 10
593.3267349322997
 20
285.3090950412329
 10
593.4794000490511
 20
284.6745618226163
 10
593.6081039220889
 20
284.2530832559278
 10
593.6932525534464
 20
284.1088256322332
 10
593.6943855125242
 20
284.1089910711884
  0
LWPOLYLINE
  5
505
330
A
100
AcDbEntity
  8
0
  6
PHANTOM
 62
     7
100
AcDbPolyline
 90
       10
 70
   128
 43
0.0
 10
713.664618160397
 20
288.0390590907368
 10
713.6921785943801
 20
287.8842869067705
 10
713.6599318269118
 20
287.4537647760586
 10
713.5717172875772
 20
286.8131888411507
 10
713.4409648403233
 20
286.0600809813014
 10
713.2875803599705
 20
285.3090950412329
 10
713.1349152432189
 20
284.6745618226163
 10
713.0062113701812
 20
284.2530832559278
 10
712.9210627388236
 20
284.1088256322332
 10
712.9199104654142
 20
284.1089949387404
  0
LWPOLYLINE
  5
511
330
A
100
AcDbEntity
  8
0
  6
PHANTOM
 62
     7
100
AcDbPolyline
 90
       10
 70
   128
 43
0.0
 10
507.0897795372818
 20
229.354068217854
 10
507.0580308169896
 20
229.2203445387328
 10
507.1993141378581
 20
228.8643181943456
 10
507.5858100270444
 20
228.4275335845515
 10
508.1586779890144
 20
227.9764872067292
 10
508.8307040696186
 20
227.5798467831565
 10
509.4995783900168
 20
227.2979972227682
 10
510.0634708982894
 20
227.1738475661606
 10
510.4365340717498
 20
227.2262984731328
 10
510.5300676069548
 20
227.3133787685387
  0
LWPOLYLINE
  5
51D
330
A
100
AcDbEntity
  8
0
  6
PHANTOM
 62
     7
100
AcDbPolyline
 90
       10
 70
   128
 43
0.0
 10
799.524536231835
 20
229.3540674151948
 10
799.5562844752805
 20
229.2203445387328
 10
799.415001154412
 20
228.8643181943456
 10
799.0285052652255
 20
228.4275335845515
 10
798.4556373032557
 20
227.9764872067292
 10
797.7836112226514
 20
227.5798467831565
 10
797.114736902253
 20
227.2979972227682
 10
796.5508443939807
 20
227.1738475661606
 10
796.1777812205201
 20
227.2262984731328
 10
796.0842451235926
 20
227.3133830665916
  0
LWPOLYLINE
  5
529
330
A
100
AcDbEntity
  8
0
  6
PHANTOM
 62
     7
100
AcDbPolyline
 90
       10
 70
   128
 43
0.0
 10
477.1923066724248
 20
162.1824197928048
 10
477.1807943322373
 20
162.0949869367098
 10
477.3357663352836
 20
161.7697150326392
 10
477.7597091032498
 20
161.4170625389612
 10
478.3880811927637
 20
161.0907176010355
 10
479.1252186494038
 20
160.8403632773371
 10
479.8588989775645
 20
160.7041137441814
 10
480.4774259981122
 20
160.7027117578863
 10
480.8866345791297
 20
160.8363707581562
 10
481.0126092119648
 20
160.9969715547678
  0
LWPOLYLINE
  5
535
330
A
100
AcDbEntity
  8
0
  6
PHANTOM
 62
     7
100
AcDbPolyline
 90
       10
 70
   128
 43
0.0
 10
829.4220087427303
 20
162.1824193958162
 10
829.4335209600324
 20
162.0949869367098
 10
829.2785489569862
 20
161.7697150326392
 10
828.8546061890199
 20
161.4170625389612
 10
828.2262340995062
 20
161.0907176010355
 10
827.489096642866
 20
160.8403632773371
 10
826.7554163147051
 20
160.7041137441814
 10
826.1368892941575
 20
160.7027117578863
 10
825.7276807131402
 20
160.8363707581562
 10
825.6017011004193
 20
160.9969875657761
  0
LWPOLYLINE
  5
541
330
A
100
AcDbEntity
  8
0
  6
PHANTOM
 62
     7
100
AcDbPolyline
 90
       10
 70
   128
 43
0.0
 10
496.2095891224712
 20
102.5203684029069
 10
496.2590543596722
 20
102.4962742798539
 10
496.5479906096792
 20
102.5665028855481
 10
496.9762547266124
 20
102.8669564216315
 10
497.4786473808924
 20
103.3518935608536
 10
497.978683845106
 20
103.9474870197338
 10
498.4002381004184
 20
104.5630630932259
 10
498.6791323328572
 20
105.1049059043516
 10
498.772907423716
 20
105.4905247969344
 10
498.7171981352657
 20
105.6367589359112
  0
LWPOLYLINE
  5
54D
330
A
100
AcDbEntity
  8
0
  6
PHANTOM
 62
     7
100
AcDbPolyline
 90
       10
 70
   128
 43
0.0
 10
810.4047261607254
 20
102.5203683956239
 10
810.3552609325975
 20
102.496274279854
 10
810.0663246825904
 20
102.5665028855481
 10
809.6380605656573
 20
102.8669564216315
 10
809.1356679113772
 20
103.3518935608536
 10
808.6356314471636
 20
103.9474870197339
 10
808.2140771918513
 20
104.5630630932259
 10
807.9351829594125
 20
105.1049059043517
 10
807.8414078685536
 20
105.4905247969345
 10
807.8970354508683
 20
105.6366926373488
  0
LWPOLYLINE
  5
559
330
A
100
AcDbEntity
  8
0
  6
PHANTOM
 62
     7
100
AcDbPolyline
 90
       10
 70
   128
 43
0.0
 10
532.4844575941362
 20
86.96442109239404
 10
532.4875638334598
 20
86.96474940191292
 10
532.5540101436074
 20
87.13036167329496
 10
532.6524975100705
 20
87.57219380536506
 10
532.7680321240948
 20
88.2229808612338
 10
532.8830248880194
 20
88.98364641104455
 10
532.9799691959485
 20
89.738386020289
 10
533.0441061558023
 20
90.37229742519127
 10
533.0656714968462
 20
90.78887336077611
 10
533.0445465465037
 20
90.92501426090732
  0
LWPOLYLINE
  5
565
330
A
100
AcDbEntity
  8
0
  6
PHANTOM
 62
     7
100
AcDbPolyline
 90
       10
 70
   128
 43
0.0
 10
774.1298578860606
 20
86.96442111721472
 10
774.1267514588098
 20
86.96474940191292
 10
774.0603051486621
 20
87.13036167329496
 10
773.9618177821991
 20
87.57219380536506
 10
773.8462831681748
 20
88.2229808612338
 10
773.7312904042502
 20
88.98364641104455
 10
773.6343460963211
 20
89.738386020289
 10
773.5702091364673
 20
90.37229742519127
 10
773.5486437954234
 20
90.78887336077611
 10
773.5697536989964
 20
90.92501211155337
  0
LWPOLYLINE
  5
571
330
A
100
AcDbEntity
  8
0
  6
PHANTOM
 62
     7
100
AcDbPolyline
 90
        7
 70
   128
 43
0.0
 10
605.1326935894064
 20
87.93036345709241
 10
605.1287768503479
 20
87.93056747493826
 10
605.0498672036131
 20
88.09424713252779
 10
604.9329065585728
 20
88.53321472565829
 10
604.7957011131833
 20
89.18064141752678
 10
604.6591391527348
 20
89.93796236323378
 10
604.5927148726794
 20
90.35459999999991
  0
LWPOLYLINE
  5
57A
330
A
100
AcDbEntity
  8
0
  6
PHANTOM
 62
     7
100
AcDbPolyline
 90
        7
 70
   128
 43
0.0
 10
701.4816078296684
 20
87.93036572021405
 10
701.4855384419217
 20
87.93056747493826
 10
701.5644480886564
 20
88.09424713252779
 10
701.6814087336967
 20
88.53321472565829
 10
701.8186141790863
 20
89.18064141752678
 10
701.9551761395348
 20
89.93796236323378
 10
702.0216004195901
 20
90.35459999999991
  0
LINE
  5
583
330
A
100
AcDbEntity
  8
0
  6
PHANTOM
 62
     7
100
AcDbLine
 10
864.7744545875855
 20
289.1991060409962
 30
0.0
 11
707.0723251302494
 21
289.1991060409962
 31
0.0
  0
LINE
  5
584
330
A
100
AcDbEntity
  8
0
  6
PHANTOM
 62
     7
100
AcDbLine
 10
599.5312943191167
 20
289.1991060409962
 30
0.0
 11
441.8398607046831
 21
289.1991060409962
 31
0.0
  0
LINE
  5
585
330
A
100
AcDbEntity
  8
0
  6
PHANTOM
 62
     7
100
AcDbLine
 10
882.2753053618981
 20
256.1333805183701
 30
0.0
 11
777.7985929006925
 21
256.1333805183701
 31
0.0
  0
LINE
  5
586
330
A
100
AcDbEntity
  8
0
  6
PHANTOM
 62
     7
100
AcDbLine
 10
528.7897844653087
 20
256.1333805183701
 30
0.0
 11
424.3390099303704
 21
256.1333805183701
 31
0.0
  0
LINE
  5
587
330
A
100
AcDbEntity
  8
0
  6
PHANTOM
 62
     7
100
AcDbLine
 10
478.4946043586605
 20
166.4789306850704
 30
0.0
 11
419.9620102842207
 21
166.4789306850704
 31
0.0
  0
LINE
  5
588
330
A
100
AcDbEntity
  8
0
  6
PHANTOM
 62
     7
100
AcDbLine
 10
886.6523050080479
 20
166.4789306850704
 30
0.0
 11
828.0761915940214
 21
166.4789306850704
 31
0.0
  0
LINE
  5
589
330
A
100
AcDbEntity
  8
0
  6
PHANTOM
 62
     7
100
AcDbLine
 10
521.2045040281026
 20
89.44835485370864
 30
0.0
 11
489.7007358252741
 21
89.44835485370864
 31
0.0
  0
LINE
  5
58A
330
A
100
AcDbEntity
  8
0
  6
PHANTOM
 62
     7
100
AcDbLine
 10
816.9135794669944
 20
89.44835485370864
 30
0.0
 11
785.5364221327841
 21
89.44835485370864
 31
0.0
  0
ENDSEC
  0
SECTION
  2
OBJECTS
  0
DICTIONARY
  5
19
330
0
100
AcDbDictionary
281
     1
  3
ACAD_COLOR
350
58F
  3
ACAD_GROUP
350
1A
  3
ACAD_LAYOUT
350
590
  3
ACAD_MATERIAL
350
58E
  3
ACAD_MLINESTYLE
350
1B
  3
ACAD_PLOTSETTINGS
350
591
  3
ACAD_PLOTSTYLENAME
350
58C
  3
ACDBHEADERROUNDTRIPXREC
350
5B1
  3
AcDbVariableDictionary
350
5A2
  3
ASE_INDEX_DICTIONARY
350
5A8
  0
DICTIONARY
  5
58F
102
{ACAD_REACTORS
330
19
102
}
330
19
100
AcDbDictionary
281
     1
  0
DICTIONARY
  5
1A
102
{ACAD_REACTORS
330
19
102
}
330
19
100
AcDbDictionary
281
     1
  0
DICTIONARY
  5
590
102
{ACAD_REACTORS
330
19
102
}
330
19
100
AcDbDictionary
281
     1
  3
Layout1
350
593
  3
Model
350
592
  0
DICTIONARY
  5
58E
102
{ACAD_REACTORS
330
19
102
}
330
19
100
AcDbDictionary
281
     1
  0
DICTIONARY
  5
1B
102
{ACAD_REACTORS
330
19
102
}
330
19
100
AcDbDictionary
281
     1
  3
STANDARD
350
1C
  0
DICTIONARY
  5
591
102
{ACAD_REACTORS
330
19
102
}
330
19
100
AcDbDictionary
281
     1
  0
ACDBDICTIONARYWDFLT
  5
58C
102
{ACAD_REACTORS
330
19
102
}
330
19
100
AcDbDictionary
281
     1
  3
Normal
350
58D
100
AcDbDictionaryWithDefault
340
58D
  0
DICTIONARY
  5
5B1
102
{ACAD_REACTORS
330
19
102
}
330
19
100
AcDbDictionary
281
     1
  0
DICTIONARY
  5
5A2
102
{ACAD_REACTORS
330
19
102
}
330
19
100
AcDbDictionary
281
     1
  3
DIMASSOC
350
5A3
  3
PROJECTNAME
350
5A4
  0
DICTIONARY
  5
5A8
102
{ACAD_REACTORS
330
19
102
}
330
19
100
AcDbDictionary
281
     1
  3
ASEBlockHierarchyIndexRecord
350
5A9
1001
DCO15
1040
1559138592.359
  0
LAYOUT
  5
593
102
{ACAD_XDICTIONARY
360
5B4
102
}
102
{ACAD_REACTORS
330
590
102
}
330
590
100
AcDbPlotSettings
  1

  2
ProgeSOFT PDF Wizard
  4

  6

 40
0.0
 41
0.0
 42
0.0
 43
0.0
 44
0.0
 45
0.0
 46
0.0
 47
0.0
 48
0.0
 49
0.0
140
0.0
141
0.0
142
1.0
143
1.0
 70
   688
 72
     0
 73
     0
 74
     5
  7

 75
    16
147
1.0
148
0.0
149
0.0
100
AcDbLayout
  1
Layout1
 70
     1
 71
     1
 10
0.0
 20
0.0
 11
12.0
 21
9.0
 12
0.0
 22
0.0
 32
0.0
 14
1.000000000000000E+20
 24
1.000000000000000E+20
 34
1.000000000000000E+20
 15
-1.000000000000000E+20
 25
-1.000000000000000E+20
 35
-1.000000000000000E+20
146
0.0
 13
0.0
 23
0.0
 33
0.0
 16
1.0
 26
0.0
 36
0.0
 17
0.0
 27
1.0
 37
0.0
 76
     0
330
B
  0
LAYOUT
  5
592
102
{ACAD_XDICTIONARY
360
5B2
102
}
102
{ACAD_REACTORS
330
590
102
}
330
590
100
AcDbPlotSettings
  1

  2
ProgeSOFT PDF Wizard
  4

  6

 40
0.0
 41
0.0
 42
0.0
 43
0.0
 44
0.0
 45
0.0
 46
0.0
 47
0.0
 48
0.0
 49
0.0
140
0.0
141
0.0
142
1.0
143
1.0
 70
  1712
 72
     0
 73
     0
 74
     0
  7

 75
     0
147
1.0
148
0.0
149
0.0
100
AcDbLayout
  1
Model
 70
     1
 71
     0
 10
0.0
 20
0.0
 11
12.0
 21
9.0
 12
0.0
 22
0.0
 32
0.0
 14
0.0
 24
0.0
 34
0.0
 15
0.0
 25
0.0
 35
0.0
146
0.0
 13
0.0
 23
0.0
 33
0.0
 16
1.0
 26
0.0
 36
0.0
 17
0.0
 27
1.0
 37
0.0
 76
     0
330
A
  0
MLINESTYLE
  5
1C
102
{ACAD_REACTORS
330
1B
102
}
330
1B
100
AcDbMlineStyle
  2
STANDARD
 70
     0
  3

 62
     0
 51
90.0
 52
90.0
 71
     2
 49
0.5
 62
   256
  6
BYLAYER
 49
-0.5
 62
   256
  6
BYLAYER
  0
ACDBPLACEHOLDER
  5
58D
102
{ACAD_REACTORS
330
58C
102
}
330
58C
  0
DICTIONARYVAR
  5
5A3
102
{ACAD_REACTORS
330
5A2
102
}
330
5A2
100
DictionaryVariables
280
     0
  1
1
  0
DICTIONARYVAR
  5
5A4
102
{ACAD_REACTORS
330
5A2
102
}
330
5A2
100
DictionaryVariables
280
     0
  1

  0
XRECORD
  5
5A9
102
{ACAD_REACTORS
330
5A8
102
}
330
5A8
100
AcDbXrecord
280
     1
  0
DICTIONARY
  5
5B4
330
593
100
AcDbDictionary
280
     1
281
     1
  3
ACAD_XREC_ROUNDTRIP
360
5B5
  0
DICTIONARY
  5
5B2
330
592
100
AcDbDictionary
280
     1
281
     1
  3
ACAD_XREC_ROUNDTRIP
360
5B3
  0
XRECORD
  5
5B5
102
{ACAD_REACTORS
330
5B4
102
}
330
5B4
100
AcDbXrecord
280
     1
102
SHADEPLOT
 70
     0
102
SHADEPLOTRESLEVEL
 70
     2
102
SHADEPLOTCUSTOMDPI
 70
   300
  0
XRECORD
  5
5B3
102
{ACAD_REACTORS
330
5B2
102
}
330
5B2
100
AcDbXrecord
280
     1
102
SHADEPLOT
 70
     0
102
SHADEPLOTRESLEVEL
 70
     2
102
SHADEPLOTCUSTOMDPI
 70
   300
  0
ENDSEC
  0
EOF
