  0
SECTION
  2
HEADER
  9
$ACADVER
  1
AC1015
  9
$ACADMAINTVER
 70
    20
  9
$DWGCODEPAGE
  3
ANSI_1252
  9
$INSBASE
 10
0.0
 20
0.0
 30
0.0
  9
$EXTMIN
 10
-178.477924664818
 20
-931.0529838556213
 30
0.0
  9
$EXTMAX
 10
872.789675462749
 20
683.9274080219008
 30
0.0
  9
$LIMMIN
 10
0.0
 20
0.0
  9
$LIMMAX
 10
0.0
 20
0.0
  9
$ORTHOMODE
 70
     0
  9
$REGENMODE
 70
     1
  9
$FILLMODE
 70
     1
  9
$QTEXTMODE
 70
     0
  9
$MIRRTEXT
 70
     1
  9
$LTSCALE
 40
1.0
  9
$ATTMODE
 70
     1
  9
$TEXTSIZE
 40
0.0
  9
$TRACEWID
 40
0.05
  9
$TEXTSTYLE
  7
STANDARD
  9
$CLAYER
  8
0
  9
$CELTYPE
  6
CONTINUOUS
  9
$CECOLOR
 62
   256
  9
$CELTSCALE
 40
1.0
  9
$DISPSILH
 70
     0
  9
$DIMSCALE
 40
1.0
  9
$DIMASZ
 40
6.0
  9
$DIMEXO
 40
1.0
  9
$DIMDLI
 40
0.38
  9
$DIMRND
 40
0.0
  9
$DIMDLE
 40
1.0
  9
$DIMEXE
 40
0.18
  9
$DIMTP
 40
0.0
  9
$DIMTM
 40
0.0
  9
$DIMTXT
 40
3.5
  9
$DIMCEN
 40
0.09
  9
$DIMTSZ
 40
0.0
  9
$DIMTOL
 70
     0
  9
$DIMLIM
 70
     0
  9
$DIMTIH
 70
     1
  9
$DIMTOH
 70
     1
  9
$DIMSE1
 70
     0
  9
$DIMSE2
 70
     0
  9
$DIMTAD
 70
     1
  9
$DIMZIN
 70
     0
  9
$DIMBLK
  1

  9
$DIMASO
 70
     1
  9
$DIMSHO
 70
     1
  9
$DIMPOST
  1

  9
$DIMAPOST
  1

  9
$DIMALT
 70
     0
  9
$DIMALTD
 70
     2
  9
$DIMALTF
 40
0.0394
  9
$DIMLFAC
 40
1.0
  9
$DIMTOFL
 70
     0
  9
$DIMTVP
 40
0.0
  9
$DIMTIX
 70
     0
  9
$DIMSOXD
 70
     0
  9
$DIMSAH
 70
     0
  9
$DIMBLK1
  1

  9
$DIMBLK2
  1

  9
$DIMSTYLE
  2
STANDARD
  9
$DIMCLRD
 70
     0
  9
$DIMCLRE
 70
     0
  9
$DIMCLRT
 70
     0
  9
$DIMTFAC
 40
1.0
  9
$DIMGAP
 40
1.0
  9
$DIMJUST
 70
     0
  9
$DIMSD1
 70
     0
  9
$DIMSD2
 70
     0
  9
$DIMTOLJ
 70
     1
  9
$DIMTZIN
 70
     0
  9
$DIMALTZ
 70
     0
  9
$DIMALTTZ
 70
     0
  9
$DIMUPT
 70
     0
  9
$DIMDEC
 70
     4
  9
$DIMTDEC
 70
     4
  9
$DIMALTU
 70
     2
  9
$DIMALTTD
 70
     2
  9
$DIMTXSTY
  7
STANDARD
  9
$DIMAUNIT
 70
     0
  9
$DIMADEC
 70
     0
  9
$DIMALTRND
 40
0.0
  9
$DIMAZIN
 70
     0
  9
$DIMDSEP
 70
    46
  9
$DIMATFIT
 70
     3
  9
$DIMFRAC
 70
     0
  9
$DIMLDRBLK
  1

  9
$DIMLUNIT
 70
     2
  9
$DIMLWD
 70
    -2
  9
$DIMLWE
 70
    -2
  9
$DIMTMOVE
 70
     0
  9
$LUNITS
 70
     2
  9
$LUPREC
 70
     2
  9
$SKETCHINC
 40
0.1
  9
$FILLETRAD
 40
0.0
  9
$AUNITS
 70
     0
  9
$AUPREC
 70
     2
  9
$MENU
  1
acad
  9
$ELEVATION
 40
0.0
  9
$PELEVATION
 40
0.0
  9
$THICKNESS
 40
0.0
  9
$LIMCHECK
 70
     0
  9
$CHAMFERA
 40
0.0
  9
$CHAMFERB
 40
0.0
  9
$CHAMFERC
 40
0.0
  9
$CHAMFERD
 40
0.0
  9
$SKPOLY
 70
     0
  9
$TDCREATE
 40
2444972.041666667
  9
$TDUCREATE
 40
2444972.000000000
  9
$TDUPDATE
 40
2453768.817105938
  9
$TDUUPDATE
 40
2453768.775439271
  9
$TDINDWG
 40
0.0003275116
  9
$TDUSRTIMER
 40
0.0003275116
  9
$USRTIMER
 70
     1
  9
$ANGBASE
 50
0.0
  9
$ANGDIR
 70
     0
  9
$PDMODE
 70
     0
  9
$PDSIZE
 40
-1.0
  9
$PLINEWID
 40
0.0
  9
$SPLFRAME
 70
     0
  9
$SPLINETYPE
 70
     6
  9
$SPLINESEGS
 70
     8
  9
$HANDSEED
  5
AE0
  9
$SURFTAB1
 70
     6
  9
$SURFTAB2
 70
     6
  9
$SURFTYPE
 70
     6
  9
$SURFU
 70
     6
  9
$SURFV
 70
     6
  9
$UCSBASE
  2

  9
$UCSNAME
  2

  9
$UCSORG
 10
0.0
 20
0.0
 30
0.0
  9
$UCSXDIR
 10
1.0
 20
0.0
 30
0.0
  9
$UCSYDIR
 10
0.0
 20
1.0
 30
0.0
  9
$UCSORTHOREF
  2

  9
$UCSORTHOVIEW
 70
     1
  9
$UCSORGTOP
 10
0.0
 20
0.0
 30
0.0
  9
$UCSORGBOTTOM
 10
0.0
 20
0.0
 30
0.0
  9
$UCSORGLEFT
 10
0.0
 20
0.0
 30
0.0
  9
$UCSORGRIGHT
 10
0.0
 20
0.0
 30
0.0
  9
$UCSORGFRONT
 10
0.0
 20
0.0
 30
0.0
  9
$UCSORGBACK
 10
0.0
 20
0.0
 30
0.0
  9
$PUCSBASE
  2

  9
$PUCSNAME
  2

  9
$PUCSORG
 10
0.0
 20
0.0
 30
0.0
  9
$PUCSXDIR
 10
1.0
 20
0.0
 30
0.0
  9
$PUCSYDIR
 10
0.0
 20
1.0
 30
0.0
  9
$PUCSORTHOREF
  2

  9
$PUCSORTHOVIEW
 70
     0
  9
$PUCSORGTOP
 10
0.0
 20
0.0
 30
0.0
  9
$PUCSORGBOTTOM
 10
0.0
 20
0.0
 30
0.0
  9
$PUCSORGLEFT
 10
0.0
 20
0.0
 30
0.0
  9
$PUCSORGRIGHT
 10
0.0
 20
0.0
 30
0.0
  9
$PUCSORGFRONT
 10
0.0
 20
0.0
 30
0.0
  9
$PUCSORGBACK
 10
0.0
 20
0.0
 30
0.0
  9
$USERI1
 70
     0
  9
$USERI2
 70
     0
  9
$USERI3
 70
     0
  9
$USERI4
 70
     0
  9
$USERI5
 70
     0
  9
$USERR1
 40
0.0
  9
$USERR2
 40
0.0
  9
$USERR3
 40
0.0
  9
$USERR4
 40
0.0
  9
$USERR5
 40
0.0
  9
$WORLDVIEW
 70
     1
  9
$SHADEDGE
 70
     3
  9
$SHADEDIF
 70
    70
  9
$TILEMODE
 70
     1
  9
$MAXACTVP
 70
    16
  9
$PINSBASE
 10
0.0
 20
0.0
 30
0.0
  9
$PLIMCHECK
 70
     0
  9
$PEXTMIN
 10
1.000000000000000E+20
 20
1.000000000000000E+20
 30
1.000000000000000E+20
  9
$PEXTMAX
 10
-1.000000000000000E+20
 20
-1.000000000000000E+20
 30
-1.000000000000000E+20
  9
$PLIMMIN
 10
0.0
 20
0.0
  9
$PLIMMAX
 10
12.0
 20
9.0
  9
$UNITMODE
 70
     0
  9
$VISRETAIN
 70
     0
  9
$PLINEGEN
 70
     1
  9
$PSLTSCALE
 70
     1
  9
$TREEDEPTH
 70
  3020
  9
$CMLSTYLE
  2
STANDARD
  9
$CMLJUST
 70
     0
  9
$CMLSCALE
 40
1.0
  9
$PROXYGRAPHICS
 70
     0
  9
$MEASUREMENT
 70
     0
  9
$CELWEIGHT
370
    -1
  9
$ENDCAPS
280
     0
  9
$JOINSTYLE
280
     0
  9
$LWDISPLAY
290
     0
  9
$INSUNITS
 70
     0
  9
$HYPERLINKBASE
  1

  9
$STYLESHEET
  1

  9
$XEDIT
290
     1
  9
$CEPSNTYPE
380
     0
  9
$PSTYLEMODE
290
     1
  9
$FINGERPRINTGUID
  2
{3F033B0C-D741-4CDD-A2B4-E3DE27FF2C81}
  9
$VERSIONGUID
  2
{C783A909-E846-43C4-8066-56823F95D7FE}
  9
$EXTNAMES
290
     1
  9
$PSVPSCALE
 40
0.0
  9
$OLESTARTUP
290
     0
  0
ENDSEC
  0
SECTION
  2
CLASSES
  0
CLASS
  1
IMAGE
  2
AcDbRasterImage
  3
ISM
 90
    32895
280
     0
281
     1
  0
CLASS
  1
DICTIONARYVAR
  2
AcDbDictionaryVar
  3
ObjectDBX Classes
 90
        0
280
     0
281
     0
  0
CLASS
  1
RASTERVARIABLES
  2
AcDbRasterVariables
  3
ISM
 90
    32768
280
     0
281
     0
  0
CLASS
  1
IMAGEDEF
  2
AcDbRasterImageDef
  3
ISM
 90
    32768
280
     0
281
     0
  0
CLASS
  1
IMAGEDEF_REACTOR
  2
AcDbRasterImageDefReactor
  3
ISM
 90
    32769
280
     0
281
     0
  0
CLASS
  1
IDBUFFER
  2
AcDbIdBuffer
  3
ObjectDBX Classes
 90
    32768
280
     0
281
     0
  0
CLASS
  1
SPATIAL_FILTER
  2
AcDbSpatialFilter
  3
ObjectDBX Classes
 90
    32768
280
     0
281
     0
  0
CLASS
  1
SORTENTSTABLE
  2
AcDbSortentsTable
  3
ObjectDBX Classes
 90
    32768
280
     0
281
     0
  0
CLASS
  1
LAYER_INDEX
  2
AcDbLayerIndex
  3
ObjectDBX Classes
 90
    32768
280
     0
281
     0
  0
CLASS
  1
SPATIAL_INDEX
  2
AcDbSpatialIndex
  3
ObjectDBX Classes
 90
    32768
280
     0
281
     0
  0
CLASS
  1
OBJECT_PTR
  2
CAseDLPNTableRecord
  3
ASE-LPNTableRecord
 90
    32769
280
     0
281
     0
  0
CLASS
  1
LAYOUT
  2
AcDbLayout
  3
ObjectDBX Classes
 90
        0
280
     0
281
     0
  0
CLASS
  1
PLOTSETTINGS
  2
AcDbPlotSettings
  3
ObjectDBX Classes
 90
    32768
280
     0
281
     0
  0
CLASS
  1
ACDBDICTIONARYWDFLT
  2
AcDbDictionaryWithDefault
  3
ObjectDBX Classes
 90
        0
280
     0
281
     0
  0
CLASS
  1
ACDBPLACEHOLDER
  2
AcDbPlaceHolder
  3
ObjectDBX Classes
 90
        0
280
     0
281
     0
  0
CLASS
  1
VBA_PROJECT
  2
AcDbVbaProject
  3
acad
 90
    32768
280
     0
281
     0
  0
CLASS
  1
WIPEOUT
  2
AcDbWipeout
  3
"WipeOut|Product Desc: Object Enabler for WipeOut entity^I^I^I^I^I^I|Company: Autodesk, Inc.^I^I^I^I^I^I|WEB Address: www.autodesk.com"
 90
    32895
280
     0
281
     1
  0
CLASS
  1
WIPEOUTVARIABLES
  2
AcDbWipeoutVariables
  3
"WipeOut|Product Desc:     WipeOut Dbx Application|Company:          Autodesk, Inc.|WEB Address:      www.autodesk.com"
 90
    32768
280
     0
281
     0
  0
CLASS
  1
RTEXT
  2
RText
  3
RText|AutoCAD Express Tool|expresstools@autodesk.com
 90
    32768
280
     0
281
     1
  0
CLASS
  1
ARCALIGNEDTEXT
  2
AcDbArcAlignedText
  3
ATEXT|AutoCAD Express Tool|expresstools@autodesk.com
 90
    32768
280
     0
281
     1
  0
ENDSEC
  0
SECTION
  2
TABLES
  0
TABLE
  2
VPORT
  5
7
330
0
100
AcDbSymbolTable
 70
     2
  0
VPORT
  5
AD8
330
7
100
AcDbSymbolTableRecord
100
AcDbViewportTableRecord
  2
*Active
 70
     0
 10
0.0
 20
0.0
 11
1.0
 21
1.0
 12
434.4206799722376
 22
-123.5627879168602
 13
0.0
 23
0.0
 14
1.0
 24
1.0
 15
0.0
 25
0.0
 16
0.0
 26
0.0
 36
1.0
 17
0.0
 27
0.0
 37
0.0
 40
1628.217936073239
 41
1.569570871261378
 42
50.0
 43
0.0
 44
0.0
 50
0.0
 51
0.0
 71
     0
 72
  2000
 73
     1
 74
     1
 75
     0
 76
     0
 77
     0
 78
     0
281
     0
 65
     1
110
0.0
120
0.0
130
0.0
111
1.0
121
0.0
131
0.0
112
0.0
122
1.0
132
0.0
 79
     1
146
0.0
  0
ENDTAB
  0
TABLE
  2
LTYPE
  5
4
330
0
100
AcDbSymbolTable
 70
     6
  0
LTYPE
  5
11
330
4
100
AcDbSymbolTableRecord
100
AcDbLinetypeTableRecord
  2
BYBLOCK
 70
     0
  3

 72
    65
 73
     0
 40
0.0
  0
LTYPE
  5
12
330
4
100
AcDbSymbolTableRecord
100
AcDbLinetypeTableRecord
  2
BYLAYER
 70
     0
  3

 72
    65
 73
     0
 40
0.0
  0
LTYPE
  5
13
330
4
100
AcDbSymbolTableRecord
100
AcDbLinetypeTableRecord
  2
CONTINUOUS
 70
     0
  3
Solid line
 72
    65
 73
     0
 40
0.0
  0
LTYPE
  5
1E
330
4
100
AcDbSymbolTableRecord
100
AcDbLinetypeTableRecord
  2
HIDDEN
 70
     0
  3
Hidden __ __ __ __ __ __ __ __ __ __ __ __ __ __
 72
    65
 73
     2
 40
1.905
 49
1.27
 74
     0
 49
-0.635
 74
     0
  0
LTYPE
  5
1F
330
4
100
AcDbSymbolTableRecord
100
AcDbLinetypeTableRecord
  2
PHANTOM
 70
     0
  3
Phantom ______  __  __  ______  __  __  ______
 72
    65
 73
     6
 40
12.7
 49
6.349999999999999
 74
     0
 49
-1.27
 74
     0
 49
1.27
 74
     0
 49
-1.27
 74
     0
 49
1.27
 74
     0
 49
-1.27
 74
     0
  0
LTYPE
  5
20
330
4
100
AcDbSymbolTableRecord
100
AcDbLinetypeTableRecord
  2
CENTER
 70
     0
  3
Center ____ _ ____ _ ____ _ ____ _ ____ _ ____
 72
    65
 73
     4
 40
10.16
 49
6.349999999999999
 74
     0
 49
-1.27
 74
     0
 49
1.27
 74
     0
 49
-1.27
 74
     0
  0
LTYPE
  5
21
330
4
100
AcDbSymbolTableRecord
100
AcDbLinetypeTableRecord
  2
CENTERX2
 70
     0
  3
Center (2x) ________  __  ________  __  _____
 72
    65
 73
     4
 40
20.32
 49
12.7
 74
     0
 49
-2.54
 74
     0
 49
2.54
 74
     0
 49
-2.54
 74
     0
  0
LTYPE
  5
22
330
4
100
AcDbSymbolTableRecord
100
AcDbLinetypeTableRecord
  2
DOT2
 70
     0
  3
Dot (.5x) ........................................
 72
    65
 73
     2
 40
0.635
 49
0.0
 74
     0
 49
-0.635
 74
     0
  0
ENDTAB
  0
TABLE
  2
LAYER
  5
2
330
0
100
AcDbSymbolTable
 70
     2
  0
LAYER
  5
14
330
2
100
AcDbSymbolTableRecord
100
AcDbLayerTableRecord
  2
0
 70
     0
 62
     7
  6
CONTINUOUS
370
    -3
390
ABD
  0
LAYER
  5
26
330
2
100
AcDbSymbolTableRecord
100
AcDbLayerTableRecord
  2
DEFPOINTS
 70
     0
 62
     7
  6
CONTINUOUS
290
     0
370
    -3
390
ABD
  0
ENDTAB
  0
TABLE
  2
STYLE
  5
3
330
0
100
AcDbSymbolTable
 70
     1
  0
STYLE
  5
17
330
3
100
AcDbSymbolTableRecord
100
AcDbTextStyleTableRecord
  2
STANDARD
 70
     0
 40
0.0
 41
1.0
 50
0.0
 71
     0
 42
0.0
  3
Century Gothic
  4

  0
ENDTAB
  0
TABLE
  2
VIEW
  5
5
330
0
100
AcDbSymbolTable
 70
     0
  0
ENDTAB
  0
TABLE
  2
UCS
  5
6
330
0
100
AcDbSymbolTable
 70
     0
  0
ENDTAB
  0
TABLE
  2
APPID
  5
8
330
0
100
AcDbSymbolTable
 70
     2
  0
APPID
  5
16
330
8
100
AcDbSymbolTableRecord
100
AcDbRegAppTableRecord
  2
ACAD
 70
     0
  0
APPID
  5
AC8
330
8
100
AcDbSymbolTableRecord
100
AcDbRegAppTableRecord
  2
DCO15
 70
     0
  0
ENDTAB
  0
TABLE
  2
DIMSTYLE
  5
9
330
0
100
AcDbSymbolTable
 70
     1
100
AcDbDimStyleTable
 71
     0
  0
DIMSTYLE
105
18
330
9
100
AcDbSymbolTableRecord
100
AcDbDimStyleTableRecord
  2
STANDARD
 70
     0
289
     0
340
17
  0
ENDTAB
  0
TABLE
  2
BLOCK_RECORD
  5
1
330
0
100
AcDbSymbolTable
 70
     0
  0
BLOCK_RECORD
  5
A
330
1
100
AcDbSymbolTableRecord
100
AcDbBlockTableRecord
  2
*MODEL_SPACE
340
AC2
  0
BLOCK_RECORD
  5
B
330
1
100
AcDbSymbolTableRecord
100
AcDbBlockTableRecord
  2
*PAPER_SPACE
340
AC3
  0
ENDTAB
  0
ENDSEC
  0
SECTION
  2
BLOCKS
  0
BLOCK
  5
D
330
A
100
AcDbEntity
  8
0
100
AcDbBlockBegin
  2
*MODEL_SPACE
 70
     0
 10
0.0
 20
0.0
 30
0.0
  3
*MODEL_SPACE
  1

  0
ENDBLK
  5
E
330
A
100
AcDbEntity
  8
0
100
AcDbBlockEnd
  0
BLOCK
  5
F
330
B
100
AcDbEntity
 67
     1
  8
0
100
AcDbBlockBegin
  2
*PAPER_SPACE
 70
     0
 10
0.0
 20
0.0
 30
0.0
  3
*PAPER_SPACE
  1

  0
ENDBLK
  5
10
330
B
100
AcDbEntity
 67
     1
  8
0
100
AcDbBlockEnd
  0
ENDSEC
  0
SECTION
  2
ENTITIES
  0
LWPOLYLINE
  5
27
330
A
100
AcDbEntity
  8
0
  6
Continuous
 62
     7
100
AcDbPolyline
 90
        6
 70
   128
 43
0.0
 10
129.3626986641264
 20
-302.254615619669
 10
129.3891163142336
 20
-302.6750774700112
 10
129.8863834711979
 20
-306.1562986826191
 10
130.7566652626702
 20
-309.9479021620252
 10
131.9424946684377
 20
-313.6081451141577
 10
132.9124501525749
 20
-315.9936901159178
  0
LWPOLYLINE
  5
2F
330
A
100
AcDbEntity
  8
0
  6
Continuous
 62
     7
100
AcDbPolyline
 90
       10
 70
   128
 43
0.0
 10
325.3734057374388
 20
-239.8097801753568
 10
324.9678699787409
 20
-236.5861273593648
 10
324.1590628080532
 20
-232.7712165131885
 10
323.0308187619334
 20
-229.0820594459767
 10
321.6065597681426
 20
-225.5544164713483
 10
319.9085850357694
 20
-222.2078529659144
 10
317.9598145811756
 20
-219.0589816673675
 10
315.7840505947689
 20
-216.1223914627834
 10
313.4054004850764
 20
-213.4099408440657
 10
310.9498084497976
 20
-211.0294923039743
  0
LWPOLYLINE
  5
3B
330
A
100
AcDbEntity
  8
0
  6
Continuous
 62
     7
100
AcDbPolyline
 90
        7
 70
   128
 43
0.0
 10
132.9124501525749
 20
-315.9936901159178
 10
134.4838270065443
 20
-319.1979802093397
 10
136.3876909331506
 20
-322.3841918384873
 10
138.5232233867734
 20
-325.3610560311713
 10
140.8661444179425
 20
-328.1158082174782
 10
143.3919188702066
 20
-330.6383876752914
 10
143.8214001868774
 20
-331.0036960186323
  0
LWPOLYLINE
  5
44
330
A
100
AcDbEntity
  8
0
  6
Continuous
 62
     7
100
AcDbPolyline
 90
        8
 70
   128
 43
0.0
 10
126.8461022987512
 20
-219.2055409253684
 10
126.5662866418316
 20
-228.503278146085
 10
126.4539031970294
 20
-243.0826663179157
 10
126.6676139567216
 20
-257.6640507356063
 10
127.2071381458459
 20
-272.237961050256
 10
128.0718837759463
 20
-286.795268071159
 10
129.2609779116544
 20
-301.3271426181972
 10
129.3589592322852
 20
-302.266446005124
  0
LWPOLYLINE
  5
4E
330
A
100
AcDbEntity
  8
0
  6
Continuous
 62
     7
100
AcDbPolyline
 90
        8
 70
   128
 43
0.0
 10
310.9476773022227
 20
-211.0335858067719
 10
310.2193490244003
 20
-210.3645452450225
 10
299.63771599839
 20
-201.0569794419716
 10
288.8781323028961
 20
-191.996427541713
 10
277.9477582648141
 20
-183.1869080607287
 10
266.8540124591435
 20
-174.6323141547021
 10
255.6045956393184
 20
-166.336410929097
 10
245.8427110969914
 20
-159.4554475141628
  0
LWPOLYLINE
  5
58
330
A
100
AcDbEntity
  8
0
  6
Continuous
 62
     7
100
AcDbPolyline
 90
       10
 70
   128
 43
0.0
 10
245.8742783339973
 20
-159.4068844483696
 10
242.0041797976737
 20
-156.7365857895498
 10
232.8337039526661
 20
-150.0124770561876
 10
223.8500526311708
 20
-143.0201699666126
 10
215.064802022327
 20
-135.7681650950434
 10
206.488379399909
 20
-128.2649895667183
 10
198.1302328029573
 20
-120.5191934452092
 10
189.9989696949363
 20
-112.5393507678148
 10
182.1024694800518
 20
-104.3340631794399
 10
178.616465039635
 20
-100.4984774556699
  0
LWPOLYLINE
  5
64
330
A
100
AcDbEntity
  8
0
  6
Continuous
 62
     7
100
AcDbPolyline
 90
       10
 70
   128
 43
0.0
 10
119.6609890976628
 20
-130.1077224358783
 10
121.5400789376062
 20
-140.4358182045713
 10
123.2096976196851
 20
-151.310087551986
 10
124.5750953843941
 20
-162.1957857448384
 10
125.6372997963969
 20
-173.0822055471295
 10
126.3977628964672
 20
-183.9584038922351
 10
126.858394976784
 20
-194.8131645034206
 10
127.0216058871718
 20
-205.6349535600574
 10
126.8903554163139
 20
-216.4118675615967
 10
126.7805407190318
 20
-219.2004654336787
  0
LWPOLYLINE
  5
70
330
A
100
AcDbEntity
  8
0
  6
Continuous
 62
     7
100
AcDbPolyline
 90
        8
 70
   128
 43
0.0
 10
321.458951306691
 20
-249.3893531027653
 10
321.7332563166963
 20
-248.8952425406906
 10
322.3706931021987
 20
-247.272238949886
 10
322.7157408914413
 20
-245.7708822985724
 10
322.8068158465549
 20
-244.3185211773661
 10
322.6424843256491
 20
-242.8971944157041
 10
322.212569527573
 20
-241.5295588355495
 10
321.9759043519484
 20
-241.1033292310544
  0
LWPOLYLINE
  5
7A
330
A
100
AcDbEntity
  8
0
  6
Continuous
 62
     7
100
AcDbPolyline
 90
        8
 70
   128
 43
0.0
 10
146.9110224763591
 20
-329.1046809480493
 10
147.4244859613837
 20
-330.0176402291522
 10
148.3841217961412
 20
-331.1388947618639
 10
149.4988850828685
 20
-332.0321785880835
 10
150.7485917845859
 20
-332.7266216420277
 10
152.1606694324545
 20
-333.2534016829005
 10
153.8147336953296
 20
-333.6291809067868
 10
153.9205886712095
 20
-333.6403649514006
  0
LINE
  5
84
330
A
100
AcDbEntity
  8
0
  6
Continuous
 62
     7
100
AcDbLine
 10
144.9137358578548
 20
-325.1891305432339
 30
0.0
 11
146.88742775676
 21
-329.1165809138654
 31
0.0
  0
LINE
  5
85
330
A
100
AcDbEntity
  8
0
  6
Continuous
 62
     7
100
AcDbLine
 10
322.0166446601703
 20
-241.1065966583687
 30
0.0
 11
320.0433368045116
 21
-237.1799101611355
 31
0.0
  0
LWPOLYLINE
  5
86
330
A
100
AcDbEntity
  8
0
  6
Continuous
 62
     7
100
AcDbPolyline
 90
       10
 70
   128
 43
0.0
 10
300.8987063146552
 20
-271.5993169268121
 10
303.9345479258562
 20
-269.2189611104601
 10
307.1983663794898
 20
-266.4916921931963
 10
310.4648239037289
 20
-263.5331797859224
 10
313.8364587038792
 20
-260.1260304351538
 10
316.1044275333561
 20
-257.5300600725124
 10
317.9628043679242
 20
-255.129248946772
 10
319.5524139724285
 20
-252.7914154411599
 10
320.9381220613411
 20
-250.4394654059199
 10
321.5026875592807
 20
-249.3113130685897
  0
LWPOLYLINE
  5
92
330
A
100
AcDbEntity
  8
0
  6
Continuous
 62
     7
100
AcDbPolyline
 90
       11
 70
   128
 43
0.0
 10
153.7534443053485
 20
-333.600996676561
 10
155.5496732335111
 20
-333.8911849128072
 10
158.1424091878596
 20
-334.1398184995754
 10
160.8210073680674
 20
-334.2331959082494
 10
163.6731170966614
 20
-334.1684809249735
 10
166.8410109586958
 20
-333.9216907902389
 10
170.5500568227289
 20
-333.432478860583
 10
175.0314596606915
 20
-332.6038735903345
 10
179.1918685228349
 20
-331.6465923736398
 10
183.2064512081217
 20
-330.5835833518833
 10
184.8547441485597
 20
-330.0985127129461
  0
ARC
  5
9F
330
A
100
AcDbEntity
  8
0
  6
Continuous
 62
     7
100
AcDbCircle
 10
88.04215285165842
 20
6.229526620698866
 30
0.0
 40
350.0000000000007
100
AcDbArc
 50
285.9037406108173
 51
296.6096789423444
  0
ARC
  5
A0
330
A
100
AcDbEntity
  8
0
  6
Continuous
 62
     7
100
AcDbCircle
 10
88.04215285165842
 20
6.229526620698866
 30
0.0
 40
350.0000000000007
100
AcDbArc
 50
296.6096789423444
 51
307.458761331347
  0
LWPOLYLINE
  5
A1
330
A
100
AcDbEntity
  8
0
  6
Continuous
 62
     7
100
AcDbPolyline
 90
        4
 70
   128
 43
0.0
 10
259.5789579249166
 20
-292.2908056030813
 10
260.15238626074
 20
-292.2765617821663
 10
260.4730680483605
 20
-292.3197488331719
 10
260.4978439809672
 20
-292.3249962864936
  0
LWPOLYLINE
  5
A7
330
A
100
AcDbEntity
  8
0
  6
Continuous
 62
     7
100
AcDbPolyline
 90
        4
 70
   128
 43
0.0
 10
224.6957127758192
 20
-310.3126680103995
 10
224.6999908273186
 20
-310.3143508256199
 10
224.8334347756637
 20
-310.0580999115098
 10
225.1481924682637
 20
-309.6400764918643
  0
LWPOLYLINE
  5
AD
330
A
100
AcDbEntity
  8
0
  6
Continuous
 62
     7
100
AcDbPolyline
 90
       13
 70
   128
 43
0.0
 10
86.80619047489159
 20
-24.78555736983868
 10
88.07506461672165
 20
-27.26661851692746
 10
92.5446394473953
 20
-36.69966950583814
 10
96.71943849443568
 20
-46.24545059024032
 10
100.5969509911566
 20
-55.8938000851118
 10
104.1750307609289
 20
-65.63449263959076
 10
107.4518846720875
 20
-75.45720727320182
 10
110.4260761951954
 20
-85.35152014396363
 10
113.0965312569031
 20
-95.30689543008431
 10
115.4625466083678
 20
-105.3126738605469
 10
117.5238010466276
 20
-115.3580583414062
 10
119.28036996902
 20
-125.4320960343979
 10
119.8531789161906
 20
-129.4121563880729
  0
LWPOLYLINE
  5
BC
330
A
100
AcDbEntity
  8
0
  6
Continuous
 62
     7
100
AcDbPolyline
 90
       12
 70
   128
 43
0.0
 10
177.868085813578
 20
-100.2522445190252
 10
170.6907665709443
 20
-92.8603974386687
 10
163.5548040090933
 20
-85.04364106319838
 10
156.6689191202696
 20
-77.01902653010761
 10
150.0396580567164
 20
-68.79604031377318
 10
143.6730315698728
 20
-60.38421514818015
 10
137.574562351374
 20
-51.79313606498381
 10
131.749321958796
 20
-43.03244562760677
 10
126.2019594609388
 20
-34.11184843353765
 10
120.9367234718096
 20
-25.04111501736628
 10
115.9574788682675
 20
-15.83008532518415
 10
113.6742365064716
 20
-11.28215277269973
  0
LINE
  5
CA
330
A
100
AcDbEntity
  8
0
  6
Continuous
 62
     7
100
AcDbLine
 10
118.6932044712176
 20
683.9274080219008
 30
0.0
 11
118.6932044712176
 21
680.9274080219008
 31
0.0
  0
LINE
  5
CB
330
A
100
AcDbEntity
  8
0
  6
Continuous
 62
     7
100
AcDbLine
 10
298.6932044712176
 20
680.9274080219008
 30
0.0
 11
298.6932044712176
 21
683.9274080219008
 31
0.0
  0
ARC
  5
CC
330
A
100
AcDbEntity
  8
0
  6
Continuous
 62
     7
100
AcDbCircle
 10
126.1932044712176
 20
680.9274080219008
 30
0.0
 40
7.500000000000014
100
AcDbArc
 50
180.0000000000004
 51
228.0158066120907
  0
ARC
  5
CD
330
A
100
AcDbEntity
  8
0
  6
Continuous
 62
     7
100
AcDbCircle
 10
291.1932044712177
 20
680.9274080219008
 30
0.0
 40
7.499999999999982
100
AcDbArc
 50
311.9841933879107
 51
0.0
  0
ARC
  5
CE
330
A
100
AcDbEntity
  8
0
  6
Continuous
 62
     7
100
AcDbCircle
 10
-14.61562675451272
 20
524.4565703273202
 30
0.0
 40
203.0
100
AcDbArc
 50
19.11362200407393
 51
48.01580661208987
  0
ARC
  5
CF
330
A
100
AcDbEntity
  8
0
  6
Continuous
 62
     7
100
AcDbCircle
 10
432.002035696948
 20
524.4565703273202
 30
0.0
 40
203.0
100
AcDbArc
 50
131.9841933879101
 51
160.886377995926
  0
ARC
  5
D0
330
A
100
AcDbEntity
  8
0
  6
Continuous
 62
     7
100
AcDbCircle
 10
-154.513938385925
 20
480.9274080219008
 30
0.0
 40
348.2071428571427
100
AcDbArc
 50
0.0
 51
18.24205198906398
  0
ARC
  5
D1
330
A
100
AcDbEntity
  8
0
  6
Continuous
 62
     7
100
AcDbCircle
 10
571.9003473283602
 20
480.9274080219009
 30
0.0
 40
348.2071428571426
100
AcDbArc
 50
161.757948010936
 51
180.0000000000004
  0
LINE
  5
D2
330
A
100
AcDbEntity
  8
0
  6
Continuous
 62
     7
100
AcDbLine
 10
178.1932044712177
 20
590.9274080219009
 30
0.0
 11
178.1932044712177
 21
589.9274080219008
 31
0.0
  0
LINE
  5
D3
330
A
100
AcDbEntity
  8
0
  6
Continuous
 62
     7
100
AcDbLine
 10
239.1932044712177
 20
589.9274080219008
 30
0.0
 11
239.1932044712177
 21
590.9274080219009
 31
0.0
  0
ARC
  5
D4
330
A
100
AcDbEntity
  8
0
  6
Continuous
 62
     7
100
AcDbCircle
 10
-318.4736854216943
 20
82.34031042411116
 30
0.0
 40
484.9999999999999
100
AcDbArc
 50
342.7303666008421
 51
351.0874027459002
  0
ARC
  5
D5
330
A
100
AcDbEntity
  8
0
  6
Continuous
 62
     7
100
AcDbCircle
 10
-318.4736854216943
 20
82.34031042411116
 30
0.0
 40
484.9999999999998
100
AcDbArc
 50
334.2266501476488
 51
334.5554517139654
  0
ARC
  5
D6
330
A
100
AcDbEntity
  8
0
  6
Continuous
 62
     7
100
AcDbCircle
 10
-318.4736854216943
 20
82.34031042411116
 30
0.0
 40
514.9999999999998
100
AcDbArc
 50
340.5652701655669
 51
351.0874027459002
  0
ARC
  5
D7
330
A
100
AcDbEntity
  8
0
  6
Continuous
 62
     7
100
AcDbCircle
 10
-2541.306795528782
 20
430.9274080219007
 30
0.0
 40
2735.0
100
AcDbArc
 50
351.0874027459002
 51
0.0
  0
ARC
  5
D8
330
A
100
AcDbEntity
  8
0
  6
Continuous
 62
     7
100
AcDbCircle
 10
-2541.306795528782
 20
430.9274080219007
 30
0.0
 40
2765.0
100
AcDbArc
 50
351.0874027459002
 51
0.0
  0
LINE
  5
D9
330
A
100
AcDbEntity
  8
0
  6
Continuous
 62
     7
100
AcDbLine
 10
193.6932044712177
 20
480.9274080219008
 30
0.0
 11
193.6932044712176
 21
430.9274080219007
 31
0.0
  0
LINE
  5
DA
330
A
100
AcDbEntity
  8
0
  6
Continuous
 62
     7
100
AcDbLine
 10
223.6932044712177
 20
430.9274080219007
 30
0.0
 11
223.6932044712176
 21
480.9274080219008
 31
0.0
  0
LWPOLYLINE
  5
DB
330
A
100
AcDbEntity
  8
0
  6
Continuous
 62
     7
100
AcDbPolyline
 90
       95
 70
   128
 43
0.0
 10
118.2795944282892
 20
-128.5439080160185
 10
113.6259431190593
 20
-137.3703742579293
 10
108.7737974684526
 20
-145.2244378953691
 10
103.8738149380117
 20
-152.1417808572703
 10
99.04527696567264
 20
-158.1863168962608
 10
94.406427032074
 20
-163.4072565080777
 10
90.05112364893657
 20
-167.8672541945703
 10
86.05342327671692
 20
-171.6324984547916
 10
82.48351270473355
 20
-174.757022234988
 10
79.39740164658832
 20
-177.2927284832266
 10
76.83816166762253
 20
-179.2871204023412
 10
74.83600547634606
 20
-180.7824654567982
 10
73.1936478252354
 20
-181.968276727774
 10
70.44135786163055
 20
-183.8762839123478
 10
67.76810991821093
 20
-185.6384641467197
 10
64.79160778865744
 20
-187.4998779413598
 10
61.03637364468298
 20
-189.7042115398744
 10
56.46614617634349
 20
-192.1815767963624
 10
51.03534421256867
 20
-194.8495030994522
 10
44.70925335837647
 20
-197.6026039572877
 10
36.24533583642589
 20
-200.7280930924734
 10
27.6774076323576
 20
-203.2831886110777
 10
19.40438839952765
 20
-205.2012649643577
 10
11.47193954448031
 20
-206.5553938491922
 10
3.912893945393514
 20
-207.4176086503816
 10
-3.230298350873739
 20
-207.8555186024643
 10
-13.13450857019466
 20
-207.8642161779411
 10
-22.01797790964843
 20
-207.2808115385885
 10
-30.00796636574222
 20
-206.2731317631028
 10
-38.13890248088283
 20
-204.7688069050538
 10
-46.54700766350799
 20
-202.6877314124367
 10
-55.19210397403829
 20
-199.9659264370736
 10
-64.01047565539063
 20
-196.5434360584429
 10
-72.92677389942025
 20
-192.3651071034146
 10
-81.86962200801161
 20
-187.3748651269411
 10
-90.7350069775456
 20
-181.5329115995406
 10
-99.39671099649906
 20
-174.8254744281272
 10
-107.5053462127302
 20
-167.470161599914
 10
-114.9762695912497
 20
-159.5510842708472
 10
-121.7604235363165
 20
-151.1355988939944
 10
-127.832150155189
 20
-142.2760133101149
 10
-133.155174977719
 20
-133.0443368293168
 10
-137.7125263296682
 20
-123.4958136582866
 10
-141.4807423942954
 20
-113.7050274257691
 10
-144.4519662979877
 20
-103.7281959578409
 10
-146.6025166438189
 20
-93.71387014117173
 10
-147.9403643118871
 20
-83.82868326667036
 10
-148.5089320525057
 20
-74.14733663063356
 10
-148.3595167404842
 20
-64.71263693939244
 10
-147.5436547885169
 20
-55.58523787081493
 10
-146.1151336317803
 20
-46.79081614139968
 10
-144.1471290286201
 20
-38.43841634011614
 10
-141.8123886891267
 20
-30.84827206756813
 10
-139.251512076788
 20
-24.057508215098
 10
-137.4784219990643
 20
-19.96597508924036
 10
-135.6122694369284
 20
-16.05580432268838
 10
-133.2549744729905
 20
-11.57534698973384
 10
-130.2687924794363
 20
-6.480514297317219
 10
-126.5556221748005
 20
-0.8528522354789291
 10
-122.0032549795008
 20
5.21554333218388
 10
-117.5769814972106
 20
10.42100064338824
 10
-113.4361806667622
 20
14.78408915864681
 10
-109.7391392756566
 20
18.32709112878483
 10
-106.5757029426471
 20
21.12561962612069
 10
-104.0144897964381
 20
23.24823911968576
 10
-101.6623982066101
 20
25.09282002867286
 10
-98.97366157688859
 20
27.08627193986368
 10
-94.60978251587986
 20
30.07855561849804
 10
-89.76946231556826
 20
33.07368549414025
 10
-84.92038199786506
 20
35.76153149612071
 10
-80.08620784455589
 20
38.15345673744097
 10
-75.28602183191695
 20
40.26355731080433
 10
-71.3272278892672
 20
41.81635253632609
 10
-67.41786471048822
 20
43.19133314249956
 10
-63.50245798503001
 20
44.41664620950825
 10
-58.83446215539245
 20
45.68623826042029
 10
-53.16992115189068
 20
46.95769820977879
 10
-46.49169117840412
 20
48.09142217078788
 10
-38.77645542081623
 20
48.92479524020465
 10
-30.03341381005234
 20
49.26868365789395
 10
-20.2885238418268
 20
48.91208817552006
 10
-12.35065196586923
 20
48.04571198552243
 10
-3.922668366523551
 20
46.55294096540873
 10
4.955736082861649
 20
44.32338082981702
 10
14.20236695508281
 20
41.25294059554995
 10
23.74363478422847
 20
37.22838965282694
 10
33.45964016591088
 20
32.15281596858844
 10
43.23459980443683
 20
25.92204360040073
 10
52.90608399268887
 20
18.46036751984215
 10
59.21843739806265
 20
12.76110014767207
 10
65.34903203926434
 20
6.472150489059247
 10
71.24615975830598
 20
-0.4284593994575703
 10
76.83664875525082
 20
-7.934475273579488
 10
82.0574064721883
 20
-16.05322893919469
 10
86.83323216206968
 20
-24.77043198044271
  0
LWPOLYLINE
  5
13C
330
A
100
AcDbEntity
  8
0
  6
Continuous
 62
     7
100
AcDbPolyline
 90
      104
 70
   128
 43
0.0
 10
113.6389906346364
 20
-11.3000457822674
 10
108.4262394911359
 20
-1.709178519815002
 10
102.9077788772124
 20
7.078760948953211
 10
97.19259872505155
 20
15.07205914183762
 10
91.36537609002251
 20
22.313084545168
 10
85.51636635754706
 20
28.82687524530347
 10
78.29102207470729
 20
36.00468209672047
 10
71.27152006817522
 20
42.19888625748424
 10
64.57759528978325
 20
47.48617266402821
 10
58.29769859130576
 20
51.95838005350606
 10
51.71957439949909
 20
56.18501806393883
 10
45.80217410801313
 20
59.61834775724184
 10
39.81518360303044
 20
62.76118527951002
 10
33.5405650241305
 20
65.72020463659733
 10
26.98396052436711
 20
68.46579742574377
 10
20.15623360723723
 20
70.96681597258791
 10
13.06062395039886
 20
73.19620251655424
 10
4.4490980953657
 20
75.41637297941928
 10
-4.491302336977643
 20
77.17678404714911
 10
-13.21395569902345
 20
78.37450159711668
 10
-21.20204771811415
 20
79.02891341599894
 10
-28.41982987350256
 20
79.25879115427292
 10
-34.85480056319295
 20
79.17450240069401
 10
-39.16801823660582
 20
78.96481970090896
 10
-43.34559616134026
 20
78.64355748891416
 10
-48.13656794250221
 20
78.13055225873089
 10
-53.55931373811556
 20
77.3609715600424
 10
-59.5965731454936
 20
76.26386669276441
 10
-66.22721716148472
 20
74.7597518342431
 10
-73.41042372441791
 20
72.76420215345646
 10
-81.08364566616405
 20
70.19232388201534
 10
-89.41481596201834
 20
66.85413578090382
 10
-96.69386327490448
 20
63.43821239335046
 10
-102.9609769057449
 20
60.09376730138193
 10
-108.2760617951157
 20
56.94124228717335
 10
-112.6881671102893
 20
54.08672624908139
 10
-116.4286561942461
 20
51.48562115243194
 10
-119.7661991691795
 20
49.0148847350862
 10
-122.4473343110896
 20
46.92134272951665
 10
-125.4958292616401
 20
44.41585140151782
 10
-128.9992884076148
 20
41.3606276773516
 10
-132.9102716997511
 20
37.70884978475031
 10
-137.170260254227
 20
33.41089876657944
 10
-141.7107997297309
 20
28.41396281532194
 10
-146.4382621936837
 20
22.68128351014087
 10
-150.887885585322
 20
16.69686324809017
 10
-157.12768091635
 20
7.084230764630272
 10
-162.3626634293979
 20
-2.478158253178763
 10
-166.6698704608158
 20
-11.86295329381592
 10
-170.1430143787612
 20
-20.98406690651267
 10
-172.871809542357
 20
-29.75748711837245
 10
-175.5125139139098
 20
-40.81242172281562
 10
-177.3967887111099
 20
-52.55765771801502
 10
-178.4017953349577
 20
-64.93103971370207
 10
-178.4053498985003
 20
-77.88884417347508
 10
-177.6062747821729
 20
-88.60722972314949
 10
-176.0652368684625
 20
-99.38043431378074
 10
-173.8613931927239
 20
-109.7831374157952
 10
-171.0562672105208
 20
-119.7829699472278
 10
-167.7128581848901
 20
-129.3493848315808
 10
-162.8761090367707
 20
-140.6546971056973
 10
-157.4063702595191
 20
-151.2310808078993
 10
-151.2094029654079
 20
-161.3730845319541
 10
-144.1875464775155
 20
-171.2107431651768
 10
-136.3602753186217
 20
-180.6564523984197
 10
-127.7274070769717
 20
-189.6501094932628
 10
-118.3171325865327
 20
-198.1083929608712
 10
-108.1273609768978
 20
-205.9748943184974
 10
-97.20425560883228
 20
-213.158818531465
 10
-85.57204567151428
 20
-219.5880367691385
 10
-73.28267328975325
 20
-225.1799553473222
 10
-60.2468647647178
 20
-229.9003019001987
 10
-51.16436910663818
 20
-232.5089709596978
 10
-41.78071646618298
 20
-234.6488040815096
 10
-32.12157346495188
 20
-236.283981604394
 10
-22.28151759487906
 20
-237.3748016811036
 10
-13.00045212184222
 20
-237.8806800734142
 10
-4.545589133150479
 20
-237.9036513913509
 10
3.05585950800169
 20
-237.5680580242223
 10
9.806195048792625
 20
-236.9850547919536
 10
15.81721141131478
 20
-236.2379175318884
 10
22.33759033798111
 20
-235.1811082526729
 10
29.67767510762376
 20
-233.6784938584062
 10
37.81166763132535
 20
-231.6148045031221
 10
43.69471178168274
 20
-229.8524326356025
 10
49.88484716109937
 20
-227.7444003873531
 10
56.36135873104247
 20
-225.2489550023313
 10
62.49332212050529
 20
-222.6000811207313
 10
67.72715827938
 20
-220.1079108014698
 10
71.22877541732435
 20
-218.3161004819092
 10
74.20949088495977
 20
-216.7090710676671
 10
76.68575896169675
 20
-215.3149361786568
 10
78.67137936814761
 20
-214.1571883171917
 10
80.25320668517826
 20
-213.2088871478275
 10
82.33766906825756
 20
-211.9232322754097
 10
85.27653065019324
 20
-210.0390047530361
 10
89.03333806690302
 20
-207.5034174502845
 10
93.5566720779674
 20
-204.250907009101
 10
98.7795896835207
 20
-200.2041031551136
 10
104.6283838054322
 20
-195.2666791432994
 10
110.0605250961798
 20
-190.2535176825158
 10
115.7915501788236
 20
-184.458316870034
 10
121.7358142997718
 20
-177.8124072106669
 10
125.6249042394591
 20
-172.9551648052697
  0
LWPOLYLINE
  5
1A6
330
A
100
AcDbEntity
  8
0
  6
Continuous
 62
     7
100
AcDbPolyline
 90
       60
 70
   128
 43
0.0
 10
143.1335204730247
 20
-330.1023054614744
 10
142.909989470983
 20
-329.1612804564883
 10
143.0009745568307
 20
-328.0663210043979
 10
143.4061620861283
 20
-326.821201657268
 10
144.1241552935232
 20
-325.430214599429
 10
145.1524791076888
 20
-323.8981548514282
 10
146.4875886834086
 20
-322.2303037406007
 10
148.124881621392
 20
-320.4324106952401
 10
150.0587138336975
 20
-318.5106734251277
 10
152.2824190000738
 20
-316.4717165567439
 10
154.7883315481465
 20
-314.3225687968071
 10
157.5678130782336
 20
-312.0706387028665
 10
160.6112821416995
 20
-309.7236891444689
 10
163.9082472701928
 20
-307.2898105429402
 10
167.4473431419116
 20
-304.7773929820252
 10
171.2163697602214
 20
-302.1950972855328
 10
175.202334509572
 20
-299.5518251616809
 10
179.3914969437339
 20
-296.8566885170647
 10
183.7694161519635
 20
-294.1189780460266
 10
188.3210005398138
 20
-291.3481312037085
 10
193.0305598529869
 20
-288.5536996731886
 10
197.8818592648909
 20
-285.7453164388512
 10
202.8581753414507
 20
-282.9326625794937
 10
207.9423536902493
 20
-280.1254338956431
 10
213.1168680952726
 20
-277.3333074861223
 10
218.3638809334063
 20
-274.5659083890858
 10
223.6653046644183
 20
-271.8327764025197
 10
229.0028641824571
 20
-269.1433331985812
 10
234.3581598141273
 20
-266.5068498451436
 10
239.7127307459756
 20
-263.9324148465039
 10
245.0481186627389
 20
-261.4289028134259
 10
250.3459313769813
 20
-259.0049438705193
 10
255.5879062307741
 20
-256.668893906411
 10
260.755973050861
 20
-254.4288057692669
 10
265.8323164402887
 20
-252.2924015069557
 10
270.799437191771
 20
-250.2670457475503
 10
275.6402126110816
 20
-248.3597203119292
 10
280.3379555425278
 20
-246.5770001459931
 10
284.8764718930336
 20
-244.9250306554651
 10
289.2401164565328
 20
-243.4095065214034
 10
293.4138468462362
 20
-242.0356520694564
 10
297.3832753488542
 20
-240.8082032605296
 10
301.1347185220255
 20
-239.7313913649478
 10
304.6552443639778
 20
-238.8089283763886
 10
307.9327168928165
 20
-238.0439942158727
 10
310.9558379817685
 20
-237.439225769916
 10
313.7141863061661
 20
-236.9967078006365
 10
316.1982532679115
 20
-236.7179657591472
 10
318.3994757735845
 20
-236.6039605270096
 10
320.3102657531996
 20
-236.6550851038763
 10
321.924036317855
 20
-236.87116325274
 10
323.2352244661032
 20
-237.2514501074583
 10
324.2393102607695
 20
-237.7946347404622
 10
324.9328324101117
 20
-238.4988446817949
 10
325.3134001996101
 20
-239.3616523739034
 10
325.3797017332552
 20
-240.3800835399326
 10
325.1315084559254
 20
-241.5506274366732
 10
324.5696759412638
 20
-242.8692489568218
 10
323.6961409423386
 20
-244.3314025388307
 10
322.8766070694796
 20
-245.469214183628
  0
LWPOLYLINE
  5
1E4
330
A
100
AcDbEntity
  8
0
  6
Continuous
 62
     7
100
AcDbPolyline
 90
        7
 70
   128
 43
0.0
 10
149.9847340802733
 20
-332.4074436155566
 10
148.9042531643484
 20
-332.4040231998933
 10
147.141213032895
 20
-332.2703642308447
 10
145.6781030851666
 20
-331.9720531588393
 10
144.519966964253
 20
-331.5101183239406
 10
143.6707970052842
 20
-330.8861521112201
 10
143.1335204730247
 20
-330.1023054614744
  0
LWPOLYLINE
  5
1ED
330
A
100
AcDbEntity
  8
0
  6
Continuous
 62
     7
100
AcDbPolyline
 90
       59
 70
   128
 43
0.0
 10
144.0275716639695
 20
-329.6544090544857
 10
143.8056308793477
 20
-328.7131062972377
 10
143.9010207213043
 20
-327.6165260517899
 10
144.3134061295401
 20
-326.3685200962476
 10
145.0413385852685
 20
-324.9734720970461
 10
146.0822611991901
 20
-323.4362822111623
 10
147.4325176926596
 20
-321.7623498741331
 10
149.0873652404981
 20
-319.9575548343436
 10
151.0409911303391
 20
-318.0282365001941
 10
153.2865331799933
 20
-315.9811716726982
 10
155.8161038411133
 20
-313.8235507417217
 10
158.6208179044951
 20
-311.5629524294761
 10
161.6908237096992
 20
-309.2073171699799
 10
165.0153377493676
 20
-306.7649192179957
 10
168.5826825466864
 20
-304.2443375854071
 10
172.3803276729492
 20
-301.654425907128
 10
176.3949337611447
 20
-299.0042813423855
 10
180.6123993609699
 20
-296.3032126206179
 10
185.0179104706888
 20
-293.5607073442221
 10
189.5959925718535
 20
-290.7863986630042
 10
194.3305649841148
 20
-287.9900314373896
 10
199.2049973491984
 20
-285.181428009246
 10
204.2021680456447
 20
-282.370453700548
 10
209.3045243291289
 20
-279.5669821610752
 10
214.4941439871153
 20
-276.7808606868562
 10
219.7527982912829
 20
-274.0218756311827
 10
225.062016026598
 20
-271.2997180296871
 10
230.4031483721309
 20
-268.6239495602252
 10
235.7574344057196
 20
-266.0039689571349
 10
241.1060670023929
 20
-263.4489789978387
 10
246.4302588950833
 20
-260.9679541777528
 10
251.7113086655871
 20
-258.5696091870438
 10
256.9306664339785
 20
-256.262368299963
 10
262.0699990157388
 20
-254.0543357842738
 10
267.1112543177362
 20
-251.9532674347179
 10
272.0367247468609
 20
-249.9665433305019
 10
276.8291094085922
 20
-248.1011419125004
 10
281.4715748770208
 20
-246.3636154712276
 10
285.947814322872
 20
-244.7600671316788
 10
290.2421047918377
 20
-243.2961294158801
 10
294.339362432027
 20
-241.9769444584499
 10
298.2251954765461
 20
-240.8071459446637
 10
301.8859547951046
 20
-239.7908428344654
 10
305.3087818370833
 20
-238.9316049295953
 10
308.4816537976621
 20
-238.2324503345322
 10
311.3934258483603
 20
-237.6958348552901
 10
314.0338702836537
 20
-237.323643373311
 10
316.3937124461628
 20
-237.1171832247498
 10
318.464663304225
 20
-237.077179608408
 10
320.2394485674211
 20
-237.2037730384471
 10
321.7118342377851
 20
-237.496518850827
 10
322.8766485069502
 20
-237.954388765205
 10
323.7297999223134
 20
-238.5757744968076
 10
324.2682917584128
 20
-239.3584934055897
 10
324.4902325430343
 20
-240.2997961628375
 10
324.3948427010779
 20
-241.3963764082856
 10
323.982457292842
 20
-242.644382363828
 10
323.2545248371136
 20
-244.0394303630293
 10
322.8477274134379
 20
-244.6793625919537
  0
LWPOLYLINE
  5
22A
330
A
100
AcDbEntity
  8
0
  6
Continuous
 62
     7
100
AcDbPolyline
 90
        6
 70
   128
 43
0.0
 10
149.2949629085435
 20
-331.9166115857499
 10
148.0564148549614
 20
-331.8091294216279
 10
146.5840291845974
 20
-331.5163836092478
 10
145.4192149154323
 20
-331.05851369487
 10
144.5660635000692
 20
-330.4371279632676
 10
144.0275716639695
 20
-329.6544090544857
  0
LWPOLYLINE
  5
232
330
A
100
AcDbEntity
  8
0
  6
Continuous
 62
     7
100
AcDbPolyline
 90
       31
 70
   128
 43
0.0
 10
119.6732852084639
 20
-130.1341803398665
 10
119.6719487403322
 20
-129.7371328596613
 10
119.937823451678
 20
-129.002622230258
 10
120.5246693417091
 20
-128.1205626148521
 10
121.426056804049
 20
-127.1006180431729
 10
122.6321100490327
 20
-125.9539632413846
 10
124.1296153049254
 20
-124.6931611994487
 10
125.9021655907703
 20
-123.3320255283764
 10
127.9303404747058
 20
-121.885469115416
 10
130.1919188482806
 20
-120.369340735339
 10
132.662122385568
 20
-118.8002514079481
 10
135.3138870196903
 20
-117.1953924042671
 10
138.1181594623986
 20
-115.5723468953786
 10
141.0442155179789
 20
-113.9488973075223
 10
144.0599967039695
 20
-112.3428304941112
 10
147.1324614906041
 20
-110.7717428592444
 10
150.2279473107256
 20
-109.2528475678204
 10
153.3125393739167
 20
-107.8027859545014
 10
156.3524422440407
 20
-106.4374451977681
 10
159.3143501091121
 20
-105.1717842566668
 10
162.1658116867419
 20
-104.0196699773251
 10
164.8755857671791
 20
-102.9937251648826
 10
167.4139834985415
 20
-102.1051902853974
 10
169.7531936640906
 20
-101.3638003129469
 10
171.8675873877414
 20
-100.7776780712153
 10
173.7339989293922
 20
-100.3532452381365
 10
175.331979493621
 20
-100.0951519886485
 10
176.6440212709672
 20
-100.0062260464018
 10
177.6557492571557
 20
-100.087441702629
 10
178.3560787486523
 20
-100.3379091416048
 10
178.5880095187115
 20
-100.5270032418053
  0
LINE
  5
253
330
A
100
AcDbEntity
  8
0
  6
Continuous
 62
     7
100
AcDbLine
 10
321.5758830591943
 20
-249.2179700990817
 30
0.0
 11
321.4888811498287
 21
-249.3867248595036
 31
0.0
  0
LINE
  5
254
330
A
100
AcDbEntity
  8
0
  6
Continuous
 62
     7
100
AcDbLine
 10
153.8236287357432
 20
-333.6299487214329
 30
0.0
 11
153.6508449984912
 21
-333.6012051437687
 31
0.0
  0
LWPOLYLINE
  5
255
330
A
100
AcDbEntity
  8
0
  6
Continuous
 62
     7
100
AcDbPolyline
 90
       21
 70
   128
 43
0.0
 10
224.7702965139485
 20
-309.9000674612453
 10
225.0479936885166
 20
-309.5864828190827
 10
225.9800060507198
 20
-308.684098318595
 10
227.2024954168947
 20
-307.6679484396276
 10
228.6945446550478
 20
-306.5554197883398
 10
230.4306243890402
 20
-305.365548038406
 10
232.3810298132912
 20
-304.1186922253625
 10
234.5123889502371
 20
-302.8361863978643
 10
236.7882336541204
 20
-301.5399745861976
 10
239.1696235910745
 20
-300.2522353338378
 10
241.6158125190318
 20
-298.9950022164216
 10
244.0849454672235
 20
-297.7897868411588
 10
246.5347748863328
 20
-296.6572107772693
 10
248.9233835157779
 20
-295.6166527152151
 10
251.2099015996616
 20
-294.6859168919354
 10
253.3552061796259
 20
-293.8809284554155
 10
255.322590499517
 20
-293.2154609809888
 10
257.0783920681594
 20
-292.7009008016455
 10
258.5925686339136
 20
-292.346052184717
 10
259.8392122159303
 20
-292.1569866884216
 10
259.9939007269119
 20
-292.1437549883331
  0
LWPOLYLINE
  5
26C
330
A
100
AcDbEntity
  8
0
  6
Continuous
 62
     7
100
AcDbPolyline
 90
       20
 70
   128
 43
0.0
 10
260.529177372862
 20
-294.8296278117801
 10
259.9335182804832
 20
-295.3861982551858
 10
258.7110289143083
 20
-296.4023481341531
 10
257.2189796761551
 20
-297.5148767854411
 10
255.4828999421627
 20
-298.7047485353749
 10
253.5324945179117
 20
-299.9516043484183
 10
251.4011353809658
 20
-301.2341101759165
 10
249.1252906770824
 20
-302.5303219875833
 10
246.7439007401284
 20
-303.8180612399431
 10
244.2977118121711
 20
-305.0752943573593
 10
241.8285788639794
 20
-306.280509732622
 10
239.37874944487
 20
-307.4130857965116
 10
236.9901408154249
 20
-308.4536438585658
 10
234.7036227315413
 20
-309.3843796818453
 10
232.558318151577
 20
-310.1893681183654
 10
230.5909338316859
 20
-310.8548355927919
 10
228.8351322630435
 20
-311.3693957721353
 10
227.3209556972894
 20
-311.7242443890638
 10
226.0743121152726
 20
-311.9133098853591
 10
225.7214314841805
 20
-311.9388781201784
  0
LWPOLYLINE
  5
282
330
A
100
AcDbEntity
  8
0
  6
Continuous
 62
     7
100
AcDbPolyline
 90
       21
 70
   128
 43
0.0
 10
259.2963601480977
 20
-292.2236984645394
 10
259.1833879987301
 20
-292.3653543291386
 10
258.4075031299431
 20
-293.1875838992006
 10
257.3365777828619
 20
-294.1292503227205
 10
255.9897226456757
 20
-295.1735495400617
 10
254.3909723802153
 20
-296.301846006951
 10
252.5688567228429
 20
-297.4940052462068
 10
250.5558913706309
 20
-298.728753147962
 10
248.3879977379778
 20
-299.9840556066579
 10
246.1038619381165
 20
-301.2375117201803
 10
243.7442444285077
 20
-302.4667535344887
 10
241.3512526395108
 20
-303.6498452002855
 10
238.9675895662914
 20
-304.7656744187664
 10
236.6357917328612
 20
-305.7943291910933
 10
234.3974701267991
 20
-306.7174531484845
 10
232.292567650192
 20
-307.5185731220515
 10
230.3586463376011
 20
-308.1833931068867
 10
228.630217060665
 20
-308.7000493746113
 10
227.1381236807779
 20
-309.0593221818874
 10
225.9089926396522
 20
-309.2548002969582
 10
225.3331312279696
 20
-309.2915001540461
  0
LWPOLYLINE
  5
299
330
A
100
AcDbEntity
  8
0
  6
Continuous
 62
     7
100
AcDbPolyline
 90
        3
 70
   128
 43
0.0
 10
175.9449987526214
 20
-99.80078633059431
 10
176.9575917494623
 20
-99.87177647233171
 10
177.6076975646987
 20
-100.0784860199779
  0
LWPOLYLINE
  5
29E
330
A
100
AcDbEntity
  8
0
  6
Continuous
 62
     7
100
AcDbPolyline
 90
       27
 70
   128
 43
0.0
 10
119.8983292429017
 20
-129.0796171072872
 10
120.1378511732079
 20
-128.4000251423166
 10
120.698955631208
 20
-127.5389076281606
 10
121.5702630617748
 20
-126.5414442583832
 10
122.7422272383662
 20
-125.4185634503962
 10
124.2020078762141
 20
-124.1825677213102
 10
125.9336113131716
 20
-122.8469988989813
 10
127.9180657396221
 20
-121.426489754913
 10
130.1336290575955
 20
-119.9366036845483
 10
132.5560270917438
 20
-118.3936641914529
 10
135.1587195422854
 20
-116.8145760435937
 10
137.9131907660838
 20
-115.2166400611645
 10
140.7892622000009
 20
-113.6173635651779
 10
143.75542300355
 20
-112.0342685635946
 10
146.7791752982584
 20
-110.4846997765354
 10
149.8273902212245
 20
-108.9856346038997
 10
152.8666708918722
 20
-107.5534971174185
 10
155.8637183151635
 20
-106.2039781150876
 10
158.7856962123565
 20
-104.9518632095015
 10
161.6005907821461
 20
-103.8108708335878
 10
164.2775614505714
 20
-102.793501938585
 10
166.7872787667969
 20
-101.9109030310048
 10
169.1022457427138
 20
-101.1727440491744
 10
171.1970991156962
 20
-100.5871124173685
 10
173.0488872338132
 20
-100.1604244382962
 10
174.6373215189313
 20
-99.89735499474672
 10
175.9449987526214
 20
-99.80078633059431
  0
LINE
  5
2BB
330
A
100
AcDbEntity
  8
0
  6
Continuous
 62
     7
100
AcDbLine
 10
175.5306439898722
 20
-100.0360709733875
 30
0.0
 11
175.8776307288187
 21
-100.0403271720874
 31
0.0
  0
LWPOLYLINE
  5
2BC
330
A
100
AcDbEntity
  8
0
  6
Continuous
 62
     7
100
AcDbPolyline
 90
       26
 70
   128
 43
0.0
 10
120.9001272088088
 20
-127.6685933146255
 10
121.1345399934036
 20
-127.3474519432991
 10
121.9924426942693
 20
-126.365334163826
 10
123.1463766527592
 20
-125.2597284451927
 10
124.583699126948
 20
-124.0427480350154
 10
126.2886625110293
 20
-122.7277264253379
 10
128.2425868693805
 20
-121.3290712681014
 10
130.4240645978467
 20
-119.8621065218962
 10
132.8091949699311
 20
-118.3429045594636
 10
135.3718459981567
 20
-116.7881100754179
 10
138.083940741589
 20
-115.2147577234874
 10
140.9157649226765
 20
-113.6400854812854
 10
143.8362924830941
 20
-112.0813457874185
 10
146.8135255117301
 20
-110.5556165201604
 10
149.8148448204967
 20
-109.0796138886422
 10
152.8073673269806
 20
-107.6695092865683
 10
155.7583063283752
 20
-106.3407521150424
 10
158.6353307194575
 20
-105.1079005156962
 10
161.4069192189427
 20
-103.9844618686427
 10
164.0427057232383
 20
-102.9827448027938
 10
166.5138120038296
 20
-102.1137243399454
 10
168.793164103194
 20
-101.3869216501434
 10
170.8557889627458
 20
-100.8102997357497
 10
172.6790880328918
 20
-100.3901761871248
 10
174.2430848674696
 20
-100.1311539657837
 10
175.5306439898722
 20
-100.0360709733875
  0
LWPOLYLINE
  5
2D8
330
A
100
AcDbEntity
  8
0
  6
Continuous
 62
     7
100
AcDbPolyline
 90
        4
 70
   128
 43
0.0
 10
112.6667529985879
 20
-10.97669704207338
 10
113.3030169781052
 20
-11.05080000623759
 10
113.633003735774
 20
-11.28861223800015
 10
113.6384267286712
 20
-11.29892660845633
  0
LWPOLYLINE
  5
2DE
330
A
100
AcDbEntity
  8
0
  6
Continuous
 62
     7
100
AcDbPolyline
 90
       20
 70
   128
 43
0.0
 10
86.83369634144083
 20
-24.77135387417285
 10
86.79178069803143
 20
-24.60315831155424
 10
86.933414489073
 20
-24.13139945536946
 10
87.38685219077035
 20
-23.51675170229761
 10
88.14146560771169
 20
-22.77362187471943
 10
89.17956724098457
 20
-21.91942830594551
 10
90.47682486815922
 20
-20.97419256924704
 10
92.00283186995926
 20
-19.96007018914781
 10
93.72181993564604
 20
-18.90083133470677
 10
95.5934974419066
 20
-17.82130366690304
 10
97.57399385435444
 20
-16.7467903993046
 10
99.61688801567277
 20
-15.70247721218876
 10
101.674296218197
 20
-14.71284192154265
 10
103.6979945574384
 20
-13.80108073980313
 10
105.6405492595322
 20
-12.98856457629716
 10
107.4564284886945
 20
-12.2943381212407
 10
109.1030695748615
 20
-11.73467345434098
 10
110.5418766466017
 20
-11.32268864104058
 10
111.7391252856298
 20
-11.06804025618091
 10
112.6667529985879
 20
-10.97669704207338
  0
LINE
  5
2F4
330
A
100
AcDbEntity
  8
0
  6
Continuous
 62
     7
100
AcDbLine
 10
118.6932044712176
 20
683.9274080219008
 30
0.0
 11
298.6932044712176
 21
683.9274080219008
 31
0.0
  0
LINE
  5
2F5
330
A
100
AcDbEntity
  8
0
  6
Continuous
 62
     7
100
AcDbLine
 10
177.1932044712176
 20
590.9274080219009
 30
0.0
 11
240.1932044712177
 21
590.9274080219009
 31
0.0
  0
LINE
  5
2F6
330
A
100
AcDbEntity
  8
0
  6
Continuous
 62
     7
100
AcDbLine
 10
176.1932044712176
 20
589.9274080219007
 30
0.0
 11
241.1932044712177
 21
589.9274080219007
 31
0.0
  0
LINE
  5
2F7
330
A
100
AcDbEntity
  8
0
  6
Continuous
 62
     7
100
AcDbLine
 10
119.8063158129834
 20
-129.2810780862637
 30
0.0
 11
118.2790550008575
 21
-128.5436475560797
 31
0.0
  0
LWPOLYLINE
  5
2F8
330
A
100
AcDbEntity
  8
0
  6
Continuous
 62
     7
100
AcDbPolyline
 90
        3
 70
   128
 43
0.0
 10
113.1076661292363
 20
-11.00493460495955
 10
113.5496767200641
 20
-11.18399407210069
 10
113.6391990932587
 20
-11.30046189246736
  0
LWPOLYLINE
  5
2FD
330
A
100
AcDbEntity
  8
0
  6
Continuous
 62
     7
100
AcDbPolyline
 90
       21
 70
   128
 43
0.0
 10
86.83358416113199
 20
-24.7711316579532
 10
86.81819674979852
 20
-24.73631749471384
 10
86.84587843915073
 20
-24.31913347565173
 10
87.18741580997679
 20
-23.75466023338302
 10
87.8348035157782
 20
-23.05612854228123
 10
88.77286733743135
 20
-22.23991139313763
 10
89.97961985402273
 20
-21.32514022413467
 10
91.4267758093594
 20
-20.3332564961497
 10
93.0804150944008
 20
-19.28750912308508
 10
94.90177780586526
 20
-18.21240953703074
 10
96.84817274551145
 20
-17.13315716107211
 10
98.87397806564194
 20
-16.0750487561695
 10
100.9317106065458
 20
-15.06288548652279
 10
102.9731388615176
 20
-14.12039160130263
 10
104.950413482495
 20
-13.26965835835791
 10
106.8171888282226
 20
-12.53062622385514
 10
108.529709266802
 20
-11.92061748465245
 10
110.0478347706179
 20
-11.45393022857732
 10
111.3359817645643
 20
-11.14150320936635
 10
112.3639571748859
 20
-10.99065945154909
 10
113.1076661292363
 20
-11.00493460495955
  0
LINE
  5
314
330
A
100
AcDbEntity
  8
0
  6
Continuous
 62
     7
100
AcDbLine
 10
119.8063158129833
 20
-129.2810780862641
 30
0.0
 11
118.2796182157581
 21
-128.5439195016833
 31
0.0
  0
LWPOLYLINE
  5
315
330
A
100
AcDbEntity
  8
0
  6
PHANTOM
 62
     7
100
AcDbPolyline
 90
       54
 70
   128
 43
0.0
 10
129.3542990040238
 20
-302.3216447038957
 10
129.3474396385681
 20
-302.2346862125159
 10
129.4384494735506
 20
-301.1394289171158
 10
129.8437472191623
 20
-299.8939708812183
 10
130.5619357301118
 20
-298.5026054566842
 10
131.5905392618211
 20
-296.9701289683692
 10
132.9260120048292
 20
-295.3018241801985
 10
134.5637503079325
 20
-293.5034420843856
 10
136.4981085479238
 20
-291.58118207657
 10
138.7224185912255
 20
-289.5416705852173
 10
141.2290127803268
 20
-287.3919382289461
 10
144.0092503657882
 20
-285.1393955805303
 10
147.0535472926945
 20
-282.791807621119
 10
150.3514092388775
 20
-280.3572669727382
 10
153.8914677910188
 20
-277.8441660013458
 10
157.6615196339254
 20
-275.2611678866081
 10
161.6485686178851
 20
-272.617176758124
 10
165.8388705590875
 20
-269.921307001047
 10
170.2179806186718
 20
-267.1828518369096
 10
174.7708030970799
 20
-264.4112512879654
 10
179.4816434720591
 20
-261.6160596354752
 10
184.3342625009324
 20
-258.8069124841214
 10
189.3119322006313
 20
-255.9934935460818
 10
194.3974935125196
 20
-253.1855012592678
 10
199.5734154532227
 20
-250.3926153547997
 10
204.8218555475596
 20
-247.624463488969
 10
210.1247213352501
 20
-244.8905880547113
 10
215.4637327393747
 20
-242.2004132870025
 10
220.8204850815859
 20
-239.5632127755671
 10
226.1765125268472
 20
-236.9880774968947
 10
231.5133517389923
 20
-234.4838844757596
 10
236.8126055276694
 20
-232.0592661842782
 10
242.0560062672676
 20
-229.7225807839883
 10
247.2254788692068
 20
-227.4818833135364
 10
252.3032030905127
 20
-225.344897921289
 10
257.2716749638853
 20
-223.3189912385945
 10
262.1137671375013
 20
-221.4111469854778
 10
266.8127879165432
 20
-219.6279418963114
 10
271.3525388029294
 20
-217.9755230484489
 10
275.7173703348931
 20
-216.4595866719765
 10
279.8922360339187
 20
-215.0853585136276
 10
283.8627442730701
 20
-213.857575822551
 10
287.6152078879108
 20
-212.7804710200324
 10
291.1366913589944
 20
-211.8577571094604
 10
294.4150554032804
 20
-211.0926148768357
 10
297.4389988207573
 20
-210.4876819259421
 10
300.1980974520205
 20
-210.0450435859802
 10
302.682840112509
 20
-209.7662257230054
 10
304.8846613795292
 20
-209.6521894799517
 10
306.7959711190411
 20
-209.7033279633729
 10
308.410180650423
 20
-209.9194648883226
 10
309.7217254590177
 20
-210.2998551860452
 10
310.7260843781689
 20
-210.8431875723826
 10
310.9807428182268
 20
-211.0500390232779
  0
LWPOLYLINE
  5
34D
330
A
100
AcDbEntity
  8
0
  6
PHANTOM
 62
     7
100
AcDbPolyline
 90
       42
 70
   128
 43
0.0
 10
126.8057910473774
 20
-219.2848405263223
 10
126.9731135806678
 20
-218.3988421760107
 10
127.4604854112804
 20
-217.3080943107764
 10
128.2641474186613
 20
-216.0725662098439
 10
129.3798117182784
 20
-214.6988499502111
 10
130.8015257583754
 20
-213.1942749024926
 10
132.5217040794113
 20
-211.5668686255573
 10
134.5311687857689
 20
-209.8253140360269
 10
136.8191985137988
 20
-207.9789030811602
 10
139.3735856349335
 20
-206.0374871622933
 10
142.1807013886677
 20
-204.0114245733515
 10
145.2255685978923
 20
-201.911525234869
 10
148.4919415786147
 20
-199.7489930183863
 10
151.9623928177115
 20
-197.5353659689474
 10
155.6184059562521
 20
-195.2824547446372
 10
159.4404745822844
 20
-193.0022796016115
 10
163.4082063059832
 20
-190.707006260828
 10
167.5004315618724
 20
-188.4088809986626
 10
171.6953165576171
 20
-186.120165307725
 10
175.9704797667518
 20
-183.8530704764921
 10
180.3031113438085
 20
-181.6196924367988
 10
184.6700948247115
 20
-179.4319472268089
 10
189.0481304631146
 20
-177.3015074137959
 10
193.4138595446297
 20
-175.2397398159459
 10
197.7439890156742
 20
-173.2576448554641
 10
202.0154157619905
 20
-171.3657978665637
 10
206.2053498737563
 20
-169.5742926714813
 10
210.2914362396144
 20
-167.8926877255683
 10
214.2518738208643
 20
-166.3299551187961
 10
218.0655319694359
 20
-164.894432705774
 10
221.71206316904
 20
-163.593779619687
 10
225.1720115979716
 20
-162.4349354075066
 10
228.4269169343364
 20
-161.4240830045056
 10
231.4594128498556
 20
-160.5666157456221
 10
234.253319666741
 20
-159.8671085896852
 10
236.7937306832769
 20
-159.3292937100297
 10
239.0670917075231
 20
-158.9560405817364
 10
241.0612733747934
 20
-158.7493406717413
 10
242.7656358630647
 20
-158.7102968134975
 10
244.1710856610305
 20
-158.8391173228824
 10
245.2701240859187
 20
-159.1351148867408
 10
245.8685823159497
 20
-159.4510623182361
  0
LWPOLYLINE
  5
379
330
A
100
AcDbEntity
  8
0
  6
PHANTOM
 62
     7
100
AcDbPolyline
 90
       55
 70
   128
 43
0.0
 10
146.88742775676
 20
-329.1165809138654
 10
146.8348274742653
 20
-329.0050547342984
 10
146.6184794799923
 20
-328.0804522572407
 10
146.7165521354962
 20
-327.0020310336661
 10
147.1286943661236
 20
-325.7736515316667
 10
147.8534308096545
 20
-324.3997110310517
 10
148.8881670977157
 20
-322.8851278822267
 10
150.2291991429468
 20
-321.2353238997767
 10
151.8717263986713
 20
-319.4562049537761
 10
153.8098690436078
 20
-317.554139828307
 10
156.0366890301041
 20
-315.5359374228658
 10
158.5442149205473
 20
-313.4088223782678
 10
161.3234704230416
 20
-311.1804092143119
 10
164.3645065242034
 20
-308.8586750717722
 10
167.6564371040473
 20
-306.4519311563068
 10
171.1874779054702
 20
-303.9687929864978
 10
174.9449887188334
 20
-301.4181495525305
 10
178.9155186306324
 20
-298.8091314959161
 10
183.0848541742762
 20
-296.1510784241644
 10
187.4380702106091
 20
-293.4535054774136
 10
191.9595833560349
 20
-290.7260692666968
 10
196.6332077669862
 20
-287.9785333057821
 10
201.4422130810429
 20
-285.2207330603266
 10
206.3693843072883
 20
-282.462540739462
 10
211.3970834515081
 20
-279.7138299558481
 10
216.5073126556321
 20
-276.9844403807026
 10
221.6817786253955
 20
-274.2841425203308
 10
226.9019581155838
 20
-271.6226027402501
 10
232.1491642384441
 20
-269.0093486621088
 10
237.4046133578925
 20
-266.4537350572749
 10
242.6494923300568
 20
-263.9649103591811
 10
247.8650258494489
 20
-261.5517839143083
 10
253.0325436596853
 20
-259.2229940890374
 10
258.1335473881595
 20
-256.986877346539
 10
263.1497767654149
 20
-254.8514384044
 10
268.0632749921705
 20
-252.8243215798107
 10
272.8564530200016
 20
-250.9127834248948
 10
277.5121525155681
 20
-249.1236667501349
 10
282.0137072829951
 20
-247.4633761288871
 10
286.3450029245285
 20
-245.9378549706713
 10
290.4905345258963
 20
-244.5525642453074
 10
294.4354621598781
 20
-243.3124629340596
 10
298.1656640093929
 20
-242.2219902777722
 10
301.6677869199392
 20
-241.2850498855383
 10
304.9292942004224
 20
-240.5049957607928
 10
307.938510501255
 20
-239.8846202948507
 10
310.6846636090785
 20
-239.4261442708704
 10
313.1579230084911
 20
-239.1312089140272
 10
315.3494350727414
 20
-239.0008700163523
 10
317.2513547574144
 20
-239.0355941572717
 10
318.8568736836547
 20
-239.2352570333733
 10
320.1602445103954
 20
-239.5991439033801
 10
321.1568015083478
 20
-240.1259521467391
 10
321.8429772621011
 20
-240.8137959266643
 10
322.0131772437034
 20
-241.0997239592903
  0
LWPOLYLINE
  5
3B2
330
A
100
AcDbEntity
  8
0
  6
PHANTOM
 62
     7
100
AcDbPolyline
 90
       57
 70
   128
 43
0.0
 10
150.3182031375461
 20
-331.6243693241692
 10
150.1055864800218
 20
-330.7085837869017
 10
150.2071335887607
 20
-329.6391406343302
 10
150.6224739293754
 20
-328.4199421485405
 10
151.3500919700053
 20
-327.0554370525898
 10
152.3873327113278
 20
-325.5506042775969
 10
153.7304113743631
 20
-323.9109347951639
 10
155.3744272107222
 20
-322.1424115814153
 10
157.3133813849061
 20
-320.2514877857678
 10
159.5401988634064
 20
-318.2450631840877
 10
162.0467542307347
 20
-316.1304590021559
 10
164.8239013381834
 20
-313.9153912013111
 10
167.8615066771294
 20
-311.6079423237417
 10
171.1484863551092
 20
-309.2165320001669
 10
174.6728465397396
 20
-306.7498862275172
 10
178.421727222912
 20
-304.2170055287172
 10
182.3814491455668
 20
-301.6271321107549
 10
186.5375637118269
 20
-298.989716140869
 10
190.8749057103566
 20
-296.3143812639149
 10
195.3776486505735
 20
-293.6108894867274
 10
200.029362511796
 20
-290.8891055576171
 10
204.8130736946071
 20
-288.1589609709729
 10
209.7113269556783
 20
-285.4304177283164
 10
214.7062491000589
 20
-282.7134319880389
 10
219.7796141985267
 20
-280.0179177364586
 10
224.9129100920266
 20
-277.3537106127599
 10
230.087405940532
 20
-274.7305320198132
 10
235.2842205698483
 20
-272.157953651829
 10
240.4843913669702
 20
-269.6453625682849
 10
245.6689434725999
 20
-267.2019269415623
 10
250.8189590183515
 20
-264.8365626032811
 10
255.9156461560001
 20
-262.5579005113957
 10
260.9404076268992
 20
-260.3742552567663
 10
265.8749086213599
 20
-258.293594724118
 10
270.7011436803833
 20
-256.3235110180936
 10
275.4015023956282
 20
-254.4711927604877
 10
279.9588336678807
 20
-252.7433988597445
 10
284.3565082895554
 20
-251.1464338484345
 10
288.578479622871
 20
-249.6861248786982
 10
292.6093421522907
 20
-248.367800459601
 10
296.4343876975783
 20
-247.1962710139799
 10
300.0396590823523
 20
-246.1758113257339
 10
303.4120010623092
 20
-245.3101449415997
 10
306.5391083272832
 20
-244.6024305843346
 10
309.4095704019886
 20
-244.0552506268791
 10
312.012913281607
 20
-243.6706016695578
 10
314.3396376502943
 20
-243.4498872547024
 10
316.3812535431546
 20
-243.3939127452767
 10
318.1303113252013
 20
-243.5028823861957
 10
319.580428874267
 20
-243.7763985590566
 10
320.7263148686757
 20
-244.213463233007
 10
321.563788094701
 20
-244.8124816064496
 10
322.0897927033626
 20
-245.5712679263013
 10
322.3024093608868
 20
-246.4870534635689
 10
322.2008622521479
 20
-247.5564966161404
 10
321.7855219115331
 20
-248.77569510193
 10
321.5758830591943
 20
-249.2179700990817
  0
LWPOLYLINE
  5
3ED
330
A
100
AcDbEntity
  8
0
  6
PHANTOM
 62
     7
100
AcDbPolyline
 90
        5
 70
   128
 43
0.0
 10
153.6508449984912
 20
-333.6012051437687
 10
152.8275669666412
 20
-333.4192386914139
 10
151.6816809722326
 20
-332.9821740174634
 10
150.8442077462072
 20
-332.3831556440209
 10
150.3182031375461
 20
-331.6243693241692
  0
LWPOLYLINE
  5
3F4
330
A
100
AcDbEntity
  8
0
  6
PHANTOM
 62
     7
100
AcDbPolyline
 90
       61
 70
   128
 43
0.0
 10
162.6329847644413
 20
-331.4123192186649
 10
162.4421105008691
 20
-330.5385941301682
 10
162.570650697594
 20
-329.5089164827596
 10
163.0180662123599
 20
-328.3276051023314
 10
163.7824804290102
 20
-326.9996148193472
 10
164.8606871286675
 20
-325.530515686564
 10
166.2481639377299
 20
-323.9264696162918
 10
167.9390912962782
 20
-322.1942045351951
 10
169.9263768673316
 20
-320.3409861650286
 10
172.2016852845746
 20
-318.374587547676
 10
174.7554731137798
 20
-316.3032564423103
 10
177.5770288812873
 20
-314.1356807314256
 10
180.6545180016484
 20
-311.8809519808393
 10
183.975032415989
 20
-309.5485273065049
 10
187.5246447328951
 20
-307.1481897080817
 10
191.288466644732
 20
-304.6900070356337
 10
195.2507113743809
 20
-302.1842897615681
 10
199.3947598904682
 20
-299.6415477349303
 10
203.7032306133589
 20
-297.0724460994458
 10
208.1580523195414
 20
-294.4877605601996
 10
212.7405399386202
 20
-291.8983321865851
 10
217.4314729249937
 20
-289.3150219410912
 10
222.2111758755026
 20
-286.7486651246514
 10
227.0596010549083
 20
-284.2100259296257
 10
231.9564124830612
 20
-281.7097522910377
 10
236.8810712310696
 20
-279.2583312254341
 10
241.8129215687042
 20
-276.8660448446933
 10
246.7312776017099
 20
-274.5429272292741
 10
251.6155100356347
 20
-272.2987223417963
 10
256.4451327022597
 20
-270.1428431574744
 10
261.1998884857086
 20
-268.0843321828281
 10
265.8598342878312
 20
-266.1318235282686
 10
270.4054246764877
 20
-264.2935066936376
 10
274.8175938658837
 20
-262.5770922186001
 10
279.0778356851015
 20
-260.9897793419603
 10
283.1682811994127
 20
-259.5382258055532
 10
287.0717736587999
 20
-258.228519929361
 10
290.7719404593288
 20
-257.0661550749836
 10
294.2532618155393
 20
-256.0560066045704
 10
297.5011358558185
 20
-255.2023114318578
 10
300.5019398677255
 20
-254.50865025108
 10
303.2430874363812
 20
-253.977932518294
 10
305.7130812362665
 20
-253.6123842481083
 10
307.9015612550012
 20
-253.4135386770049
 10
309.799348246836
 20
-253.3822298324128
 10
311.3984822335997
 20
-253.5185890345069
 10
312.6922558916133
 20
-253.8220443454055
 10
313.675242684537
 20
-254.2913229680763
 10
314.3433196241492
 20
-254.9244565848903
 10
314.6936845635921
 20
-255.7187896134287
 10
314.7248679505491
 20
-256.6709903449197
 10
314.4367389910584
 20
-257.7770649185826
 10
313.830506198108
 20
-259.0323740732667
 10
312.9087123227123
 20
-260.4316526061271
 10
311.6752236887308
 20
-261.969031456713
 10
310.1352139761619
 20
-263.6380623238482
 10
308.2951425209315
 20
-265.4317447120466
 10
306.1627272221928
 20
-267.3425552940234
 10
303.7469121707753
 20
-269.3624794661441
 10
301.05783013456
 20
-271.4830449644578
 10
300.9087420581287
 20
-271.5974252749089
  0
LWPOLYLINE
  5
433
330
A
100
AcDbEntity
  8
0
  6
PHANTOM
 62
     7
100
AcDbPolyline
 90
       12
 70
   128
 43
0.0
 10
183.9498550662589
 20
-330.3736710110468
 10
181.2840692286605
 20
-331.1046219336296
 10
178.1580908427388
 20
-331.8787060640538
 10
175.285608633871
 20
-332.4912167403942
 10
172.6786707906991
 20
-332.9395848800116
 10
170.3482117165125
 20
-333.2219298711094
 10
168.30400616656
 20
-333.3370674606733
 10
166.55462824933
 20
-333.284514721639
 10
165.1074154637589
 20
-333.0644920784578
 10
163.9684379232115
 20
-332.6779223825584
 10
163.1424728953156
 20
-332.126427041588
 10
162.6329847644413
 20
-331.4123192186649
  0
LWPOLYLINE
  5
441
330
A
100
AcDbEntity
  8
0
  6
PHANTOM
 62
     7
100
AcDbPolyline
 90
        7
 70
   128
 43
0.0
 10
255.5564142519279
 20
-293.1420209700162
 10
252.8541860126257
 20
-294.5791683841569
 10
247.7678018368255
 20
-297.2355941530827
 10
242.635140487458
 20
-299.8534016173102
 10
237.4752958018569
 20
-302.4228523611344
 10
232.3074627411525
 20
-304.9343878590262
 10
228.301831411044
 20
-306.8384753369516
  0
LWPOLYLINE
  5
44A
330
A
100
AcDbEntity
  8
0
  6
PHANTOM
 62
     7
100
AcDbPolyline
 90
        4
 70
   128
 43
0.0
 10
224.1278903792311
 20
-311.4679236203174
 10
224.1139449362127
 20
-310.9904062293393
 10
224.422405320205
 20
-310.3596618920991
 10
224.7702965139485
 20
-309.9000674612453
  0
LWPOLYLINE
  5
450
330
A
100
AcDbEntity
  8
0
  6
PHANTOM
 62
     7
100
AcDbPolyline
 90
        8
 70
   128
 43
0.0
 10
259.9939007269119
 20
-292.1437549883331
 10
260.7969923968866
 20
-292.1369392758198
 10
261.4495212923392
 20
-292.2862529636995
 10
261.7856339519719
 20
-292.6023729534634
 10
261.7995793949903
 20
-293.0798903444415
 10
261.491119010998
 20
-293.7106346816817
 10
260.8655306426864
 20
-294.483813754698
 10
260.529177372862
 20
-294.8296278117801
  0
LWPOLYLINE
  5
45A
330
A
100
AcDbEntity
  8
0
  6
PHANTOM
 62
     7
100
AcDbPolyline
 90
        4
 70
   128
 43
0.0
 10
225.7214314841805
 20
-311.9388781201784
 10
225.1165319343164
 20
-311.9333572979609
 10
224.4640030388638
 20
-311.7840436100812
 10
224.1278903792311
 20
-311.4679236203174
  0
LWPOLYLINE
  5
460
330
A
100
AcDbEntity
  8
0
  6
PHANTOM
 62
     7
100
AcDbPolyline
 90
       26
 70
   128
 43
0.0
 10
260.3919791632722
 20
-292.1893738207651
 10
260.4402991347039
 20
-292.4093054009729
 10
260.2905201932178
 20
-292.9510363339182
 10
259.8235214865897
 20
-293.639156344366
 10
259.0476366178028
 20
-294.4613859144281
 10
257.9767112707215
 20
-295.4030523379479
 10
256.6298561335354
 20
-296.4473515552891
 10
255.031105868075
 20
-297.5756480221784
 10
253.2089902107025
 20
-298.7678072614343
 10
251.1960248584906
 20
-300.0025551631894
 10
249.0281312258374
 20
-301.2578576218853
 10
246.7439954259761
 20
-302.5113137354078
 10
244.3843779163672
 20
-303.7405555497163
 10
241.9913861273703
 20
-304.9236472155129
 10
239.6077230541509
 20
-306.0394764339938
 10
237.2759252207207
 20
-307.0681312063207
 10
235.0376036146586
 20
-307.9912551637121
 10
232.9327011380515
 20
-308.7923751372788
 10
230.9987798254606
 20
-309.4571951221142
 10
229.2703505485245
 20
-309.9738513898387
 10
227.7782571686373
 20
-310.3331241971149
 10
226.5491261275117
 20
-310.5286023121856
 10
225.604891297695
 20
-310.5567974234566
 10
224.9624025720946
 20
-310.4172063884993
 10
224.6331251772398
 20
-310.1123202126396
 10
224.6331251772398
 20
-310.1123202126396
  0
LINE
  5
47C
330
A
100
AcDbEntity
  8
0
  6
PHANTOM
 62
     7
100
AcDbLine
 10
118.6932044712176
 20
680.9274080219008
 30
0.0
 11
298.6932044712176
 21
680.9274080219008
 31
0.0
  0
LINE
  5
47D
330
A
100
AcDbEntity
  8
0
  6
PHANTOM
 62
     7
100
AcDbLine
 10
121.1762627410847
 20
675.3524375577234
 30
0.0
 11
296.2101462013505
 21
675.3524375577234
 31
0.0
  0
LINE
  5
47E
330
A
100
AcDbEntity
  8
0
  6
PHANTOM
 62
     7
100
AcDbLine
 10
193.6932044712177
 20
480.9274080219008
 30
0.0
 11
223.6932044712176
 21
480.9274080219008
 31
0.0
  0
LINE
  5
47F
330
A
100
AcDbEntity
  8
0
  6
PHANTOM
 62
     7
100
AcDbLine
 10
190.3081153361503
 20
2.552596973950937
 30
0.0
 11
160.6703405347224
 21
7.200424941921301
 31
0.0
  0
LINE
  5
480
330
A
100
AcDbEntity
  8
0
  6
PHANTOM
 62
     7
100
AcDbLine
 10
223.6932044712177
 20
430.9274080219007
 30
0.0
 11
193.6932044712176
 21
430.9274080219007
 31
0.0
  0
LWPOLYLINE
  5
481
330
A
100
AcDbEntity
  8
0
  6
Continuous
 62
     7
100
AcDbPolyline
 90
        8
 70
   128
 43
0.0
 10
125.5260144680863
 20
-820.9234077106085
 10
125.8926190024694
 20
-821.4167990286856
 10
126.8236529469536
 20
-822.8172852114436
 10
127.4814992810611
 20
-823.9247647872739
 10
127.9073417266216
 20
-824.7290791551426
 10
128.1413881977433
 20
-825.2265837786342
 10
128.2219842354202
 20
-825.4190693985339
 10
128.2167880630133
 20
-825.4041197613378
  0
LWPOLYLINE
  5
48B
330
A
100
AcDbEntity
  8
0
  6
Continuous
 62
     7
100
AcDbPolyline
 90
        7
 70
   128
 43
0.0
 10
149.3208013774153
 20
-765.997306900326
 10
149.2730457603951
 20
-766.0234402793275
 10
148.9267596167982
 20
-766.1984673873419
 10
148.2711596353109
 20
-766.4937604175194
 10
147.2803285924068
 20
-766.8853738497557
 10
145.9307980606393
 20
-767.3447262397039
 10
144.4401214113109
 20
-767.770669455414
  0
LWPOLYLINE
  5
494
330
A
100
AcDbEntity
  8
0
  6
Continuous
 62
     7
100
AcDbPolyline
 90
       10
 70
   128
 43
0.0
 10
183.3345325963146
 20
-736.5526936501748
 10
178.7970886941225
 20
-739.2435329322658
 10
173.1458264469303
 20
-742.9235384641445
 10
167.7980534624285
 20
-746.7432003782113
 10
162.7653019844893
 20
-750.685457547192
 10
158.0625123324493
 20
-754.7285941171812
 10
153.7118193091933
 20
-758.8404118610326
 10
149.7474194686101
 20
-762.9679134221029
 10
146.2165186833511
 20
-767.0259857650178
 10
145.9782711944224
 20
-767.3285673630069
  0
LWPOLYLINE
  5
4A0
330
A
100
AcDbEntity
  8
0
  6
Continuous
 62
     7
100
AcDbPolyline
 90
        9
 70
   128
 43
0.0
 10
126.4731386283129
 20
-822.2900321901942
 10
126.5318546685944
 20
-825.9509185185114
 10
126.8862757620555
 20
-831.5039733094343
 10
127.580836172016
 20
-837.60556350454
 10
128.6549823497275
 20
-844.1120923139235
 10
130.1187389922622
 20
-850.868334740012
 10
131.9658359864551
 20
-857.7613598825674
 10
134.1865191796695
 20
-864.7247211548942
 10
136.0345624147735
 20
-869.7241480235025
  0
LWPOLYLINE
  5
4AB
330
A
100
AcDbEntity
  8
0
  6
Continuous
 62
     7
100
AcDbPolyline
 90
       33
 70
   128
 43
0.0
 10
319.0926965968264
 20
-785.6568417952204
 10
318.8870819241754
 20
-785.0594035283696
 10
316.7585713574117
 20
-779.8346845592658
 10
314.3525816116981
 20
-774.7595744827168
 10
311.6773090130972
 20
-769.8502531704435
 10
308.7419127086153
 20
-765.1222065843044
 10
305.5564466841862
 20
-760.5901510948273
 10
302.1317833177441
 20
-756.2679720070226
 10
298.4795317592796
 20
-752.1686773489975
 10
294.6119544095683
 20
-748.304366857292
 10
290.5418844537538
 20
-744.6862151230618
 10
286.2826468900193
 20
-741.3244671405379
 10
281.8479848856492
 20
-738.2284440602801
 10
277.2519926905575
 20
-735.4065567771712
 10
272.5090558116215
 20
-732.8663250209026
 10
267.6337987349628
 20
-730.6143997910976
 10
262.6410401798622
 20
-728.6565872175912
 10
257.5457556549651
 20
-726.9978721715825
 10
252.3633418827926
 20
-725.6425081056431
 10
247.1093659341526
 20
-724.5939074987061
 10
241.7991091512793
 20
-723.8545924162163
 10
236.4478984558607
 20
-723.4263325688207
 10
231.0710975272131
 20
-723.3101537494474
 10
225.6841009684606
 20
-723.5063395011792
 10
220.3023298119432
 20
-724.0144256818179
 10
214.9412264162709
 20
-724.8331880040381
 10
209.6162466443119
 20
-725.9606231533125
 10
204.3428471860767
 20
-727.3939246769254
 10
199.1364660511715
 20
-729.1294554444529
 10
194.0124946326794
 20
-731.1627190297914
 10
188.986240339564
 20
-733.4883327714305
 10
184.0728795724383
 20
-736.1000054476235
 10
182.9818023107344
 20
-736.7590362486607
  0
LWPOLYLINE
  5
4CE
330
A
100
AcDbEntity
  8
0
  6
Continuous
 62
     7
100
AcDbPolyline
 90
       32
 70
   128
 43
0.0
 10
136.027486780025
 20
-869.7065059461674
 10
137.4520796001059
 20
-873.3357354905718
 10
139.7947923799783
 20
-878.4467936991186
 10
142.408765179424
 20
-883.3957345833841
 10
145.2850551541328
 20
-888.1669050207895
 10
148.4138080824364
 20
-892.7454052313223
 10
151.7843331465915
 20
-897.1171536627112
 10
155.3851836564089
 20
-901.2689367537646
 10
159.2042404098767
 20
-905.1884433922811
 10
163.2287946402119
 20
-908.8642848992023
 10
167.4456279780818
 20
-912.2860021557645
 10
171.8410874538571
 20
-915.4440619949625
 10
176.401154175684
 20
-918.3298452087278
 10
181.1115048677081
 20
-920.935628526692
 10
185.9575658957452
 20
-923.2545627727381
 10
190.9245597358944
 20
-925.2806491761257
 10
195.9975440725808
 20
-927.0087155664016
 10
201.1612992460873
 20
-928.434358571002
 10
206.4001316482444
 20
-929.5539276661134
 10
211.6987720817723
 20
-930.3647254746358
 10
217.0419032157726
 20
-930.8648098324415
 10
222.4141692419358
 20
-931.0529838556213
 10
227.8001822683122
 20
-930.9287926711418
 10
233.184526957915
 20
-930.4925272045661
 10
238.5517653083205
 20
-929.7452350535886
 10
243.8864436556509
 20
-928.6887379732373
 10
249.1731040480666
 20
-927.3256549193902
 10
254.3963020196438
 20
-925.6594289880297
 10
259.5406324695511
 20
-923.6943560173939
 10
264.5907648047812
 20
-921.4356121728068
 10
269.5314877637616
 20
-918.8892775951083
 10
272.227533396304
 20
-917.3068272649191
  0
LWPOLYLINE
  5
4F0
330
A
100
AcDbEntity
  8
0
  6
Continuous
 62
     7
100
AcDbPolyline
 90
       14
 70
   128
 43
0.0
 10
141.0411094396635
 20
-769.2504980254617
 10
140.4111651347273
 20
-769.4949838072383
 10
139.0588480588627
 20
-769.940040175624
 10
137.3235952304481
 20
-770.4091107064726
 10
135.1915686229634
 20
-770.859953019292
 10
132.6572626733888
 20
-771.2457126520384
 10
129.7259427505596
 20
-771.5160801688211
 10
126.4162341503363
 20
-771.6192040345204
 10
122.7625236251834
 20
-771.5045125346555
 10
118.8166455681027
 20
-771.1264696300013
 10
114.6481928216346
 20
-770.4490535584853
 10
110.3428301898556
 20
-769.4504371331048
 10
105.9982815137562
 20
-768.1270709511003
 10
105.2673884740321
 20
-767.8485867063227
  0
LWPOLYLINE
  5
500
330
A
100
AcDbEntity
  8
0
  6
Continuous
 62
     7
100
AcDbPolyline
 90
       14
 70
   128
 43
0.0
 10
95.20136690256455
 20
-796.1730800907554
 10
96.94613033402164
 20
-796.7802313243541
 10
101.1427070394942
 20
-798.5714500617477
 10
105.1072677905233
 20
-800.5946122876757
 10
108.7578921160788
 20
-802.7814865387229
 10
112.0346151332686
 20
-805.0550964403701
 10
114.9005269449558
 20
-807.3359095898643
 10
117.3413836769047
 20
-809.5479996833084
 10
119.3629137934487
 20
-811.6237595723767
 10
120.9867006350859
 20
-813.5067324237512
 10
122.245615626661
 20
-815.1526540574023
 10
123.1795726067105
 20
-816.5291467069291
 10
123.8320343294419
 20
-817.6146049655915
 10
123.8573820478106
 20
-817.6623353332907
  0
LWPOLYLINE
  5
510
330
A
100
AcDbEntity
  8
0
  6
Continuous
 62
     7
100
AcDbPolyline
 90
      124
 70
   128
 43
0.0
 10
119.9897807907622
 20
-604.4779183124431
 10
117.8250963280498
 20
-604.4242561475098
 10
113.4403927668287
 20
-604.299386416334
 10
109.4009292662751
 20
-604.1740714939196
 10
105.809473812618
 20
-604.0555365938638
 10
102.7452790493327
 20
-603.9508254988889
 10
100.268442398371
 20
-603.8658148702664
 10
98.58949975899154
 20
-603.8080444994574
 10
97.44820377879909
 20
-603.7687073282802
 10
96.70598382930092
 20
-603.7430955573902
 10
95.80760782504016
 20
-603.7120631052504
 10
94.69866492621115
 20
-603.6737092378723
 10
91.88723698955076
 20
-603.5762448009502
 10
88.20028115954331
 20
-603.4479585598658
 10
80.41991577170888
 20
-603.1827125673276
 10
71.90607544540347
 20
-602.908398076182
 10
62.66000605681238
 20
-602.629905369475
 10
52.66319951473406
 20
-602.3656106314542
 10
42.1760952884106
 20
-602.1294886558995
 10
33.21019431917968
 20
-601.9708009387468
 10
24.07935606017961
 20
-601.8518789690179
 10
14.81962681601651
 20
-601.7785825678256
 10
5.451618093048782
 20
-601.7620160975917
 10
-3.970436118466757
 20
-601.8033192917173
 10
-12.94777124742827
 20
-601.9062596752773
 10
-19.99899650158554
 20
-602.0337141407581
 10
-26.43624156550548
 20
-602.1861470894573
 10
-32.26129425641872
 20
-602.3576154312835
 10
-37.47717420298175
 20
-602.5410244887914
 10
-42.5495335918668
 20
-602.7469458119099
 10
-48.44623129485754
 20
-603.0212342252301
 10
-55.16903283125424
 20
-603.3836609182415
 10
-60.99748698401647
 20
-603.7468444150302
 10
-67.28304726716306
 20
-604.191795536669
 10
-73.98489676900149
 20
-604.7302002291665
 10
-80.46265997558322
 20
-605.3226896817688
 10
-86.15595534657334
 20
-605.9084299427172
 10
-91.0086142764579
 20
-606.4588245605251
 10
-95.15753682569483
 20
-606.96910395502
 10
-98.63723144651231
 20
-607.4288445590616
 10
-101.5758876971809
 20
-607.8418118160636
 10
-105.7660972808954
 20
-608.4720146977871
 10
-110.5659279231001
 20
-609.2578268799148
 10
-115.724726989297
 20
-610.1857804678893
 10
-121.0160371822123
 20
-611.2430562594894
 10
-126.3973603271953
 20
-612.4445293901281
 10
-131.6970664142501
 20
-613.7705797683508
 10
-136.6549047172896
 20
-615.1644936177807
 10
-144.5201396962873
 20
-617.7634121880016
 10
-151.4864730628379
 20
-620.5915701134348
 10
-157.6646933170077
 20
-623.7058994879816
 10
-162.7225573650718
 20
-626.8819785186299
 10
-165.4071640794097
 20
-628.903695552699
 10
-168.145009420325
 20
-631.3052204573211
 10
-170.9493508488791
 20
-634.2688913295033
 10
-173.2814334648718
 20
-637.3348629745263
 10
-175.0298887820445
 20
-640.2379760787629
 10
-176.4086938715198
 20
-643.1966181799829
 10
-177.4612604274924
 20
-646.2925658187968
 10
-178.105049701427
 20
-649.1389868939817
 10
-178.4778857495276
 20
-652.3055195827629
 10
-178.477924664818
 20
-656.0316741739334
 10
-178.0024992312841
 20
-659.8394225721135
 10
-176.8237171096038
 20
-664.3468926537418
 10
-175.2009501099048
 20
-668.3849675391063
 10
-173.3625147352625
 20
-671.8739274625426
 10
-171.7062123888578
 20
-674.502689881634
 10
-170.0090857899288
 20
-676.8780394403656
 10
-168.0218275817008
 20
-679.3741701733714
 10
-165.5326304784877
 20
-682.1868393727486
 10
-162.7430466210926
 20
-685.0345209219049
 10
-159.7881699387471
 20
-687.7922477394847
 10
-156.6635319840856
 20
-690.4898162378929
 10
-153.0896500933607
 20
-693.3585966272595
 10
-148.8333289350314
 20
-696.5368345987867
 10
-143.8049214936746
 20
-700.0365173939817
 10
-137.9229636530956
 20
-703.853319145259
 10
-134.756072971087
 20
-705.8055529529867
 10
-131.9533266870183
 20
-707.483605329403
 10
-129.5543810945171
 20
-708.8863297525939
 10
-127.5912703144419
 20
-710.0126767164465
 10
-126.0884433958201
 20
-710.8625111164156
 10
-124.8853786757311
 20
-711.5353833751044
 10
-121.8970858744474
 20
-713.1793790018908
 10
-117.8574766359298
 20
-715.3437032151905
 10
-112.8737019365984
 20
-717.9349051885914
 10
-107.3824014180687
 20
-720.7001683896529
 10
-101.0965128759682
 20
-723.7604163031875
 10
-94.24764350526915
 20
-726.9826703464255
 10
-86.81445352959821
 20
-730.3679636536855
 10
-79.01768143217068
 20
-733.8036602262656
 10
-71.29077797573573
 20
-737.1076482145069
 10
-64.16098140071136
 20
-740.078447841438
 10
-57.68523296987376
 20
-742.7147563508339
 10
-51.89572743197962
 20
-745.0265282420801
 10
-46.81172544567524
 20
-747.0259795133853
 10
-42.29824927283309
 20
-748.7774631938984
 10
-36.43838844902977
 20
-751.0187486574771
 10
-29.70309282474709
 20
-753.5523609909358
 10
-22.09637105169204
 20
-756.3675012172141
 10
-13.65296797970652
 20
-759.4351217684517
 10
-4.639630519960941
 20
-762.6485861276166
 10
4.276582586520028
 20
-765.7752474646481
 10
14.04195990563112
 20
-769.1397959319041
 10
23.5438791555119
 20
-772.3664354873
 10
32.72531097677523
 20
-775.4409367563924
 10
37.97209785920211
 20
-777.1827501413725
 10
42.88788436816467
 20
-778.8071584795029
 10
47.13375185740459
 20
-780.2039451657496
 10
50.73377830664696
 20
-781.383427035365
 10
54.08275386468098
 20
-782.4780876399671
 10
56.68334256134039
 20
-783.3277908306577
 10
57.77479938625629
 20
-783.6843175940317
 10
59.27497237411761
 20
-784.1742617552283
 10
61.28813111413933
 20
-784.83156528943
 10
63.78824082454412
 20
-785.647555431379
 10
67.1968966966869
 20
-786.759487626404
 10
71.13130332949549
 20
-788.0436930821286
 10
75.51521755283191
 20
-789.4815223692638
 10
80.24551750959046
 20
-791.0428309743426
 10
85.19695645769656
 20
-792.6915662043455
 10
90.23401584147856
 20
-794.4010041756662
 10
95.18419656560631
 20
-796.1269031545701
 10
95.18419656560631
 20
-796.1269031545701
  0
LWPOLYLINE
  5
58E
330
A
100
AcDbEntity
  8
0
  6
Continuous
 62
     7
100
AcDbPolyline
 90
      134
 70
   128
 43
0.0
 10
105.2881690031203
 20
-767.879626204608
 10
100.6611119691773
 20
-766.2632970091117
 10
96.02282046906168
 20
-764.6826019295464
 10
91.51521618599529
 20
-763.1750259419466
 10
87.2485350118926
 20
-761.761839720398
 10
83.32094536335851
 20
-760.4689308014521
 10
79.81564929033044
 20
-759.3206648842113
 10
76.79857568200138
 20
-758.335968978665
 10
74.31793027450488
 20
-757.5267521808659
 10
72.22494897079868
 20
-756.8437590280866
 10
70.89463496912791
 20
-756.4095324732233
 10
69.92964530114199
 20
-756.0944958073887
 10
68.60958750499823
 20
-755.6634671702799
 10
66.82189269516136
 20
-755.0796119506411
 10
64.60634860809583
 20
-754.3558188769897
 10
61.97071043843477
 20
-753.4945054112833
 10
54.4961257778711
 20
-751.045109886856
 10
47.05682757966989
 20
-748.5891073195663
 10
39.70330473234288
 20
-746.144757211595
 10
31.82437408728683
 20
-743.4987345390815
 10
23.10765080439969
 20
-740.5346200634014
 10
15.20804519580685
 20
-737.8144415902997
 10
6.724994731109878
 20
-734.8467294108554
 10
-2.245209676953519
 20
-731.6566349078613
 10
-10.70320883770623
 20
-728.5922082649022
 10
-18.29683887884276
 20
-725.7883283556383
 10
-24.99175750306939
 20
-723.2750958982701
 10
-30.01224477634187
 20
-721.3611459157029
 10
-34.38390032399977
 20
-719.6719483981873
 10
-38.96180118798506
 20
-717.8803000591716
 10
-44.23894977509501
 20
-715.7856876624598
 10
-50.18931339980304
 20
-713.3832603699735
 10
-56.78565148199139
 20
-710.6610974351092
 10
-63.97460812444244
 20
-707.6203934095697
 10
-71.54757069315953
 20
-704.3265210683331
 10
-78.68894010127492
 20
-701.1182678423811
 10
-85.27285197467676
 20
-698.064325766653
 10
-91.30959833328811
 20
-695.1726498889726
 10
-96.82362485309148
 20
-692.439725468419
 10
-101.829017080669
 20
-689.8749447844522
 10
-106.1194012485092
 20
-687.6058437524736
 10
-108.3419445652303
 20
-686.4003941667849
 10
-110.1274646969641
 20
-685.4155790798811
 10
-111.5695675130251
 20
-684.6089657149921
 10
-113.5608578932789
 20
-683.4778733693648
 10
-116.3088965690846
 20
-681.8818664290596
 10
-119.7300754615769
 20
-679.8326133591752
 10
-123.4505290567346
 20
-677.5116784722302
 10
-126.877186026692
 20
-675.269846707673
 10
-129.7259400723639
 20
-673.3162531944742
 10
-132.0562724386059
 20
-671.6466720508955
 10
-133.9237889254298
 20
-670.2535724178924
 10
-135.7082930027473
 20
-668.8664819439551
 10
-137.1909161628315
 20
-667.6657096872013
 10
-138.8178659242142
 20
-666.2884869485042
 10
-140.5451032863698
 20
-664.7437895915706
 10
-142.2190689903874
 20
-663.1436469814327
 10
-143.5095146328506
 20
-661.8161595671153
 10
-144.4938006572109
 20
-660.7301438062471
 10
-145.4598958644919
 20
-659.5818668124739
 10
-146.4567576461534
 20
-658.2744593266632
 10
-147.1909016142547
 20
-657.1848552404336
 10
-147.6891446772302
 20
-656.3379749576519
 10
-148.0036521233046
 20
-655.7248130131192
 10
-148.2138429038777
 20
-655.2560346247333
 10
-148.3701459663519
 20
-654.8524366477482
 10
-148.4742278442928
 20
-654.5239187213373
 10
-148.5283792878109
 20
-654.3846654173598
 10
-148.5542711892061
 20
-654.3449211635941
 10
-148.5297736668426
 20
-654.2122922826573
 10
-148.5105549945626
 20
-654.2026044341183
 10
-148.5014907228623
 20
-654.2238631663833
 10
-148.4707223834545
 20
-654.1913959897875
 10
-148.3821158995337
 20
-654.0633591833276
 10
-148.1815469634518
 20
-653.7994215774872
 10
-147.9667250799279
 20
-653.5488607774312
 10
-147.6630403023921
 20
-653.2285228205103
 10
-147.1944394090101
 20
-652.7819343042888
 10
-146.5081331779621
 20
-652.1987855911632
 10
-145.5740589022416
 20
-651.4956896163796
 10
-144.5987790716519
 20
-650.838704948407
 10
-142.8655395037943
 20
-649.8010522962781
 10
-140.7704044461245
 20
-648.7012152111636
 10
-138.038394687479
 20
-647.4476914899271
 10
-135.0943183187198
 20
-646.2643464606093
 10
-132.0891867655069
 20
-645.1876027010462
 10
-128.7171196845973
 20
-644.1036839385809
 10
-124.7287860461643
 20
-642.9600090236911
 10
-120.6831980423964
 20
-641.9235012243506
 10
-116.3646736415494
 20
-640.9275201199927
 10
-112.0833901449627
 20
-640.0369564893807
 10
-107.8887189043334
 20
-639.2461917791731
 10
-103.8346598979235
 20
-638.5467046458131
 10
-100.1196100205738
 20
-637.9551903890517
 10
-96.82662606421732
 20
-637.4674325497567
 10
-93.63220383120102
 20
-637.0249853560722
 10
-89.67241726921626
 20
-636.515800956247
 10
-84.86153747901232
 20
-635.9478984279485
 10
-79.1502839330318
 20
-635.3392051161582
 10
-72.495912257382
 20
-634.7132763855618
 10
-65.37215999023004
 20
-634.1326754341921
 10
-58.70535056928227
 20
-633.6606020039042
 10
-52.57357128448914
 20
-633.2836050613258
 10
-47.02341154480072
 20
-632.9874371777824
 10
-41.4241702399754
 20
-632.7262382203872
 10
-36.6253976590672
 20
-632.5301616157593
 10
-31.7097679975587
 20
-632.3553290519834
 10
-26.21903953022983
 20
-632.19064546113
 10
-20.15012796085694
 20
-632.0431756436645
 10
-13.49736363810633
 20
-631.9177016525337
 10
-6.27422378260431
 20
-631.823887417611
 10
4.514179689231928
 20
-631.7623951291785
 10
15.15893116928615
 20
-631.7794237970413
 10
25.50020542199741
 20
-631.8684796979193
 10
35.51330783023171
 20
-632.0106934997228
 10
45.14961360156439
 20
-632.1981426851969
 10
51.78530372270145
 20
-632.3525015764174
 10
58.17484763778291
 20
-632.5168020365224
 10
64.293936598499
 20
-632.6894664297782
 10
70.13814093991228
 20
-632.8676310137794
 10
75.71588244817765
 20
-633.0446757537921
 10
81.02246752798015
 20
-633.2194483073996
 10
85.57988800279714
 20
-633.3748805826358
 10
88.64294829262304
 20
-633.4815762317827
 10
90.89152020633909
 20
-633.5597501859268
 10
92.11346052228263
 20
-633.6021485165754
 10
93.86609275910856
 20
-633.6628489924748
 10
96.12895458017939
 20
-633.7410111702316
 10
98.8739012862738
 20
-633.8354838348392
 10
102.5535752508505
 20
-633.961486010684
 10
106.746027301061
 20
-634.1028153196568
 10
111.3740379724261
 20
-634.2494641586998
 10
116.3316434990171
 20
-634.3930088897011
 10
120.0807598555194
 20
-634.4876177705859
  0
LWPOLYLINE
  5
616
330
A
100
AcDbEntity
  8
0
  6
Continuous
 62
     7
100
AcDbPolyline
 90
       46
 70
   128
 43
0.0
 10
122.745858162858
 20
-816.1771004190198
 10
124.1296153049254
 20
-818.7787396064292
 10
125.9021655907703
 20
-821.412498717849
 10
127.9303404747058
 20
-823.8052571829259
 10
130.1919188482806
 20
-825.9307994391996
 10
132.662122385568
 20
-827.7658376009121
 10
135.3138870196904
 20
-829.2902666059571
 10
138.1181594623986
 20
-830.4873844911483
 10
141.0442155179789
 20
-831.3440753824227
 10
144.0599967039695
 20
-831.8509531951008
 10
147.1324614906041
 20
-832.0024644697964
 10
150.2279473107256
 20
-831.796949217278
 10
153.3125393739167
 20
-831.2366591056589
 10
156.3524422440407
 20
-830.3277327906505
 10
159.3143501091121
 20
-829.0801286591648
 10
162.1658116867419
 20
-827.5075157231443
 10
164.8755857671791
 20
-825.627123859007
 10
167.4139834985415
 20
-823.459555033513
 10
169.7531936640906
 20
-821.0285575843078
 10
171.8675873877414
 20
-818.3607660281635
 10
173.7339989293922
 20
-815.4854092476407
 10
175.331979493621
 20
-812.4339902533339
 10
176.6440212709672
 20
-809.2399410302952
 10
177.6557492571557
 20
-805.9382562502099
 10
178.3560787486523
 20
-802.5651098624503
 10
178.7373367889946
 20
-799.1574587647177
 10
178.7953462353094
 20
-795.752637895535
 10
178.5294715239636
 20
-792.3879511848498
 10
177.9426256339324
 20
-789.1002628443703
 10
177.0412381715925
 20
-785.925593475548
 10
175.8351849266088
 20
-782.8987254203298
 10
174.3376796707162
 20
-780.0528216785413
 10
172.5651293848712
 20
-777.4190625671217
 10
170.5369545009357
 20
-775.0263041020448
 10
168.2753761273609
 20
-772.9007618457711
 10
165.8051725900734
 20
-771.0657236840586
 10
163.1534079559511
 20
-769.5412946790135
 10
160.3491355132428
 20
-768.3441767938222
 10
157.4230794576625
 20
-767.487485902548
 10
154.4072982716719
 20
-766.9806080898699
 10
151.3348334850374
 20
-766.8290968151744
 10
148.2393476649159
 20
-767.0346120676929
 10
145.1547556017248
 20
-767.594902179312
 10
142.1148527316007
 20
-768.5038284943204
 10
139.1529448665293
 20
-769.7514326258061
 10
138.4923526655328
 20
-770.0817397207055
  0
LWPOLYLINE
  5
646
330
A
100
AcDbEntity
  8
0
  6
Continuous
 62
     7
100
AcDbPolyline
 90
       28
 70
   128
 43
0.0
 10
272.2277046930561
 20
-917.35039481607
 10
275.6402126110816
 20
-915.23714162286
 10
280.3379555425278
 20
-912.0002673120188
 10
284.8764718930336
 20
-908.4793155539385
 10
289.2401164565328
 20
-904.686423798735
 10
293.4138468462362
 20
-900.6346669300294
 10
297.3832753488541
 20
-896.3380121931161
 10
301.1347185220254
 20
-891.8112710469745
 10
304.6552443639778
 20
-887.0700481061019
 10
307.9327168928164
 20
-882.1306873481743
 10
310.9558379817685
 20
-877.0102157729697
 10
313.7141863061661
 20
-871.7262847067718
 10
316.1982532679114
 20
-866.2971089545933
 10
318.3994757735844
 20
-860.7414040099682
 10
320.3102657531995
 20
-855.078321538768
 10
321.924036317855
 20
-849.3273833594439
 10
323.2352244661031
 20
-843.5084141472728
 10
324.2393102607693
 20
-837.6414730945958
 10
324.9328324101116
 20
-831.746784762625
 10
325.31340019961
 20
-825.8446693631936
 10
325.3797017332552
 20
-819.9554727107742
 10
325.1315084559253
 20
-814.0994960862423
 10
324.5696759412637
 20
-808.2969262541558
 10
323.6961409423384
 20
-802.5677658747945
 10
322.5139147152536
 20
-796.9317645508477
 10
321.0270726387256
 20
-791.4083507464413
 10
319.2407401654086
 20
-786.0165648131977
 10
319.0987099743914
 20
-785.6284661072136
  0
LWPOLYLINE
  5
664
330
A
100
AcDbEntity
  8
0
  6
Continuous
 62
     7
100
AcDbPolyline
 90
       12
 70
   128
 43
0.0
 10
112.6667529985879
 20
-786.5481413553748
 10
113.3030169781052
 20
-784.34281004287
 10
113.633003735774
 20
-782.0826411595716
 10
113.6489786616784
 20
-779.8206111484736
 10
113.3505673170949
 20
-777.6097400758288
 10
112.7447642110189
 20
-775.5018488857322
 10
111.8457688548017
 20
-773.546344761114
 10
110.6746529376402
 20
-771.789063061247
 10
109.2588664240405
 20
-770.2711929797731
 10
107.6315941499167
 20
-769.0283121049149
 10
105.830977998162
 20
-768.0895525109622
 10
105.2645465466709
 20
-767.8711893457655
  0
LWPOLYLINE
  5
672
330
A
100
AcDbEntity
  8
0
  6
Continuous
 62
     7
100
AcDbPolyline
 90
       12
 70
   128
 43
0.0
 10
94.3789631662822
 20
-795.8041313148079
 10
95.5934974419066
 20
-796.2650891625345
 10
97.57399385435444
 20
-796.7087833104329
 10
99.61688801567277
 20
-796.8077919550588
 10
101.674296218197
 20
-796.5597944176981
 10
103.6979945574384
 20
-795.9706035504337
 10
105.6405492595322
 20
-795.0540294878192
 10
107.4564284886945
 20
-793.8315559490298
 10
109.1030695748615
 20
-792.3318366776947
 10
110.5418766466017
 20
-790.5900238224305
 10
111.7391252856298
 20
-788.6469440002728
 10
112.6667529985879
 20
-786.5481413553748
  0
LWPOLYLINE
  5
680
330
A
100
AcDbEntity
  8
0
  6
Continuous
 62
     7
100
AcDbPolyline
 90
       23
 70
   128
 43
0.0
 10
175.9449987526213
 20
-809.184280079924
 10
176.9575917494623
 20
-805.9374182323784
 10
177.6640063286818
 20
-802.618240721309
 10
178.0565028643233
 20
-799.2631131501098
 10
178.1307810822069
 20
-795.9087949985562
 10
177.8860271746341
 20
-792.5920368782532
 10
177.3249227166339
 20
-789.3491778852427
 10
176.4536152860672
 20
-786.2157474612642
 10
175.2816511094759
 20
-783.2260761257551
 10
173.8218704716279
 20
-780.4129193434967
 10
172.0902670346705
 20
-777.8070986488856
 10
170.10581260822
 20
-775.4371639587555
 10
167.8902492902466
 20
-773.329080773512
 10
165.4678512560983
 20
-771.5059456936775
 10
162.8651588055567
 20
-769.987733368702
 10
160.1106875817584
 20
-768.7910776505246
 10
157.2346161478413
 20
-767.9290893496097
 10
154.2684553442922
 20
-767.4112125901647
 10
151.2447030495838
 20
-767.2431213383391
 10
148.1964881266177
 20
-767.4266572370631
 10
145.15720745597
 20
-767.9598094286227
 10
142.1601600326786
 20
-768.8367365860382
 10
141.0540198469315
 20
-769.2523150873216
  0
LWPOLYLINE
  5
699
330
A
100
AcDbEntity
  8
0
  6
Continuous
 62
     7
100
AcDbPolyline
 90
       23
 70
   128
 43
0.0
 10
123.8686077057792
 20
-817.6798450122831
 10
124.2020078762141
 20
-818.2610623758256
 10
125.9336113131716
 20
-820.8668830704365
 10
127.9180657396221
 20
-823.2368177605664
 10
130.1336290575955
 20
-825.3449009458101
 10
132.5560270917438
 20
-827.1680360256446
 10
135.1587195422854
 20
-828.6862483506199
 10
137.9131907660838
 20
-829.8829040687975
 10
140.7892622000009
 20
-830.7448923697123
 10
143.75542300355
 20
-831.2627691291572
 10
146.7791752982584
 20
-831.4308603809829
 10
149.8273902212245
 20
-831.2473244822589
 10
152.8666708918721
 20
-830.714172290699
 10
155.8637183151635
 20
-829.8372451332836
 10
158.7856962123565
 20
-828.6261508074579
 10
161.6005907821461
 20
-827.0941583160929
 10
164.2775614505714
 20
-825.2580524895149
 10
166.7872787667969
 20
-823.1379500873893
 10
169.1022457427138
 20
-820.7570793952937
 10
171.1970991156961
 20
-818.1415257307602
 10
173.0488872338132
 20
-815.3199456470769
 10
174.6373215189313
 20
-812.3232529660942
 10
175.9449987526213
 20
-809.184280079924
  0
CIRCLE
  5
6B2
330
A
100
AcDbEntity
  8
0
  6
Continuous
 62
     7
100
AcDbCircle
 10
208.6932044712177
 20
-619.6547662023387
 30
0.0
 40
90.00000000000001
  0
LWPOLYLINE
  5
6B3
330
A
100
AcDbEntity
  8
0
  6
Continuous
 62
     7
100
AcDbPolyline
 90
        6
 70
   128
 43
0.0
 10
118.7851668066961
 20
-623.722291655852
 10
118.6343723938585
 20
-623.0725688358829
 10
118.3186896206703
 20
-620.8030049948832
 10
118.3186896206703
 20
-618.5065274097884
 10
118.6343723938586
 20
-616.2369635687887
 10
118.7851668066964
 20
-615.5872407488186
  0
LWPOLYLINE
  5
6BB
330
A
100
AcDbEntity
  8
0
  6
Continuous
 62
     7
100
AcDbPolyline
 90
       11
 70
   128
 43
0.0
 10
113.1076661292363
 20
-785.1493320116929
 10
113.5496767200641
 20
-782.9029185048632
 10
113.679628593751
 20
-780.6354172644955
 10
113.4944757885199
 20
-778.3999765978186
 10
112.9985581291973
 20
-776.2489933393882
 10
112.2034995053972
 20
-774.2328847136929
 10
111.1279354174011
 20
-772.3989065981442
 10
109.7970761758259
 20
-770.7900458853635
 10
108.24211599331
 20
-769.4440129068507
 10
106.4995018186084
 20
-768.3923575347777
 10
105.2854034356497
 20
-767.8786355128977
  0
LWPOLYLINE
  5
6C8
330
A
100
AcDbEntity
  8
0
  6
Continuous
 62
     7
100
AcDbPolyline
 90
       12
 70
   128
 43
0.0
 10
95.18194255340111
 20
-796.1260951670359
 10
96.84817274551145
 20
-796.5877555502247
 10
98.87397806564194
 20
-796.8120961556635
 10
100.9317106065458
 20
-796.6893296923014
 10
102.9731388615176
 20
-796.2223337019881
 10
104.950413482495
 20
-795.4220541749284
 10
106.8171888282226
 20
-794.3072489849519
 10
108.529709266802
 20
-792.9040482208458
 10
110.0478347706179
 20
-791.2453417192237
 10
111.3359817645643
 20
-789.3700081546285
 10
112.3639571748859
 20
-787.3220037563558
 10
113.1076661292363
 20
-785.1493320116929
  0
LWPOLYLINE
  5
6D6
330
A
100
AcDbEntity
  8
0
  6
Continuous
 62
     7
100
AcDbPolyline
 90
        5
 70
   128
 43
0.0
 10
118.7851668066961
 20
-623.7222916558518
 10
118.3840479728995
 20
-621.5213531798755
 10
118.284535055115
 20
-619.2275358942987
 10
118.5015054645873
 20
-616.9437325250385
 10
118.7851668066964
 20
-615.5872407488187
  0
LWPOLYLINE
  5
6DD
330
A
100
AcDbEntity
  8
0
  6
PHANTOM
 62
     7
100
AcDbPolyline
 90
       75
 70
   128
 43
0.0
 10
126.9919528344721
 20
-823.1438603898986
 10
127.4604854112804
 20
-827.6136729550161
 10
128.2641474186613
 20
-832.270478025774
 10
129.3798117182784
 20
-836.823107220637
 10
130.8015257583754
 20
-841.2472702930511
 10
132.5217040794113
 20
-845.5193624188096
 10
134.5311687857689
 20
-849.6165901380031
 10
136.8191985137988
 20
-853.5170929679903
 10
139.3735856349335
 20
-857.2000600385312
 10
142.1807013886677
 20
-860.6458411267848
 10
145.2255685978923
 20
-863.8360514997488
 10
148.4919415786147
 20
-866.7536700047662
 10
151.9623928177115
 20
-869.3831298847381
 10
155.6184059562521
 20
-871.7104018335088
 10
159.4404745822844
 20
-873.7230688482844
 10
163.4082063059832
 20
-875.4103924797142
 10
167.5004315618724
 20
-876.7633701261654
 10
171.6953165576171
 20
-877.7747830664976
 10
175.9704797667518
 20
-878.4392349750632
 10
180.3031113438085
 20
-878.7531807134394
 10
184.6700948247115
 20
-878.7149452452764
 10
189.0481304631146
 20
-878.3247325733402
 10
193.4138595446297
 20
-877.5846246510701
 10
197.7439890156743
 20
-876.4985702744558
 10
202.0154157619905
 20
-875.072364013503
 10
206.2053498737563
 20
-873.3136152956948
 10
210.2914362396145
 20
-871.2317078064035
 10
214.2518738208643
 20
-868.8377494228694
 10
218.0655319694359
 20
-866.1445129488695
 10
221.71206316904
 20
-863.1663679662832
 10
225.1720115979716
 20
-859.919204167155
 10
228.4269169343364
 20
-856.4203465753132
 10
231.4594128498556
 20
-852.6884631098711
 10
234.253319666741
 20
-848.7434649838016
 10
236.7937306832769
 20
-844.6064004690009
 10
239.0670917075231
 20
-840.2993425946513
 10
241.0612733747934
 20
-835.8452713780598
 10
242.7656358630647
 20
-831.2679512163226
 10
244.1710856610305
 20
-826.5918040929852
 10
245.2701240859187
 20
-821.8417792761924
 10
246.0568872922083
 20
-817.0432202035488
 10
246.5271775577828
 20
-812.2217292639136
 10
246.6784856805933
 20
-807.4030311975784
 10
246.5100043663378
 20
-802.6128358436467
 10
246.0226325357251
 20
-797.8767009669196
 10
245.2189705283442
 20
-793.2198958961617
 10
244.1033062287271
 20
-788.6672667012986
 10
242.6815921886301
 20
-784.2431036288846
 10
240.9614138675941
 20
-779.9710115031261
 10
238.9519491612365
 20
-775.8737837839328
 10
236.6639194332066
 20
-771.9732809539456
 10
234.1095323120718
 20
-768.2903138834046
 10
231.3024165583376
 20
-764.844532795151
 10
228.2575493491129
 20
-761.6543224221869
 10
224.9911763683906
 20
-758.7367039171696
 10
221.5207251292937
 20
-756.1072440371978
 10
217.8647119907532
 20
-753.779972088427
 10
214.0426433647208
 20
-751.7673050736516
 10
210.0749116410221
 20
-750.0799814422219
 10
205.9826863851328
 20
-748.7270037957706
 10
201.7878013893881
 20
-747.7155908554384
 10
197.5126381802535
 20
-747.0511389468729
 10
193.1800066031967
 20
-746.7371932084967
 10
188.8130231222937
 20
-746.7754286766598
 10
184.4349874838906
 20
-747.165641348596
 10
180.0692584023755
 20
-747.9057492708663
 10
175.739128931331
 20
-748.9918036474805
 10
171.4677021850148
 20
-750.4180099084333
 10
167.277768073249
 20
-752.1767586262415
 10
163.1916817073908
 20
-754.2586661155329
 10
159.231244126141
 20
-756.652624499067
 10
155.4175859775694
 20
-759.3458609730669
 10
151.7710547779653
 20
-762.3240059556533
 10
148.3111063490337
 20
-765.5711697547814
 10
146.9726865921761
 20
-766.9530398582879
  0
LWPOLYLINE
  5
72A
330
A
100
AcDbEntity
  8
0
  6
PHANTOM
 62
     7
100
AcDbPolyline
 90
       83
 70
   128
 43
0.0
 10
136.0056074891667
 20
-869.7431596978157
 10
136.4981085479239
 20
-871.0102631675638
 10
138.7224185912255
 20
-876.1713202700295
 10
141.2290127803269
 20
-881.155225272592
 10
144.0092503657883
 20
-885.9447976222345
 10
147.0535472926945
 20
-890.5235266708528
 10
150.3514092388775
 20
-894.87562859088
 10
153.8914677910188
 20
-898.9861007854099
 10
157.6615196339254
 20
-902.840773605256
 10
161.6485686178852
 20
-906.4263591946694
 10
165.8388705590875
 20
-909.7304972973274
 10
170.2179806186718
 20
-912.7417978647004
 10
174.7708030970799
 20
-915.4498803199073
 10
179.4816434720591
 20
-917.8454093417142
 10
184.3342625009324
 20
-919.9201270453219
 10
189.3119322006313
 20
-921.6668814490041
 10
194.3974935125196
 20
-923.0796511284715
 10
199.5734154532227
 20
-924.1535659739673
 10
204.8218555475596
 20
-924.8849239785453
 10
210.1247213352501
 20
-925.2712039996543
 10
215.4637327393747
 20
-925.3110744500398
 10
220.8204850815859
 20
-925.0043978879991
 10
226.1765125268472
 20
-924.3522314911734
 10
231.5133517389923
 20
-923.3568234122365
 10
236.8126055276694
 20
-922.0216050290462
 10
242.0560062672675
 20
-920.3511791159755
 10
247.2254788692068
 20
-918.3513039771947
 10
252.3032030905127
 20
-916.0288735966041
 10
257.2716749638853
 20
-913.3918938728438
 10
262.1137671375012
 20
-910.4494550213022
 10
266.8127879165431
 20
-907.2117002382608
 10
271.3525388029293
 20
-903.6897907351944
 10
275.7173703348931
 20
-899.8958672637645
 10
279.8922360339187
 20
-895.8430082641315
 10
283.8627442730701
 20
-891.545184780864
 10
287.6152078879108
 20
-887.0172123018516
 10
291.1366913589944
 20
-882.2746996862516
 10
294.4150554032804
 20
-877.3339953575154
 10
297.4389988207573
 20
-872.2121309469882
 10
300.1980974520204
 20
-866.9267625823458
 10
302.682840112509
 20
-861.496110023266
 10
304.8846613795292
 20
-855.9388938541422
 10
306.7959711190411
 20
-850.2742709503502
 10
308.4101806504228
 20
-844.5217684405314
 10
309.7217254590177
 20
-838.7012163925335
 10
310.7260843781689
 20
-832.8326794550607
 10
311.4197951746177
 20
-826.9363876906711
 10
311.8004664835384
 20
-821.032666838561
 10
311.866786052069
 20
-815.1418682475313
 10
311.6185252629177
 20
-809.2842987206719
 10
311.0565399224548
 20
-803.4801505136048
 10
310.1827673105705
 20
-797.7494317275954
 10
309.0002195024703
 20
-792.1118973374833
 10
307.5129729854268
 20
-786.5869810921915
 10
305.7261546062845
 20
-781.193728522567
 10
303.6459238981564
 20
-775.9507312874919
 10
301.2794518472369
 20
-770.8760630845822
 10
298.6348961729275
 20
-765.9872173464092
 10
295.7213732064876
 20
-761.3010469370133
 10
292.5489264651522
 20
-756.8337060565893
 10
289.1284920300476
 20
-752.600594554613
 10
285.4718608472536
 20
-748.6163048433695
 10
281.5916380819707
 20
-744.8945715948849
 10
277.5011996659035
 20
-741.4482243946665
 10
273.2146461876534
 20
-738.2891435154634
 10
268.7467542850687
 20
-735.4282189635066
 10
264.1129257071128
 20
-732.8753129384
 10
259.3291342208445
 20
-730.6392258360757
 10
254.4118705465346
 20
-728.7276659120068
 10
249.3780855107359
 20
-727.147222709253
 10
244.2451316132733
 20
-725.9033443429412
 10
239.0307032095815
 20
-725.0003187194838
 10
233.752775514597
 20
-724.4412587552769
 10
228.4295426384675
 20
-724.2280916458329
 10
223.079354867686
 20
-724.361552222338
 10
217.7206554078512
 20
-724.8411804185372
 10
212.3719168061172
 20
-725.6653228566776
 10
207.0515772724968
 20
-726.8311385470442
 10
201.777977119532
 20
-728.3346086814406
 10
196.5692955394366
 20
-730.1705504868521
 10
191.4434879366557
 20
-732.3326350915392
 10
186.4182240318658
 20
-734.8134093419688
 10
183.3384866219474
 20
-736.5206533163804
  0
LWPOLYLINE
  5
77F
330
A
100
AcDbEntity
  8
0
  6
Continuous
 62
     7
100
AcDbPolyline
 90
       11
 70
   128
 43
0.0
 10
816.5889210715539
 20
-171.0439403294508
 10
815.2618055291837
 20
-169.5889019651756
 10
809.5943558538959
 20
-162.9924063761349
 10
803.9836626159177
 20
-156.051146172218
 10
798.4617148390567
 20
-148.7797889330253
 10
793.0586480382762
 20
-141.1948614247172
 10
787.8023813109223
 20
-133.3142584903127
 10
782.7183972609303
 20
-125.1567949244939
 10
777.8296499870929
 20
-116.7418232233835
 10
773.1565771244151
 20
-108.0889275216343
 10
773.0035296991127
 20
-107.783092735792
  0
LWPOLYLINE
  5
78C
330
A
100
AcDbEntity
  8
0
  6
Continuous
 62
     7
100
AcDbPolyline
 90
       11
 70
   128
 43
0.0
 10
708.6238730170546
 20
-119.2623000600568
 10
708.054130354737
 20
-123.8206102669227
 10
706.5844816287599
 20
-133.2434954614891
 10
704.8521710507288
 20
-142.5019032251129
 10
702.8700173063224
 20
-151.5755277079545
 10
700.6526045613541
 20
-160.4437832594669
 10
698.2163667416667
 20
-169.0859384222022
 10
695.5796393081847
 20
-177.4813089915164
 10
692.7626626847079
 20
-185.6095160312907
 10
689.7875209426034
 20
-193.4508097251527
 10
689.6737138094961
 20
-193.7266111190008
  0
LWPOLYLINE
  5
799
330
A
100
AcDbEntity
  8
0
  6
Continuous
 62
     7
100
AcDbPolyline
 90
        8
 70
   128
 43
0.0
 10
863.4061472058775
 20
-231.5308517554049
 10
859.585369464421
 20
-225.8142235349155
 10
852.403949232611
 20
-215.5899229389371
 10
845.0501954543554
 20
-205.6182616294898
 10
837.5380945963994
 20
-195.9086241453043
 10
829.8826652084766
 20
-186.470295068719
 10
822.1000113213255
 20
-177.312413219687
 10
816.5605869322785
 20
-171.0880878369576
  0
LWPOLYLINE
  5
7A3
330
A
100
AcDbEntity
  8
0
  6
Continuous
 62
     7
100
AcDbPolyline
 90
        8
 70
   128
 43
0.0
 10
689.7084574031984
 20
-193.7476043867987
 10
687.6243226371667
 20
-198.9752313016508
 10
683.300538410888
 20
-210.6132505560718
 10
679.2094211467316
 20
-222.4796569227438
 10
675.3644363864842
 20
-234.5562988866589
 10
671.7775320013068
 20
-246.825462651269
 10
668.4592346125622
 20
-259.2699355227559
 10
666.6696915116573
 20
-266.6877744584284
  0
LWPOLYLINE
  5
7AD
330
A
100
AcDbEntity
  8
0
  6
Continuous
 62
     7
100
AcDbPolyline
 90
       13
 70
   128
 43
0.0
 10
666.6817108910951
 20
-266.6559056384195
 10
666.2281735002785
 20
-268.5014041211858
 10
665.515963886189
 20
-272.8065284482279
 10
665.1427435972268
 20
-277.0987856048375
 10
665.1021619712448
 20
-281.3595262965396
 10
665.3868254534799
 20
-285.5699010628659
 10
665.9882179266921
 20
-289.7114567864555
 10
666.8967858732624
 20
-293.7666200574087
 10
668.1016166302602
 20
-297.7175577652651
 10
669.590995720748
 20
-301.5485822418252
 10
671.3532890409389
 20
-305.2469688713488
 10
673.3771422210436
 20
-308.8019128324904
 10
674.5913421814119
 20
-310.6181227484299
  0
LWPOLYLINE
  5
7BC
330
A
100
AcDbEntity
  8
0
  6
Continuous
 62
     7
100
AcDbPolyline
 90
       13
 70
   128
 43
0.0
 10
871.1864120628344
 20
-275.5053878927736
 10
871.757238619803
 20
-273.1087986270464
 10
872.4376743110871
 20
-268.8041037999958
 10
872.7796737066945
 20
-264.5139835219985
 10
872.789675462749
 20
-260.2571343134539
 10
872.4751771027452
 20
-256.0523923406592
 10
871.8447969379083
 20
-251.9181475151643
 10
870.9081761506116
 20
-247.8718707908215
 10
869.676387900721
 20
-243.9315017349241
 10
868.161133362437
 20
-240.1123064004951
 10
866.3740397588824
 20
-236.4268372581491
 10
864.326410799685
 20
-232.8857133813105
 10
863.3789902114736
 20
-231.4886406282217
  0
LWPOLYLINE
  5
7CB
330
A
100
AcDbEntity
  8
0
  6
Continuous
 62
     7
100
AcDbPolyline
 90
       15
 70
   128
 43
0.0
 10
704.5687835932685
 20
-328.4979208156463
 10
705.6775198298261
 20
-328.8693396877678
 10
710.6355862465521
 20
-330.2532965037692
 10
715.7529243439874
 20
-331.4228701812096
 10
720.9927517306306
 20
-332.3795465719315
 10
726.3304790508271
 20
-333.1295606259488
 10
731.7479114438883
 20
-333.6804545930074
 10
737.2310491341576
 20
-334.039723820049
 10
742.7681993583434
 20
-334.2141708941677
 10
748.3486937640175
 20
-334.2097130633057
 10
753.9621285337294
 20
-334.031416959673
 10
759.597967216955
 20
-333.6836210150427
 10
765.2453709231231
 20
-333.1700730675826
 10
770.8931631898724
 20
-332.4940501027311
 10
773.3057081465674
 20
-332.1560815838613
  0
LWPOLYLINE
  5
7DC
330
A
100
AcDbEntity
  8
0
  6
Continuous
 62
     7
100
AcDbPolyline
 90
       17
 70
   128
 43
0.0
 10
773.3057081465674
 20
-332.1560815838613
 10
776.3200106112214
 20
-331.6924407144803
 10
781.9344422493911
 20
-330.7057456046845
 10
787.5153221257227
 20
-329.564125439834
 10
793.0486910669296
 20
-328.2700162132295
 10
798.5227257862479
 20
-326.8251779433244
 10
803.9259921519233
 20
-325.230888217984
 10
809.2473537041307
 20
-323.4878602540204
 10
814.4760317093329
 20
-321.5960893770409
 10
819.6016183387833
 20
-319.5546634587312
 10
824.614012960016
 20
-317.3615450049421
 10
829.5032334164766
 20
-315.013347078613
 10
834.2590270544006
 20
-312.505155329594
 10
838.8701708801963
 20
-309.8305060819668
 10
843.3233193749106
 20
-306.9817302246545
 10
847.6012799373524
 20
-303.9510152706132
 10
849.4755763310294
 20
-302.472367246208
  0
LWPOLYLINE
  5
7EF
330
A
100
AcDbEntity
  8
0
  6
Continuous
 62
     7
100
AcDbPolyline
 90
       13
 70
   128
 43
0.0
 10
708.9883593304453
 20
-20.67785478194251
 10
709.2574694804648
 20
-22.08944352444253
 10
710.7123209148802
 20
-31.40720261962615
 10
711.8518337406929
 20
-40.74368603494415
 10
712.676264358744
 20
-50.07999866422674
 10
713.1871113725463
 20
-59.39752295702949
 10
713.3870645525831
 20
-68.67745809304648
 10
713.2800433175479
 20
-77.90074833060512
 10
712.8712570951099
 20
-87.04801587840726
 10
712.1672866979182
 20
-96.09950142841661
 10
711.1761852107898
 20
-105.0350167704665
 10
709.9075957315575
 20
-113.8339156624872
 10
709.0987316654683
 20
-118.3882073694332
  0
LWPOLYLINE
  5
7FE
330
A
100
AcDbEntity
  8
0
  6
Continuous
 62
     7
100
AcDbPolyline
 90
       12
 70
   128
 43
0.0
 10
772.2703115899278
 20
-107.1125324426658
 10
768.6482061422972
 20
-100.7852251419002
 10
764.3622454976326
 20
-92.67890303789528
 10
760.3162112799479
 20
-84.36091146200642
 10
756.5261839131844
 20
-75.8522511755868
 10
753.0058339442476
 20
-67.17356996497791
 10
749.7666461137623
 20
-58.34511520740826
 10
746.8181332354764
 20
-49.38673006475124
 10
744.1680298050873
 20
-40.317880260754
 10
741.8224599067967
 20
-31.15770133724949
 10
739.7860771451832
 20
-21.92505899702202
 10
738.5732013054655
 20
-15.39144625756727
  0
LINE
  5
80C
330
A
100
AcDbEntity
  8
0
  6
Continuous
 62
     7
100
AcDbLine
 10
576.4260181222011
 20
-83.73006852795196
 30
0.0
 11
576.4260181222011
 21
4.876510957936064
 31
0.0
  0
LINE
  5
80D
330
A
100
AcDbEntity
  8
0
  6
Continuous
 62
     7
100
AcDbLine
 10
546.4260181222011
 20
4.876510957936064
 30
0.0
 11
546.4260181222012
 21
-135.0658318235083
 31
0.0
  0
ARC
  5
80E
330
A
100
AcDbEntity
  8
0
  6
Continuous
 62
     7
100
AcDbCircle
 10
478.926018122201
 20
680.9274080219008
 30
0.0
 40
7.5
100
AcDbArc
 50
180.0000000000004
 51
228.015806612091
  0
ARC
  5
80F
330
A
100
AcDbEntity
  8
0
  6
Continuous
 62
     7
100
AcDbCircle
 10
643.9260181222009
 20
680.9274080219008
 30
0.0
 40
7.500000000000113
100
AcDbArc
 50
311.9841933879111
 51
0.0
  0
LINE
  5
810
330
A
100
AcDbEntity
  8
0
  6
Continuous
 62
     7
100
AcDbLine
 10
471.4260181222009
 20
683.9274080219008
 30
0.0
 11
471.426018122201
 21
680.9274080219008
 31
0.0
  0
LINE
  5
811
330
A
100
AcDbEntity
  8
0
  6
Continuous
 62
     7
100
AcDbLine
 10
651.426018122201
 20
680.9274080219008
 30
0.0
 11
651.426018122201
 21
683.9274080219008
 31
0.0
  0
ARC
  5
812
330
A
100
AcDbEntity
  8
0
  6
Continuous
 62
     7
100
AcDbCircle
 10
338.1171868964707
 20
524.4565703273202
 30
0.0
 40
203.0
100
AcDbArc
 50
19.11362200407397
 51
48.01580661208985
  0
ARC
  5
813
330
A
100
AcDbEntity
  8
0
  6
Continuous
 62
     7
100
AcDbCircle
 10
784.7348493479313
 20
524.4565703273202
 30
0.0
 40
203.0
100
AcDbArc
 50
131.9841933879101
 51
160.886377995926
  0
LINE
  5
814
330
A
100
AcDbEntity
  8
0
  6
Continuous
 62
     7
100
AcDbLine
 10
546.4260181222009
 20
430.9274080219007
 30
0.0
 11
546.4260181222011
 21
4.876510957936064
 31
0.0
  0
LINE
  5
815
330
A
100
AcDbEntity
  8
0
  6
Continuous
 62
     7
100
AcDbLine
 10
576.4260181222011
 20
4.876510957936064
 30
0.0
 11
576.426018122201
 21
430.9274080219007
 31
0.0
  0
ARC
  5
816
330
A
100
AcDbEntity
  8
0
  6
Continuous
 62
     7
100
AcDbCircle
 10
198.2188752650583
 20
480.9274080219008
 30
0.0
 40
348.2071428571428
100
AcDbArc
 50
0.0
 51
18.24205198906398
  0
ARC
  5
817
330
A
100
AcDbEntity
  8
0
  6
Continuous
 62
     7
100
AcDbCircle
 10
924.6331609793436
 20
480.9274080219008
 30
0.0
 40
348.2071428571427
100
AcDbArc
 50
161.7579480109359
 51
180.0000000000004
  0
LINE
  5
818
330
A
100
AcDbEntity
  8
0
  6
Continuous
 62
     7
100
AcDbLine
 10
530.926018122201
 20
590.9274080219009
 30
0.0
 11
530.926018122201
 21
589.9274080219008
 31
0.0
  0
LINE
  5
819
330
A
100
AcDbEntity
  8
0
  6
Continuous
 62
     7
100
AcDbLine
 10
591.9260181222011
 20
589.9274080219008
 30
0.0
 11
591.9260181222011
 21
590.9274080219009
 31
0.0
  0
LINE
  5
81A
330
A
100
AcDbEntity
  8
0
  6
Continuous
 62
     7
100
AcDbLine
 10
546.4260181222011
 20
480.9274080219008
 30
0.0
 11
546.4260181222009
 21
430.9274080219007
 31
0.0
  0
LINE
  5
81B
330
A
100
AcDbEntity
  8
0
  6
Continuous
 62
     7
100
AcDbLine
 10
576.426018122201
 20
430.9274080219007
 30
0.0
 11
576.426018122201
 21
480.9274080219008
 31
0.0
  0
LWPOLYLINE
  5
81C
330
A
100
AcDbEntity
  8
0
  6
Continuous
 62
     7
100
AcDbPolyline
 90
      127
 70
   128
 43
0.0
 10
546.4261087252253
 20
-135.0431627837881
 10
546.3849413453972
 20
-144.9798917751868
 10
546.2775242601833
 20
-154.0035419274877
 10
546.1222058753254
 20
-162.1309645473989
 10
545.9402627010783
 20
-169.4066350488492
 10
545.7402883481901
 20
-175.8618250198066
 10
545.4879089538622
 20
-182.8684581011573
 10
545.2435687526777
 20
-188.7859408268196
 10
545.0169300902556
 20
-193.7232073739055
 10
544.817823178149
 20
-197.7958975010144
 10
544.5907718282701
 20
-202.1324525795018
 10
544.3824463287118
 20
-205.8848562445217
 10
544.1943892779224
 20
-209.1870141734116
 10
544.0261819330547
 20
-212.0561261508655
 10
543.8792314201895
 20
-214.5277729735648
 10
543.7450401392448
 20
-216.880822260182
 10
543.6833527616325
 20
-218.0200840497599
 10
543.6275461341919
 20
-219.1081633839936
 10
543.5806129282601
 20
-220.1262205648962
 10
543.5428767917496
 20
-221.527976453358
 10
543.5972429842522
 20
-223.5908835699962
 10
543.938760385855
 20
-226.1214721403713
 10
544.2287823778583
 20
-227.2538676274519
 10
544.688770729796
 20
-228.5610151281917
 10
545.3602038186594
 20
-229.9941206118419
 10
546.2674911234086
 20
-231.47851129429
 10
548.43131850766
 20
-233.9652276687112
 10
550.7060051319991
 20
-235.6933670048842
 10
553.213399456575
 20
-236.939573643999
 10
554.5498890803219
 20
-237.3842152859022
 10
555.8549085486593
 20
-237.6893417558036
 10
558.0045650284541
 20
-237.9330482233267
 10
560.062429167497
 20
-237.875780903826
 10
563.8707223336666
 20
-236.9966652793247
 10
567.1332843853499
 20
-235.2985470444086
 10
568.3676036434831
 20
-234.352102379779
 10
569.2915923547091
 20
-233.4954004066057
 10
570.5504867848493
 20
-232.0539592014443
 10
571.5299961775188
 20
-230.6118402813737
 10
572.2621291035243
 20
-229.2316795219038
 10
572.7891405223746
 20
-227.9641357564025
 10
573.1700247320936
 20
-226.8082745731084
 10
573.4585821889319
 20
-225.7378616412251
 10
573.7345969369942
 20
-224.5515564658409
 10
574.0271064569899
 20
-223.1646243111329
 10
574.3571090731582
 20
-221.5020058649077
 10
574.7044365952647
 20
-219.6909444632943
 10
575.1700219008311
 20
-217.2435681263192
 10
575.6260964126783
 20
-214.8417877261479
 10
576.108485617558
 20
-212.2993950994384
 10
577.1089765018721
 20
-207.094460720985
 10
578.3687191240793
 20
-200.6784530652167
 10
579.8980223496281
 20
-193.1128878621659
 10
581.6359454860372
 20
-184.7814156477583
 10
583.5838424143783
 20
-175.777185325149
 10
585.72899409543
 20
-166.2015428619299
 10
588.1171836703463
 20
-155.9528529352563
 10
590.7962926382882
 20
-144.8909332742025
 10
592.758098778285
 20
-137.0788156082679
 10
594.8575743714102
 20
-128.9486667335391
 10
597.1057042720919
 20
-120.5119462515546
 10
599.4203051440859
 20
-112.0938414899754
 10
601.6128049711401
 20
-104.3483794150565
 10
603.659283344319
 20
-97.32719923534251
 10
605.2749391660981
 20
-91.91506815334726
 10
606.7462959998564
 20
-87.07949188192676
 10
608.2457602434183
 20
-82.244590778638
 10
610.0485572300465
 20
-76.56025577831838
 10
612.1705886886079
 20
-70.03767619133173
 10
614.6235321176376
 20
-62.7102914045281
 10
617.4320075171398
 20
-54.60933017966841
 10
620.4583464106887
 20
-46.21206593061133
 10
623.4215301051246
 20
-38.30668101627777
 10
626.2856218370155
 20
-30.97272886058522
 10
629.0308070698195
 20
-24.21440695523614
 10
631.0938525384516
 20
-19.30496285494609
 10
633.0752648189736
 20
-14.73351121010779
 10
634.9165200174873
 20
-10.60952263840442
 10
636.4481591265405
 20
-7.268010571726213
 10
637.2525828886598
 20
-5.544912318654282
 10
637.9232509770373
 20
-4.124942926214902
 10
638.5757811887885
 20
-2.757790730485321
 10
639.5074796032173
 20
-0.8317080402160392
 10
640.735588349521
 20
1.65948719828457
 10
642.2617906615849
 20
4.680709174950004
 10
644.086536493455
 20
8.185548175891565
 10
646.1230431729951
 20
11.96038224840123
 10
649.0888576026515
 20
17.19654753854127
 10
651.7133891294136
 20
21.56052854427359
 10
653.9870854981999
 20
25.1366130847287
 10
655.905491356101
 20
28.00578137308252
 10
657.9133913597715
 20
30.85684261169197
 10
659.8954121110344
 20
33.5138828946695
 10
661.9261843292167
 20
36.07162486770555
 10
663.9874054511113
 20
38.49322246219455
 10
665.5793702582277
 20
40.23643227509088
 10
667.1344733915896
 20
41.82634209589042
 10
668.7502942237606
 20
43.35587421856657
 10
670.51230135727
 20
44.87413457744515
 10
672.5340361241967
 20
46.40514321506572
 10
673.9394559503629
 20
47.32073613795662
 10
675.1047281228718
 20
47.97782066617018
 10
676.604290170485
 20
48.6645753717887
 10
677.5529508877183
 20
48.98617177722819
 10
678.2234046765539
 20
49.14941653698146
 10
678.8458631129555
 20
49.24237990549862
 10
679.4608561326314
 20
49.26335025817641
 10
680.1958972302222
 20
49.17539239849699
 10
680.7076011780529
 20
49.03622164907917
 10
681.1607206475137
 20
48.86339186018762
 10
681.8125804642126
 20
48.54532434066316
 10
682.747623372775
 20
47.96503970177679
 10
683.9413691216479
 20
47.03578033764432
 10
685.144754711078
 20
45.90335123327583
 10
686.3384237165584
 20
44.60337888555332
 10
688.8604893236681
 20
41.2986397088303
 10
690.9807644622942
 20
37.92343421333177
 10
693.0257693948277
 20
34.14137569414744
 10
695.1941154756375
 20
29.52140685260119
 10
697.185678854067
 20
24.67986695957436
 10
698.4272447338148
 20
21.35019132355232
 10
699.79283073111
 20
17.38213187094606
 10
701.263678640857
 20
12.71522699623717
 10
702.8267655870803
 20
7.276677777141138
 10
704.9461848678732
 20
-1.015788435650866
 10
707.0165797493167
 20
-10.32415849306634
 10
709.0078367193918
 20
-20.67074832153737
  0
LWPOLYLINE
  5
89D
330
A
100
AcDbEntity
  8
0
  6
Continuous
 62
     7
100
AcDbPolyline
 90
       95
 70
   128
 43
0.0
 10
738.5411329014943
 20
-15.39965975929536
 10
737.2580106163812
 20
-8.532055955001727
 10
735.7621037633561
 20
-1.259709208175974
 10
734.0495928337388
 20
6.26857965483818
 10
732.2693000734318
 20
13.31656383941304
 10
730.4780249243592
 20
19.7207300747182
 10
728.6980605216991
 20
25.50410201774977
 10
726.9120272440268
 20
30.78613336779878
 10
725.0588338309043
 20
35.77557579575142
 10
723.0938362039641
 20
40.5860882643737
 10
721.0176479471887
 20
45.18760498038199
 10
718.9885307249219
 20
49.24915748963965
 10
717.4948736881685
 20
51.99107878748088
 10
716.1014138409001
 20
54.37513979541087
 10
714.5178019244732
 20
56.89453065669847
 10
712.4670167168294
 20
59.87465900472965
 10
709.4005053606174
 20
63.79339389985794
 10
706.6146919262921
 20
66.85542076304385
 10
703.333415402476
 20
69.9226729862965
 10
699.5559671117316
 20
72.81259057860679
 10
696.0561177383234
 20
74.94811876380191
 10
692.6961432586516
 20
76.55710579819296
 10
689.2550666032143
 20
77.79361236363723
 10
687.0258714363703
 20
78.38665271757938
 10
684.3429795352748
 20
78.89464295685977
 10
681.4254571382138
 20
79.19953284172688
 10
678.8186157588169
 20
79.26003468608233
 10
676.5960240293556
 20
79.15704238475708
 10
674.5496417310431
 20
78.93733005621794
 10
672.8841182520182
 20
78.67045549519136
 10
671.2633949549435
 20
78.33498744278111
 10
669.662862592885
 20
77.93018869761571
 10
667.9797150089377
 20
77.42527402175625
 10
665.9487404847371
 20
76.70709237632667
 10
663.5518912830225
 20
75.70537664782072
 10
661.2188039818817
 20
74.56953222261764
 10
657.72291284077
 20
72.56545299430583
 10
653.5920239732639
 20
69.72004614146488
 10
649.0893579954858
 20
66.01987956869092
 10
645.4544678750941
 20
62.57391601345852
 10
642.1705487565189
 20
59.10163666010027
 10
638.9959519588963
 20
55.41863994195761
 10
636.9535867299154
 20
52.88207010828072
 10
634.9925732542931
 20
50.32251566009538
 10
633.1134009362942
 20
47.75475247918437
 10
631.2114597663499
 20
45.0400163756216
 10
628.9538233254533
 20
41.66796606939981
 10
626.9134090289562
 20
38.48360001404516
 10
624.6437891648211
 20
34.78753920858135
 10
622.152789799307
 20
30.54179733349582
 10
619.4486166025926
 20
25.70720766414192
 10
616.6865349304639
 20
20.53390692286483
 10
614.5930062604801
 20
16.45216043145192
 10
612.9299455661412
 20
13.10885059645972
 10
611.6891476309938
 20
10.55517762555502
 10
610.8518734378272
 20
8.803493724382827
 10
610.0241997575749
 20
7.050500803002957
 10
609.0114596161537
 20
4.876437292839375
 10
607.8161219705216
 20
2.268717011116305
 10
605.8853606315239
 20
-2.04027514358207
 10
603.7882162674073
 20
-6.859426618681108
 10
601.610441477637
 20
-12.02081399956345
 10
599.3510127411512
 20
-17.53809809055573
 10
596.3057334637709
 20
-25.24093080366164
 10
593.1568817470045
 20
-33.5446785020187
 10
589.9158675889692
 20
-42.44683833570328
 10
586.880488497504
 20
-51.12147454549599
 10
584.2261083894355
 20
-58.99137397083453
 10
581.9222328653729
 20
-66.03027517931848
 10
579.9531945356123
 20
-72.20817116038315
 10
578.3033259789926
 20
-77.5079652176488
 10
576.7659607464979
 20
-82.54742489431199
 10
575.0577349453204
 20
-88.25672066226507
 10
573.1940910344223
 20
-94.6268819092212
 10
571.1979081569963
 20
-101.6285302257744
 10
569.0854286877634
 20
-109.2355651625962
 10
566.9408047296896
 20
-117.1719624844622
 10
564.1567942025107
 20
-127.837428634391
 10
561.6160579666503
 20
-137.927480631634
 10
559.3170228909611
 20
-147.3973532836611
 10
557.2382513406613
 20
-156.2395646434429
 10
555.3512223897017
 20
-164.5326350447825
 10
553.5872179255551
 20
-172.5230651705763
 10
551.9520229786395
 20
-180.155284962845
 10
550.455774559057
 20
-187.3523481200819
 10
549.1012586217168
 20
-194.0427437993223
 10
547.9141323993172
 20
-200.0677014149264
 10
546.6822664388462
 20
-206.4547118751593
 10
545.712096704766
 20
-211.5659428923491
 10
545.3162364053116
 20
-213.6486553912631
 10
544.9899478923108
 20
-215.3641758488891
 10
544.7487822279388
 20
-216.6297495264141
 10
544.6203821271198
 20
-217.3773907424243
 10
544.613470310263
 20
-217.5462013969153
 10
544.6219782992683
 20
-217.5373642016924
  0
LWPOLYLINE
  5
8FE
330
A
100
AcDbEntity
  8
0
  6
Continuous
 62
     7
100
AcDbPolyline
 90
       20
 70
   128
 43
0.0
 10
741.4453544401183
 20
-130.3160470508998
 10
744.850175309301
 20
-129.7371328596613
 10
748.214862019986
 20
-129.002622230258
 10
751.5025503604655
 20
-128.1205626148521
 10
754.677219729288
 20
-127.1006180431729
 10
757.7040877845062
 20
-125.9539632413846
 10
760.5499915262946
 20
-124.6931611994487
 10
763.1837506377144
 20
-123.3320255283764
 10
765.5765091027912
 20
-121.885469115416
 10
767.7020513590648
 20
-120.369340735339
 10
769.5370895207774
 20
-118.8002514079481
 10
771.0615185258225
 20
-117.1953924042671
 10
772.2586364110137
 20
-115.5723468953786
 10
773.1153273022879
 20
-113.9488973075223
 10
773.6222051149661
 20
-112.3428304941112
 10
773.7737163896617
 20
-110.7717428592444
 10
773.5682011371432
 20
-109.2528475678204
 10
773.0079110255241
 20
-107.8027859545014
 10
772.0989847105157
 20
-106.4374451977681
 10
771.8768568905127
 20
-106.1766510899964
  0
LWPOLYLINE
  5
914
330
A
100
AcDbEntity
  8
0
  6
Continuous
 62
     7
100
AcDbPolyline
 90
       18
 70
   128
 43
0.0
 10
709.2384077663331
 20
-117.1705494581397
 10
708.7518600097352
 20
-118.7281007464425
 10
708.6003487350397
 20
-120.2991883813093
 10
708.8058639875582
 20
-121.8180836727333
 10
709.3661540991773
 20
-123.2681452860522
 10
710.2750804141858
 20
-124.6334860427855
 10
711.5226845456715
 20
-125.8991469838868
 10
713.0952974816919
 20
-127.0512612632286
 10
714.9756893458293
 20
-128.0772060756709
 10
717.1432581713233
 20
-128.9657409551563
 10
719.5742556205285
 20
-129.7071309276066
 10
722.2420471766728
 20
-130.2932531693385
 10
725.1174039571956
 20
-130.717686002417
 10
728.1688229515024
 20
-130.975779251905
 10
731.3628721745411
 20
-131.0647051941517
 10
734.6645569546266
 20
-130.9834895379246
 10
738.0377033423859
 20
-130.7330220989489
 10
741.4453544401183
 20
-130.3160470508998
  0
LWPOLYLINE
  5
928
330
A
100
AcDbEntity
  8
0
  6
Continuous
 62
     7
100
AcDbPolyline
 90
       26
 70
   128
 43
0.0
 10
772.1604032372661
 20
-330.1023054614743
 10
778.0586013498499
 20
-329.1612804564881
 10
783.9337201279346
 20
-328.0663210043977
 10
789.7655068199935
 20
-326.8212016572678
 10
795.5338580491777
 20
-325.4302145994288
 10
801.2188891138197
 20
-323.8981548514279
 10
806.8010025341207
 20
-322.2303037406005
 10
812.2609556087219
 20
-320.4324106952399
 10
817.5799267482828
 20
-318.5106734251275
 10
822.7395803573996
 20
-316.4717165567437
 10
827.7221300412003
 20
-314.3225687968068
 10
832.5103999187321
 20
-312.0706387028662
 10
837.0878838317826
 20
-309.7236891444687
 10
841.438802245025
 20
-307.28981054294
 10
845.5481566413455
 20
-304.777392982025
 10
849.4017812248412
 20
-302.1950972855326
 10
852.9863917532489
 20
-299.5518251616807
 10
856.2896313314849
 20
-296.8566885170645
 10
859.3001130084187
 20
-294.1189780460264
 10
862.0074590300541
 20
-291.3481312037083
 10
864.4023366137966
 20
-288.5536996731884
 10
866.4764901204886
 20
-285.7453164388508
 10
868.2227695133081
 20
-282.9326625794934
 10
869.6351550054259
 20
-280.1254338956429
 10
870.7087778114591
 20
-277.3333074861221
 10
871.2394688343769
 20
-275.4644172880301
  0
LWPOLYLINE
  5
944
330
A
100
AcDbEntity
  8
0
  6
Continuous
 62
     7
100
AcDbPolyline
 90
       24
 70
   128
 43
0.0
 10
674.5317706023305
 20
-310.5943572398512
 10
674.9430713546971
 20
-311.1874829301302
 10
676.7785138957018
 20
-313.4765385494743
 10
678.9400105449948
 20
-315.6657282763422
 10
681.4201101758474
 20
-317.7475055202293
 10
684.2102633710505
 20
-319.7146939637121
 10
687.3008518945281
 20
-321.5605123006999
 10
690.681221847389
 20
-323.2785976130031
 10
694.3397203941231
 20
-324.8630273046289
 10
698.2637359323399
 20
-326.3083395181971
 10
702.4397415675743
 20
-327.6095519630953
 10
706.8533417432941
 20
-328.7621790904641
 10
711.4893218653654
 20
-329.7622475558155
 10
716.3317007499114
 20
-330.6063099159744
 10
721.3637857137621
 20
-331.2914565131277
 10
726.5682301175935
 20
-331.8153255050191
 10
731.9270931633846
 20
-332.1761110067083
 10
737.421901740067
 20
-332.3725693158295
 10
743.0337141041641
 20
-332.4040231998931
 10
748.7431851759051
 20
-332.2703642308444
 10
754.5306332257238
 20
-331.9720531588388
 10
760.3761077212557
 20
-331.5101183239404
 10
766.2594581009577
 20
-330.8861521112199
 10
772.1604032372661
 20
-330.1023054614743
  0
LWPOLYLINE
  5
95E
330
A
100
AcDbEntity
  8
0
  6
Continuous
 62
     7
100
AcDbPolyline
 90
        6
 70
   128
 43
0.0
 10
838.2835056802866
 20
-310.0606439138069
 10
839.7023930992368
 20
-309.2165320001669
 10
843.5969168596074
 20
-306.7498862275172
 10
847.2305349446315
 20
-304.2170055287172
 10
850.5899886759708
 20
-301.6271321107549
 10
853.162946052188
 20
-299.4395592114212
  0
LWPOLYLINE
  5
966
330
A
100
AcDbEntity
  8
0
  6
Continuous
 62
     7
100
AcDbPolyline
 90
        6
 70
   128
 43
0.0
 10
699.5143781469765
 20
-326.7216718335877
 10
701.5887842558952
 20
-327.5095123717724
 10
705.5494583643977
 20
-328.8278367908699
 10
709.7529470028205
 20
-329.9993662364908
 10
714.1839120969762
 20
-331.0198259247368
 10
716.402580957727
 20
-331.4578158856278
  0
LWPOLYLINE
  5
96E
330
A
100
AcDbEntity
  8
0
  6
Continuous
 62
     7
100
AcDbPolyline
 90
       23
 70
   128
 43
0.0
 10
708.9635332751338
 20
-20.2471428096197
 10
709.0507335798504
 20
-20.87113417298336
 10
709.4705596352778
 20
-21.8246301559607
 10
710.2256577080886
 20
-22.68930595930207
 10
711.2983289394478
 20
-23.44489431504237
 10
712.6634308248462
 20
-24.07368487252992
 10
714.288966533097
 20
-24.56093931403536
 10
716.1368348849385
 20
-24.89523680842787
 10
718.1637234123845
 20
-25.06874170577578
 10
720.3221235662623
 20
-25.07738719834163
 10
722.5614442763407
 20
-24.92097064310695
 10
724.8291977631354
 20
-24.60315831155424
 10
727.0722298069746
 20
-24.13139945536946
 10
729.2379656378567
 20
-23.51675170229761
 10
731.2756422434983
 20
-22.77362187471943
 10
733.1374982113175
 20
-21.91942830594551
 10
734.7798932154651
 20
-20.97419256924704
 10
736.1643309090729
 20
-19.96007018914781
 10
737.2583612459979
 20
-18.90083133470677
 10
738.0363410823995
 20
-17.82130366690304
 10
738.4800352302979
 20
-16.7467903993046
 10
738.5790438749238
 20
-15.70247721218876
 10
738.4663570075744
 20
-15.08226317200012
  0
LWPOLYLINE
  5
987
330
A
100
AcDbEntity
  8
0
  6
Continuous
 62
     7
100
AcDbPolyline
 90
       35
 70
   128
 43
0.0
 10
709.1259965942331
 20
-118.4378364793676
 10
709.0143732582044
 20
-119.7038764477784
 10
709.1979091569283
 20
-121.2029416204141
 10
709.731061348488
 20
-122.6350791068954
 10
710.6079885059036
 20
-123.9845981092262
 10
711.8190828317294
 20
-125.2367130148124
 10
713.3510753230941
 20
-126.377705390726
 10
715.1871811496721
 20
-127.3950742857289
 10
717.3072835517977
 20
-128.2776731933092
 10
719.6881542438934
 20
-129.0158321751395
 10
722.303707908427
 20
-129.6014638069455
 10
725.1252879921104
 20
-130.0281517860178
 10
728.1219806730928
 20
-130.2912212295672
 10
731.2609535592636
 20
-130.3877898937197
 10
734.5078154068091
 20
-130.3167997519823
 10
737.8269929178785
 20
-130.0790285872036
 10
741.1821204890778
 20
-129.677081470022
 10
744.5364386406313
 20
-129.1153622171655
 10
747.8531967609344
 20
-128.4000251423165
 10
751.0960557539449
 20
-127.5389076281605
 10
754.2294861779232
 20
-126.5414442583831
 10
757.2191575134322
 20
-125.4185634503961
 10
760.0323142956909
 20
-124.1825677213101
 10
762.6381349903018
 20
-122.8469988989812
 10
765.0080696804318
 20
-121.4264897549129
 10
767.1161528656753
 20
-119.9366036845481
 10
768.9392879455099
 20
-118.3936641914528
 10
770.4575002704853
 20
-116.8145760435935
 10
771.6541559886628
 20
-115.2166400611644
 10
772.5161442895776
 20
-113.6173635651778
 10
773.0340210490225
 20
-112.0342685635945
 10
773.2021123008482
 20
-110.4846997765353
 10
773.0185764021241
 20
-108.9856346038996
 10
772.4854242105644
 20
-107.5534971174184
 10
772.2717707526315
 20
-107.1625183657918
  0
LWPOLYLINE
  5
9AC
330
A
100
AcDbEntity
  8
0
  6
Continuous
 62
     7
100
AcDbPolyline
 90
       22
 70
   128
 43
0.0
 10
714.8041911726438
 20
-127.2059288339189
 10
715.6647564960327
 20
-127.64700892964
 10
717.7522419381257
 20
-128.5160293924883
 10
720.0964838503429
 20
-129.2428320822905
 10
722.6717982277298
 20
-129.8194539966841
 10
725.4499693870488
 20
-130.239577545309
 10
728.4005591037086
 20
-130.4985997666501
 10
731.4912400993228
 20
-130.5936827590463
 10
734.6881502261369
 20
-130.5237847733357
 10
737.9562634678052
 20
-130.2896716264768
 10
741.2597736917551
 20
-129.8939083110978
 10
744.5624869486693
 20
-129.3408308929009
 10
747.8282180209679
 20
-128.6364990038186
 10
751.0211868756243
 20
-127.7886294514189
 10
754.1064106776955
 20
-126.8065116719458
 10
757.0500870695812
 20
-125.7009059533125
 10
759.8199645167282
 20
-124.4839255431352
 10
762.3856956621913
 20
-123.1689039334577
 10
764.719169818627
 20
-121.7702487762212
 10
766.7948209548669
 20
-120.303284030016
 10
768.5899078027039
 20
-118.7840820675834
 10
769.9785757395727
 20
-117.3523491725193
  0
LWPOLYLINE
  5
9C4
330
A
100
AcDbEntity
  8
0
  6
Continuous
 62
     7
100
AcDbPolyline
 90
       13
 70
   128
 43
0.0
 10
563.970230891519
 20
-128.6381504711499
 10
562.5742569147487
 20
-128.5627849414366
 10
560.2777793296538
 20
-128.5627849414366
 10
558.008215488654
 20
-128.7152108486254
 10
555.8187620445896
 20
-129.0164899289288
 10
553.7607379304945
 20
-129.4595604560566
 10
551.8823814873028
 20
-130.0340372323822
 10
550.2277197980218
 20
-130.7264550091726
 10
548.835536730222
 20
-131.5205841006056
 10
547.7384638750529
 20
-132.3978107938509
 10
546.9622156904041
 20
-133.3375736387216
 10
546.524986775806
 20
-134.31784539064
 10
546.4260181222012
 20
-135.0658318235083
  0
LINE
  5
9D3
330
A
100
AcDbEntity
  8
0
  6
Continuous
 62
     7
100
AcDbLine
 10
561.4260181222013
 20
683.9274080219008
 30
0.0
 11
651.426018122201
 21
683.9274080219008
 31
0.0
  0
LINE
  5
9D4
330
A
100
AcDbEntity
  8
0
  6
Continuous
 62
     7
100
AcDbLine
 10
471.4260181222009
 20
683.9274080219008
 30
0.0
 11
561.4260181222013
 21
683.9274080219008
 31
0.0
  0
LINE
  5
9D5
330
A
100
AcDbEntity
  8
0
  6
Continuous
 62
     7
100
AcDbLine
 10
561.4260181222012
 20
590.9274080219009
 30
0.0
 11
592.926018122201
 21
590.9274080219009
 31
0.0
  0
LINE
  5
9D6
330
A
100
AcDbEntity
  8
0
  6
Continuous
 62
     7
100
AcDbLine
 10
529.9260181222009
 20
590.9274080219009
 30
0.0
 11
561.4260181222012
 21
590.9274080219009
 31
0.0
  0
LINE
  5
9D7
330
A
100
AcDbEntity
  8
0
  6
Continuous
 62
     7
100
AcDbLine
 10
561.4260181222012
 20
589.9274080219007
 30
0.0
 11
593.926018122201
 21
589.9274080219007
 31
0.0
  0
LINE
  5
9D8
330
A
100
AcDbEntity
  8
0
  6
Continuous
 62
     7
100
AcDbLine
 10
528.9260181222011
 20
589.9274080219007
 30
0.0
 11
561.4260181222012
 21
589.9274080219007
 31
0.0
  0
LWPOLYLINE
  5
9D9
330
A
100
AcDbEntity
  8
0
  6
Continuous
 62
     7
100
AcDbPolyline
 90
       22
 70
   128
 43
0.0
 10
709.008414750288
 20
-20.67398490733174
 10
709.2793659218318
 20
-21.48896804334854
 10
709.9148683710524
 20
-22.38822019202114
 10
710.8752286174688
 20
-23.18544208828932
 10
712.1379366308683
 20
-23.86194752659831
 10
713.6733956056385
 20
-24.40187979285369
 10
715.4456156848056
 20
-24.7925833323599
 10
717.4130575317781
 20
-25.02490038529559
 10
719.5296059771891
 20
-25.09338563684316
 10
721.7456509193815
 20
-24.99643385075135
 10
724.0092501431432
 20
-24.73631749471384
 10
726.2673468012065
 20
-24.31913347565173
 10
728.4670130217807
 20
-23.75466023338302
 10
730.556690493006
 20
-23.05612854228123
 10
732.4873989460854
 20
-22.23991139313763
 10
734.2138842112716
 20
-21.32514022413467
 10
735.6956789372493
 20
-20.3332564961497
 10
736.8980511115528
 20
-19.28750912308508
 10
737.7928181494995
 20
-18.21240953703074
 10
738.3590074700898
 20
-17.13315716107211
 10
738.5833480755285
 20
-16.0750487561695
 10
738.5413049426383
 20
-15.40062699551936
  0
LWPOLYLINE
  5
9F1
330
A
100
AcDbEntity
  8
0
  6
Continuous
 62
     7
100
AcDbPolyline
 90
       14
 70
   128
 43
0.0
 10
563.9611310086158
 20
-128.6374707384307
 10
563.2926050997408
 20
-128.5943429071447
 10
560.9987878141639
 20
-128.5462935738944
 10
558.7149844449038
 20
-128.6510566915108
 10
556.4947254072738
 20
-128.9061767013097
 10
554.390051691312
 20
-129.3056738064916
 10
552.4502950650817
 20
-129.8401841335086
 10
550.7209217798399
 20
-130.4971792133256
 10
549.2424668796444
 20
-131.2612596381151
 10
548.049584094275
 20
-132.1145160103242
 10
547.1702335851806
 20
-133.0369487237751
 10
546.6250265829912
 20
-134.0069367374822
 10
546.4267422777424
 20
-135.0017443545278
 10
546.426114569747
 20
-135.0424430566346
  0
LWPOLYLINE
  5
A01
330
A
100
AcDbEntity
  8
0
  6
PHANTOM
 62
     7
100
AcDbPolyline
 90
       28
 70
   128
 43
0.0
 10
755.0398965778875
 20
-220.1235222675386
 10
759.8585946442228
 20
-219.3389901937485
 10
764.6487899981547
 20
-218.3988421760107
 10
769.3849248748818
 20
-217.3080943107764
 10
774.0417299456396
 20
-216.0725662098439
 10
778.5943591405025
 20
-214.6988499502111
 10
783.0185222129166
 20
-213.1942749024926
 10
787.2906143386752
 20
-211.5668686255573
 10
791.3878420578686
 20
-209.8253140360269
 10
795.2883448878558
 20
-207.9789030811602
 10
798.9713119583967
 20
-206.0374871622933
 10
802.4170930466503
 20
-204.0114245733515
 10
805.6073034196144
 20
-201.911525234869
 10
808.5249219246318
 20
-199.7489930183863
 10
811.1543818046037
 20
-197.5353659689474
 10
813.4816537533744
 20
-195.2824547446372
 10
815.4943207681498
 20
-193.0022796016115
 10
817.1816443995796
 20
-190.707006260828
 10
818.5346220460308
 20
-188.4088809986626
 10
819.546034986363
 20
-186.120165307725
 10
820.2104868949286
 20
-183.8530704764921
 10
820.5244326333048
 20
-181.6196924367988
 10
820.4861971651418
 20
-179.4319472268089
 10
820.0959844932054
 20
-177.3015074137959
 10
819.3558765709353
 20
-175.2397398159459
 10
818.269822194321
 20
-173.2576448554641
 10
816.8436159333682
 20
-171.3657978665637
 10
816.6041211199443
 20
-171.0941371447179
  0
LWPOLYLINE
  5
A1F
330
A
100
AcDbEntity
  8
0
  6
PHANTOM
 62
     7
100
AcDbPolyline
 90
       26
 70
   128
 43
0.0
 10
689.6606607223969
 20
-193.7705428990373
 10
689.4868427753038
 20
-194.2247975015964
 10
688.8223908667383
 20
-196.4918923328292
 10
688.5084451283622
 20
-198.7252703725226
 10
688.5466805965251
 20
-200.9130155825125
 10
688.9368932684615
 20
-203.0434553955254
 10
689.6770011907318
 20
-205.1052229933754
 10
690.7630555673461
 20
-207.0873179538573
 10
692.1892618282988
 20
-208.9791649427576
 10
693.9480105461069
 20
-210.7706701378401
 10
696.0299180353985
 20
-212.4522750837531
 10
698.4238764189325
 20
-214.0150076905252
 10
701.1171128929325
 20
-215.4505301035473
 10
704.0952578755188
 20
-216.7511831896344
 10
707.3424216746469
 20
-217.9100274018145
 10
710.8412792664888
 20
-218.9208798048157
 10
714.5731627319309
 20
-219.7783470636991
 10
718.5181608580006
 20
-220.4778542196359
 10
722.6552253728014
 20
-221.0156690992915
 10
726.9622832471508
 20
-221.3889222275848
 10
731.4163544637424
 20
-221.5956221375797
 10
735.9936746254795
 20
-221.6346659958235
 10
740.6698217488171
 20
-221.5058454864388
 10
745.4198465656098
 20
-221.2098479225804
 10
750.2184056382533
 20
-220.7482525793215
 10
755.0398965778875
 20
-220.1235222675386
  0
LWPOLYLINE
  5
A3B
330
A
100
AcDbEntity
  8
0
  6
PHANTOM
 62
     7
100
AcDbPolyline
 90
       33
 70
   128
 43
0.0
 10
767.3496368712362
 20
-303.1759671886265
 10
773.2494393709454
 20
-302.2346862125159
 10
779.126156258274
 20
-301.1394289171158
 10
784.959529272682
 20
-299.8939708812183
 10
790.7294495689389
 20
-298.5026054566842
 10
796.4160270364778
 20
-296.9701289683692
 10
801.9996588647284
 20
-295.3018241801985
 10
807.4610971180653
 20
-293.5034420843856
 10
812.7815150874297
 20
-291.58118207657
 10
817.9425721898953
 20
-289.5416705852173
 10
822.9264771924579
 20
-287.3919382289461
 10
827.7160495421004
 20
-285.1393955805303
 10
832.2947785907187
 20
-282.791807621119
 10
836.6468805107459
 20
-280.3572669727382
 10
840.7573527052754
 20
-277.8441660013458
 10
844.6120255251219
 20
-275.2611678866081
 10
848.1976111145351
 20
-272.617176758124
 10
851.5017492171931
 20
-269.921307001047
 10
854.5130497845663
 20
-267.1828518369096
 10
857.2211322397729
 20
-264.4112512879654
 10
859.61666126158
 20
-261.6160596354752
 10
861.6913789651874
 20
-258.8069124841214
 10
863.4381333688697
 20
-255.9934935460818
 10
864.8509030483371
 20
-253.1855012592678
 10
865.9248178938328
 20
-250.3926153547997
 10
866.6561758984107
 20
-247.624463488969
 10
867.0424559195199
 20
-244.8905880547113
 10
867.0823263699054
 20
-242.2004132870025
 10
866.7756498078645
 20
-239.5632127755671
 10
866.1234834110389
 20
-236.9880774968947
 10
865.1280753321017
 20
-234.4838844757596
 10
863.7928569489115
 20
-232.0592661842782
 10
863.4649304794072
 20
-231.5538389305746
  0
LWPOLYLINE
  5
A5E
330
A
100
AcDbEntity
  8
0
  6
PHANTOM
 62
     7
100
AcDbPolyline
 90
       30
 70
   128
 43
0.0
 10
666.6261860813692
 20
-266.7086524935547
 10
666.2125106751424
 20
-268.8827715245899
 10
665.9993435656985
 20
-271.5959659954952
 10
666.1328041422035
 20
-274.2608021628615
 10
666.6124323384027
 20
-276.8680937843687
 10
667.4365747765429
 20
-279.4088529856669
 10
668.6023904669098
 20
-281.8743212434417
 10
670.1058606013061
 20
-284.2559995778588
 10
671.9418024067179
 20
-286.5456778503073
 10
674.1038870114049
 20
-288.7354630654489
 10
676.5846612618346
 20
-290.8178065800079
 10
679.3755734152447
 20
-292.7855301245081
 10
682.4670026192729
 20
-294.6318505482553
 10
685.8482920770278
 20
-296.3504032022622
 10
689.5077857832757
 20
-297.9352638795126
 10
693.432868705105
 20
-299.3809692369298
 10
697.6100102685582
 20
-300.6825356286524
 10
702.0248110013231
 20
-301.835476285694
 10
706.6620521706972
 20
-302.8358167827644
 10
711.5057482457119
 20
-303.6801087389385
 10
716.5392020025697
 20
-304.3654417049384
 10
721.7450620834324
 20
-304.8894531960556
 10
727.105382810148
 20
-305.2503368361257
 10
732.6016860467193
 20
-305.4468485844799
 10
738.2150248972676
 20
-305.4783110244118
 10
743.9260490199075
 20
-305.3446156983733
 10
749.7150713313839
 20
-305.0462234818498
 10
755.5621358725268
 20
-304.5841629946271
 10
761.4470866005762
 20
-303.9600270549257
 10
767.3496368712362
 20
-303.1759671886265
  0
LWPOLYLINE
  5
A7E
330
A
100
AcDbEntity
  8
0
  6
PHANTOM
 62
     7
100
AcDbPolyline
 90
       14
 70
   128
 43
0.0
 10
772.846175529839
 20
-331.6243693241692
 10
778.5723350111586
 20
-330.7085837869017
 10
784.2748564645996
 20
-329.6391406343302
 10
789.9329320077977
 20
-328.4199421485405
 10
795.5259159366952
 20
-327.0554370525898
 10
801.0334000594756
 20
-325.5506042775969
 10
806.4352881638431
 20
-323.9109347951639
 10
811.7118693459214
 20
-322.1424115814153
 10
816.8438899332047
 20
-320.2514877857678
 10
821.8126237391203
 20
-318.2450631840877
 10
826.5999403928528
 20
-316.1304590021559
 10
831.1883714951012
 20
-313.9153912013111
 10
835.5611743583732
 20
-311.6079423237417
 10
838.2835056802866
 20
-310.0606439138069
  0
LWPOLYLINE
  5
A8E
330
A
100
AcDbEntity
  8
0
  6
PHANTOM
 62
     7
100
AcDbPolyline
 90
       12
 70
   128
 43
0.0
 10
716.402580957727
 20
-331.4578158856278
 10
718.8261855357593
 20
-331.885492308871
 10
723.6628281668309
 20
-332.5932066661361
 10
728.6761916057477
 20
-333.1403866235916
 10
733.8479826330034
 20
-333.525035580913
 10
739.1593299440032
 20
-333.7457499957683
 10
744.5908530084063
 20
-333.8017245051939
 10
750.1227327875819
 20
-333.692754864275
 10
755.7347840521291
 20
-333.4192386914139
 10
761.4065290355918
 20
-332.9821740174634
 10
767.1172721556068
 20
-332.3831556440209
 10
772.846175529839
 20
-331.6243693241692
  0
LWPOLYLINE
  5
A9C
330
A
100
AcDbEntity
  8
0
  6
PHANTOM
 62
     7
100
AcDbPolyline
 90
       22
 70
   128
 43
0.0
 10
576.4260181222011
 20
4.876510957936064
 10
576.3270494685961
 20
5.143025373950838
 10
575.8898205539983
 20
5.492305176388434
 10
575.1135723693494
 20
5.827151284268472
 10
574.0164995141803
 20
6.139715188624661
 10
572.6243164463806
 20
6.422670656455742
 10
570.9696547570995
 20
6.669385451417708
 10
569.0912983139078
 20
6.87407678782248
 10
567.0332741998127
 20
7.031946874232919
 10
564.8438207557481
 20
7.139295369628206
 10
562.5742569147485
 20
7.19360611626052
 10
560.2777793296536
 20
7.19360611626052
 10
558.0082154886539
 20
7.139295369628206
 10
555.8187620445895
 20
7.031946874232919
 10
553.7607379304944
 20
6.874076787822369
 10
551.8823814873026
 20
6.669385451417708
 10
550.2277197980216
 20
6.422670656455742
 10
548.8355367302217
 20
6.13971518862455
 10
547.7384638750527
 20
5.827151284268472
 10
546.9622156904039
 20
5.492305176388434
 10
546.5249867758059
 20
5.143025373950838
 10
546.4260181222011
 20
4.876510957936064
  0
LINE
  5
AB4
330
A
100
AcDbEntity
  8
0
  6
PHANTOM
 62
     7
100
AcDbLine
 10
561.4260181222013
 20
680.9274080219008
 30
0.0
 11
651.426018122201
 21
680.9274080219008
 31
0.0
  0
LINE
  5
AB5
330
A
100
AcDbEntity
  8
0
  6
PHANTOM
 62
     7
100
AcDbLine
 10
471.4260181222009
 20
680.9274080219008
 30
0.0
 11
561.4260181222013
 21
680.9274080219008
 31
0.0
  0
LINE
  5
AB6
330
A
100
AcDbEntity
  8
0
  6
PHANTOM
 62
     7
100
AcDbLine
 10
561.4260181222013
 20
675.3524375577234
 30
0.0
 11
648.9429598523339
 21
675.3524375577234
 31
0.0
  0
LINE
  5
AB7
330
A
100
AcDbEntity
  8
0
  6
PHANTOM
 62
     7
100
AcDbLine
 10
473.9090763920681
 20
675.3524375577234
 30
0.0
 11
561.4260181222013
 21
675.3524375577234
 31
0.0
  0
LINE
  5
AB8
330
A
100
AcDbEntity
  8
0
  6
PHANTOM
 62
     7
100
AcDbLine
 10
576.426018122201
 20
430.9274080219007
 30
0.0
 11
546.4260181222009
 21
430.9274080219007
 31
0.0
  0
LINE
  5
AB9
330
A
100
AcDbEntity
  8
0
  6
PHANTOM
 62
     7
100
AcDbLine
 10
561.426018122201
 20
480.9274080219008
 30
0.0
 11
576.426018122201
 21
480.9274080219008
 31
0.0
  0
LINE
  5
ABA
330
A
100
AcDbEntity
  8
0
  6
PHANTOM
 62
     7
100
AcDbLine
 10
546.4260181222011
 20
480.9274080219008
 30
0.0
 11
561.426018122201
 21
480.9274080219008
 31
0.0
  0
ENDSEC
  0
SECTION
  2
OBJECTS
  0
DICTIONARY
  5
19
330
0
100
AcDbDictionary
281
     1
  3
ACAD_COLOR
350
ABF
  3
ACAD_GROUP
350
1A
  3
ACAD_LAYOUT
350
AC0
  3
ACAD_MATERIAL
350
ABE
  3
ACAD_MLINESTYLE
350
1B
  3
ACAD_PLOTSETTINGS
350
AC1
  3
ACAD_PLOTSTYLENAME
350
ABC
  3
ACDBHEADERROUNDTRIPXREC
350
AD9
  3
AcDbVariableDictionary
350
AD2
  3
ASE_INDEX_DICTIONARY
350
AC7
  0
DICTIONARY
  5
ABF
102
{ACAD_REACTORS
330
19
102
}
330
19
100
AcDbDictionary
281
     1
  0
DICTIONARY
  5
1A
102
{ACAD_REACTORS
330
19
102
}
330
19
100
AcDbDictionary
281
     1
  0
DICTIONARY
  5
AC0
102
{ACAD_REACTORS
330
19
102
}
330
19
100
AcDbDictionary
281
     1
  3
Layout1
350
AC3
  3
Model
350
AC2
  0
DICTIONARY
  5
ABE
102
{ACAD_REACTORS
330
19
102
}
330
19
100
AcDbDictionary
281
     1
  0
DICTIONARY
  5
1B
102
{ACAD_REACTORS
330
19
102
}
330
19
100
AcDbDictionary
281
     1
  3
STANDARD
350
1C
  0
DICTIONARY
  5
AC1
102
{ACAD_REACTORS
330
19
102
}
330
19
100
AcDbDictionary
281
     1
  0
ACDBDICTIONARYWDFLT
  5
ABC
102
{ACAD_REACTORS
330
19
102
}
330
19
100
AcDbDictionary
281
     1
  3
Normal
350
ABD
100
AcDbDictionaryWithDefault
340
ABD
  0
DICTIONARY
  5
AD9
102
{ACAD_REACTORS
330
19
102
}
330
19
100
AcDbDictionary
281
     1
  3
COLORDICT
350
ADB
  3
MATERIALDICT
350
ADA
  0
DICTIONARY
  5
AD2
102
{ACAD_REACTORS
330
19
102
}
330
19
100
AcDbDictionary
281
     1
  3
DIMASSOC
350
AD3
  3
PROJECTNAME
350
AD4
  0
DICTIONARY
  5
AC7
102
{ACAD_REACTORS
330
19
102
}
330
19
100
AcDbDictionary
281
     1
  3
ASEBlockHierarchyIndexRecord
350
AC9
1001
DCO15
1040
1552228293.953
  0
LAYOUT
  5
AC3
102
{ACAD_XDICTIONARY
360
ADE
102
}
102
{ACAD_REACTORS
330
AC0
102
}
330
AC0
100
AcDbPlotSettings
  1

  2
ProgeSOFT PDF Wizard
  4

  6

 40
0.0
 41
0.0
 42
0.0
 43
0.0
 44
0.0
 45
0.0
 46
0.0
 47
0.0
 48
0.0
 49
0.0
140
0.0
141
0.0
142
1.0
143
1.0
 70
   688
 72
     0
 73
     0
 74
     5
  7

 75
    16
147
1.0
148
0.0
149
0.0
100
AcDbLayout
  1
Layout1
 70
     1
 71
     1
 10
0.0
 20
0.0
 11
12.0
 21
9.0
 12
0.0
 22
0.0
 32
0.0
 14
1.000000000000000E+20
 24
1.000000000000000E+20
 34
1.000000000000000E+20
 15
-1.000000000000000E+20
 25
-1.000000000000000E+20
 35
-1.000000000000000E+20
146
0.0
 13
0.0
 23
0.0
 33
0.0
 16
1.0
 26
0.0
 36
0.0
 17
0.0
 27
1.0
 37
0.0
 76
     0
330
B
  0
LAYOUT
  5
AC2
102
{ACAD_XDICTIONARY
360
ADC
102
}
102
{ACAD_REACTORS
330
AC0
102
}
330
AC0
100
AcDbPlotSettings
  1

  2
ProgeSOFT PDF Wizard
  4

  6

 40
0.0
 41
0.0
 42
0.0
 43
0.0
 44
0.0
 45
0.0
 46
0.0
 47
0.0
 48
0.0
 49
0.0
140
0.0
141
0.0
142
1.0
143
1.0
 70
  1712
 72
     0
 73
     0
 74
     0
  7

 75
     0
147
1.0
148
0.0
149
0.0
100
AcDbLayout
  1
Model
 70
     1
 71
     0
 10
0.0
 20
0.0
 11
12.0
 21
9.0
 12
0.0
 22
0.0
 32
0.0
 14
0.0
 24
0.0
 34
0.0
 15
0.0
 25
0.0
 35
0.0
146
0.0
 13
0.0
 23
0.0
 33
0.0
 16
1.0
 26
0.0
 36
0.0
 17
0.0
 27
1.0
 37
0.0
 76
     0
330
A
  0
MLINESTYLE
  5
1C
102
{ACAD_REACTORS
330
1B
102
}
330
1B
100
AcDbMlineStyle
  2
STANDARD
 70
     0
  3

 62
     0
 51
90.0
 52
90.0
 71
     2
 49
0.5
 62
   256
  6
BYLAYER
 49
-0.5
 62
   256
  6
BYLAYER
  0
ACDBPLACEHOLDER
  5
ABD
102
{ACAD_REACTORS
330
ABC
102
}
330
ABC
  0
XRECORD
  5
ADB
102
{ACAD_REACTORS
330
AD9
102
}
330
AD9
100
AcDbXrecord
280
     1
340
ABF
  0
XRECORD
  5
ADA
102
{ACAD_REACTORS
330
AD9
102
}
330
AD9
100
AcDbXrecord
280
     1
340
ABE
  0
DICTIONARYVAR
  5
AD3
102
{ACAD_REACTORS
330
AD2
102
}
330
AD2
100
DictionaryVariables
280
     0
  1
1
  0
DICTIONARYVAR
  5
AD4
102
{ACAD_REACTORS
330
AD2
102
}
330
AD2
100
DictionaryVariables
280
     0
  1

  0
XRECORD
  5
AC9
102
{ACAD_REACTORS
330
AC7
102
}
330
AC7
100
AcDbXrecord
280
     1
  0
DICTIONARY
  5
ADE
330
AC3
100
AcDbDictionary
280
     1
281
     1
  3
ACAD_XREC_ROUNDTRIP
360
ADF
  0
DICTIONARY
  5
ADC
330
AC2
100
AcDbDictionary
280
     1
281
     1
  3
ACAD_XREC_ROUNDTRIP
360
ADD
  0
XRECORD
  5
ADF
102
{ACAD_REACTORS
330
ADE
102
}
330
ADE
100
AcDbXrecord
280
     1
102
SHADEPLOT
 70
     0
102
SHADEPLOTRESLEVEL
 70
     2
102
SHADEPLOTCUSTOMDPI
 70
   300
  0
XRECORD
  5
ADD
102
{ACAD_REACTORS
330
ADC
102
}
330
ADC
100
AcDbXrecord
280
     1
102
SHADEPLOT
 70
     0
102
SHADEPLOTRESLEVEL
 70
     2
102
SHADEPLOTCUSTOMDPI
 70
   300
  0
ENDSEC
  0
EOF
