  0
SECTION
  2
HEADER
  9
$ACADVER
  1
AC1018
  9
$ACADMAINTVER
 70
     0
  9
$DWGCODEPAGE
  3
ANSI_1252
  9
$INSBASE
 10
0.0
 20
0.0
 30
0.0
  9
$EXTMIN
 10
0.0006825636679719
 20
0.0041688596558133
 30
0.0
  9
$EXTMAX
 10
896.5437508154813
 20
654.645945641404
 30
0.0
  9
$LIMMIN
 10
0.0
 20
0.0
  9
$LIMMAX
 10
12.0
 20
9.0
  9
$ORTHOMODE
 70
     0
  9
$REGENMODE
 70
     1
  9
$FILLMODE
 70
     1
  9
$QTEXTMODE
 70
     0
  9
$MIRRTEXT
 70
     1
  9
$LTSCALE
 40
1.0
  9
$ATTMODE
 70
     1
  9
$TEXTSIZE
 40
0.2
  9
$TRACEWID
 40
0.05
  9
$TEXTSTYLE
  7
Standard
  9
$CLAYER
  8
PREDEFINITO
  9
$CELTYPE
  6
ByLayer
  9
$CECOLOR
 62
   256
  9
$CELTSCALE
 40
1.0
  9
$DISPSILH
 70
     0
  9
$DIMSCALE
 40
1.0
  9
$DIMASZ
 40
0.18
  9
$DIMEXO
 40
0.0625
  9
$DIMDLI
 40
0.38
  9
$DIMRND
 40
0.0
  9
$DIMDLE
 40
0.0
  9
$DIMEXE
 40
0.18
  9
$DIMTP
 40
0.0
  9
$DIMTM
 40
0.0
  9
$DIMTXT
 40
0.18
  9
$DIMCEN
 40
0.09
  9
$DIMTSZ
 40
0.0
  9
$DIMTOL
 70
     0
  9
$DIMLIM
 70
     0
  9
$DIMTIH
 70
     1
  9
$DIMTOH
 70
     1
  9
$DIMSE1
 70
     0
  9
$DIMSE2
 70
     0
  9
$DIMTAD
 70
     0
  9
$DIMZIN
 70
     0
  9
$DIMBLK
  1

  9
$DIMASO
 70
     1
  9
$DIMSHO
 70
     1
  9
$DIMPOST
  1

  9
$DIMAPOST
  1

  9
$DIMALT
 70
     0
  9
$DIMALTD
 70
     2
  9
$DIMALTF
 40
25.4
  9
$DIMLFAC
 40
1.0
  9
$DIMTOFL
 70
     0
  9
$DIMTVP
 40
0.0
  9
$DIMTIX
 70
     0
  9
$DIMSOXD
 70
     0
  9
$DIMSAH
 70
     0
  9
$DIMBLK1
  1

  9
$DIMBLK2
  1

  9
$DIMSTYLE
  2
Standard
  9
$DIMCLRD
 70
     0
  9
$DIMCLRE
 70
     0
  9
$DIMCLRT
 70
     0
  9
$DIMTFAC
 40
1.0
  9
$DIMGAP
 40
0.09
  9
$DIMJUST
 70
     0
  9
$DIMSD1
 70
     0
  9
$DIMSD2
 70
     0
  9
$DIMTOLJ
 70
     1
  9
$DIMTZIN
 70
     0
  9
$DIMALTZ
 70
     0
  9
$DIMALTTZ
 70
     0
  9
$DIMUPT
 70
     0
  9
$DIMDEC
 70
     4
  9
$DIMTDEC
 70
     4
  9
$DIMALTU
 70
     2
  9
$DIMALTTD
 70
     2
  9
$DIMTXSTY
  7
Standard
  9
$DIMAUNIT
 70
     0
  9
$DIMADEC
 70
     0
  9
$DIMALTRND
 40
0.0
  9
$DIMAZIN
 70
     0
  9
$DIMDSEP
 70
    46
  9
$DIMATFIT
 70
     3
  9
$DIMFRAC
 70
     0
  9
$DIMLDRBLK
  1

  9
$DIMLUNIT
 70
     2
  9
$DIMLWD
 70
    -2
  9
$DIMLWE
 70
    -2
  9
$DIMTMOVE
 70
     0
  9
$LUNITS
 70
     2
  9
$LUPREC
 70
     3
  9
$SKETCHINC
 40
0.1
  9
$FILLETRAD
 40
0.5
  9
$AUNITS
 70
     0
  9
$AUPREC
 70
     0
  9
$MENU
  1
.
  9
$ELEVATION
 40
0.0
  9
$PELEVATION
 40
0.0
  9
$THICKNESS
 40
0.0
  9
$LIMCHECK
 70
     0
  9
$CHAMFERA
 40
0.5
  9
$CHAMFERB
 40
0.5
  9
$CHAMFERC
 40
1.0
  9
$CHAMFERD
 40
0.0
  9
$SKPOLY
 70
     0
  9
$TDCREATE
 40
2455852.612710475
  9
$TDUCREATE
 40
2455852.529377141
  9
$TDUPDATE
 40
2455852.612710486
  9
$TDUUPDATE
 40
2455852.529377153
  9
$TDINDWG
 40
0.0000000116
  9
$TDUSRTIMER
 40
0.0000000116
  9
$USRTIMER
 70
     1
  9
$ANGBASE
 50
0.0
  9
$ANGDIR
 70
     0
  9
$PDMODE
 70
     0
  9
$PDSIZE
 40
0.0
  9
$PLINEWID
 40
0.0
  9
$SPLFRAME
 70
     0
  9
$SPLINETYPE
 70
     6
  9
$SPLINESEGS
 70
     8
  9
$HANDSEED
  5
169
  9
$SURFTAB1
 70
     6
  9
$SURFTAB2
 70
     6
  9
$SURFTYPE
 70
     6
  9
$SURFU
 70
     6
  9
$SURFV
 70
     6
  9
$UCSBASE
  2

  9
$UCSNAME
  2

  9
$UCSORG
 10
0.0
 20
0.0
 30
0.0
  9
$UCSXDIR
 10
1.0
 20
0.0
 30
0.0
  9
$UCSYDIR
 10
0.0
 20
1.0
 30
0.0
  9
$UCSORTHOREF
  2

  9
$UCSORTHOVIEW
 70
     0
  9
$UCSORGTOP
 10
0.0
 20
0.0
 30
0.0
  9
$UCSORGBOTTOM
 10
0.0
 20
0.0
 30
0.0
  9
$UCSORGLEFT
 10
0.0
 20
0.0
 30
0.0
  9
$UCSORGRIGHT
 10
0.0
 20
0.0
 30
0.0
  9
$UCSORGFRONT
 10
0.0
 20
0.0
 30
0.0
  9
$UCSORGBACK
 10
0.0
 20
0.0
 30
0.0
  9
$PUCSBASE
  2

  9
$PUCSNAME
  2

  9
$PUCSORG
 10
0.0
 20
0.0
 30
0.0
  9
$PUCSXDIR
 10
1.0
 20
0.0
 30
0.0
  9
$PUCSYDIR
 10
0.0
 20
1.0
 30
0.0
  9
$PUCSORTHOREF
  2

  9
$PUCSORTHOVIEW
 70
     0
  9
$PUCSORGTOP
 10
0.0
 20
0.0
 30
0.0
  9
$PUCSORGBOTTOM
 10
0.0
 20
0.0
 30
0.0
  9
$PUCSORGLEFT
 10
0.0
 20
0.0
 30
0.0
  9
$PUCSORGRIGHT
 10
0.0
 20
0.0
 30
0.0
  9
$PUCSORGFRONT
 10
0.0
 20
0.0
 30
0.0
  9
$PUCSORGBACK
 10
0.0
 20
0.0
 30
0.0
  9
$USERI1
 70
     0
  9
$USERI2
 70
     0
  9
$USERI3
 70
     0
  9
$USERI4
 70
     0
  9
$USERI5
 70
     0
  9
$USERR1
 40
0.0
  9
$USERR2
 40
0.0
  9
$USERR3
 40
0.0
  9
$USERR4
 40
0.0
  9
$USERR5
 40
0.0
  9
$WORLDVIEW
 70
     1
  9
$SHADEDGE
 70
     3
  9
$SHADEDIF
 70
    70
  9
$TILEMODE
 70
     1
  9
$MAXACTVP
 70
    64
  9
$PINSBASE
 10
0.0
 20
0.0
 30
0.0
  9
$PLIMCHECK
 70
     0
  9
$PEXTMIN
 10
1.000000000000000E+20
 20
1.000000000000000E+20
 30
1.000000000000000E+20
  9
$PEXTMAX
 10
-1.000000000000000E+20
 20
-1.000000000000000E+20
 30
-1.000000000000000E+20
  9
$PLIMMIN
 10
0.0
 20
0.0
  9
$PLIMMAX
 10
12.0
 20
9.0
  9
$UNITMODE
 70
     0
  9
$VISRETAIN
 70
     1
  9
$PLINEGEN
 70
     0
  9
$PSLTSCALE
 70
     1
  9
$TREEDEPTH
 70
  3020
  9
$CMLSTYLE
  2
Standard
  9
$CMLJUST
 70
     0
  9
$CMLSCALE
 40
1.0
  9
$PROXYGRAPHICS
 70
     1
  9
$MEASUREMENT
 70
     0
  9
$CELWEIGHT
370
    -1
  9
$ENDCAPS
280
     0
  9
$JOINSTYLE
280
     0
  9
$LWDISPLAY
290
     0
  9
$INSUNITS
 70
     4
  9
$HYPERLINKBASE
  1

  9
$STYLESHEET
  1

  9
$XEDIT
290
     1
  9
$CEPSNTYPE
380
     0
  9
$PSTYLEMODE
290
     1
  9
$FINGERPRINTGUID
  2
{2C58A736-84BC-40B9-995A-375130FF2D82}
  9
$VERSIONGUID
  2
{FAEB1C32-E019-11D5-929B-00C0DF256EC4}
  9
$EXTNAMES
290
     1
  9
$PSVPSCALE
 40
0.0
  9
$OLESTARTUP
290
     0
  9
$SORTENTS
280
   127
  9
$INDEXCTL
280
     0
  9
$HIDETEXT
280
     1
  9
$XCLIPFRAME
290
     0
  9
$HALOGAP
280
     0
  9
$OBSCOLOR
 70
   257
  9
$OBSLTYPE
280
     0
  9
$INTERSECTIONDISPLAY
280
     0
  9
$INTERSECTIONCOLOR
 70
   257
  9
$DIMASSOC
280
     2
  9
$PROJECTNAME
  1

  0
ENDSEC
  0
SECTION
  2
CLASSES
  0
CLASS
  1
ACDBDICTIONARYWDFLT
  2
AcDbDictionaryWithDefault
  3
ObjectDBX Classes
 90
        0
 91
        3
280
     0
281
     0
  0
CLASS
  1
VISUALSTYLE
  2
AcDbVisualStyle
  3
ObjectDBX Classes
 90
     4095
 91
        3
280
     0
281
     0
  0
CLASS
  1
SCALE
  2
AcDbScale
  3
ObjectDBX Classes
 90
     1153
 91
        3
280
     0
281
     0
  0
ENDSEC
  0
SECTION
  2
TABLES
  0
TABLE
  2
VPORT
  5
8
330
0
100
AcDbSymbolTable
 70
     1
  0
VPORT
  5
29
330
8
100
AcDbSymbolTableRecord
100
AcDbViewportTableRecord
  2
*Active
 70
     0
 10
0.0
 20
0.0
 11
1.0
 21
1.0
 12
0.0
 22
0.0
 13
0.0
 23
0.0
 14
0.5
 24
0.5
 15
0.5
 25
0.5
 16
0.0
 26
0.0
 36
1.0
 17
448.2722166895746
 27
327.3250572505299
 37
0.0
 40
667.7346123173832
 41
1.369517039775958
 42
50.0
 43
0.0
 44
0.0
 50
0.0
 51
0.0
 71
     0
 72
   100
 73
     1
 74
     3
 75
     0
 76
     0
 77
     0
 78
     0
281
     0
 65
     1
110
0.0
120
0.0
130
0.0
111
1.0
121
0.0
131
0.0
112
0.0
122
1.0
132
0.0
 79
     0
146
0.0
  0
ENDTAB
  0
TABLE
  2
LTYPE
  5
5
330
0
100
AcDbSymbolTable
 70
     1
  0
LTYPE
  5
14
330
5
100
AcDbSymbolTableRecord
100
AcDbLinetypeTableRecord
  2
ByBlock
 70
     0
  3

 72
    65
 73
     0
 40
0.0
  0
LTYPE
  5
15
330
5
100
AcDbSymbolTableRecord
100
AcDbLinetypeTableRecord
  2
ByLayer
 70
     0
  3

 72
    65
 73
     0
 40
0.0
  0
LTYPE
  5
16
330
5
100
AcDbSymbolTableRecord
100
AcDbLinetypeTableRecord
  2
Continuous
 70
     0
  3
Solid line
 72
    65
 73
     0
 40
0.0
  0
ENDTAB
  0
TABLE
  2
LAYER
  5
2
330
0
100
AcDbSymbolTable
 70
     3
  0
LAYER
  5
10
330
2
100
AcDbSymbolTableRecord
100
AcDbLayerTableRecord
  2
0
 70
     0
 62
     7
  6
Continuous
370
    -3
390
F
  0
LAYER
  5
5D
330
2
100
AcDbSymbolTableRecord
100
AcDbLayerTableRecord
  2
LINEE VISIBILI 2D
 70
     0
 62
     7
  6
Continuous
370
    -3
390
F
  0
LAYER
  5
65
330
2
100
AcDbSymbolTableRecord
100
AcDbLayerTableRecord
  2
PREDEFINITO
 70
     0
 62
     7
  6
Continuous
370
    -3
390
F
  0
ENDTAB
  0
TABLE
  2
STYLE
  5
3
330
0
100
AcDbSymbolTable
 70
     1
  0
STYLE
  5
11
330
3
100
AcDbSymbolTableRecord
100
AcDbTextStyleTableRecord
  2
Standard
 70
     0
 40
0.0
 41
1.0
 50
0.0
 71
     0
 42
0.2
  3
txt
  4

  0
ENDTAB
  0
TABLE
  2
VIEW
  5
6
330
0
100
AcDbSymbolTable
 70
     0
  0
ENDTAB
  0
TABLE
  2
UCS
  5
7
330
0
100
AcDbSymbolTable
 70
     0
  0
ENDTAB
  0
TABLE
  2
APPID
  5
9
330
0
100
AcDbSymbolTable
 70
     1
  0
APPID
  5
12
330
9
100
AcDbSymbolTableRecord
100
AcDbRegAppTableRecord
  2
ACAD
 70
     0
  0
ENDTAB
  0
TABLE
  2
DIMSTYLE
  5
A
330
0
100
AcDbSymbolTable
 70
     1
100
AcDbDimStyleTable
  0
DIMSTYLE
105
27
330
A
100
AcDbSymbolTableRecord
100
AcDbDimStyleTableRecord
  2
Standard
 70
     0
340
11
  0
ENDTAB
  0
TABLE
  2
BLOCK_RECORD
  5
1
330
0
100
AcDbSymbolTable
 70
     1
  0
BLOCK_RECORD
  5
1F
330
1
100
AcDbSymbolTableRecord
100
AcDbBlockTableRecord
  2
*Model_Space
340
22
  0
BLOCK_RECORD
  5
1B
330
1
100
AcDbSymbolTableRecord
100
AcDbBlockTableRecord
  2
*Paper_Space
340
1E
  0
BLOCK_RECORD
  5
23
330
1
100
AcDbSymbolTableRecord
100
AcDbBlockTableRecord
  2
*Paper_Space0
340
26
  0
ENDTAB
  0
ENDSEC
  0
SECTION
  2
BLOCKS
  0
BLOCK
  5
20
330
1F
100
AcDbEntity
  8
0
100
AcDbBlockBegin
  2
*Model_Space
 70
     0
 10
0.0
 20
0.0
 30
0.0
  3
*Model_Space
  1

  0
ENDBLK
  5
21
330
1F
100
AcDbEntity
  8
0
100
AcDbBlockEnd
  0
BLOCK
  5
1C
330
1B
100
AcDbEntity
 67
     1
  8
0
100
AcDbBlockBegin
  2
*Paper_Space
 70
     0
 10
0.0
 20
0.0
 30
0.0
  3
*Paper_Space
  1

  0
ENDBLK
  5
1D
330
1B
100
AcDbEntity
 67
     1
  8
0
100
AcDbBlockEnd
  0
BLOCK
  5
24
330
23
100
AcDbEntity
  8
0
100
AcDbBlockBegin
  2
*Paper_Space0
 70
     0
 10
0.0
 20
0.0
 30
0.0
  3
*Paper_Space0
  1

  0
ENDBLK
  5
25
330
23
100
AcDbEntity
  8
0
100
AcDbBlockEnd
  0
ENDSEC
  0
SECTION
  2
ENTITIES
  0
SPLINE
  5
5E
330
1F
100
AcDbEntity
  8
LINEE VISIBILI 2D
100
AcDbSpline
210
0.0
220
0.0
230
1.0
 70
     8
 71
     3
 72
    21
 73
    17
 74
     0
 42
0.0000000001
 43
0.0000000001
 40
0.0
 40
0.0
 40
0.0
 40
0.0
 40
14.54634691863535
 40
27.84465883148756
 40
44.22902379317716
 40
61.67670145159176
 40
80.66383336484235
 40
104.1417077107286
 40
151.2060730828541
 40
197.9673146883087
 40
217.7758890206056
 40
237.3175764481451
 40
253.9250349280421
 40
268.533230450079
 40
283.2073233292332
 40
298.3777547617002
 40
298.3777547617002
 40
298.3777547617002
 40
298.3777547617002
 10
825.7581193394021
 20
78.79005270847148
 30
0.0
 10
826.267697609046
 20
73.98017903229139
 30
0.0
 10
825.8826980732567
 20
64.54606467340525
 30
0.0
 10
820.2000216592589
 20
50.74977907924958
 30
0.0
 10
810.2222143885778
 20
38.43076757472236
 30
0.0
 10
796.3425336255968
 20
27.48870023192267
 30
0.0
 10
778.7370299604453
 20
17.92627297814092
 30
0.0
 10
750.8543815835709
 20
7.140796066461592
 30
0.0
 10
712.0887809261045
 20
0.1800221213937279
 30
0.0
 10
674.0339491777507
 20
1.559324102078547
 30
0.0
 10
645.9558483083615
 20
8.01157430779554
 30
0.0
 10
628.5989357282602
 20
15.00564899794517
 30
0.0
 10
614.3553437966318
 20
24.32141522518809
 30
0.0
 10
603.8922222581672
 20
35.69314721543517
 30
0.0
 10
597.586240575125
 20
49.31769085245359
 30
0.0
 10
596.5110335466522
 20
59.33520588257156
 30
0.0
 10
596.5188941536328
 20
64.37938747912354
 30
0.0
  0
SPLINE
  5
5F
330
1F
100
AcDbEntity
  8
LINEE VISIBILI 2D
100
AcDbSpline
210
0.0
220
0.0
230
1.0
 70
     8
 71
     3
 72
    21
 73
    17
 74
     0
 42
0.0000000001
 43
0.0000000001
 40
0.0
 40
0.0
 40
0.0
 40
0.0
 40
15.04448980091652
 40
29.42372277143566
 40
44.25351732362711
 40
60.95752632618464
 40
79.75031495414558
 40
101.353668808968
 40
148.3946126806595
 40
196.2617360758226
 40
219.3286487673963
 40
240.5140559891574
 40
258.559372965299
 40
274.6642851519946
 40
288.6200579899353
 40
303.1055211788768
 40
303.1055211788768
 40
303.1055211788768
 40
303.1055211788768
 10
595.2139957181785
 20
64.64559650723861
 30
0.0
 10
595.1787689941898
 20
59.64023462711344
 30
0.0
 10
596.1607697348886
 20
49.76767883559494
 30
0.0
 10
602.1496450927119
 20
36.08943269772621
 30
0.0
 10
612.2749051705201
 20
24.41148302424143
 30
0.0
 10
626.1805363894422
 20
14.84268439380343
 30
0.0
 10
643.7641423317206
 20
7.362138382288633
 30
0.0
 10
672.1509035203983
 20
0.4061682132684066
 30
0.0
 10
711.2323073610938
 20
-1.260030474090733
 30
0.0
 10
750.1729012634579
 20
5.628135549118303
 30
0.0
 10
778.9914820636949
 20
16.51362465805331
 30
0.0
 10
797.2440818405856
 20
26.51043333569015
 30
0.0
 10
811.7324922882921
 20
38.07687447156722
 30
0.0
 10
821.7351689979548
 20
50.78638094828522
 30
0.0
 10
827.2026830993196
 20
64.79494917014202
 30
0.0
 10
827.5217724655753
 20
74.40987677129941
 30
0.0
 10
827.0112022517782
 20
79.20366554337951
 30
0.0
  0
SPLINE
  5
60
330
1F
100
AcDbEntity
  8
LINEE VISIBILI 2D
100
AcDbSpline
210
0.0
220
0.0
230
1.0
 70
    12
 71
     2
 72
     6
 73
     3
 74
     0
 42
0.0000000001
 43
0.0000000001
 40
0.0
 40
0.0
 40
0.0
 40
1.318277702742551
 40
1.318277702742551
 40
1.318277702742551
 10
688.5982256945697
 20
174.901026882057
 30
0.0
 41
1.0
 10
689.2495483006272
 20
175.0023008219366
 30
0.0
 41
0.9999766569921886
 10
689.9021940039506
 20
175.0946649599648
 30
0.0
 41
1.0
  0
SPLINE
  5
61
330
1F
100
AcDbEntity
  8
LINEE VISIBILI 2D
100
AcDbSpline
210
0.0
220
0.0
230
1.0
 70
     8
 71
     3
 72
    24
 73
    20
 74
     0
 42
0.0000000001
 43
0.0000000001
 40
0.0
 40
0.0
 40
0.0
 40
0.0
 40
13.4358043282274
 40
26.69954381137918
 40
40.78358670974178
 40
55.63014628102383
 40
73.78861356358897
 40
94.34445676098511
 40
136.4057962030365
 40
136.4057962030365
 40
136.4057962030365
 40
158.0157792841175
 40
180.3352541716702
 40
202.0190764897116
 40
222.857158344474
 40
239.5838594611459
 40
255.0520221315673
 40
269.2560446984359
 40
282.4560473733014
 40
282.4560473733014
 40
282.4560473733014
 40
282.4560473733014
 10
602.3843880453292
 20
63.28315436966955
 30
0.0
 10
602.519204480447
 20
58.81060294595229
 30
0.0
 10
603.6815666982951
 20
49.90385613016539
 30
0.0
 10
609.4740247427736
 20
37.41010871224981
 30
0.0
 10
618.9425150027065
 20
26.8527228083107
 30
0.0
 10
631.9474329377744
 20
17.88583058291529
 30
0.0
 10
648.4568795721719
 20
10.93706231385078
 30
0.0
 10
674.5060579178918
 20
3.890843934900599
 30
0.0
 10
695.539377005894
 20
2.727224619768141
 30
0.0
 10
709.5239126926538
 20
3.46740026094057
 30
0.0
 10
716.71836678262
 20
3.846974876095001
 30
0.0
 10
731.2826986907506
 20
5.608537039183545
 30
0.0
 10
752.552819753155
 20
10.88498994583852
 30
0.0
 10
772.7334692027838
 20
18.74890117524997
 30
0.0
 10
790.1224101631133
 20
28.19806731111469
 30
0.0
 10
804.2503157480927
 20
38.94339414511273
 30
0.0
 10
814.3468376546056
 20
50.8048936928252
 30
0.0
 10
820.515137460522
 20
63.86792908062582
 30
0.0
 10
821.6732163587302
 20
73.04972918556926
 30
0.0
 10
821.5404813292008
 20
77.44577147377395
 30
0.0
  0
SPLINE
  5
62
330
1F
100
AcDbEntity
  8
LINEE VISIBILI 2D
100
AcDbSpline
210
0.0
220
0.0
230
1.0
 70
    12
 71
     3
 72
     8
 73
     4
 74
     0
 42
0.0000000001
 43
0.0000000001
 40
-0.5937500000000002
 40
-0.5937500000000002
 40
-0.5937500000000002
 40
-0.5937500000000002
 40
-0.5
 40
-0.5
 40
-0.5
 40
-0.5
 10
719.1741521120265
 20
197.974140381366
 30
0.0
 41
1.0
 10
753.6612032722438
 20
197.1856662488236
 30
0.0
 41
1.0
 10
787.9766353685801
 20
193.5593885591419
 30
0.0
 41
1.0
 10
816.2187697530927
 20
187.467894827654
 30
0.0
 41
1.0
  0
SPLINE
  5
63
330
1F
100
AcDbEntity
  8
LINEE VISIBILI 2D
100
AcDbSpline
210
0.0
220
0.0
230
1.0
 70
    12
 71
     3
 72
    11
 73
     7
 74
     0
 42
0.0000000001
 43
0.0000000001
 40
-0.5
 40
-0.5
 40
-0.5
 40
-0.5
 40
-0.333333333333333
 40
-0.166666666666667
 40
-0.0548
 40
0.0
 40
0.0
 40
0.0
 40
0.0
 10
816.2187697530927
 20
187.467894827654
 30
0.0
 41
1.0
 10
866.4270086588928
 20
176.6385726383659
 30
0.0
 41
1.0
 10
928.4542466130387
 20
139.3973280942989
 30
0.0
 41
1.0
 10
840.7135513442266
 20
72.55784536643463
 30
0.0
 41
1.0
 10
680.7803719772455
 20
56.84901305362015
 30
0.0
 41
1.0
 10
607.9521069521336
 20
64.01410747157183
 30
0.0
 41
1.0
 10
588.8016182722265
 20
68.68671538320407
 30
0.0
 41
1.0
  0
SPLINE
  5
64
330
1F
100
AcDbEntity
  8
LINEE VISIBILI 2D
100
AcDbSpline
210
0.0
220
0.0
230
1.0
 70
    12
 71
     3
 72
    10
 73
     6
 74
     0
 42
0.0000000001
 43
0.0000000001
 40
-1.0
 40
-1.0
 40
-1.0
 40
-1.0
 40
-0.833333333333334
 40
-0.6666666666666669
 40
-0.6205896389023272
 40
-0.6205896389023272
 40
-0.6205896389023272
 40
-0.6205896389023272
 10
588.8016182722265
 20
68.68671538320407
 30
0.0
 41
1.0
 10
530.5580395620492
 20
82.89781000526906
 30
0.0
 41
1.0
 10
502.7855190938467
 20
154.1788812689281
 30
0.0
 41
1.0
 10
597.197457686
 20
192.267416921211
 30
0.0
 41
1.0
 10
672.8900552142585
 20
197.5187337872392
 30
0.0
 41
1.0
 10
689.6505950521018
 20
197.9448199226271
 30
0.0
 41
1.0
  0
SPLINE
  5
66
330
1F
100
AcDbEntity
  8
PREDEFINITO
100
AcDbSpline
210
0.0
220
0.0
230
1.0
 70
    12
 71
     2
 72
     6
 73
     3
 74
     0
 42
0.0000000001
 43
0.0000000001
 40
0.0
 40
0.0
 40
0.0
 40
5.310789489084859
 40
5.310789489084859
 40
5.310789489084859
 10
833.2734509642015
 20
126.3218269341387
 30
0.0
 41
1.0
 10
833.0359987782336
 20
128.9875415937851
 30
0.0
 41
0.9883410693021503
 10
832.0072770221665
 20
131.4581993474752
 30
0.0
 41
1.0
  0
SPLINE
  5
67
330
1F
100
AcDbEntity
  8
PREDEFINITO
100
AcDbSpline
210
0.0
220
0.0
230
1.0
 70
     8
 71
     3
 72
    12
 73
     8
 74
     0
 42
0.0000000001
 43
0.0000000001
 40
0.0
 40
0.0
 40
0.0
 40
0.0
 40
9.68011459401278
 40
21.89301074532845
 40
52.65377970758511
 40
88.48360303652024
 40
125.8479499495312
 40
125.8479499495312
 40
125.8479499495312
 40
125.8479499495312
 10
832.0072770221665
 20
131.4581993474752
 30
0.0
 10
830.7683887383578
 20
134.4462977711693
 30
0.0
 10
826.6159502887964
 20
140.5363820478063
 30
0.0
 10
813.4309206130557
 20
152.2643845724274
 30
0.0
 10
790.1675282821122
 20
164.8691771373886
 30
0.0
 10
756.9811475371401
 20
175.2093473064432
 30
0.0
 10
732.7523244928159
 20
178.7051902408158
 30
0.0
 10
720.330218127965
 20
179.558604382926
 30
0.0
  0
SPLINE
  5
68
330
1F
100
AcDbEntity
  8
PREDEFINITO
100
AcDbSpline
210
0.0
220
0.0
230
1.0
 70
    12
 71
     2
 72
     8
 73
     5
 74
     0
 42
0.0000000001
 43
0.0000000001
 40
0.0
 40
0.0
 40
0.0
 40
0.8085687259920223
 40
0.8085687259920223
 40
1.115216388559132
 40
1.115216388559132
 40
1.115216388559132
 10
720.330218127965
 20
179.558604382926
 30
0.0
 41
1.0
 10
719.9199981549001
 20
179.5921374088806
 30
0.0
 41
0.9735928933717166
 10
719.5376306684382
 20
179.4398219617716
 30
0.0
 41
1.0
 10
719.3934452162763
 20
179.3814560752627
 30
0.0
 41
0.9786636130978081
 10
719.2849070908849
 20
179.2700312276764
 30
0.0
 41
1.0
  0
SPLINE
  5
69
330
1F
100
AcDbEntity
  8
PREDEFINITO
100
AcDbSpline
210
0.0
220
0.0
230
1.0
 70
     8
 71
     2
 72
     6
 73
     3
 74
     0
 42
0.0000000001
 43
0.0000000001
 40
0.0
 40
0.0
 40
0.0
 40
1.0
 40
1.0
 40
1.0
 10
719.2849070908849
 20
179.2700312276764
 30
0.0
 10
719.1953147007903
 20
179.1780560035314
 30
0.0
 10
719.1953147007902
 20
179.0107735374885
 30
0.0
  0
SPLINE
  5
6A
330
1F
100
AcDbEntity
  8
PREDEFINITO
100
AcDbSpline
210
0.0
220
0.0
230
1.0
 70
     8
 71
     3
 72
    11
 73
     7
 74
     0
 42
0.0000000001
 43
0.0000000001
 40
0.0
 40
0.0
 40
0.0
 40
0.0
 40
15.1461550259134
 40
30.69272492119777
 40
61.59308458977107
 40
123.348675249518
 40
123.348675249518
 40
123.348675249518
 40
123.348675249518
 10
817.5315005144608
 20
107.8837925429131
 30
0.0
 10
815.1536073257658
 20
112.3418599837102
 30
0.0
 10
809.7148670012856
 20
121.01957648361
 30
0.0
 10
796.8388143074361
 20
137.0736463251222
 30
0.0
 10
769.742183808569
 20
161.1631259940821
 30
0.0
 10
740.4759846309491
 20
173.3928865970175
 30
0.0
 10
720.0678176946423
 20
176.2918233794414
 30
0.0
  0
SPLINE
  5
6B
330
1F
100
AcDbEntity
  8
PREDEFINITO
100
AcDbSpline
210
0.0
220
0.0
230
1.0
 70
    12
 71
     2
 72
     6
 73
     3
 74
     0
 42
0.0000000001
 43
0.0000000001
 40
-0.3360605158279206
 40
-0.3360605158279206
 40
-0.3360605158279206
 40
0.0
 40
0.0
 40
0.0
 10
720.0678176946423
 20
176.2918233794414
 30
0.0
 41
1.0
 10
719.9013620629698
 20
176.314773215092
 30
0.0
 41
0.9999998752249477
 10
719.7348835852027
 20
176.3375567335255
 30
0.0
 41
1.0
  0
SPLINE
  5
6C
330
1F
100
AcDbEntity
  8
PREDEFINITO
100
AcDbSpline
210
0.0
220
0.0
230
1.0
 70
    12
 71
     2
 72
     8
 73
     5
 74
     0
 42
0.0000000001
 43
0.0000000001
 40
0.0
 40
0.0
 40
0.0
 40
0.3786924012694961
 40
0.3786924012694961
 40
0.7778650294228004
 40
0.7778650294228004
 40
0.7778650294228004
 10
719.7348835852027
 20
176.3375567335255
 30
0.0
 41
1.0
 10
719.5678548032648
 20
176.4312936873948
 30
0.0
 41
0.9829548255678368
 10
719.4459961774094
 20
176.5790627836937
 30
0.0
 41
1.0
 10
719.3180691291718
 20
176.7350007988017
 30
0.0
 41
0.9843710269877775
 10
719.2521422166993
 20
176.9256198860898
 30
0.0
 41
1.0
  0
SPLINE
  5
6D
330
1F
100
AcDbEntity
  8
PREDEFINITO
100
AcDbSpline
210
0.0
220
0.0
230
1.0
 70
     8
 71
     2
 72
     6
 73
     3
 74
     0
 42
0.0000000001
 43
0.0000000001
 40
0.0
 40
0.0
 40
0.0
 40
1.0
 40
1.0
 40
1.0
 10
719.2521422166993
 20
176.9256198860898
 30
0.0
 10
719.1953147007887
 20
177.0899292524696
 30
0.0
 10
719.1953147007887
 20
177.3013520249827
 30
0.0
  0
SPLINE
  5
6E
330
1F
100
AcDbEntity
  8
LINEE VISIBILI 2D
100
AcDbSpline
210
0.0
220
0.0
230
1.0
 70
    12
 71
     3
 72
    25
 73
    21
 74
     0
 42
0.0000000001
 43
0.0000000001
 40
0.0
 40
0.0
 40
0.0
 40
0.0
 40
10.77798862426109
 40
21.58602478413243
 40
45.56353635790572
 40
67.94390276269304
 40
90.50861609458903
 40
90.50861609458903
 40
90.50861609458903
 40
92.58208013749446
 40
94.99658211457994
 40
104.3137257416414
 40
113.2840573214452
 40
118.113246081557
 40
118.113246081557
 40
118.113246081557
 40
118.9301192123233
 40
118.9301192123233
 40
118.9301192123233
 40
119.7469923430898
 40
119.7469923430898
 40
119.7469923430898
 40
119.7469923430898
 10
813.7100935786355
 20
105.8661569496565
 30
0.0
 41
1.0
 10
812.1122101718255
 20
109.0833471969483
 30
0.0
 41
1.0
 10
808.5832514618038
 20
115.3665690143067
 30
0.0
 41
1.0
 10
799.7715861733798
 20
127.7595795934736
 30
0.0
 41
1.0
 10
786.7002097126017
 20
141.725636224916
 30
0.0
 41
1.0
 10
768.2235267829352
 20
155.5410397556822
 30
0.0
 41
1.0
 10
754.668240242561
 20
162.0862221264636
 30
0.0
 41
1.0
 10
747.6435010415855
 20
164.7665046150545
 30
0.0
 41
1.0
 10
746.9970746021173
 20
165.0097507364371
 30
0.0
 41
1.0
 10
745.5806477920199
 20
165.4973796986215
 30
0.0
 41
1.0
 10
741.1276365978563
 20
166.6593265758021
 30
0.0
 41
1.0
 10
734.4031077857737
 20
168.2136707912372
 30
0.0
 41
1.0
 10
726.83637014777
 20
169.6765400598141
 30
0.0
 41
1.0
 10
722.2860312335549
 20
170.3613808723907
 30
0.0
 41
1.0
 10
720.6776722408498
 20
170.4635202126009
 30
0.0
 41
1.0
 10
720.398169010374
 20
170.4824864356496
 30
0.0
 41
0.9451619342086042
 10
720.1341239953942
 20
170.3888808614159
 30
0.0
 41
0.9451619342086043
 10
719.9289763496215
 20
170.1981029358142
 30
0.0
 41
1.0
 10
719.7238287038487
 20
170.0073250102127
 30
0.0
 41
0.945161934208553
 10
719.6113281275689
 20
169.75076041055
 30
0.0
 41
0.9451619342085533
 10
719.6099825627946
 20
169.4706176560149
 30
0.0
 41
1.0
  0
SPLINE
  5
6F
330
1F
100
AcDbEntity
  8
LINEE VISIBILI 2D
100
AcDbSpline
210
0.0
220
0.0
230
1.0
 70
    24
 71
     2
 72
     6
 73
     3
 74
     0
 42
0.0000000001
 43
0.0000000001
 40
0.0
 40
0.0
 40
0.0
 40
1.824033833167958
 40
1.824033833167958
 40
1.824033833167958
 10
719.6099825627946
 20
169.4706176560149
 30
0.0
 10
719.6056020687015
 20
168.5586112594327
 30
0.0
 10
719.6012215746083
 20
167.6466048628505
 30
0.0
  0
SPLINE
  5
70
330
1F
100
AcDbEntity
  8
LINEE VISIBILI 2D
100
AcDbSpline
210
0.0
220
0.0
230
1.0
 70
    12
 71
     3
 72
    22
 73
    18
 74
     0
 42
0.0000000001
 43
0.0000000001
 40
0.0
 40
0.0
 40
0.0
 40
0.0
 40
1.833410756219156
 40
3.451380789535986
 40
7.087151925389367
 40
11.11377579185261
 40
16.09114236068187
 40
16.09114236068187
 40
16.09114236068187
 40
22.84044399327327
 40
22.84044399327327
 40
22.84044399327327
 40
23.34044399327327
 40
23.34044399327327
 40
23.59044399327327
 40
23.59044399327327
 40
23.84044399327327
 40
23.84044399327327
 40
23.84044399327327
 40
23.84044399327327
 10
719.6012215746083
 20
167.6466048628505
 30
0.0
 41
1.0
 10
719.5742515636306
 20
167.0326486255958
 30
0.0
 41
1.0
 10
719.3886293424583
 20
165.8986683543829
 30
0.0
 41
1.0
 10
718.4973753436515
 20
163.6787057059918
 30
0.0
 41
1.0
 10
716.2515702229267
 20
161.4254532241432
 30
0.0
 41
1.0
 10
712.245250157581
 20
159.9075781835691
 30
0.0
 41
1.0
 10
709.2283047814145
 20
159.7413519365231
 30
0.0
 41
1.0
 10
707.5699655170808
 20
159.7517260788261
 30
0.0
 41
1.0
 10
705.3201983062158
 20
159.7517260788261
 30
0.0
 41
1.0
 10
703.0704310953511
 20
159.7517260788262
 30
0.0
 41
1.0
 10
700.8206638844862
 20
159.7517260788262
 30
0.0
 41
1.0
 10
698.1382107811739
 20
159.751726078858
 30
0.0
 41
1.0
 10
695.3909618987965
 20
159.9983849167427
 30
0.0
 41
1.0
 10
691.8194232958698
 20
161.8586022988575
 30
0.0
 41
1.0
 10
690.7354257735701
 20
162.7467013149678
 30
0.0
 41
1.0
 10
689.261293960021
 20
164.9711135132026
 30
0.0
 41
1.0
 10
688.8513921591008
 20
166.2938029276151
 30
0.0
 41
1.0
 10
688.7894078269691
 20
167.6466048628505
 30
0.0
 41
1.0
  0
SPLINE
  5
71
330
1F
100
AcDbEntity
  8
LINEE VISIBILI 2D
100
AcDbSpline
210
0.0
220
0.0
230
1.0
 70
    12
 71
     3
 72
    24
 73
    20
 74
     0
 42
0.0000000001
 43
0.0000000001
 40
-7.281016267615406
 40
-7.281016267615406
 40
-7.281016267615406
 40
-7.281016267615406
 40
-5.708821765466721
 40
-5.708821765466721
 40
-5.708821765466721
 40
-4.854410881422192
 40
-4.854410881422192
 40
-4.854410881422192
 40
-3.999999997377637
 40
-3.999999997377637
 40
-3.999999997377637
 40
16.13002403023419
 40
16.13002403023419
 40
16.13002403023419
 40
27.66832280658423
 40
37.4815457225466
 40
58.91287764741427
 40
82.8069293395248
 40
106.7577336081069
 40
106.7577336081069
 40
106.7577336081069
 40
106.7577336081069
 10
688.7894078269691
 20
167.6466048628505
 30
0.0
 41
1.0
 10
688.7867758417943
 20
168.1706630876132
 30
0.0
 41
1.0
 10
688.7841438566195
 20
168.6947213123759
 30
0.0
 41
1.0
 10
688.7815118714448
 20
169.2187795371386
 30
0.0
 41
1.0
 10
688.7800362142032
 20
169.5125997005811
 30
0.0
 41
0.940084778985917
 10
688.6569549579459
 20
169.7794020063576
 30
0.0
 41
0.9400847789859166
 10
688.4343914246858
 20
169.9712298971152
 30
0.0
 41
1.0
 10
688.2118278914256
 20
170.1630577878727
 30
0.0
 41
0.940084778985897
 10
687.9297869110186
 20
170.2454310321972
 30
0.0
 41
0.9400847789858969
 10
687.6389641264923
 20
170.2035433966704
 30
0.0
 41
1.0
 10
680.9895211672979
 20
169.1833867793286
 30
0.0
 41
0.9948862676800885
 10
674.5171970514414
 20
167.3490390121972
 30
0.0
 41
0.9948862676800881
 10
668.3212849779701
 20
164.7286411856641
 30
0.0
 41
1.0
 10
664.835226975884
 20
163.1179030948972
 30
0.0
 41
1.0
 10
658.3628074221843
 20
160.1083004101048
 30
0.0
 41
1.0
 10
646.2794606476323
 20
152.5019443870315
 30
0.0
 41
1.0
 10
632.6008410283497
 20
140.0290637027166
 30
0.0
 41
1.0
 10
619.2013357118273
 20
121.1049557631219
 30
0.0
 41
1.0
 10
612.1244529858789
 20
106.7630237729997
 30
0.0
 41
1.0
 10
609.2892820165561
 20
99.29457548748822
 30
0.0
 41
1.0
  0
SPLINE
  5
72
330
1F
100
AcDbEntity
  8
LINEE VISIBILI 2D
100
AcDbSpline
210
0.0
220
0.0
230
1.0
 70
    12
 71
     3
 72
     8
 73
     4
 74
     0
 42
0.0000000001
 43
0.0000000001
 40
-0.8273960592427229
 40
-0.8273960592427229
 40
-0.8273960592427229
 40
-0.8273960592427229
 40
-0.8153573732809469
 40
-0.8153573732809469
 40
-0.8153573732809469
 40
-0.8153573732809469
 10
718.4884353991949
 20
175.1148780061983
 30
0.0
 41
1.0
 10
719.1775680135064
 20
175.0231886980558
 30
0.0
 41
1.0
 10
719.8658048559734
 20
174.9251664315086
 30
0.0
 41
1.0
 10
720.5530619198275
 20
174.8208952094064
 30
0.0
 41
1.0
  0
SPLINE
  5
73
330
1F
100
AcDbEntity
  8
LINEE VISIBILI 2D
100
AcDbSpline
210
0.0
220
0.0
230
1.0
 70
    12
 71
     2
 72
    12
 73
     9
 74
     0
 42
0.0000000001
 43
0.0000000001
 40
0.0
 40
0.0
 40
0.0
 40
0.1429937524031064
 40
0.1429937524031064
 40
0.5116965387886682
 40
0.5116965387886682
 40
0.8503701321010716
 40
0.8503701321010716
 40
1.172677260553019
 40
1.172677260553019
 40
1.172677260553019
 10
689.1952767523535
 20
177.2476545555394
 30
0.0
 41
1.0
 10
689.1947080058756
 20
177.1760755394794
 30
0.0
 41
0.9982323322535706
 10
689.1856500907398
 20
177.1050696722144
 30
0.0
 41
1.0
 10
689.1621739538363
 20
176.9206917238967
 30
0.0
 41
0.9878173318355241
 10
689.083148954627
 20
176.7524615056546
 30
0.0
 41
1.0
 10
689.010410411799
 20
176.5980552077653
 30
0.0
 41
0.9882234748811333
 10
688.8943808673796
 20
176.4728779523934
 30
0.0
 41
1.0
 10
688.7836796569875
 20
176.3538826709741
 30
0.0
 41
0.9873832239077213
 10
688.6456170546336
 20
176.247304695476
 30
0.0
 41
1.0
  0
SPLINE
  5
74
330
1F
100
AcDbEntity
  8
LINEE VISIBILI 2D
100
AcDbSpline
210
0.0
220
0.0
230
1.0
 70
    24
 71
     2
 72
     6
 73
     3
 74
     0
 42
0.0000000001
 43
0.0000000001
 40
-0.3164883448691787
 40
-0.3164883448691787
 40
-0.3164883448691787
 40
0.0
 40
0.0
 40
0.0
 10
688.6456170546336
 20
176.247304695476
 30
0.0
 10
688.491331494067
 20
176.2093555137906
 30
0.0
 10
688.3370459335006
 20
176.1714063321051
 30
0.0
  0
SPLINE
  5
75
330
1F
100
AcDbEntity
  8
LINEE VISIBILI 2D
100
AcDbSpline
210
0.0
220
0.0
230
1.0
 70
     8
 71
     3
 72
    12
 73
     8
 74
     0
 42
0.0000000001
 43
0.0000000001
 40
0.0
 40
0.0
 40
0.0
 40
0.0
 40
13.65501911226717
 40
28.04612767049056
 40
56.02762907609168
 40
86.25075355810395
 40
117.6894145828645
 40
117.6894145828645
 40
117.6894145828645
 40
117.6894145828645
 10
688.3370459335006
 20
176.1714063321051
 30
0.0
 10
683.8404058800513
 20
175.4663269834907
 30
0.0
 10
674.7061146966822
 20
173.3688016651545
 30
0.0
 10
657.24607737754
 20
166.5948260921521
 30
0.0
 10
636.9170909704472
 20
153.0276197876198
 30
0.0
 10
617.211595239345
 20
130.2585934591453
 30
0.0
 10
607.5109422449361
 20
112.0124319932862
 30
0.0
 10
603.5565364376405
 20
102.3066523644299
 30
0.0
  0
SPLINE
  5
76
330
1F
100
AcDbEntity
  8
LINEE VISIBILI 2D
100
AcDbSpline
210
0.0
220
0.0
230
1.0
 70
    24
 71
     2
 72
     6
 73
     3
 74
     0
 42
0.0000000001
 43
0.0000000001
 40
0.0
 40
0.0
 40
0.0
 40
2.531464124243087
 40
2.531464124243087
 40
2.531464124243087
 10
780.926114389217
 20
94.86838127039803
 30
0.0
 10
780.926114389217
 20
96.13411333251958
 30
0.0
 10
780.926114389217
 20
97.39984539464112
 30
0.0
  0
SPLINE
  5
77
330
1F
100
AcDbEntity
  8
LINEE VISIBILI 2D
100
AcDbSpline
210
0.0
220
0.0
230
1.0
 70
    24
 71
     2
 72
     6
 73
     3
 74
     0
 42
0.0000000001
 43
0.0000000001
 40
0.0
 40
0.0
 40
0.0
 40
136.0
 40
136.0
 40
136.0
 10
780.926114389217
 20
97.39984539464112
 30
0.0
 10
712.926114389217
 20
97.39984539464112
 30
0.0
 10
644.926114389217
 20
97.39984539464112
 30
0.0
  0
SPLINE
  5
78
330
1F
100
AcDbEntity
  8
LINEE VISIBILI 2D
100
AcDbSpline
210
0.0
220
0.0
230
1.0
 70
    24
 71
     2
 72
     6
 73
     3
 74
     0
 42
0.0000000001
 43
0.0000000001
 40
0.0
 40
0.0
 40
0.0
 40
7.83315302690319
 40
7.83315302690319
 40
7.83315302690319
 10
644.926114389217
 20
97.39984539464112
 30
0.0
 10
644.926114389217
 20
93.48326888118953
 30
0.0
 10
644.9261143892169
 20
89.56669236773793
 30
0.0
  0
SPLINE
  5
79
330
1F
100
AcDbEntity
  8
LINEE VISIBILI 2D
100
AcDbSpline
210
0.0
220
0.0
230
1.0
 70
    24
 71
     2
 72
     6
 73
     3
 74
     0
 42
0.0000000001
 43
0.0000000001
 40
0.0
 40
0.0
 40
0.0
 40
14.976380142799
 40
14.976380142799
 40
14.976380142799
 10
782.8795085667847
 20
95.33442173695002
 30
0.0
 10
782.8795085667847
 20
102.8226118083495
 30
0.0
 10
782.8795085667847
 20
110.310801879749
 30
0.0
  0
SPLINE
  5
7A
330
1F
100
AcDbEntity
  8
LINEE VISIBILI 2D
100
AcDbSpline
210
0.0
220
0.0
230
1.0
 70
    24
 71
     2
 72
     6
 73
     3
 74
     0
 42
0.0000000001
 43
0.0000000001
 40
0.0
 40
0.0
 40
0.0
 40
140.6000000000001
 40
140.6000000000001
 40
140.6000000000001
 10
782.8795085667847
 20
110.310801879749
 30
0.0
 10
712.5795085667846
 20
110.310801879749
 30
0.0
 10
642.2795085667846
 20
110.310801879749
 30
0.0
  0
SPLINE
  5
7B
330
1F
100
AcDbEntity
  8
LINEE VISIBILI 2D
100
AcDbSpline
210
0.0
220
0.0
230
1.0
 70
    24
 71
     2
 72
     6
 73
     3
 74
     0
 42
0.0000000001
 43
0.0000000001
 40
0.0
 40
0.0
 40
0.0
 40
20.31981971332465
 40
20.31981971332465
 40
20.31981971332465
 10
642.2795085667846
 20
110.310801879749
 30
0.0
 10
642.2795085667846
 20
100.1508920230867
 30
0.0
 10
642.2795085667846
 20
89.99098216642437
 30
0.0
  0
SPLINE
  5
7C
330
1F
100
AcDbEntity
  8
LINEE VISIBILI 2D
100
AcDbSpline
210
0.0
220
0.0
230
1.0
 70
    24
 71
     2
 72
     6
 73
     3
 74
     0
 42
0.0000000001
 43
0.0000000001
 40
0.0
 40
0.0
 40
0.0
 40
1.299999999999955
 40
1.299999999999955
 40
1.299999999999955
 10
642.2795085667847
 20
106.4218673118512
 30
0.0
 10
642.9295085667846
 20
106.4218673118512
 30
0.0
 10
643.5795085667846
 20
106.4218673118512
 30
0.0
  0
SPLINE
  5
7D
330
1F
100
AcDbEntity
  8
LINEE VISIBILI 2D
100
AcDbSpline
210
0.0
220
0.0
230
1.0
 70
    24
 71
     2
 72
     6
 73
     3
 74
     0
 42
0.0000000001
 43
0.0000000001
 40
0.0
 40
0.0
 40
0.0
 40
1.491068271580019
 40
1.491068271580019
 40
1.491068271580019
 10
643.5795085667846
 20
106.4218673118512
 30
0.0
 10
643.5795085667846
 20
107.1674014476412
 30
0.0
 10
643.5795085667846
 20
107.9129355834312
 30
0.0
  0
SPLINE
  5
7E
330
1F
100
AcDbEntity
  8
LINEE VISIBILI 2D
100
AcDbSpline
210
0.0
220
0.0
230
1.0
 70
    24
 71
     2
 72
     6
 73
     3
 74
     0
 42
0.0000000001
 43
0.0000000001
 40
0.0
 40
0.0
 40
0.0
 40
1.397866296318028
 40
1.397866296318028
 40
1.397866296318028
 10
643.5795085667846
 20
107.9129355834312
 30
0.0
 10
643.5795085667846
 20
108.6118687315902
 30
0.0
 10
643.5795085667846
 20
109.3108018797492
 30
0.0
  0
SPLINE
  5
7F
330
1F
100
AcDbEntity
  8
LINEE VISIBILI 2D
100
AcDbSpline
210
0.0
220
0.0
230
1.0
 70
    24
 71
     2
 72
     6
 73
     3
 74
     0
 42
0.0000000001
 43
0.0000000001
 40
0.0
 40
0.0
 40
0.0
 40
0.999999999999801
 40
0.999999999999801
 40
0.999999999999801
 10
643.5795085667846
 20
109.3108018797492
 30
0.0
 10
643.5795085667846
 20
109.8108018797491
 30
0.0
 10
643.5795085667846
 20
110.310801879749
 30
0.0
  0
SPLINE
  5
80
330
1F
100
AcDbEntity
  8
LINEE VISIBILI 2D
100
AcDbSpline
210
0.0
220
0.0
230
1.0
 70
    24
 71
     2
 72
     6
 73
     3
 74
     0
 42
0.0000000001
 43
0.0000000001
 40
0.0
 40
0.0
 40
0.0
 40
1.300000000152472
 40
1.300000000152472
 40
1.300000000152472
 10
642.2795085667847
 20
98.7816096969004
 30
0.0
 10
642.9295085667846
 20
98.78161965361981
 30
0.0
 10
643.5795085667846
 20
98.78162961033922
 30
0.0
  0
SPLINE
  5
81
330
1F
100
AcDbEntity
  8
LINEE VISIBILI 2D
100
AcDbSpline
210
0.0
220
0.0
230
1.0
 70
    24
 71
     2
 72
     6
 73
     3
 74
     0
 42
0.0000000001
 43
0.0000000001
 40
0.0
 40
0.0
 40
0.0
 40
6.014374195181176
 40
6.014374195181176
 40
6.014374195181176
 10
643.5795085667846
 20
98.78162961033922
 30
0.0
 10
643.5795085667846
 20
101.7888167079298
 30
0.0
 10
643.5795085667846
 20
104.7960038055204
 30
0.0
  0
SPLINE
  5
82
330
1F
100
AcDbEntity
  8
LINEE VISIBILI 2D
100
AcDbSpline
210
0.0
220
0.0
230
1.0
 70
    24
 71
     2
 72
     6
 73
     3
 74
     0
 42
0.0000000001
 43
0.0000000001
 40
0.0
 40
0.0
 40
0.0
 40
1.299999999999955
 40
1.299999999999955
 40
1.299999999999955
 10
643.5795085667846
 20
104.7960038055204
 30
0.0
 10
642.9295085667846
 20
104.7960038055204
 30
0.0
 10
642.2795085667847
 20
104.7960038055204
 30
0.0
  0
SPLINE
  5
83
330
1F
100
AcDbEntity
  8
LINEE VISIBILI 2D
100
AcDbSpline
210
0.0
220
0.0
230
1.0
 70
    24
 71
     2
 72
     6
 73
     3
 74
     0
 42
0.0000000001
 43
0.0000000001
 40
0.0
 40
0.0
 40
0.0
 40
1.346605822432366
 40
1.346605822432366
 40
1.346605822432366
 10
644.926114389217
 20
92.69322931496845
 30
0.0
 10
644.2528114780008
 20
92.69322931496845
 30
0.0
 10
643.5795085667846
 20
92.69322931496845
 30
0.0
  0
SPLINE
  5
84
330
1F
100
AcDbEntity
  8
LINEE VISIBILI 2D
100
AcDbSpline
210
0.0
220
0.0
230
1.0
 70
    24
 71
     2
 72
     6
 73
     3
 74
     0
 42
0.0000000001
 43
0.0000000001
 40
0.0
 40
0.0
 40
0.0
 40
0.1999934972365622
 40
0.1999934972365622
 40
0.1999934972365622
 10
643.5795085667846
 20
92.69322931496845
 30
0.0
 10
643.5795085667846
 20
92.79322606358673
 30
0.0
 10
643.5795085667846
 20
92.89322281220501
 30
0.0
  0
SPLINE
  5
85
330
1F
100
AcDbEntity
  8
LINEE VISIBILI 2D
100
AcDbSpline
210
0.0
220
0.0
230
1.0
 70
    24
 71
     2
 72
     6
 73
     3
 74
     0
 42
0.0000000001
 43
0.0000000001
 40
0.0
 40
0.0
 40
0.0
 40
3.749681493925721
 40
3.749681493925721
 40
3.749681493925721
 10
643.5795085667846
 20
92.89322281220501
 30
0.0
 10
643.5795085667846
 20
94.76806355916787
 30
0.0
 10
643.5795085667846
 20
96.64290430613073
 30
0.0
  0
SPLINE
  5
86
330
1F
100
AcDbEntity
  8
LINEE VISIBILI 2D
100
AcDbSpline
210
0.0
220
0.0
230
1.0
 70
    24
 71
     2
 72
     6
 73
     3
 74
     0
 42
0.0000000001
 43
0.0000000001
 40
0.0
 40
0.0
 40
0.0
 40
1.299999999999955
 40
1.299999999999955
 40
1.299999999999955
 10
643.5795085667846
 20
96.64290430613073
 30
0.0
 10
642.9295085667846
 20
96.64290430613073
 30
0.0
 10
642.2795085667847
 20
96.64290430613073
 30
0.0
  0
SPLINE
  5
87
330
1F
100
AcDbEntity
  8
LINEE VISIBILI 2D
100
AcDbSpline
210
0.0
220
0.0
230
1.0
 70
    24
 71
     2
 72
     6
 73
     3
 74
     0
 42
0.0000000001
 43
0.0000000001
 40
0.0
 40
0.0
 40
0.0
 40
1.300000000000182
 40
1.300000000000182
 40
1.300000000000182
 10
782.8795085667848
 20
96.64290430613087
 30
0.0
 10
782.2295085667847
 20
96.64290430613083
 30
0.0
 10
781.5795085667846
 20
96.64290430613079
 30
0.0
  0
SPLINE
  5
88
330
1F
100
AcDbEntity
  8
LINEE VISIBILI 2D
100
AcDbSpline
210
0.0
220
0.0
230
1.0
 70
    24
 71
     2
 72
     6
 73
     3
 74
     0
 42
0.0000000001
 43
0.0000000001
 40
-1.620489969112668
 40
-1.620489969112668
 40
-1.620489969112668
 40
0.0
 40
0.0
 40
0.0
 10
781.5795085667846
 20
96.64290430613079
 30
0.0
 10
781.5795085667846
 20
95.83265932157445
 30
0.0
 10
781.5795085667846
 20
95.02241433701812
 30
0.0
  0
SPLINE
  5
89
330
1F
100
AcDbEntity
  8
LINEE VISIBILI 2D
100
AcDbSpline
210
0.0
220
0.0
230
1.0
 70
    24
 71
     2
 72
     6
 73
     3
 74
     0
 42
0.0000000001
 43
0.0000000001
 40
0.0
 40
0.0
 40
0.0
 40
1.300000000000182
 40
1.300000000000182
 40
1.300000000000182
 10
782.8795085667848
 20
104.7960038055206
 30
0.0
 10
782.2295085667847
 20
104.7960038055205
 30
0.0
 10
781.5795085667846
 20
104.7960038055205
 30
0.0
  0
SPLINE
  5
8A
330
1F
100
AcDbEntity
  8
LINEE VISIBILI 2D
100
AcDbSpline
210
0.0
220
0.0
230
1.0
 70
    24
 71
     2
 72
     6
 73
     3
 74
     0
 42
0.0000000001
 43
0.0000000001
 40
-6.014374195181205
 40
-6.014374195181205
 40
-6.014374195181205
 40
0.0
 40
0.0
 40
0.0
 10
781.5795085667846
 20
104.7960038055205
 30
0.0
 10
781.5795085667846
 20
101.7888167079299
 30
0.0
 10
781.5795085667846
 20
98.78162961033928
 30
0.0
  0
SPLINE
  5
8B
330
1F
100
AcDbEntity
  8
LINEE VISIBILI 2D
100
AcDbSpline
210
0.0
220
0.0
230
1.0
 70
    24
 71
     2
 72
     6
 73
     3
 74
     0
 42
0.0000000001
 43
0.0000000001
 40
0.0
 40
0.0
 40
0.0
 40
1.300000000152699
 40
1.300000000152699
 40
1.300000000152699
 10
781.5795085667846
 20
98.78162961033928
 30
0.0
 10
782.2295085667847
 20
98.78161965361991
 30
0.0
 10
782.8795085667848
 20
98.78160969690056
 30
0.0
  0
SPLINE
  5
8C
330
1F
100
AcDbEntity
  8
LINEE VISIBILI 2D
100
AcDbSpline
210
0.0
220
0.0
230
1.0
 70
    24
 71
     2
 72
     6
 73
     3
 74
     0
 42
0.0000000001
 43
0.0000000001
 40
-1.300000000000182
 40
-1.300000000000182
 40
-1.300000000000182
 40
0.0
 40
0.0
 40
0.0
 10
782.8795085667848
 20
106.4218673118513
 30
0.0
 10
782.2295085667847
 20
106.4218673118513
 30
0.0
 10
781.5795085667846
 20
106.4218673118513
 30
0.0
  0
SPLINE
  5
8D
330
1F
100
AcDbEntity
  8
LINEE VISIBILI 2D
100
AcDbSpline
210
0.0
220
0.0
230
1.0
 70
    24
 71
     2
 72
     6
 73
     3
 74
     0
 42
0.0000000001
 43
0.0000000001
 40
0.0
 40
0.0
 40
0.0
 40
1.491068271579877
 40
1.491068271579877
 40
1.491068271579877
 10
781.5795085667846
 20
106.4218673118513
 30
0.0
 10
781.5795085667846
 20
107.1674014476412
 30
0.0
 10
781.5795085667846
 20
107.9129355834311
 30
0.0
  0
SPLINE
  5
8E
330
1F
100
AcDbEntity
  8
LINEE VISIBILI 2D
100
AcDbSpline
210
0.0
220
0.0
230
1.0
 70
    24
 71
     2
 72
     6
 73
     3
 74
     0
 42
0.0000000001
 43
0.0000000001
 40
0.0
 40
0.0
 40
0.0
 40
1.397866296318085
 40
1.397866296318085
 40
1.397866296318085
 10
781.5795085667846
 20
107.9129355834311
 30
0.0
 10
781.5795085667846
 20
108.6118687315902
 30
0.0
 10
781.5795085667846
 20
109.3108018797492
 30
0.0
  0
SPLINE
  5
8F
330
1F
100
AcDbEntity
  8
LINEE VISIBILI 2D
100
AcDbSpline
210
0.0
220
0.0
230
1.0
 70
    24
 71
     2
 72
     6
 73
     3
 74
     0
 42
0.0000000001
 43
0.0000000001
 40
0.0
 40
0.0
 40
0.0
 40
0.999999999999801
 40
0.999999999999801
 40
0.999999999999801
 10
781.5795085667846
 20
109.3108018797492
 30
0.0
 10
781.5795085667846
 20
109.8108018797491
 30
0.0
 10
781.5795085667846
 20
110.310801879749
 30
0.0
  0
SPLINE
  5
90
330
1F
100
AcDbEntity
  8
LINEE VISIBILI 2D
100
AcDbSpline
210
0.0
220
0.0
230
1.0
 70
    24
 71
     2
 72
     6
 73
     3
 74
     0
 42
0.0000000001
 43
0.0000000001
 40
0.0
 40
0.0
 40
0.0
 40
1.300000000152699
 40
1.300000000152699
 40
1.300000000152699
 10
782.8795085667848
 20
66.60484893303642
 30
0.0
 10
782.2295085667847
 20
66.60483897631701
 30
0.0
 10
781.5795085667846
 20
66.60482901959762
 30
0.0
  0
SPLINE
  5
91
330
1F
100
AcDbEntity
  8
LINEE VISIBILI 2D
100
AcDbSpline
210
0.0
220
0.0
230
1.0
 70
    24
 71
     2
 72
     6
 73
     3
 74
     0
 42
0.0000000001
 43
0.0000000001
 40
-6.014374195181233
 40
-6.014374195181233
 40
-6.014374195181233
 40
0.0
 40
0.0
 40
0.0
 10
781.5795085667846
 20
66.60482901959762
 30
0.0
 10
781.5795085667846
 20
63.597641922007
 30
0.0
 10
781.5795085667846
 20
60.59045482441638
 30
0.0
  0
SPLINE
  5
92
330
1F
100
AcDbEntity
  8
LINEE VISIBILI 2D
100
AcDbSpline
210
0.0
220
0.0
230
1.0
 70
    24
 71
     2
 72
     6
 73
     3
 74
     0
 42
0.0000000001
 43
0.0000000001
 40
0.0
 40
0.0
 40
0.0
 40
1.300000000000182
 40
1.300000000000182
 40
1.300000000000182
 10
781.5795085667846
 20
60.59045482441638
 30
0.0
 10
782.2295085667847
 20
60.59045482441638
 30
0.0
 10
782.8795085667848
 20
60.59045482441638
 30
0.0
  0
SPLINE
  5
93
330
1F
100
AcDbEntity
  8
LINEE VISIBILI 2D
100
AcDbSpline
210
0.0
220
0.0
230
1.0
 70
    24
 71
     2
 72
     6
 73
     3
 74
     0
 42
0.0000000001
 43
0.0000000001
 40
0.0
 40
0.0
 40
0.0
 40
0.999999999999801
 40
0.999999999999801
 40
0.999999999999801
 10
781.5795085667846
 20
55.07565675018782
 30
0.0
 10
781.5795085667846
 20
55.57565675018772
 30
0.0
 10
781.5795085667846
 20
56.07565675018762
 30
0.0
  0
SPLINE
  5
94
330
1F
100
AcDbEntity
  8
LINEE VISIBILI 2D
100
AcDbSpline
210
0.0
220
0.0
230
1.0
 70
    24
 71
     2
 72
     6
 73
     3
 74
     0
 42
0.0000000001
 43
0.0000000001
 40
0.0
 40
0.0
 40
0.0
 40
1.397866296318057
 40
1.397866296318057
 40
1.397866296318057
 10
781.5795085667846
 20
56.07565675018762
 30
0.0
 10
781.5795085667846
 20
56.77458989834665
 30
0.0
 10
781.5795085667846
 20
57.47352304650568
 30
0.0
  0
SPLINE
  5
95
330
1F
100
AcDbEntity
  8
LINEE VISIBILI 2D
100
AcDbSpline
210
0.0
220
0.0
230
1.0
 70
    24
 71
     2
 72
     6
 73
     3
 74
     0
 42
0.0000000001
 43
0.0000000001
 40
0.0
 40
0.0
 40
0.0
 40
1.491068271579906
 40
1.491068271579906
 40
1.491068271579906
 10
781.5795085667846
 20
57.47352304650568
 30
0.0
 10
781.5795085667846
 20
58.21905718229563
 30
0.0
 10
781.5795085667846
 20
58.96459131808558
 30
0.0
  0
SPLINE
  5
96
330
1F
100
AcDbEntity
  8
LINEE VISIBILI 2D
100
AcDbSpline
210
0.0
220
0.0
230
1.0
 70
    24
 71
     2
 72
     6
 73
     3
 74
     0
 42
0.0000000001
 43
0.0000000001
 40
-1.300000000000182
 40
-1.300000000000182
 40
-1.300000000000182
 40
0.0
 40
0.0
 40
0.0
 10
781.5795085667846
 20
58.96459131808558
 30
0.0
 10
782.2295085667847
 20
58.96459131808559
 30
0.0
 10
782.8795085667848
 20
58.9645913180856
 30
0.0
  0
SPLINE
  5
97
330
1F
100
AcDbEntity
  8
LINEE VISIBILI 2D
100
AcDbSpline
210
0.0
220
0.0
230
1.0
 70
    24
 71
     2
 72
     6
 73
     3
 74
     0
 42
0.0000000001
 43
0.0000000001
 40
0.0
 40
0.0
 40
0.0
 40
3.870693251259809
 40
3.870693251259809
 40
3.870693251259809
 10
642.2795085667846
 20
58.94635000144763
 30
0.0
 10
642.2795085667846
 20
57.01100337581772
 30
0.0
 10
642.2795085667846
 20
55.07565675018782
 30
0.0
  0
SPLINE
  5
98
330
1F
100
AcDbEntity
  8
LINEE VISIBILI 2D
100
AcDbSpline
210
0.0
220
0.0
230
1.0
 70
    24
 71
     2
 72
     6
 73
     3
 74
     0
 42
0.0000000001
 43
0.0000000001
 40
0.0
 40
0.0
 40
0.0
 40
140.6000000000001
 40
140.6000000000001
 40
140.6000000000001
 10
642.2795085667846
 20
55.07565675018782
 30
0.0
 10
712.5795085667846
 20
55.07565675018782
 30
0.0
 10
782.8795085667847
 20
55.07565675018782
 30
0.0
  0
SPLINE
  5
99
330
1F
100
AcDbEntity
  8
LINEE VISIBILI 2D
100
AcDbSpline
210
0.0
220
0.0
230
1.0
 70
    24
 71
     2
 72
     6
 73
     3
 74
     0
 42
0.0000000001
 43
0.0000000001
 40
0.0
 40
0.0
 40
0.0
 40
12.8709917208968
 40
12.8709917208968
 40
12.8709917208968
 10
782.8795085667847
 20
55.07565675018782
 30
0.0
 10
782.8795085667847
 20
61.51115261063622
 30
0.0
 10
782.8795085667847
 20
67.94664847108461
 30
0.0
  0
SPLINE
  5
9A
330
1F
100
AcDbEntity
  8
LINEE VISIBILI 2D
100
AcDbSpline
210
0.0
220
0.0
230
1.0
 70
    24
 71
     2
 72
     6
 73
     3
 74
     0
 42
0.0000000001
 43
0.0000000001
 40
0.0
 40
0.0
 40
0.0
 40
0.999999999999801
 40
0.999999999999801
 40
0.999999999999801
 10
643.5795085667846
 20
55.07565675018782
 30
0.0
 10
643.5795085667846
 20
55.57565675018772
 30
0.0
 10
643.5795085667846
 20
56.07565675018762
 30
0.0
  0
SPLINE
  5
9B
330
1F
100
AcDbEntity
  8
LINEE VISIBILI 2D
100
AcDbSpline
210
0.0
220
0.0
230
1.0
 70
    24
 71
     2
 72
     6
 73
     3
 74
     0
 42
0.0000000001
 43
0.0000000001
 40
0.0
 40
0.0
 40
0.0
 40
1.397866296318057
 40
1.397866296318057
 40
1.397866296318057
 10
643.5795085667846
 20
56.07565675018762
 30
0.0
 10
643.5795085667846
 20
56.77458989834665
 30
0.0
 10
643.5795085667846
 20
57.47352304650568
 30
0.0
  0
SPLINE
  5
9C
330
1F
100
AcDbEntity
  8
LINEE VISIBILI 2D
100
AcDbSpline
210
0.0
220
0.0
230
1.0
 70
    24
 71
     2
 72
     6
 73
     3
 74
     0
 42
0.0000000001
 43
0.0000000001
 40
0.0
 40
0.0
 40
0.0
 40
1.456123151580108
 40
1.456123151580108
 40
1.456123151580108
 10
643.5795085667846
 20
57.47352304650568
 30
0.0
 10
643.5795085667846
 20
58.20158462229573
 30
0.0
 10
643.5795085667846
 20
58.92964619808578
 30
0.0
  0
SPLINE
  5
9D
330
1F
100
AcDbEntity
  8
PREDEFINITO
100
AcDbSpline
210
0.0
220
0.0
230
1.0
 70
    24
 71
     2
 72
     6
 73
     3
 74
     0
 42
0.0000000001
 43
0.0000000001
 40
0.0
 40
0.0
 40
0.0
 40
6.976120371602577
 40
6.976120371602577
 40
6.976120371602577
 10
719.3383324843336
 20
165.95171767194
 30
0.0
 10
718.929824096388
 20
169.4157737853351
 30
0.0
 10
718.5213157084423
 20
172.8798298987302
 30
0.0
  0
SPLINE
  5
9E
330
1F
100
AcDbEntity
  8
PREDEFINITO
100
AcDbSpline
210
0.0
220
0.0
230
1.0
 70
    12
 71
     2
 72
     6
 73
     3
 74
     0
 42
0.0000000001
 43
0.0000000001
 40
0.0
 40
0.0
 40
0.0
 40
0.6439668064527155
 40
0.6439668064527155
 40
0.6439668064527155
 10
718.5213157084423
 20
172.8798298987302
 30
0.0
 41
1.0
 10
718.4867981042248
 20
173.2002989935696
 30
0.0
 41
0.9984218789263763
 10
718.488435399195
 20
173.5226175084168
 30
0.0
 41
1.0
  0
SPLINE
  5
9F
330
1F
100
AcDbEntity
  8
PREDEFINITO
100
AcDbSpline
210
0.0
220
0.0
230
1.0
 70
    24
 71
     2
 72
     6
 73
     3
 74
     0
 42
0.0000000001
 43
0.0000000001
 40
0.0
 40
0.0
 40
0.0
 40
1.592260497781467
 40
1.592260497781467
 40
1.592260497781467
 10
718.488435399195
 20
173.5226175084168
 30
0.0
 10
718.4884353991949
 20
174.3187477573076
 30
0.0
 10
718.4884353991949
 20
175.1148780061983
 30
0.0
  0
POLYLINE
  5
A0
330
1F
100
AcDbEntity
  8
PREDEFINITO
100
AcDb2dPolyline
 66
     1
 10
0.0
 20
0.0
 30
0.0
  0
VERTEX
  5
A2
330
A0
100
AcDbEntity
  8
PREDEFINITO
100
AcDbVertex
100
AcDb2dVertex
 10
718.4884353991949
 20
175.1148780061983
 30
0.0
  0
VERTEX
  5
A3
330
A0
100
AcDbEntity
  8
PREDEFINITO
100
AcDbVertex
100
AcDb2dVertex
 10
718.488435399195
 20
178.4265964665817
 30
0.0
  0
SEQEND
  5
A1
330
A0
100
AcDbEntity
  8
PREDEFINITO
  0
SPLINE
  5
A4
330
1F
100
AcDbEntity
  8
PREDEFINITO
100
AcDbSpline
210
0.0
220
0.0
230
1.0
 70
    12
 71
     2
 72
     6
 73
     3
 74
     0
 42
0.0000000001
 43
0.0000000001
 40
0.0
 40
0.0
 40
0.0
 40
2.611139075539407
 40
2.611139075539407
 40
2.611139075539407
 10
718.488435399195
 20
178.4265964665817
 30
0.0
 41
1.0
 10
718.4608956577364
 20
179.7364219307092
 30
0.0
 41
0.9948039013609423
 10
718.7050426054852
 20
181.0484828044205
 30
0.0
 41
1.0
  0
SPLINE
  5
A5
330
1F
100
AcDbEntity
  8
PREDEFINITO
100
AcDbSpline
210
0.0
220
0.0
230
1.0
 70
    12
 71
     2
 72
     8
 73
     5
 74
     0
 42
0.0000000001
 43
0.0000000001
 40
0.0
 40
0.0
 40
0.0
 40
0.2433969749129369
 40
0.2433969749129369
 40
0.2482775933950674
 40
0.2482775933950674
 40
0.2482775933950674
 10
718.7050426054852
 20
181.0484828044205
 30
0.0
 41
1.0
 10
718.7399283634065
 20
181.191065158468
 30
0.0
 41
0.9928489282401605
 10
718.7400343542736
 20
181.3133478125299
 30
0.0
 41
1.0
 10
718.740034354256
 20
181.315788126419
 30
0.0
 41
0.9999970224765004
 10
718.740028399152
 20
181.3182284403081
 30
0.0
 41
0.9999999999756727
  0
SPLINE
  5
A6
330
1F
100
AcDbEntity
  8
PREDEFINITO
100
AcDbSpline
210
0.0
220
0.0
230
1.0
 70
    24
 71
     2
 72
     6
 73
     3
 74
     0
 42
0.0000000001
 43
0.0000000001
 40
-16.72717017066441
 40
-16.72717017066441
 40
-16.72717017066441
 40
0.0
 40
0.0
 40
0.0
 10
718.7400283991522
 20
181.3182284403081
 30
0.0
 10
718.7400313767129
 20
189.6818135302035
 30
0.0
 10
718.7400343542736
 20
198.0453986200989
 30
0.0
  0
POLYLINE
  5
A7
330
1F
100
AcDbEntity
  8
PREDEFINITO
100
AcDb2dPolyline
 66
     1
 10
0.0
 20
0.0
 30
0.0
  0
VERTEX
  5
A9
330
A7
100
AcDbEntity
  8
PREDEFINITO
100
AcDbVertex
100
AcDb2dVertex
 10
718.7400343542736
 20
198.0453986200989
 30
0.0
  0
VERTEX
  5
AA
330
A7
100
AcDbEntity
  8
PREDEFINITO
100
AcDbVertex
100
AcDb2dVertex
 10
689.6505950521018
 20
198.0453986200975
 30
0.0
  0
SEQEND
  5
A8
330
A7
100
AcDbEntity
  8
PREDEFINITO
  0
SPLINE
  5
AB
330
1F
100
AcDbEntity
  8
PREDEFINITO
100
AcDbSpline
210
0.0
220
0.0
230
1.0
 70
    24
 71
     2
 72
     6
 73
     3
 74
     0
 42
0.0000000001
 43
0.0000000001
 40
-16.7320508075691
 40
-16.7320508075691
 40
-16.7320508075691
 40
0.0
 40
0.0
 40
0.0
 10
689.6505950521018
 20
198.0453986200975
 30
0.0
 10
689.6505950521018
 20
189.6793732163137
 30
0.0
 10
689.6505950521018
 20
181.3133478125299
 30
0.0
  0
SPLINE
  5
AC
330
1F
100
AcDbEntity
  8
PREDEFINITO
100
AcDbSpline
210
0.0
220
0.0
230
1.0
 70
    12
 71
     2
 72
     6
 73
     3
 74
     0
 42
0.0000000001
 43
0.0000000001
 40
0.0
 40
0.0
 40
0.0
 40
0.243396955525348
 40
0.243396955525348
 40
0.243396955525348
 10
689.6505950521018
 20
181.3133478125299
 30
0.0
 41
1.0
 10
689.6507010429685
 20
181.1910651584208
 30
0.0
 41
0.9928489286357051
 10
689.685586798887
 20
181.0484828042775
 30
0.0
 41
1.0
  0
SPLINE
  5
AD
330
1F
100
AcDbEntity
  8
PREDEFINITO
100
AcDbSpline
210
0.0
220
0.0
230
1.0
 70
    12
 71
     2
 72
     6
 73
     3
 74
     0
 42
0.0000000001
 43
0.0000000001
 40
0.0
 40
0.0
 40
0.0
 40
2.61113907574096
 40
2.61113907574096
 40
2.61113907574096
 10
689.685586798887
 20
181.0484828042775
 30
0.0
 41
1.0
 10
689.9297337483878
 20
179.7364219309509
 30
0.0
 41
0.9948039011299349
 10
689.9021940039506
 20
178.4265964665817
 30
0.0
 41
1.0
  0
POLYLINE
  5
AE
330
1F
100
AcDbEntity
  8
PREDEFINITO
100
AcDb2dPolyline
 66
     1
 10
0.0
 20
0.0
 30
0.0
  0
VERTEX
  5
B0
330
AE
100
AcDbEntity
  8
PREDEFINITO
100
AcDbVertex
100
AcDb2dVertex
 10
689.9021940039506
 20
178.4265964665817
 30
0.0
  0
VERTEX
  5
B1
330
AE
100
AcDbEntity
  8
PREDEFINITO
100
AcDbVertex
100
AcDb2dVertex
 10
689.9021940039506
 20
175.0946649599649
 30
0.0
  0
SEQEND
  5
AF
330
AE
100
AcDbEntity
  8
PREDEFINITO
  0
SPLINE
  5
B2
330
1F
100
AcDbEntity
  8
PREDEFINITO
100
AcDbSpline
210
0.0
220
0.0
230
1.0
 70
    24
 71
     2
 72
     6
 73
     3
 74
     0
 42
0.0000000001
 43
0.0000000001
 40
0.0
 40
0.0
 40
0.0
 40
1.572047451548059
 40
1.572047451548059
 40
1.572047451548059
 10
689.9021940039506
 20
175.0946649599649
 30
0.0
 10
689.9021940039506
 20
174.3086412341908
 30
0.0
 10
689.9021940039506
 20
173.5226175084168
 30
0.0
  0
SPLINE
  5
B3
330
1F
100
AcDbEntity
  8
PREDEFINITO
100
AcDbSpline
210
0.0
220
0.0
230
1.0
 70
    12
 71
     2
 72
     6
 73
     3
 74
     0
 42
0.0000000001
 43
0.0000000001
 40
0.0
 40
0.0
 40
0.0
 40
0.6439668065668278
 40
0.6439668065668278
 40
0.6439668065668278
 10
689.9021940039506
 20
173.5226175084168
 30
0.0
 41
1.0
 10
689.9038313019705
 20
173.2002989934136
 30
0.0
 41
0.9984218783951602
 10
689.8693136947034
 20
172.8798298987302
 30
0.0
 41
1.0
  0
SPLINE
  5
B4
330
1F
100
AcDbEntity
  8
PREDEFINITO
100
AcDbSpline
210
0.0
220
0.0
230
1.0
 70
    24
 71
     2
 72
     6
 73
     3
 74
     0
 42
0.0000000001
 43
0.0000000001
 40
0.0
 40
0.0
 40
0.0
 40
6.968034816921019
 40
6.968034816921019
 40
6.968034816921019
 10
689.8693136947034
 20
172.8798298987302
 30
0.0
 10
689.4612787825963
 20
169.4197887410332
 30
0.0
 10
689.0532438704894
 20
165.9597475833361
 30
0.0
  0
SPLINE
  5
B5
330
1F
100
AcDbEntity
  8
LINEE VISIBILI 2D
100
AcDbSpline
210
0.0
220
0.0
230
1.0
 70
    24
 71
     2
 72
     6
 73
     3
 74
     0
 42
0.0000000001
 43
0.0000000001
 40
0.0
 40
0.0
 40
0.0
 40
1.097681061771084
 40
1.097681061771084
 40
1.097681061771084
 10
896.5437508154813
 20
135.6364836481226
 30
0.0
 10
896.543750815199
 20
135.0875870150052
 30
0.0
 10
896.5437508149168
 20
134.5386903818878
 30
0.0
  0
SPLINE
  5
B6
330
1F
100
AcDbEntity
  8
LINEE VISIBILI 2D
100
AcDbSpline
210
0.0
220
0.0
230
1.0
 70
    12
 71
     3
 72
    11
 73
     7
 74
     0
 42
0.0000000001
 43
0.0000000001
 40
-0.3357319722932795
 40
-0.3357319722932795
 40
-0.3357319722932795
 40
-0.3357319722932795
 40
-0.333333333333333
 40
-0.166666666666667
 40
-0.0548
 40
0.0
 40
0.0
 40
0.0
 40
0.0
 10
896.5437508149168
 20
134.5386903818878
 30
0.0
 41
1.0
 10
896.5437476684856
 20
134.2258671893441
 30
0.0
 41
1.0
 10
896.0800530788425
 20
112.1371000396196
 30
0.0
 41
1.0
 10
840.7135513442266
 20
69.95976915506992
 30
0.0
 41
1.0
 10
680.7803719772455
 20
54.25093684225544
 30
0.0
 41
1.0
 10
607.9521069521336
 20
61.41603126020712
 30
0.0
 41
1.0
 10
588.801618272227
 20
66.08863917132581
 30
0.0
 41
1.0
  0
SPLINE
  5
B7
330
1F
100
AcDbEntity
  8
LINEE VISIBILI 2D
100
AcDbSpline
210
0.0
220
0.0
230
1.0
 70
    12
 71
     3
 72
     8
 73
     4
 74
     0
 42
0.0000000001
 43
0.0000000001
 40
-1.0
 40
-1.0
 40
-1.0
 40
-1.0
 40
-0.8721383541013796
 40
-0.8721383541013796
 40
-0.8721383541013796
 40
-0.8721383541013796
 10
588.801618272227
 20
66.08863917132581
 30
0.0
 41
1.0
 10
544.1188992531077
 20
76.99096286153946
 30
0.0
 41
1.0
 10
525.5426630629303
 20
100.505575864137
 30
0.0
 41
1.0
 10
525.5426630648775
 20
122.6878201302117
 30
0.0
 41
1.0
  0
SPLINE
  5
B8
330
1F
100
AcDbEntity
  8
LINEE VISIBILI 2D
100
AcDbSpline
210
0.0
220
0.0
230
1.0
 70
    24
 71
     2
 72
     6
 73
     3
 74
     0
 42
0.0000000001
 43
0.0000000001
 40
0.0
 40
0.0
 40
0.0
 40
1.106861290281344
 40
1.106861290281344
 40
1.106861290281344
 10
525.5426630648775
 20
122.6878201302117
 30
0.0
 10
525.5426630648775
 20
123.2412507736129
 30
0.0
 10
525.5426630648775
 20
123.7946814170141
 30
0.0
  0
SPLINE
  5
B9
330
1F
100
AcDbEntity
  8
LINEE VISIBILI 2D
100
AcDbSpline
210
0.0
220
0.0
230
1.0
 70
    12
 71
     2
 72
     8
 73
     5
 74
     0
 42
0.0000000001
 43
0.0000000001
 40
0.0
 40
0.0
 40
0.0
 40
0.3103293899382771
 40
0.3103293899382771
 40
1.127188190349002
 40
1.127188190349002
 40
1.127188190349002
 10
689.1042391567772
 20
179.2160668145964
 30
0.0
 41
1.0
 10
688.9938373594717
 20
179.3282870560514
 30
0.0
 41
0.9786218810653424
 10
688.8476020341689
 20
179.3865722949546
 30
0.0
 41
1.0
 10
688.4605238572017
 20
179.5386082290139
 30
0.0
 41
0.9733916571393582
 10
688.0462722313596
 20
179.5020017976577
 30
0.0
 41
1.0
  0
SPLINE
  5
BA
330
1F
100
AcDbEntity
  8
LINEE VISIBILI 2D
100
AcDbSpline
210
0.0
220
0.0
230
1.0
 70
     8
 71
     3
 72
    13
 73
     9
 74
     0
 42
0.0000000001
 43
0.0000000001
 40
0.0
 40
0.0
 40
0.0
 40
0.0
 40
16.65468448902499
 40
32.78675644108013
 40
61.96898820322571
 40
89.09316386671573
 40
101.4062658890517
 40
111.5416149851263
 40
111.5416149851263
 40
111.5416149851263
 40
111.5416149851263
 10
688.0462722313596
 20
179.5020017976577
 30
0.0
 10
682.5120304930266
 20
179.0830646928526
 30
0.0
 10
671.6410333718616
 20
177.8233546228779
 30
0.0
 10
651.4057599247617
 20
173.6086639120126
 30
0.0
 10
628.5508055020225
 20
165.4295842925267
 30
0.0
 10
609.2320944356683
 20
152.8157126555431
 30
0.0
 10
597.7105808280763
 20
140.8719361173209
 30
0.0
 10
593.5560126693194
 20
134.6133839598255
 30
0.0
 10
592.0754016551004
 20
131.5696760861354
 30
0.0
  0
SPLINE
  5
BB
330
1F
100
AcDbEntity
  8
LINEE VISIBILI 2D
100
AcDbSpline
210
0.0
220
0.0
230
1.0
 70
    12
 71
     2
 72
     6
 73
     3
 74
     0
 42
0.0000000001
 43
0.0000000001
 40
0.0
 40
0.0
 40
0.0
 40
10.52001180202541
 40
10.52001180202541
 40
10.52001180202541
 10
592.0754016551004
 20
131.5696760861354
 30
0.0
 41
1.0
 10
589.6517701189249
 20
126.8224022196268
 30
0.0
 41
0.9803740106783451
 10
589.2516181193391
 20
121.5072844068206
 30
0.0
 41
1.0
  0
SPLINE
  5
BC
330
1F
100
AcDbEntity
  8
PREDEFINITO
100
AcDbSpline
210
0.0
220
0.0
230
1.0
 70
    12
 71
     3
 72
     8
 73
     4
 74
     0
 42
0.0000000001
 43
0.0000000001
 40
0.7496619521478586
 40
0.7496619521478586
 40
0.7496619521478586
 40
0.7496619521478586
 40
0.7546062552180507
 40
0.7546062552180507
 40
0.7546062552180507
 40
0.7546062552180507
 10
604.8888515291823
 20
102.0009458874802
 30
0.0
 41
1.0
 10
604.8374952475276
 20
101.8745058720844
 30
0.0
 41
1.0
 10
604.7863459256927
 20
101.7480329309838
 30
0.0
 41
1.0
 10
604.735404210419
 20
101.6215284463733
 30
0.0
 41
1.0
  0
SPLINE
  5
BD
330
1F
100
AcDbEntity
  8
PREDEFINITO
100
AcDbSpline
210
0.0
220
0.0
230
1.0
 70
    12
 71
     3
 72
     8
 73
     4
 74
     0
 42
0.0000000001
 43
0.0000000001
 40
0.4671195353118662
 40
0.4671195353118662
 40
0.4671195353118662
 40
0.4671195353118662
 40
1.0
 40
1.0
 40
1.0
 40
1.0
 10
604.735404210419
 20
101.6215284463733
 30
0.0
 41
1.0
 10
621.0628815132677
 20
92.40087190548805
 30
0.0
 41
1.0
 10
649.6542040586972
 20
86.99098995043006
 30
0.0
 41
1.0
 10
687.5305970421008
 20
86.11466777579406
 30
0.0
 41
1.0
  0
SPLINE
  5
BE
330
1F
100
AcDbEntity
  8
PREDEFINITO
100
AcDbSpline
210
0.0
220
0.0
230
1.0
 70
    12
 71
     2
 72
     6
 73
     3
 74
     0
 42
0.0000000001
 43
0.0000000001
 40
-16.99640663960897
 40
-16.99640663960897
 40
-16.99640663960897
 40
0.0
 40
0.0
 40
0.0
 10
687.5305970421008
 20
86.11466777579406
 30
0.0
 41
1.0
 10
696.0276708653523
 20
85.91939834183118
 30
0.0
 41
0.9998034199538842
 10
704.5258057300664
 20
86.06116410200327
 30
0.0
 41
1.0
  0
SPLINE
  5
BF
330
1F
100
AcDbEntity
  8
PREDEFINITO
100
AcDbSpline
210
0.0
220
0.0
230
1.0
 70
    12
 71
     2
 72
     6
 73
     3
 74
     0
 42
0.0000000001
 43
0.0000000001
 40
-17.95949419228296
 40
-17.95949419228296
 40
-17.95949419228296
 40
0.0
 40
0.0
 40
0.0
 10
704.5258057300664
 20
86.06116410200327
 30
0.0
 41
1.0
 10
713.5056007610459
 20
86.20879337950534
 30
0.0
 41
0.9997893391881933
 10
722.4717709085387
 20
86.72484191229293
 30
0.0
 41
1.0
  0
SPLINE
  5
C0
330
1F
100
AcDbEntity
  8
PREDEFINITO
100
AcDbSpline
210
0.0
220
0.0
230
1.0
 70
    12
 71
     3
 72
     8
 73
     4
 74
     0
 42
0.0000000001
 43
0.0000000001
 40
0.0
 40
0.0
 40
0.0
 40
0.0
 40
0.623768523059681
 40
0.623768523059681
 40
0.623768523059681
 40
0.623768523059681
 10
722.4717709085387
 20
86.72484191229293
 30
0.0
 41
1.0
 10
755.3821176235706
 20
88.62259605235158
 30
0.0
 41
1.0
 10
794.3978749952779
 20
95.38675814895434
 30
0.0
 41
1.0
 10
816.2632764592867
 20
107.1829710723347
 30
0.0
 41
1.0
  0
POLYLINE
  5
C1
330
1F
100
AcDbEntity
  8
PREDEFINITO
100
AcDb2dPolyline
 66
     1
 10
0.0
 20
0.0
 30
0.0
  0
VERTEX
  5
C3
330
C1
100
AcDbEntity
  8
PREDEFINITO
100
AcDbVertex
100
AcDb2dVertex
 10
604.735404210419
 20
101.6215284463733
 30
0.0
  0
VERTEX
  5
C4
330
C1
100
AcDbEntity
  8
PREDEFINITO
100
AcDbVertex
100
AcDb2dVertex
 10
604.8888515291823
 20
102.0009458874802
 30
0.0
  0
SEQEND
  5
C2
330
C1
100
AcDbEntity
  8
PREDEFINITO
  0
SPLINE
  5
C5
330
1F
100
AcDbEntity
  8
PREDEFINITO
100
AcDbSpline
210
0.0
220
0.0
230
1.0
 70
    12
 71
     3
 72
     8
 73
     4
 74
     0
 42
0.0000000001
 43
0.0000000001
 40
-0.7496619521478586
 40
-0.7496619521478586
 40
-0.7496619521478586
 40
-0.7496619521478586
 40
0.0
 40
0.0
 40
0.0
 40
0.0
 10
604.8888515291823
 20
102.0009458874802
 30
0.0
 41
1.0
 10
612.675560760745
 20
121.1719528879758
 30
0.0
 41
1.0
 10
625.2200768610052
 20
139.5860296563491
 30
0.0
 41
1.0
 10
640.2680989092679
 20
152.4253574987976
 30
0.0
 41
1.0
  0
SPLINE
  5
C6
330
1F
100
AcDbEntity
  8
PREDEFINITO
100
AcDbSpline
210
0.0
220
0.0
230
1.0
 70
    12
 71
     2
 72
     6
 73
     3
 74
     0
 42
0.0000000001
 43
0.0000000001
 40
0.0
 40
0.0
 40
0.0
 40
53.7177261577117
 40
53.7177261577117
 40
53.7177261577117
 10
640.2680989092679
 20
152.4253574987976
 30
0.0
 41
1.0
 10
661.1263334242412
 20
170.4450891270434
 30
0.0
 41
0.9620629161426462
 10
688.3389493744717
 20
174.8325950450904
 30
0.0
 41
1.0
  0
SPLINE
  5
C7
330
1F
100
AcDbEntity
  8
PREDEFINITO
100
AcDbSpline
210
0.0
220
0.0
230
1.0
 70
    12
 71
     2
 72
     6
 73
     3
 74
     0
 42
0.0000000001
 43
0.0000000001
 40
0.0
 40
0.0
 40
0.0
 40
0.2681551317772403
 40
0.2681551317772403
 40
0.2681551317772403
 10
688.3389493744717
 20
174.8325950450904
 30
0.0
 41
1.0
 10
688.4685390016602
 20
174.8669948461347
 30
0.0
 41
0.9999989940307171
 10
688.5982256945697
 20
174.901026882057
 30
0.0
 41
1.0
  0
SPLINE
  5
C8
330
1F
100
AcDbEntity
  8
PREDEFINITO
100
AcDbSpline
210
0.0
220
0.0
230
1.0
 70
    12
 71
     2
 72
    12
 73
     9
 74
     0
 42
0.0000000001
 43
0.0000000001
 40
-1.230692217595447
 40
-1.230692217595447
 40
-1.230692217595447
 40
-1.17694990306947
 40
-1.17694990306947
 40
-0.7980004578948174
 40
-0.7980004578948174
 40
-0.3985520031045698
 40
-0.3985520031045698
 40
0.0
 40
0.0
 40
0.0
 10
688.5982256945697
 20
174.901026882057
 30
0.0
 41
1.0
 10
688.6224288317885
 20
174.9127162884187
 30
0.0
 41
0.9996107071622775
 10
688.6459422628558
 20
174.9257375261394
 30
0.0
 41
1.0
 10
688.8131820479812
 20
175.0193656920625
 30
0.0
 41
0.9829482268958142
 10
688.9352661272085
 20
175.167118379964
 30
0.0
 41
1.0
 10
689.063432736865
 20
175.3230432951624
 30
0.0
 41
0.9843525623882492
 10
689.1295489163264
 20
175.5137470177896
 30
0.0
 41
1.0
 10
689.1952647693628
 20
175.7038420112203
 30
0.0
 41
0.9862047573749712
 10
689.1953147007887
 20
175.9049754927059
 30
0.0
 41
1.0
  0
SPLINE
  5
C9
330
1F
100
AcDbEntity
  8
PREDEFINITO
100
AcDbSpline
210
0.0
220
0.0
230
1.0
 70
    24
 71
     2
 72
     6
 73
     3
 74
     0
 42
0.0000000001
 43
0.0000000001
 40
-1.599435292909789
 40
-1.599435292909789
 40
-1.599435292909789
 40
0.0
 40
0.0
 40
0.0
 10
689.1953147007887
 20
175.9049754927059
 30
0.0
 10
689.1953147007887
 20
176.7046931391608
 30
0.0
 10
689.1953147007887
 20
177.5044107856157
 30
0.0
  0
SPLINE
  5
CA
330
1F
100
AcDbEntity
  8
PREDEFINITO
100
AcDbSpline
210
0.0
220
0.0
230
1.0
 70
    24
 71
     2
 72
     6
 73
     3
 74
     0
 42
0.0000000001
 43
0.0000000001
 40
-3.464101614919628
 40
-3.464101614919628
 40
-3.464101614919628
 40
0.0
 40
0.0
 40
0.0
 10
689.1953147007887
 20
177.5044107856157
 30
0.0
 10
689.1953147007904
 20
179.2364615930755
 30
0.0
 10
689.1953147007921
 20
180.9685124005354
 30
0.0
  0
SPLINE
  5
CB
330
1F
100
AcDbEntity
  8
PREDEFINITO
100
AcDbSpline
210
0.0
220
0.0
230
1.0
 70
    24
 71
     2
 72
     6
 73
     3
 74
     0
 42
0.0000000001
 43
0.0000000001
 40
-0.6371502106559319
 40
-0.6371502106559319
 40
-0.6371502106559319
 40
0.0
 40
0.0
 40
0.0
 10
689.1953147007921
 20
180.9685124005354
 30
0.0
 10
689.195314700793
 20
181.2870875058633
 30
0.0
 10
689.195314700794
 20
181.6056626111913
 30
0.0
  0
SPLINE
  5
CC
330
1F
100
AcDbEntity
  8
PREDEFINITO
100
AcDbSpline
210
0.0
220
0.0
230
1.0
 70
    12
 71
     2
 72
     8
 73
     5
 74
     0
 42
0.0000000001
 43
0.0000000001
 40
-1.360397218947208
 40
-1.360397218947208
 40
-1.360397218947208
 40
-0.8168588004109786
 40
-0.8168588004109786
 40
0.0
 40
0.0
 40
0.0
 10
689.195314700794
 20
181.6056626111913
 30
0.0
 41
1.0
 10
689.143588902063
 20
181.9072081031831
 30
0.0
 41
0.840545065364773
 10
688.8476020341714
 20
181.984648506272
 30
0.0
 41
1.0
 10
688.4605238572045
 20
182.1366844403302
 30
0.0
 41
0.9733916571420491
 10
688.0462722313622
 20
182.1000780089829
 30
0.0
 41
1.0
  0
SPLINE
  5
CD
330
1F
100
AcDbEntity
  8
PREDEFINITO
100
AcDbSpline
210
0.0
220
0.0
230
1.0
 70
     8
 71
     3
 72
    12
 73
     8
 74
     0
 42
0.0000000001
 43
0.0000000001
 40
-111.5416149849994
 40
-111.5416149849994
 40
-111.5416149849994
 40
-111.5416149849994
 40
-78.75485854392142
 40
-49.57262678177606
 40
-22.44845111828588
 40
-10.1353490959501
 40
0.0
 40
0.0
 40
0.0
 40
0.0
 10
688.0462722313622
 20
182.1000780089829
 30
0.0
 10
677.1490948857466
 20
181.2774358047404
 30
0.0
 10
656.6592828018407
 20
178.088269967152
 30
0.0
 10
628.5513967501721
 20
168.0271366826514
 30
0.0
 10
609.2317752499981
 20
155.4140716521066
 30
0.0
 10
597.7107723444512
 20
143.4698426532014
 30
0.0
 10
593.5559061275202
 20
137.2115545628874
 30
0.0
 10
592.0754016551028
 20
134.1677522976319
 30
0.0
  0
SPLINE
  5
CE
330
1F
100
AcDbEntity
  8
PREDEFINITO
100
AcDbSpline
210
0.0
220
0.0
230
1.0
 70
    12
 71
     3
 72
     8
 73
     4
 74
     0
 42
0.0000000001
 43
0.0000000001
 40
0.0
 40
0.0
 40
0.0
 40
0.0
 40
0.4671195353118662
 40
0.4671195353118662
 40
0.4671195353118662
 40
0.4671195353118662
 10
592.0754016551028
 20
134.1677522976319
 30
0.0
 41
1.0
 10
585.534020521847
 20
120.7153236463922
 30
0.0
 41
1.0
 10
590.4228442351058
 20
109.7042957536142
 30
0.0
 41
1.0
 10
604.735404210419
 20
101.6215284463733
 30
0.0
 41
1.0
  0
SPLINE
  5
CF
330
1F
100
AcDbEntity
  8
LINEE VISIBILI 2D
100
AcDbSpline
210
0.0
220
0.0
230
1.0
 70
     8
 71
     3
 72
    13
 73
     9
 74
     0
 42
0.0000000001
 43
0.0000000001
 40
-125.8479499491816
 40
-125.8479499491816
 40
-125.8479499491816
 40
-125.8479499491816
 40
-116.1678353555134
 40
-103.9549392041978
 40
-73.19417024194088
 40
-37.3643469130059
 40
-18.99944345735985
 40
0.0
 40
0.0
 40
0.0
 40
0.0
 10
832.0072770221689
 20
134.0562755591757
 30
0.0
 10
830.7686431573647
 20
137.0446509038348
 30
0.0
 10
826.6154723148898
 20
143.1339380111619
 30
0.0
 10
813.4318852769426
 20
154.8635107669493
 30
0.0
 10
790.1656424073559
 20
167.4652006784966
 30
0.0
 10
763.0491324117583
 20
175.9204618089971
 30
0.0
 10
739.0377645185051
 20
180.3917168206944
 30
0.0
 10
726.650357745895
 20
181.7266532385897
 30
0.0
 10
720.3302181279677
 20
182.1566805941761
 30
0.0
  0
SPLINE
  5
D0
330
1F
100
AcDbEntity
  8
LINEE VISIBILI 2D
100
AcDbSpline
210
0.0
220
0.0
230
1.0
 70
    12
 71
     2
 72
     8
 73
     5
 74
     0
 42
0.0000000001
 43
0.0000000001
 40
-1.346225270922525
 40
-1.346225270922525
 40
-1.346225270922525
 40
-0.5376565449404688
 40
-0.5376565449404688
 40
0.0
 40
0.0
 40
0.0
 10
720.3302181279677
 20
182.1566805941761
 30
0.0
 41
1.0
 10
719.9199981549104
 20
182.1902136201672
 30
0.0
 41
0.9735928933707203
 10
719.5376306684407
 20
182.037898173091
 30
0.0
 41
1.0
 10
719.2456317542348
 20
181.9594010982709
 30
0.0
 41
0.8416338691229655
 10
719.1953147007941
 20
181.6612512185363
 30
0.0
 41
1.0
  0
SPLINE
  5
D1
330
1F
100
AcDbEntity
  8
LINEE VISIBILI 2D
100
AcDbSpline
210
0.0
220
0.0
230
1.0
 70
    24
 71
     2
 72
     6
 73
     3
 74
     0
 42
0.0000000001
 43
0.0000000001
 40
-0.6927388180232583
 40
-0.6927388180232583
 40
-0.6927388180232583
 40
0.0
 40
0.0
 40
0.0
 10
719.1953147007941
 20
181.6612512185363
 30
0.0
 10
719.1953147007931
 20
181.3148818095247
 30
0.0
 10
719.1953147007921
 20
180.9685124005131
 30
0.0
  0
SPLINE
  5
D2
330
1F
100
AcDbEntity
  8
LINEE VISIBILI 2D
100
AcDbSpline
210
0.0
220
0.0
230
1.0
 70
    24
 71
     2
 72
     6
 73
     3
 74
     0
 42
0.0000000001
 43
0.0000000001
 40
-3.464101614905871
 40
-3.464101614905871
 40
-3.464101614905871
 40
0.0
 40
0.0
 40
0.0
 10
719.1953147007921
 20
180.9685124005131
 30
0.0
 10
719.1953147007904
 20
179.2364615930601
 30
0.0
 10
719.1953147007887
 20
177.5044107856072
 30
0.0
  0
SPLINE
  5
D3
330
1F
100
AcDbEntity
  8
LINEE VISIBILI 2D
100
AcDbSpline
210
0.0
220
0.0
230
1.0
 70
    24
 71
     2
 72
     6
 73
     3
 74
     0
 42
0.0000000001
 43
0.0000000001
 40
-1.47347857743307
 40
-1.47347857743307
 40
-1.47347857743307
 40
0.0
 40
0.0
 40
0.0
 10
719.1953147007887
 20
177.5044107856072
 30
0.0
 10
719.1953147007887
 20
176.7676714968907
 30
0.0
 10
719.1953147007887
 20
176.0309322081741
 30
0.0
  0
SPLINE
  5
D4
330
1F
100
AcDbEntity
  8
LINEE VISIBILI 2D
100
AcDbSpline
210
0.0
220
0.0
230
1.0
 70
    12
 71
     2
 72
    14
 73
    11
 74
     0
 42
0.0000000001
 43
0.0000000001
 40
-1.21162428492864
 40
-1.21162428492864
 40
-1.21162428492864
 40
-1.042195653674964
 40
-1.042195653674964
 40
-0.6749591163117583
 40
-0.6749591163117583
 40
-0.3375081447768081
 40
-0.3375081447768081
 40
-0.0159361698904097
 40
-0.0159361698904097
 40
0.0
 40
0.0
 40
0.0
 10
719.1953147007887
 20
176.0309322081741
 30
0.0
 41
1.0
 10
719.1953161611398
 20
175.9460772023844
 30
0.0
 41
0.9975148443765783
 10
719.2072450852365
 20
175.8620648653166
 30
0.0
 41
1.0
 10
719.2332259437654
 20
175.6787731816671
 30
0.0
 41
0.987845138920219
 10
719.3142408698425
 20
175.5123176979554
 30
0.0
 41
1.0
 10
719.3888393465029
 20
175.3594857110248
 30
0.0
 41
0.9882156816673812
 10
719.5061781437314
 20
175.2363834949028
 30
0.0
 41
1.0
 10
719.6182784365756
 20
175.1192127021206
 30
0.0
 41
0.9873496346375756
 10
719.761428900356
 20
175.0430325534178
 30
0.0
 41
1.0
 10
719.7684751788408
 20
175.0393118803724
 30
0.0
 41
0.999963728093966
 10
719.775583812063
 20
175.0357117717483
 30
0.0
 41
1.0
  0
SPLINE
  5
D5
330
1F
100
AcDbEntity
  8
LINEE VISIBILI 2D
100
AcDbSpline
210
0.0
220
0.0
230
1.0
 70
     8
 71
     2
 72
     6
 73
     3
 74
     0
 42
0.0000000001
 43
0.0000000001
 40
0.0
 40
0.0
 40
0.0
 40
1.0
 40
1.0
 40
1.0
 10
719.775583812063
 20
175.0357117717483
 30
0.0
 10
720.0518333193739
 20
174.8958074888058
 30
0.0
 10
720.5530619198275
 20
174.8208952094064
 30
0.0
  0
SPLINE
  5
D6
330
1F
100
AcDbEntity
  8
LINEE VISIBILI 2D
100
AcDbSpline
210
0.0
220
0.0
230
1.0
 70
    12
 71
     3
 72
    12
 73
     8
 74
     0
 42
0.0000000001
 43
0.0000000001
 40
-0.8153573732809469
 40
-0.8153573732809469
 40
-0.8153573732809469
 40
-0.8153573732809469
 40
-0.4742808976741835
 40
-0.4742808976741835
 40
-0.2353747492889928
 40
-0.2353747492889928
 40
-0.1105654754823476
 40
-0.1105654754823476
 40
-0.1105654754823476
 40
-0.1105654754823476
 10
720.5530619198275
 20
174.8208952094064
 30
0.0
 41
1.0
 10
740.0242249620001
 20
171.8667139096568
 30
0.0
 41
1.0
 10
758.7089340195795
 20
163.8965872400684
 30
0.0
 41
1.0
 10
785.895381524134
 20
145.0628973314116
 30
0.0
 41
1.0
 10
795.4846796918115
 20
136.1703757171724
 30
0.0
 41
1.0
 10
808.4557300719299
 20
119.9723218948102
 30
0.0
 41
1.0
 10
812.7043739802359
 20
113.7566299696422
 30
0.0
 41
1.0
 10
816.2632764592864
 20
107.1829710723345
 30
0.0
 41
1.0
  0
SPLINE
  5
D7
330
1F
100
AcDbEntity
  8
LINEE VISIBILI 2D
100
AcDbSpline
210
0.0
220
0.0
230
1.0
 70
    12
 71
     3
 72
     8
 73
     4
 74
     0
 42
0.0000000001
 43
0.0000000001
 40
0.623768523059681
 40
0.623768523059681
 40
0.623768523059681
 40
0.623768523059681
 40
1.0
 40
1.0
 40
1.0
 40
1.0
 10
816.2632764592867
 20
107.1829710723347
 30
0.0
 41
1.0
 10
829.451585876288
 20
114.2979607622541
 30
0.0
 41
1.0
 10
836.4005864842625
 20
123.2436132803945
 30
0.0
 41
1.0
 10
832.0072770221689
 20
134.0562755591757
 30
0.0
 41
1.0
  0
SPLINE
  5
D8
330
1F
100
AcDbEntity
  8
LINEE VISIBILI 2D
100
AcDbSpline
210
0.0
220
0.0
230
1.0
 70
    24
 71
     2
 72
     6
 73
     3
 74
     0
 42
0.0000000001
 43
0.0000000001
 40
0.0
 40
0.0
 40
0.0
 40
17.40692846968895
 40
17.40692846968895
 40
17.40692846968895
 10
648.9779363634525
 20
201.3406427472492
 30
0.0
 10
649.1297614296294
 20
210.043020683674
 30
0.0
 10
649.2815864958063
 20
218.7453986200987
 30
0.0
  0
SPLINE
  5
D9
330
1F
100
AcDbEntity
  8
LINEE VISIBILI 2D
100
AcDbSpline
210
0.0
220
0.0
230
1.0
 70
    28
 71
     2
 72
     8
 73
     5
 74
     0
 42
0.0000000001
 43
0.0000000001
 40
-261.6006702654836
 40
-261.6006702654836
 40
-261.6006702654836
 40
-259.6717599020965
 40
-259.6717599020965
 40
-172.6025040926903
 40
-172.6025040926903
 40
-172.6025040926903
 10
649.2815864958064
 20
218.7453986200987
 30
0.0
 41
0.9873101320807617
 10
649.2542754674402
 20
218.7453986200987
 30
0.0
 41
0.9935113174003489
 10
649.2542754674403
 20
218.7453986200987
 30
0.0
 41
1.0
 10
649.2542754674404
 20
218.7453986200987
 30
0.0
 41
0.7071067811865476
 10
704.1953589002218
 20
218.7453986200987
 30
0.0
 41
1.0
  0
SPLINE
  5
DA
330
1F
100
AcDbEntity
  8
LINEE VISIBILI 2D
100
AcDbSpline
210
0.0
220
0.0
230
1.0
 70
    24
 71
     2
 72
     6
 73
     3
 74
     0
 42
0.0000000001
 43
0.0000000001
 40
0.0
 40
0.0
 40
0.0
 40
54.88646137604951
 40
54.88646137604951
 40
54.88646137604951
 10
704.1953589002218
 20
218.7453986200987
 30
0.0
 10
731.6522451024296
 20
218.7453986200987
 30
0.0
 10
759.1091313046372
 20
218.7453986200987
 30
0.0
  0
SPLINE
  5
DB
330
1F
100
AcDbEntity
  8
LINEE VISIBILI 2D
100
AcDbSpline
210
0.0
220
0.0
230
1.0
 70
    24
 71
     2
 72
     6
 73
     3
 74
     0
 42
0.0000000001
 43
0.0000000001
 40
0.0
 40
0.0
 40
0.0
 40
17.40692846968895
 40
17.40692846968895
 40
17.40692846968895
 10
759.1091313046372
 20
218.7453986200987
 30
0.0
 10
759.2472295275693
 20
210.0427807591332
 30
0.0
 10
759.3853277505015
 20
201.3401628981677
 30
0.0
  0
SPLINE
  5
DC
330
1F
100
AcDbEntity
  8
LINEE VISIBILI 2D
100
AcDbSpline
210
0.0
220
0.0
230
1.0
 70
    24
 71
     2
 72
     6
 73
     3
 74
     0
 42
0.0000000001
 43
0.0000000001
 40
-55.18996885027968
 40
-55.18996885027968
 40
-55.18996885027968
 40
0.0
 40
0.0
 40
0.0
 10
759.3853277505015
 20
201.3401628981677
 30
0.0
 10
731.7903433253616
 20
201.3401628981677
 30
0.0
 10
704.1953589002218
 20
201.3401628981677
 30
0.0
  0
SPLINE
  5
DD
330
1F
100
AcDbEntity
  8
LINEE VISIBILI 2D
100
AcDbSpline
210
0.0
220
0.0
230
1.0
 70
    12
 71
     2
 72
     8
 73
     5
 74
     0
 42
0.0000000001
 43
0.0000000001
 40
-86.83339902592465
 40
-86.83339902592465
 40
-86.83339902592465
 40
-0.0274791035616838
 40
-0.0274791035616838
 40
0.0
 40
0.0
 40
0.0
 10
704.1953589002218
 20
201.3401628981677
 30
0.0
 41
1.0
 10
648.9504659478231
 20
201.3401628981677
 30
0.0
 41
0.7071067811865476
 10
648.950465947823
 20
201.3401641845704
 30
0.0
 41
1.0
 10
648.9642011556377
 20
201.3401641845704
 30
0.0
 41
1.0
 10
648.9779363634525
 20
201.3406427472492
 30
0.0
 41
1.0
  0
POLYLINE
  5
DE
330
1F
100
AcDbEntity
  8
PREDEFINITO
100
AcDb2dPolyline
 66
     1
 10
0.0
 20
0.0
 30
0.0
  0
VERTEX
  5
E0
330
DE
100
AcDbEntity
  8
PREDEFINITO
100
AcDbVertex
100
AcDb2dVertex
 10
620.9320685700505
 20
198.0453986200961
 30
0.0
  0
VERTEX
  5
E1
330
DE
100
AcDbEntity
  8
PREDEFINITO
100
AcDbVertex
100
AcDb2dVertex
 10
788.8780743115083
 20
198.0453986200961
 30
0.0
  0
VERTEX
  5
E2
330
DE
100
AcDbEntity
  8
PREDEFINITO
100
AcDbVertex
100
AcDb2dVertex
 10
788.8780743115083
 20
201.045236018216
 30
0.0
  0
VERTEX
  5
E3
330
DE
100
AcDbEntity
  8
PREDEFINITO
100
AcDbVertex
100
AcDb2dVertex
 10
620.9320685700505
 20
201.045236018216
 30
0.0
  0
VERTEX
  5
E4
330
DE
100
AcDbEntity
  8
PREDEFINITO
100
AcDbVertex
100
AcDb2dVertex
 10
620.9320685700505
 20
198.0453986200961
 30
0.0
  0
SEQEND
  5
DF
330
DE
100
AcDbEntity
  8
PREDEFINITO
  0
POLYLINE
  5
E5
330
1F
100
AcDbEntity
  8
PREDEFINITO
100
AcDb2dPolyline
 66
     1
 10
0.0
 20
0.0
 30
0.0
  0
VERTEX
  5
E7
330
E5
100
AcDbEntity
  8
PREDEFINITO
100
AcDbVertex
100
AcDb2dVertex
 10
644.9261143892169
 20
448.2441963212409
 30
0.0
  0
VERTEX
  5
E8
330
E5
100
AcDbEntity
  8
PREDEFINITO
100
AcDbVertex
100
AcDb2dVertex
 10
780.9261153517997
 20
448.2441963212408
 30
0.0
  0
VERTEX
  5
E9
330
E5
100
AcDbEntity
  8
PREDEFINITO
100
AcDbVertex
100
AcDb2dVertex
 10
780.9261143892169
 20
451.0113554487147
 30
0.0
  0
VERTEX
  5
EA
330
E5
100
AcDbEntity
  8
PREDEFINITO
100
AcDbVertex
100
AcDb2dVertex
 10
644.926114389217
 20
451.0113554487147
 30
0.0
  0
VERTEX
  5
EB
330
E5
100
AcDbEntity
  8
PREDEFINITO
100
AcDbVertex
100
AcDb2dVertex
 10
644.9261143892169
 20
448.2441963212409
 30
0.0
  0
SEQEND
  5
E6
330
E5
100
AcDbEntity
  8
PREDEFINITO
  0
POLYLINE
  5
EC
330
1F
100
AcDbEntity
  8
PREDEFINITO
100
AcDb2dPolyline
 66
     1
 10
0.0
 20
0.0
 30
0.0
  0
VERTEX
  5
EE
330
EC
100
AcDbEntity
  8
PREDEFINITO
100
AcDbVertex
100
AcDb2dVertex
 10
717.5685940015015
 20
451.037370174848
 30
0.0
  0
VERTEX
  5
EF
330
EC
100
AcDbEntity
  8
PREDEFINITO
100
AcDbVertex
100
AcDb2dVertex
 10
717.5899659026053
 20
451.0113554487147
 30
0.0
  0
VERTEX
  5
F0
330
EC
100
AcDbEntity
  8
PREDEFINITO
100
AcDbVertex
100
AcDb2dVertex
 10
690.80370028011
 20
451.0113554487147
 30
0.0
  0
VERTEX
  5
F1
330
EC
100
AcDbEntity
  8
PREDEFINITO
100
AcDbVertex
100
AcDb2dVertex
 10
690.8221868182098
 20
451.0373701676083
 30
0.0
  0
SEQEND
  5
ED
330
EC
100
AcDbEntity
  8
PREDEFINITO
  0
SPLINE
  5
F2
330
1F
100
AcDbEntity
  8
PREDEFINITO
100
AcDbSpline
210
0.0
220
0.0
230
1.0
 70
     8
 71
     3
 72
    11
 73
     7
 74
     0
 42
0.0000000001
 43
0.0000000001
 40
0.0
 40
0.0
 40
0.0
 40
0.0
 40
0.9718168507839127
 40
2.0410990648581
 40
4.518054939262256
 40
11.17245913390505
 40
11.17245913390505
 40
11.17245913390505
 40
11.17245913390505
 10
690.8221868182098
 20
451.0373701676083
 30
0.0
 10
691.0242861883162
 20
451.2915574384884
 30
0.0
 10
691.510974934191
 20
451.7683904952152
 30
0.0
 10
692.7602816110328
 20
452.6263325746148
 30
0.0
 10
695.9724072837988
 20
453.8176077053677
 30
0.0
 10
699.0457946912715
 20
454.0359856579267
 30
0.0
 10
701.2588746442883
 20
454.0368842176019
 30
0.0
  0
SPLINE
  5
F3
330
1F
100
AcDbEntity
  8
PREDEFINITO
100
AcDbSpline
210
0.0
220
0.0
230
1.0
 70
    12
 71
     2
 72
     6
 73
     3
 74
     0
 42
0.0000000001
 43
0.0000000001
 40
0.0
 40
0.0
 40
0.0
 40
0.4865526316721225
 40
0.4865526316721225
 40
0.4865526316721225
 10
701.2588746442883
 20
454.0368842176019
 30
0.0
 41
1.0
 10
701.5021625461652
 20
454.0374886835992
 30
0.0
 41
0.9999988961624425
 10
701.745439012165
 20
454.0373701818527
 30
0.0
 41
1.0
  0
SPLINE
  5
F4
330
1F
100
AcDbEntity
  8
PREDEFINITO
100
AcDbSpline
210
0.0
220
0.0
230
1.0
 70
    24
 71
     2
 72
     6
 73
     3
 74
     0
 42
0.0000000001
 43
0.0000000001
 40
-4.899751377247185
 40
-4.899751377247185
 40
-4.899751377247185
 40
0.0
 40
0.0
 40
0.0
 10
701.745439012165
 20
454.0373701818527
 30
0.0
 10
704.1953147007886
 20
454.0373701818527
 30
0.0
 10
706.6451903894122
 20
454.0373701818527
 30
0.0
  0
SPLINE
  5
F5
330
1F
100
AcDbEntity
  8
PREDEFINITO
100
AcDbSpline
210
0.0
220
0.0
230
1.0
 70
    12
 71
     2
 72
     6
 73
     3
 74
     0
 42
0.0000000001
 43
0.0000000001
 40
-0.4865326288655443
 40
-0.4865326288655443
 40
-0.4865326288655443
 40
0.0
 40
0.0
 40
0.0
 10
706.6451903894122
 20
454.0373701818527
 30
0.0
 41
1.0
 10
706.8884568539785
 20
454.0374886693643
 30
0.0
 41
0.9999988963386823
 10
707.1317447577532
 20
454.036884247078
 30
0.0
 41
1.0
  0
SPLINE
  5
F6
330
1F
100
AcDbEntity
  8
PREDEFINITO
100
AcDbSpline
210
0.0
220
0.0
230
1.0
 70
     8
 71
     3
 72
    11
 73
     7
 74
     0
 42
0.0000000001
 43
0.0000000001
 40
0.0
 40
0.0
 40
0.0
 40
0.0
 40
1.915431171876014
 40
3.589762802975888
 40
6.703306035527833
 40
11.17260800974371
 40
11.17260800974371
 40
11.17260800974371
 40
11.17260800974371
 10
707.1317447577532
 20
454.036884247078
 30
0.0
 10
707.7739796446916
 20
454.0346072559761
 30
0.0
 10
708.9585317916275
 20
454.0163966718819
 30
0.0
 10
711.2078768991831
 20
453.8252093852938
 30
0.0
 10
714.2126058110259
 20
453.2841618388157
 30
0.0
 10
716.609605174768
 20
452.2046894306894
 30
0.0
 10
717.5685940015015
 20
451.037370174848
 30
0.0
  0
POLYLINE
  5
F7
330
1F
100
AcDbEntity
  8
PREDEFINITO
100
AcDb2dPolyline
 66
     1
 10
0.0
 20
0.0
 30
0.0
  0
VERTEX
  5
F9
330
F7
100
AcDbEntity
  8
PREDEFINITO
100
AcDbVertex
100
AcDb2dVertex
 10
595.2127152415001
 20
445.2947520808652
 30
0.0
  0
VERTEX
  5
FA
330
F7
100
AcDbEntity
  8
PREDEFINITO
100
AcDbVertex
100
AcDb2dVertex
 10
596.6074417418209
 20
448.2231611885965
 30
0.0
  0
VERTEX
  5
FB
330
F7
100
AcDbEntity
  8
PREDEFINITO
100
AcDbVertex
100
AcDb2dVertex
 10
596.6174602385056
 20
448.2441963212409
 30
0.0
  0
VERTEX
  5
FC
330
F7
100
AcDbEntity
  8
PREDEFINITO
100
AcDbVertex
100
AcDb2dVertex
 10
825.990977932471
 20
448.2441963212409
 30
0.0
  0
VERTEX
  5
FD
330
F7
100
AcDbEntity
  8
PREDEFINITO
100
AcDbVertex
100
AcDb2dVertex
 10
827.2851740550418
 20
445.2849685907449
 30
0.0
  0
VERTEX
  5
FE
330
F7
100
AcDbEntity
  8
PREDEFINITO
100
AcDbVertex
100
AcDb2dVertex
 10
595.2127152415001
 20
445.2947520808652
 30
0.0
  0
SEQEND
  5
F8
330
F7
100
AcDbEntity
  8
PREDEFINITO
  0
SPLINE
  5
FF
330
1F
100
AcDbEntity
  8
PREDEFINITO
100
AcDbSpline
210
0.0
220
0.0
230
1.0
 70
    12
 71
     2
 72
     6
 73
     3
 74
     0
 42
0.0000000001
 43
0.0000000001
 40
-5.050610362716918
 40
-5.050610362716918
 40
-5.050610362716918
 40
0.0
 40
0.0
 40
0.0
 10
171.2921348632606
 20
453.1294890539928
 30
0.0
 41
1.0
 10
168.89311280398
 20
452.263679587982
 30
0.0
 41
0.9852755235495634
 10
166.9267164830992
 20
450.6394587878714
 30
0.0
 41
1.0
  0
POLYLINE
  5
100
330
1F
100
AcDbEntity
  8
PREDEFINITO
100
AcDb2dPolyline
 66
     1
 10
0.0
 20
0.0
 30
0.0
  0
VERTEX
  5
102
330
100
100
AcDbEntity
  8
PREDEFINITO
100
AcDbVertex
100
AcDb2dVertex
 10
166.9267164830992
 20
450.6394587878714
 30
0.0
  0
VERTEX
  5
103
330
100
100
AcDbEntity
  8
PREDEFINITO
100
AcDbVertex
100
AcDb2dVertex
 10
166.5974068291424
 20
450.3642794803672
 30
0.0
  0
SEQEND
  5
101
330
100
100
AcDbEntity
  8
PREDEFINITO
  0
SPLINE
  5
104
330
1F
100
AcDbEntity
  8
PREDEFINITO
100
AcDbSpline
210
0.0
220
0.0
230
1.0
 70
    24
 71
     2
 72
     6
 73
     3
 74
     0
 42
0.0000000001
 43
0.0000000001
 40
0.254518714064313
 40
0.254518714064313
 40
0.254518714064313
 40
0.9893135099993888
 40
0.9893135099993888
 40
0.9893135099993888
 10
166.5974068291424
 20
450.3642794803672
 30
0.0
 10
166.3159640940131
 20
450.1281209851226
 30
0.0
 10
166.0345213588836
 20
449.891962489878
 30
0.0
  0
SPLINE
  5
105
330
1F
100
AcDbEntity
  8
PREDEFINITO
100
AcDbSpline
210
0.0
220
0.0
230
1.0
 70
    24
 71
     2
 72
     6
 73
     3
 74
     0
 42
0.0000000001
 43
0.0000000001
 40
0.0
 40
0.0
 40
0.0
 40
2.484281927503398
 40
2.484281927503398
 40
2.484281927503398
 10
166.0345213588836
 20
449.891962489878
 30
0.0
 10
165.0829861760312
 20
449.0935296688943
 30
0.0
 10
164.1314509931788
 20
448.2950968479106
 30
0.0
  0
POLYLINE
  5
106
330
1F
100
AcDbEntity
  8
PREDEFINITO
100
AcDb2dPolyline
 66
     1
 10
0.0
 20
0.0
 30
0.0
  0
VERTEX
  5
108
330
106
100
AcDbEntity
  8
PREDEFINITO
100
AcDbVertex
100
AcDb2dVertex
 10
164.1314509931788
 20
448.2950968479106
 30
0.0
  0
VERTEX
  5
109
330
106
100
AcDbEntity
  8
PREDEFINITO
100
AcDbVertex
100
AcDb2dVertex
 10
164.0678190734865
 20
448.2417033275657
 30
0.0
  0
VERTEX
  5
10A
330
106
100
AcDbEntity
  8
PREDEFINITO
100
AcDbVertex
100
AcDb2dVertex
 10
164.1314509931788
 20
448.2417033275657
 30
0.0
  0
SEQEND
  5
107
330
106
100
AcDbEntity
  8
PREDEFINITO
  0
POLYLINE
  5
10B
330
1F
100
AcDbEntity
  8
PREDEFINITO
100
AcDb2dPolyline
 66
     1
 10
0.0
 20
0.0
 30
0.0
  0
VERTEX
  5
10D
330
10B
100
AcDbEntity
  8
PREDEFINITO
100
AcDbVertex
100
AcDb2dVertex
 10
164.1314509931788
 20
448.2417033275657
 30
0.0
  0
VERTEX
  5
10E
330
10B
100
AcDbEntity
  8
PREDEFINITO
100
AcDbVertex
100
AcDb2dVertex
 10
176.3805370104556
 20
448.2417033275657
 30
0.0
  0
VERTEX
  5
10F
330
10B
100
AcDbEntity
  8
PREDEFINITO
100
AcDbVertex
100
AcDb2dVertex
 10
173.2345166893586
 20
453.6907703622921
 30
0.0
  0
SEQEND
  5
10C
330
10B
100
AcDbEntity
  8
PREDEFINITO
  0
SPLINE
  5
110
330
1F
100
AcDbEntity
  8
PREDEFINITO
100
AcDbSpline
210
0.0
220
0.0
230
1.0
 70
    12
 71
     2
 72
     6
 73
     3
 74
     0
 42
0.0000000001
 43
0.0000000001
 40
-2.023295106655373
 40
-2.023295106655373
 40
-2.023295106655373
 40
0.0
 40
0.0
 40
0.0
 10
173.2345166893586
 20
453.6907703622921
 30
0.0
 41
1.0
 10
172.2445187057644
 20
453.4752541027357
 30
0.0
 41
0.997725816132
 10
171.2921348632606
 20
453.1294890539928
 30
0.0
 41
1.0
  0
POLYLINE
  5
111
330
1F
100
AcDbEntity
  8
PREDEFINITO
100
AcDb2dPolyline
 66
     1
 10
0.0
 20
0.0
 30
0.0
  0
VERTEX
  5
113
330
111
100
AcDbEntity
  8
PREDEFINITO
100
AcDbVertex
100
AcDb2dVertex
 10
180.4538325758663
 20
447.1865484540068
 30
0.0
  0
VERTEX
  5
114
330
111
100
AcDbEntity
  8
PREDEFINITO
100
AcDbVertex
100
AcDb2dVertex
 10
176.498508807194
 20
454.0373701818527
 30
0.0
  0
VERTEX
  5
115
330
111
100
AcDbEntity
  8
PREDEFINITO
100
AcDbVertex
100
AcDb2dVertex
 10
198.0453986201077
 20
454.0373701818527
 30
0.0
  0
VERTEX
  5
116
330
111
100
AcDbEntity
  8
PREDEFINITO
100
AcDbVertex
100
AcDb2dVertex
 10
198.0453986201075
 20
443.0373701818527
 30
0.0
  0
SEQEND
  5
112
330
111
100
AcDbEntity
  8
PREDEFINITO
  0
SPLINE
  5
117
330
1F
100
AcDbEntity
  8
PREDEFINITO
100
AcDbSpline
210
0.0
220
0.0
230
1.0
 70
    24
 71
     2
 72
     6
 73
     3
 74
     0
 42
0.0000000001
 43
0.0000000001
 40
-14.42264973081032
 40
-14.42264973081032
 40
-14.42264973081032
 40
0.0
 40
0.0
 40
0.0
 10
198.0453986201075
 20
443.0373701818527
 30
0.0
 10
190.8340737547023
 20
443.0373701818527
 30
0.0
 10
183.6227488892972
 20
443.0373701818527
 30
0.0
  0
SPLINE
  5
118
330
1F
100
AcDbEntity
  8
PREDEFINITO
100
AcDbSpline
210
0.0
220
0.0
230
1.0
 70
    12
 71
     2
 72
     6
 73
     3
 74
     0
 42
0.0000000001
 43
0.0000000001
 40
-1.047204045285805
 40
-1.047204045285805
 40
-1.047204045285805
 40
0.0
 40
0.0
 40
0.0
 10
183.6227488892972
 20
443.0373701818527
 30
0.0
 41
1.0
 10
183.045386994699
 20
443.0373500460544
 30
0.0
 41
0.8660079654960738
 10
182.7567234855127
 20
443.5373701818527
 30
0.0
 41
1.0
  0
SPLINE
  5
119
330
1F
100
AcDbEntity
  8
PREDEFINITO
100
AcDbSpline
210
0.0
220
0.0
230
1.0
 70
    24
 71
     2
 72
     6
 73
     3
 74
     0
 42
0.0000000001
 43
0.0000000001
 40
-3.36886110948234
 40
-3.36886110948234
 40
-3.36886110948234
 40
0.0
 40
0.0
 40
0.0
 10
182.7567234855127
 20
443.5373701818527
 30
0.0
 10
181.902603144971
 20
445.0167500075867
 30
0.0
 10
181.0484828044293
 20
446.4961298333208
 30
0.0
  0
SPLINE
  5
11A
330
1F
100
AcDbEntity
  8
PREDEFINITO
100
AcDbSpline
210
0.0
220
0.0
230
1.0
 70
    12
 71
     2
 72
     6
 73
     3
 74
     0
 42
0.0000000001
 43
0.0000000001
 40
-0.6083468388598497
 40
-0.6083468388598497
 40
-0.6083468388598497
 40
0.0
 40
0.0
 40
0.0
 10
181.0484828044293
 20
446.4961298333208
 30
0.0
 41
1.0
 10
180.872062657537
 20
446.8016984912428
 30
0.0
 41
0.9948643202825611
 10
180.6693451120062
 20
447.0298757690142
 30
0.0
 41
1.0
  0
SPLINE
  5
11B
330
1F
100
AcDbEntity
  8
PREDEFINITO
100
AcDbSpline
210
0.0
220
0.0
230
1.0
 70
     8
 71
     2
 72
     6
 73
     3
 74
     0
 42
0.0000000001
 43
0.0000000001
 40
0.0
 40
0.0
 40
0.0
 40
1.0
 40
1.0
 40
1.0
 10
180.6693451120062
 20
447.0298757690142
 30
0.0
 10
180.588053273064
 20
447.1213772247283
 30
0.0
 10
180.4538325758663
 20
447.1865484540068
 30
0.0
  0
POLYLINE
  5
11C
330
1F
100
AcDbEntity
  8
PREDEFINITO
100
AcDb2dPolyline
 66
     1
 10
0.0
 20
0.0
 30
0.0
  0
VERTEX
  5
11E
330
11C
100
AcDbEntity
  8
PREDEFINITO
100
AcDbVertex
100
AcDb2dVertex
 10
177.3800370107184
 20
445.2950968477218
 30
0.0
  0
VERTEX
  5
11F
330
11C
100
AcDbEntity
  8
PREDEFINITO
100
AcDbVertex
100
AcDb2dVertex
 10
0.0006825636679719
 20
445.2950650678349
 30
0.0
  0
SEQEND
  5
11D
330
11C
100
AcDbEntity
  8
PREDEFINITO
  0
POLYLINE
  5
120
330
1F
100
AcDbEntity
  8
PREDEFINITO
100
AcDb2dPolyline
 66
     1
 10
0.0
 20
0.0
 30
0.0
  0
VERTEX
  5
122
330
120
100
AcDbEntity
  8
PREDEFINITO
100
AcDbVertex
100
AcDb2dVertex
 10
0.0006825636679719
 20
445.2950650678349
 30
0.0
  0
VERTEX
  5
123
330
120
100
AcDbEntity
  8
PREDEFINITO
100
AcDbVertex
100
AcDb2dVertex
 10
1.308674370124699
 20
448.2417033275657
 30
0.0
  0
SEQEND
  5
121
330
120
100
AcDbEntity
  8
PREDEFINITO
  0
POLYLINE
  5
124
330
1F
100
AcDbEntity
  8
PREDEFINITO
100
AcDb2dPolyline
 66
     1
 10
0.0
 20
0.0
 30
0.0
  0
VERTEX
  5
126
330
124
100
AcDbEntity
  8
PREDEFINITO
100
AcDbVertex
100
AcDb2dVertex
 10
1.308674370124699
 20
448.2417033275657
 30
0.0
  0
VERTEX
  5
127
330
124
100
AcDbEntity
  8
PREDEFINITO
100
AcDbVertex
100
AcDb2dVertex
 10
176.3805370104556
 20
448.2417033275657
 30
0.0
  0
VERTEX
  5
128
330
124
100
AcDbEntity
  8
PREDEFINITO
100
AcDbVertex
100
AcDb2dVertex
 10
178.3704361892146
 20
444.7950968479029
 30
0.0
  0
SEQEND
  5
125
330
124
100
AcDbEntity
  8
PREDEFINITO
  0
SPLINE
  5
129
330
1F
100
AcDbEntity
  8
PREDEFINITO
100
AcDbSpline
210
0.0
220
0.0
230
1.0
 70
    12
 71
     2
 72
     6
 73
     3
 74
     0
 42
0.0000000001
 43
0.0000000001
 40
-1.047197551046031
 40
-1.047197551046031
 40
-1.047197551046031
 40
0.0
 40
0.0
 40
0.0
 10
178.3704361892146
 20
444.7950968479029
 30
0.0
 41
1.0
 10
178.0817610547977
 20
445.2950968480063
 30
0.0
 41
0.8660254036033511
 10
177.5044107856075
 20
445.2950968477937
 30
0.0
 41
1.0
  0
SPLINE
  5
12A
330
1F
100
AcDbEntity
  8
PREDEFINITO
100
AcDbSpline
210
0.0
220
0.0
230
1.0
 70
    24
 71
     2
 72
     6
 73
     3
 74
     0
 42
0.0000000001
 43
0.0000000001
 40
-0.1243737748891363
 40
-0.1243737748891363
 40
-0.1243737748891363
 40
0.0
 40
0.0
 40
0.0
 10
177.5044107856075
 20
445.2950968477937
 30
0.0
 10
177.4422238981629
 20
445.2950968477577
 30
0.0
 10
177.3800370107184
 20
445.2950968477218
 30
0.0
  0
SPLINE
  5
12B
330
1F
100
AcDbEntity
  8
LINEE VISIBILI 2D
100
AcDbSpline
210
0.0
220
0.0
230
1.0
 70
    12
 71
     2
 72
     8
 73
     5
 74
     0
 42
0.0000000001
 43
0.0000000001
 40
0.0352730902083246
 40
0.0352730902083246
 40
0.0352730902083246
 40
9.303201125304428
 40
9.303201125304428
 40
18.51757984913915
 40
18.51757984913915
 40
18.51757984913915
 10
73.85268774106085
 20
448.2638317400354
 30
0.0
 41
0.9996396699438101
 10
77.75500235368874
 20
451.0373701811587
 30
0.0
 41
0.9524818641572396
 10
82.54254606840482
 20
451.0373701811587
 30
0.0
 41
1.0
 10
87.30029820666941
 20
451.0373701811587
 30
0.0
 41
0.953200340387054
 10
91.18824655748142
 20
448.2950968485787
 30
0.0
 41
1.0
  0
POLYLINE
  5
12C
330
1F
100
AcDbEntity
  8
PREDEFINITO
100
AcDb2dPolyline
 66
     1
 10
0.0
 20
0.0
 30
0.0
  0
VERTEX
  5
12E
330
12C
100
AcDbEntity
  8
PREDEFINITO
100
AcDbVertex
100
AcDb2dVertex
 10
0.0006825636679788
 20
445.2950650678349
 30
0.0
  0
VERTEX
  5
12F
330
12C
100
AcDbEntity
  8
PREDEFINITO
100
AcDbVertex
100
AcDb2dVertex
 10
177.4047885207873
 20
445.2950968477577
 30
0.0
  0
SEQEND
  5
12D
330
12C
100
AcDbEntity
  8
PREDEFINITO
  0
POLYLINE
  5
130
330
1F
100
AcDbEntity
  8
PREDEFINITO
100
AcDb2dPolyline
 66
     1
 10
0.0
 20
0.0
 30
0.0
  0
VERTEX
  5
132
330
130
100
AcDbEntity
  8
PREDEFINITO
100
AcDbVertex
100
AcDb2dVertex
 10
177.4047885207873
 20
445.2950968477577
 30
0.0
  0
VERTEX
  5
133
330
130
100
AcDbEntity
  8
PREDEFINITO
100
AcDbVertex
100
AcDb2dVertex
 10
177.3483555357166
 20
445.2333033405098
 30
0.0
  0
SEQEND
  5
131
330
130
100
AcDbEntity
  8
PREDEFINITO
  0
SPLINE
  5
134
330
1F
100
AcDbEntity
  8
PREDEFINITO
100
AcDbSpline
210
0.0
220
0.0
230
1.0
 70
     8
 71
     3
 72
    12
 73
     8
 74
     0
 42
0.0000000001
 43
0.0000000001
 40
0.0
 40
0.0
 40
0.0
 40
0.0
 40
15.02679748850531
 40
28.57296948242579
 40
52.30083999527374
 40
76.20422805706056
 40
104.0734059265958
 40
104.0734059265958
 40
104.0734059265958
 40
104.0734059265958
 10
177.3483555357166
 20
445.2333033405098
 30
0.0
 10
173.9779075979368
 20
441.5426993646417
 30
0.0
 10
167.2932549105268
 20
434.7055933535187
 30
0.0
 10
154.1799939277678
 20
423.2660278819494
 30
0.0
 10
136.7504189741918
 20
412.2817539091819
 30
0.0
 10
112.2986825869816
 20
405.4554296586982
 30
0.0
 10
95.00626623164504
 20
404.5605007141532
 30
0.0
 10
85.71593377592484
 20
404.595275032435
 30
0.0
  0
SPLINE
  5
135
330
1F
100
AcDbEntity
  8
PREDEFINITO
100
AcDbSpline
210
0.0
220
0.0
230
1.0
 70
    12
 71
     2
 72
     6
 73
     3
 74
     0
 42
0.0000000001
 43
0.0000000001
 40
0.0
 40
0.0
 40
0.0
 40
0.3010318999464417
 40
0.3010318999464417
 40
0.3010318999464417
 10
85.71593377592484
 20
404.595275032435
 30
0.0
 41
0.9999999999999987
 10
85.56541791129179
 20
404.5951000225737
 30
0.0
 41
0.9999998306506953
 10
85.36840588772739
 20
404.5950968477217
 30
0.0
 41
1.0
  0
SPLINE
  5
136
330
1F
100
AcDbEntity
  8
PREDEFINITO
100
AcDbSpline
210
0.0
220
0.0
230
1.0
 70
    24
 71
     2
 72
     6
 73
     3
 74
     0
 42
0.0000000001
 43
0.0000000001
 40
0.0
 40
0.0
 40
0.0
 40
0.9064904495928516
 40
0.9064904495928516
 40
0.9064904495928516
 10
85.36840588772739
 20
404.5950968477217
 30
0.0
 10
84.89178772900362
 20
404.5950968477207
 30
0.0
 10
84.41516957027986
 20
404.5950968477197
 30
0.0
  0
SPLINE
  5
137
330
1F
100
AcDbEntity
  8
PREDEFINITO
100
AcDbSpline
210
0.0
220
0.0
230
1.0
 70
     8
 71
     3
 72
    11
 73
     7
 74
     0
 42
0.0000000001
 43
0.0000000001
 40
0.0
 40
0.0
 40
0.0
 40
0.0
 40
10.97112564715322
 40
22.25178204630655
 40
45.63392054441646
 40
96.21600256369807
 40
96.21600256369807
 40
96.21600256369807
 40
96.21600256369807
 10
84.41516957027986
 20
404.5950968477197
 30
0.0
 10
80.75884186344223
 20
404.5931953436313
 30
0.0
 10
73.33891615153524
 20
405.063542990104
 30
0.0
 10
58.35616191169948
 20
407.7767291696568
 30
0.0
 10
31.49326532298133
 20
417.6544526739172
 30
0.0
 10
11.7149769840194
 20
433.0885568066591
 30
0.0
 10
0.0440444343669232
 20
445.2491975247441
 30
0.0
  0
POLYLINE
  5
138
330
1F
100
AcDbEntity
  8
PREDEFINITO
100
AcDb2dPolyline
 66
     1
 10
0.0
 20
0.0
 30
0.0
  0
VERTEX
  5
13A
330
138
100
AcDbEntity
  8
PREDEFINITO
100
AcDbVertex
100
AcDb2dVertex
 10
0.0440444343669232
 20
445.2491975247441
 30
0.0
  0
VERTEX
  5
13B
330
138
100
AcDbEntity
  8
PREDEFINITO
100
AcDbVertex
100
AcDb2dVertex
 10
0.0006825636679788
 20
445.2950650678349
 30
0.0
  0
SEQEND
  5
139
330
138
100
AcDbEntity
  8
PREDEFINITO
  0
SPLINE
  5
13C
330
1F
100
AcDbEntity
  8
LINEE VISIBILI 2D
100
AcDbSpline
210
0.0
220
0.0
230
1.0
 70
    24
 71
     2
 72
     6
 73
     3
 74
     0
 42
0.0000000001
 43
0.0000000001
 40
-7.526073015761004
 40
-7.526073015761004
 40
-7.526073015761004
 40
0.0
 40
0.0
 40
0.0
 10
201.3401628981765
 20
428.5865028605066
 30
0.0
 10
205.1161677947931
 20
428.6528923644757
 30
0.0
 10
208.8921726914097
 20
428.7192818684449
 30
0.0
  0
SPLINE
  5
13D
330
1F
100
AcDbEntity
  8
LINEE VISIBILI 2D
100
AcDbSpline
210
0.0
220
0.0
230
1.0
 70
     8
 71
     3
 72
     9
 73
     5
 74
     0
 42
0.0000000001
 43
0.0000000001
 40
0.0
 40
0.0
 40
0.0
 40
0.0
 40
0.0471372463437083
 40
4.360944274430922
 40
4.360944274430922
 40
4.360944274430922
 40
4.360944274430922
 10
208.8921726914097
 20
428.7192818684449
 30
0.0
 10
208.8386474078012
 20
428.7159505862667
 30
0.0
 10
210.2771751246179
 20
428.7989406091401
 30
0.0
 10
211.7383757548504
 20
428.8257766222944
 30
0.0
 10
213.1953810528649
 20
428.7944023756104
 30
0.0
  0
SPLINE
  5
13E
330
1F
100
AcDbEntity
  8
LINEE VISIBILI 2D
100
AcDbSpline
210
0.0
220
0.0
230
1.0
 70
    24
 71
     2
 72
     6
 73
     3
 74
     0
 42
0.0000000001
 43
0.0000000001
 40
-5.526519824986633
 40
-5.526519824986633
 40
-5.526519824986633
 40
0.0
 40
0.0
 40
0.0
 10
213.1953810528649
 20
428.7944023756104
 30
0.0
 10
215.9703898364862
 20
428.8560128920502
 30
0.0
 10
218.7453986201076
 20
428.9176234084899
 30
0.0
  0
SPLINE
  5
13F
330
1F
100
AcDbEntity
  8
LINEE VISIBILI 2D
100
AcDbSpline
210
0.0
220
0.0
230
1.0
 70
    24
 71
     2
 72
     6
 73
     3
 74
     0
 42
0.0000000001
 43
0.0000000001
 40
-109.8275448088309
 40
-109.8275448088309
 40
-109.8275448088309
 40
0.0
 40
0.0
 40
0.0
 10
218.7453986201076
 20
428.9176234084899
 30
0.0
 10
218.7453986201076
 20
483.8450513270884
 30
0.0
 10
218.7453986201076
 20
538.7724792456869
 30
0.0
  0
SPLINE
  5
140
330
1F
100
AcDbEntity
  8
LINEE VISIBILI 2D
100
AcDbSpline
210
0.0
220
0.0
230
1.0
 70
    24
 71
     2
 72
     6
 73
     3
 74
     0
 42
0.0000000001
 43
0.0000000001
 40
0.0
 40
0.0
 40
0.0
 40
17.40692846968904
 40
17.40692846968904
 40
17.40692846968904
 10
218.7453986201076
 20
538.7724792456869
 30
0.0
 10
210.042780759142
 20
538.8969219544359
 30
0.0
 10
201.3401628981765
 20
539.021364663185
 30
0.0
  0
SPLINE
  5
141
330
1F
100
AcDbEntity
  8
LINEE VISIBILI 2D
100
AcDbSpline
210
0.0
220
0.0
230
1.0
 70
    24
 71
     2
 72
     6
 73
     3
 74
     0
 42
0.0000000001
 43
0.0000000001
 40
0.0
 40
0.0
 40
0.0
 40
110.4348618026784
 40
110.4348618026784
 40
110.4348618026784
 10
201.3401628981765
 20
539.021364663185
 30
0.0
 10
201.3401628981765
 20
483.8039337618458
 30
0.0
 10
201.3401628981765
 20
428.5865028605066
 30
0.0
  0
SPLINE
  5
142
330
1F
100
AcDbEntity
  8
LINEE VISIBILI 2D
100
AcDbSpline
210
0.0
220
0.0
230
1.0
 70
    24
 71
     2
 72
     6
 73
     3
 74
     0
 42
0.0000000001
 43
0.0000000001
 40
-3.000000000000216
 40
-3.000000000000216
 40
-3.000000000000216
 40
0.0
 40
0.0
 40
0.0
 10
60.67709376591415
 20
654.645945641404
 30
0.0
 10
59.40182712644875
 20
653.8547722541548
 30
0.0
 10
58.12656048698334
 20
653.0635988669056
 30
0.0
  0
SPLINE
  5
143
330
1F
100
AcDbEntity
  8
LINEE VISIBILI 2D
100
AcDbSpline
210
0.0
220
0.0
230
1.0
 70
    28
 71
     3
 72
    10
 73
     6
 74
     0
 42
0.0000000001
 43
0.0000000001
 40
0.0617916666666667
 40
0.0617916666666667
 40
0.0617916666666667
 40
0.0617916666666667
 40
0.166666666666667
 40
0.333333333333333
 40
0.5
 40
0.5
 40
0.5
 40
0.5
 10
58.12656048698334
 20
653.0635988669056
 30
0.0
 41
1.0
 10
57.51053243506378
 20
654.1305907517363
 30
0.0
 41
1.0
 10
71.00945330468711
 20
630.7497739577874
 30
0.0
 41
1.0
 10
136.7992518829431
 20
516.7985001985332
 30
0.0
 41
1.0
 10
174.04049642701
 20
452.294772509985
 30
0.0
 41
1.0
 10
184.8698186162655
 20
433.5378362662312
 30
0.0
 41
1.0
  0
SPLINE
  5
144
330
1F
100
AcDbEntity
  8
LINEE VISIBILI 2D
100
AcDbSpline
210
0.0
220
0.0
230
1.0
 70
    24
 71
     2
 72
     6
 73
     3
 74
     0
 42
0.0000000001
 43
0.0000000001
 40
0.0
 40
0.0
 40
0.0
 40
21.32691067050587
 40
21.32691067050587
 40
21.32691067050587
 10
184.8698186162655
 20
433.5378362662312
 30
0.0
 10
190.2030739896608
 20
424.3003669896596
 30
0.0
 10
195.5363293630561
 20
415.0628977130879
 30
0.0
  0
SPLINE
  5
145
330
1F
100
AcDbEntity
  8
LINEE VISIBILI 2D
100
AcDbSpline
210
0.0
220
0.0
230
1.0
 70
    24
 71
     2
 72
     6
 73
     3
 74
     0
 42
0.0000000001
 43
0.0000000001
 40
-3.000000000000188
 40
-3.000000000000188
 40
-3.000000000000188
 40
0.0
 40
0.0
 40
0.0
 10
195.5363293630561
 20
415.0628977130879
 30
0.0
 10
196.8350721469631
 20
415.8134092253988
 30
0.0
 10
198.13381493087
 20
416.5639207377097
 30
0.0
  0
SPLINE
  5
146
330
1F
100
AcDbEntity
  8
LINEE VISIBILI 2D
100
AcDbSpline
210
0.0
220
0.0
230
1.0
 70
    28
 71
     3
 72
     8
 73
     4
 74
     0
 42
0.0000000001
 43
0.0000000001
 40
-0.6093750000000002
 40
-0.6093750000000002
 40
-0.6093750000000002
 40
-0.6093750000000002
 40
-0.5
 40
-0.5
 40
-0.5
 40
-0.5
 10
198.13381493087
 20
416.5639207377097
 30
0.0
 41
1.0
 10
198.2711941026645
 20
416.3259730322527
 30
0.0
 41
1.0
 10
194.522941600903
 20
422.8181368050078
 30
0.0
 41
1.0
 10
187.4678948276628
 20
435.0378362662303
 30
0.0
 41
1.0
  0
SPLINE
  5
147
330
1F
100
AcDbEntity
  8
LINEE VISIBILI 2D
100
AcDbSpline
210
0.0
220
0.0
230
1.0
 70
    24
 71
     2
 72
     6
 73
     3
 74
     0
 42
0.0000000001
 43
0.0000000001
 40
0.0
 40
0.0
 40
0.0
 40
253.5785159128044
 40
253.5785159128044
 40
253.5785159128044
 10
187.4678948276628
 20
435.0378362662303
 30
0.0
 10
124.0724942967885
 20
544.8418909538171
 30
0.0
 10
60.67709376591415
 20
654.645945641404
 30
0.0
  0
SPLINE
  5
148
330
1F
100
AcDbEntity
  8
LINEE VISIBILI 2D
100
AcDbSpline
210
0.0
220
0.0
230
1.0
 70
    24
 71
     2
 72
     6
 73
     3
 74
     0
 42
0.0000000001
 43
0.0000000001
 40
0.0
 40
0.0
 40
0.0
 40
3.000423483437683
 40
3.000423483437683
 40
3.000423483437683
 10
198.0453986201119
 20
547.7452270537179
 30
0.0
 10
199.5453902461301
 20
547.7714093192537
 30
0.0
 10
201.0453818721483
 20
547.7975915847894
 30
0.0
  0
SPLINE
  5
149
330
1F
100
AcDbEntity
  8
LINEE VISIBILI 2D
100
AcDbSpline
210
0.0
220
0.0
230
1.0
 70
    24
 71
     2
 72
     6
 73
     3
 74
     0
 42
0.0000000001
 43
0.0000000001
 40
-0.6949732254627179
 40
-0.6949732254627179
 40
-0.6949732254627179
 40
0.0
 40
0.0
 40
0.0
 10
201.0453818721483
 20
547.7975915847894
 30
0.0
 10
201.0453902461369
 20
547.4496252272572
 30
0.0
 10
201.0453986201256
 20
547.1016588697249
 30
0.0
  0
SPLINE
  5
14A
330
1F
100
AcDbEntity
  8
LINEE VISIBILI 2D
100
AcDbSpline
210
0.0
220
0.0
230
1.0
 70
    24
 71
     2
 72
     6
 73
     3
 74
     0
 42
0.0000000001
 43
0.0000000001
 40
-31.48343121997129
 40
-31.48343121997129
 40
-31.48343121997129
 40
0.0
 40
0.0
 40
0.0
 10
201.0453986201256
 20
547.1016588697249
 30
0.0
 10
201.0453986201211
 20
531.3599432597393
 30
0.0
 10
201.0453986201166
 20
515.6182276497536
 30
0.0
  0
SPLINE
  5
14B
330
1F
100
AcDbEntity
  8
LINEE VISIBILI 2D
100
AcDbSpline
210
0.0
220
0.0
230
1.0
 70
    24
 71
     2
 72
     6
 73
     3
 74
     0
 42
0.0000000001
 43
0.0000000001
 40
-93.82146377189088
 40
-93.82146377189088
 40
-93.82146377189088
 40
0.0
 40
0.0
 40
0.0
 10
201.0453986201166
 20
515.6182276497536
 30
0.0
 10
201.0453974481962
 20
468.707428624797
 30
0.0
 10
201.0453962762759
 20
421.7966295998403
 30
0.0
  0
SPLINE
  5
14C
330
1F
100
AcDbEntity
  8
LINEE VISIBILI 2D
100
AcDbSpline
210
0.0
220
0.0
230
1.0
 70
    24
 71
     2
 72
     6
 73
     3
 74
     0
 42
0.0000000001
 43
0.0000000001
 40
0.0
 40
0.0
 40
0.0
 40
3.000452295776963
 40
3.000452295776963
 40
3.000452295776963
 10
201.0453962762759
 20
421.7966295998403
 30
0.0
 10
199.5453974481917
 20
421.8558849839351
 30
0.0
 10
198.0453986201076
 20
421.9151403680298
 30
0.0
  0
SPLINE
  5
14D
330
1F
100
AcDbEntity
  8
LINEE VISIBILI 2D
100
AcDbSpline
210
0.0
220
0.0
230
1.0
 70
    24
 71
     3
 72
     9
 73
     5
 74
     0
 42
0.0000000001
 43
0.0000000001
 40
0.0
 40
0.0
 40
0.0
 40
0.0
 40
0.0662725869332235
 40
93.80005143447647
 40
93.80005143447647
 40
93.80005143447647
 40
93.80005143447647
 10
198.0453986201076
 20
421.9151403680298
 30
0.0
 10
198.0453986201079
 20
421.8105227234831
 30
0.0
 10
198.0453986201074
 20
453.0627462914899
 30
0.0
 10
198.0453986201078
 20
484.3421426670504
 30
0.0
 10
198.0453986201077
 20
515.5826466286398
 30
0.0
  0
SPLINE
  5
14E
330
1F
100
AcDbEntity
  8
LINEE VISIBILI 2D
100
AcDbSpline
210
0.0
220
0.0
230
1.0
 70
    24
 71
     2
 72
     6
 73
     3
 74
     0
 42
0.0000000001
 43
0.0000000001
 40
0.0
 40
0.0
 40
0.0
 40
31.46691223400182
 40
31.46691223400182
 40
31.46691223400182
 10
198.0453986201077
 20
515.5826466286398
 30
0.0
 10
198.0453986201076
 20
531.3161027456408
 30
0.0
 10
198.0453986201076
 20
547.0495588626417
 30
0.0
  0
SPLINE
  5
14F
330
1F
100
AcDbEntity
  8
LINEE VISIBILI 2D
100
AcDbSpline
210
0.0
220
0.0
230
1.0
 70
    24
 71
     2
 72
     6
 73
     3
 74
     0
 42
0.0000000001
 43
0.0000000001
 40
0.0
 40
0.0
 40
0.0
 40
0.6947087997344852
 40
0.6947087997344852
 40
0.6947087997344852
 10
198.0453986201076
 20
547.0495588626417
 30
0.0
 10
198.0453986201097
 20
547.3973929581798
 30
0.0
 10
198.0453986201119
 20
547.7452270537179
 30
0.0
  0
SPLINE
  5
150
330
1F
100
AcDbEntity
  8
LINEE VISIBILI 2D
100
AcDbSpline
210
0.0
220
0.0
230
1.0
 70
     8
 71
     3
 72
    12
 73
     8
 74
     0
 42
0.0000000001
 43
0.0000000001
 40
0.0
 40
0.0
 40
0.0
 40
0.0
 40
15.15271812543074
 40
31.18870654078564
 40
62.57667843588383
 40
94.15818831038295
 40
132.9424590972816
 40
132.9424590972816
 40
132.9424590972816
 40
132.9424590972816
 10
827.2851740550418
 20
445.2849685907449
 30
0.0
 10
823.7067702769215
 20
441.7321300490651
 30
0.0
 10
815.8815216384114
 20
434.8258554483398
 30
0.0
 10
798.6257140142899
 20
423.0872846443389
 30
0.0
 10
774.5124008466044
 20
412.0239969047
 30
0.0
 10
741.1309613523928
 20
405.1301755411333
 30
0.0
 10
717.6146262134241
 20
404.567256196917
 30
0.0
 10
704.6935300677912
 20
404.5950968478547
 30
0.0
  0
SPLINE
  5
151
330
1F
100
AcDbEntity
  8
LINEE VISIBILI 2D
100
AcDbSpline
210
0.0
220
0.0
230
1.0
 70
    24
 71
     2
 72
     6
 73
     3
 74
     0
 42
0.0000000001
 43
0.0000000001
 40
0.0
 40
0.0
 40
0.0
 40
0.4740747517677164
 40
0.4740747517677164
 40
0.4740747517677164
 10
704.6935300677912
 20
404.5950968478547
 30
0.0
 10
704.4554927141755
 20
404.5950977365653
 30
0.0
 10
704.2174553605598
 20
404.5950986252758
 30
0.0
  0
SPLINE
  5
152
330
1F
100
AcDbEntity
  8
LINEE VISIBILI 2D
100
AcDbSpline
210
0.0
220
0.0
230
1.0
 70
    12
 71
     2
 72
     6
 73
     3
 74
     0
 42
0.0000000001
 43
0.0000000001
 40
0.0
 40
0.0
 40
0.0
 40
0.5214561200610888
 40
0.5214561200610888
 40
0.5214561200610888
 10
704.2174553605598
 20
404.5950986252758
 30
0.0
 41
1.0
 10
703.9567273005293
 20
404.5951004028313
 30
0.0
 41
1.0
 10
703.6952722126975
 20
404.5950986260765
 30
0.0
 41
1.0
  0
SPLINE
  5
153
330
1F
100
AcDbEntity
  8
LINEE VISIBILI 2D
100
AcDbSpline
210
0.0
220
0.0
230
1.0
 70
     8
 71
     3
 72
    12
 73
     8
 74
     0
 42
0.0000000001
 43
0.0000000001
 40
0.0
 40
0.0
 40
0.0
 40
0.0
 40
15.59304454601773
 40
30.81259592249452
 40
61.27130077431208
 40
91.2628038470348
 40
118.7348183841138
 40
118.7348183841138
 40
118.7348183841138
 40
118.7348183841138
 10
703.6952722126975
 20
404.5950986260765
 30
0.0
 10
698.4964892843977
 20
404.5944074294271
 30
0.0
 10
688.2260274301452
 20
404.9817530966827
 30
0.0
 10
667.9445625737891
 20
407.6157642472098
 30
0.0
 10
643.537771851781
 20
414.359205375326
 30
0.0
 10
616.991851007021
 20
427.0815463716123
 30
0.0
 10
601.7257009193698
 20
438.8585127336947
 30
0.0
 10
595.2127152415001
 20
445.2947520808652
 30
0.0
  0
SPLINE
  5
154
330
1F
100
AcDbEntity
  8
LINEE VISIBILI 2D
100
AcDbSpline
210
0.0
220
0.0
230
1.0
 70
    12
 71
     2
 72
     6
 73
     3
 74
     0
 42
0.0000000001
 43
0.0000000001
 40
0.0
 40
0.0
 40
0.0
 40
232.062112315246
 40
232.062112315246
 40
232.062112315246
 10
595.2127152415001
 20
445.2947520808652
 30
0.0
 41
1.0
 10
711.2440251161286
 20
445.2949218762002
 30
0.0
 41
1.0
 10
827.2851740550418
 20
445.2849685907449
 30
0.0
 41
1.0
  0
SPLINE
  5
155
330
1F
100
AcDbEntity
  8
LINEE VISIBILI 2D
100
AcDbSpline
210
0.0
220
0.0
230
1.0
 70
     8
 71
     3
 72
    12
 73
     8
 74
     0
 42
0.0000000001
 43
0.0000000001
 40
0.0
 40
0.0
 40
0.0
 40
0.0
 40
16.00334082221847
 40
31.28878486930705
 40
61.5854589723053
 40
91.01880635014498
 40
116.2303579268018
 40
116.2303579268018
 40
116.2303579268018
 40
116.2303579268018
 10
750.2652566246904
 20
451.0373701811587
 30
0.0
 10
755.3201287806207
 20
452.7473742973965
 30
0.0
 10
765.0109416998399
 20
456.6303929697355
 30
0.0
 10
783.21809423354
 20
466.1826522162315
 30
0.0
 10
803.3699779557878
 20
481.2121744028755
 30
0.0
 10
822.0173235147295
 20
502.7742151386349
 30
0.0
 10
830.0614925133898
 20
519.342465266493
 30
0.0
 10
832.0072770221688
 20
527.5494745543563
 30
0.0
  0
SPLINE
  5
156
330
1F
100
AcDbEntity
  8
LINEE VISIBILI 2D
100
AcDbSpline
210
0.0
220
0.0
230
1.0
 70
    12
 71
     2
 72
     6
 73
     3
 74
     0
 42
0.0000000001
 43
0.0000000001
 40
0.0
 40
0.0
 40
0.0
 40
9.16842183126778
 40
9.16842183126778
 40
9.16842183126778
 10
832.0072770221688
 20
527.5494745543563
 30
0.0
 41
1.0
 10
833.0701251881937
 20
532.0226083768141
 30
0.0
 41
0.9956146173760997
 10
833.2811204189366
 20
536.6154346777145
 30
0.0
 41
1.0
  0
SPLINE
  5
157
330
1F
100
AcDbEntity
  8
LINEE VISIBILI 2D
100
AcDbSpline
210
0.0
220
0.0
230
1.0
 70
    12
 71
     2
 72
     6
 73
     3
 74
     0
 42
0.0000000001
 43
0.0000000001
 40
0.0
 40
0.0
 40
0.0
 40
13.7725976241775
 40
13.7725976241775
 40
13.7725976241775
 10
589.5018695847264
 20
540.8675612516683
 30
0.0
 41
1.0
 10
590.1801468916957
 20
533.996074687542
 30
0.0
 41
0.9959680385958751
 10
592.0754016551027
 20
527.3563911794297
 30
0.0
 41
1.0
  0
SPLINE
  5
158
330
1F
100
AcDbEntity
  8
LINEE VISIBILI 2D
100
AcDbSpline
210
0.0
220
0.0
230
1.0
 70
    12
 71
     3
 72
    13
 73
     9
 74
     0
 42
0.0000000001
 43
0.0000000001
 40
-1.0
 40
-1.0
 40
-1.0
 40
-1.0
 40
-0.862098163848576
 40
-0.724196327697152
 40
-0.5862944915457281
 40
-0.448392655394305
 40
-0.310490819242881
 40
-0.1976583399335452
 40
-0.1976583399335452
 40
-0.1976583399335452
 40
-0.1976583399335452
 10
592.0754016551027
 20
527.3563911794297
 30
0.0
 41
1.0
 10
593.6514827322669
 20
521.7424168106368
 30
0.0
 41
1.0
 10
597.8645245965898
 20
510.8408361332488
 30
0.0
 41
1.0
 10
606.5786408164752
 20
495.4573253036826
 30
0.0
 41
1.0
 10
617.509370454218
 20
481.1075483248931
 30
0.0
 41
1.0
 10
630.8744102873245
 20
468.2118722797024
 30
0.0
 41
1.0
 10
645.723090095773
 20
458.0429745497331
 30
0.0
 41
1.0
 10
656.4804352110107
 20
452.9726163375747
 30
0.0
 41
1.0
 10
661.5034948347918
 20
451.0373701811587
 30
0.0
 41
1.0
  0
SPLINE
  5
159
330
1F
100
AcDbEntity
  8
LINEE VISIBILI 2D
100
AcDbSpline
210
0.0
220
0.0
230
1.0
 70
     8
 71
     3
 72
    12
 73
     8
 74
     0
 42
0.0000000001
 43
0.0000000001
 40
0.0
 40
0.0
 40
0.0
 40
0.0
 40
7.541941999012083
 40
14.47340771133703
 40
27.16244520348119
 40
40.27371522522254
 40
54.63694287031537
 40
54.63694287031537
 40
54.63694287031537
 40
54.63694287031537
 10
781.2646327088024
 20
465.6866556514956
 30
0.0
 10
782.6284568703975
 20
467.7976706949786
 30
0.0
 10
784.9769564103802
 20
472.0270930937526
 30
0.0
 10
788.3384871230496
 20
480.4494923617013
 30
0.0
 10
789.6332913475998
 20
491.4924650918057
 30
0.0
 10
785.7963412367785
 20
504.5870926592501
 30
0.0
 10
780.3429566900344
 20
512.0679123661729
 30
0.0
 10
777.0954609460675
 20
515.5826466286398
 30
0.0
  0
SPLINE
  5
15A
330
1F
100
AcDbEntity
  8
LINEE VISIBILI 2D
100
AcDbSpline
210
0.0
220
0.0
230
1.0
 70
     8
 71
     3
 72
    11
 73
     7
 74
     0
 42
0.0000000001
 43
0.0000000001
 40
0.0
 40
0.0
 40
0.0
 40
0.0
 40
8.516284697546107
 40
17.55735504760533
 40
37.82325503329628
 40
81.21716009114989
 40
81.21716009114989
 40
81.21716009114989
 40
81.21716009114989
 10
777.0954609460675
 20
515.5826466286398
 30
0.0
 10
775.1654566632152
 20
517.6675123117916
 30
0.0
 10
770.8865509550769
 20
521.6685742415839
 30
0.0
 10
760.7198586502819
 20
529.1735287871513
 30
0.0
 10
739.1295380771401
 20
540.3794021773588
 30
0.0
 10
718.2970968672907
 20
545.5534560526794
 30
0.0
 10
703.9175217114678
 20
547.0495588626417
 30
0.0
  0
SPLINE
  5
15B
330
1F
100
AcDbEntity
  8
LINEE VISIBILI 2D
100
AcDbSpline
210
0.0
220
0.0
230
1.0
 70
     8
 71
     3
 72
    15
 73
    11
 74
     0
 42
0.0000000001
 43
0.0000000001
 40
0.0
 40
0.0
 40
0.0
 40
0.0
 40
20.85952363798502
 40
40.99476323966806
 40
58.40544961151119
 40
73.99628834137748
 40
87.79562100863507
 40
101.6170956004003
 40
117.5668588011472
 40
134.7499438581884
 40
134.7499438581884
 40
134.7499438581884
 40
134.7499438581884
 10
703.9175217114678
 20
547.0495588626417
 30
0.0
 10
696.9975554058175
 20
547.7496334822158
 30
0.0
 10
683.3032292202305
 20
548.1150562742154
 30
0.0
 10
663.9312315656676
 20
545.4706622160985
 30
0.0
 10
647.0975632060973
 20
539.6547431001084
 30
0.0
 10
633.9236679483835
 20
530.9990198152612
 30
0.0
 10
624.9252145321374
 20
519.4502875966339
 30
0.0
 10
620.7119580497049
 20
505.3180477455008
 30
0.0
 10
620.89795248786
 20
489.5387260007988
 30
0.0
 10
623.6983754242666
 20
478.7768874688509
 30
0.0
 10
625.6948725762311
 20
473.4113661820403
 30
0.0
  0
SPLINE
  5
15C
330
1F
100
AcDbEntity
  8
LINEE VISIBILI 2D
100
AcDbSpline
210
0.0
220
0.0
230
1.0
 70
    12
 71
     3
 72
    13
 73
     9
 74
     0
 42
0.0000000001
 43
0.0000000001
 40
-0.7744140284089042
 40
-0.7744140284089042
 40
-0.7744140284089042
 40
-0.7744140284089042
 40
-0.6895091807571189
 40
-0.5516073446056947
 40
-0.4137055084542717
 40
-0.2758036723028477
 40
-0.1379018361514236
 40
0.0
 40
0.0
 40
0.0
 40
0.0
 10
657.8079942046127
 20
451.0373701811586
 30
0.0
 41
1.0
 10
654.0986650086518
 20
452.6206119379698
 30
0.0
 41
1.0
 10
644.656054878972
 20
457.2737177628591
 30
0.0
 41
1.0
 10
630.874410287322
 20
466.7118722797029
 30
0.0
 41
1.0
 10
617.5093704542155
 20
479.6075483248935
 30
0.0
 41
1.0
 10
606.5786408164726
 20
493.957325303683
 30
0.0
 41
1.0
 10
597.8645245965872
 20
509.3408361332491
 30
0.0
 41
1.0
 10
593.6514827322643
 20
520.2424168106371
 30
0.0
 41
1.0
 10
592.0754016551004
 20
525.856391179347
 30
0.0
 41
1.0
  0
SPLINE
  5
15D
330
1F
100
AcDbEntity
  8
LINEE VISIBILI 2D
100
AcDbSpline
210
0.0
220
0.0
230
1.0
 70
    12
 71
     3
 72
     8
 73
     4
 74
     0
 42
0.0000000001
 43
0.0000000001
 40
-1.0
 40
-1.0
 40
-1.0
 40
-1.0
 40
0.0
 40
0.0
 40
0.0
 40
0.0
 10
592.0754016551004
 20
525.856391179347
 30
0.0
 41
1.0
 10
578.0717459764983
 20
575.7371778894986
 30
0.0
 41
1.0
 10
616.4520053253412
 20
606.2384166642177
 30
0.0
 41
1.0
 10
687.5305970420981
 20
609.0867750318587
 30
0.0
 41
1.0
  0
SPLINE
  5
15E
330
1F
100
AcDbEntity
  8
LINEE VISIBILI 2D
100
AcDbSpline
210
0.0
220
0.0
230
1.0
 70
    12
 71
     2
 72
     6
 73
     3
 74
     0
 42
0.0000000001
 43
0.0000000001
 40
0.0
 40
0.0
 40
0.0
 40
16.99880231134417
 40
16.99880231134417
 40
16.99880231134417
 10
687.5305970420981
 20
609.0867750318587
 30
0.0
 41
1.0
 10
696.0266095423747
 20
609.4250432399994
 30
0.0
 41
0.9994103990692516
 10
704.5258057300637
 20
609.1794461132367
 30
0.0
 41
1.0
  0
SPLINE
  5
15F
330
1F
100
AcDbEntity
  8
LINEE VISIBILI 2D
100
AcDbSpline
210
0.0
220
0.0
230
1.0
 70
    12
 71
     2
 72
     6
 73
     3
 74
     0
 42
0.0000000001
 43
0.0000000001
 40
0.0
 40
0.0
 40
0.0
 40
17.98651149651826
 40
17.98651149651826
 40
17.98651149651826
 10
704.5258057300637
 20
609.1794461132367
 30
0.0
 41
1.0
 10
713.5191742059304
 20
608.9229416623042
 30
0.0
 41
0.9993715889226076
 10
722.4717709085361
 20
608.029922425916
 30
0.0
 41
1.0
  0
SPLINE
  5
160
330
1F
100
AcDbEntity
  8
LINEE VISIBILI 2D
100
AcDbSpline
210
0.0
220
0.0
230
1.0
 70
    12
 71
     3
 72
     8
 73
     4
 74
     0
 42
0.0000000001
 43
0.0000000001
 40
-1.0
 40
-1.0
 40
-1.0
 40
-1.0
 40
0.0
 40
0.0
 40
0.0
 40
0.0
 10
722.4717709085361
 20
608.029922425916
 30
0.0
 41
1.0
 10
775.2322830190246
 20
602.7603288662285
 30
0.0
 41
1.0
 10
843.6844218953753
 20
575.8275542185504
 30
0.0
 41
1.0
 10
832.0072770221664
 20
526.0494745541557
 30
0.0
 41
1.0
  0
SPLINE
  5
161
330
1F
100
AcDbEntity
  8
LINEE VISIBILI 2D
100
AcDbSpline
210
0.0
220
0.0
230
1.0
 70
     8
 71
     3
 72
    11
 73
     7
 74
     0
 42
0.0000000001
 43
0.0000000001
 40
0.0
 40
0.0
 40
0.0
 40
0.0
 40
11.65065806815994
 40
24.2411975623288
 40
52.65903614194318
 40
111.7549956172641
 40
111.7549956172641
 40
111.7549956172641
 40
111.7549956172641
 10
832.0072770221664
 20
526.0494745541557
 30
0.0
 10
831.1125508688083
 20
522.2706267641411
 30
0.0
 10
828.4510738796732
 20
514.6044700886792
 30
0.0
 10
819.9915831646157
 20
499.1679235096539
 30
0.0
 10
798.3328664949566
 20
473.4638619266309
 30
0.0
 10
772.9339437783021
 20
457.9085028713475
 30
0.0
 10
754.481595547177
 20
451.0373701935498
 30
0.0
  0
SPLINE
  5
162
330
1F
100
AcDbEntity
  8
LINEE VISIBILI 2D
100
AcDbSpline
210
0.0
220
0.0
230
1.0
 70
    12
 71
     3
 72
    10
 73
     6
 74
     0
 42
0.0000000001
 43
0.0000000001
 40
-0.3303072299181192
 40
-0.3303072299181192
 40
-0.3303072299181192
 40
-0.3303072299181192
 40
-0.166666666666667
 40
-0.0548
 40
0.0
 40
0.0
 40
0.0
 40
0.0
 10
896.4424904758312
 20
525.9065662385601
 30
0.0
 41
1.0
 10
894.4052526155117
 20
563.2062843538997
 30
0.0
 41
1.0
 10
839.2616283233613
 20
634.314887402047
 30
0.0
 41
1.0
 10
680.7803719772455
 20
661.276375930672
 30
0.0
 41
1.0
 10
607.9521069521336
 20
648.866068357535
 30
0.0
 41
1.0
 10
588.8016182722265
 20
640.7728740504194
 30
0.0
 41
1.0
  0
SPLINE
  5
163
330
1F
100
AcDbEntity
  8
LINEE VISIBILI 2D
100
AcDbSpline
210
0.0
220
0.0
230
1.0
 70
    12
 71
     3
 72
     8
 73
     4
 74
     0
 42
0.0000000001
 43
0.0000000001
 40
-1.0
 40
-1.0
 40
-1.0
 40
-1.0
 40
-0.878556481368408
 40
-0.878556481368408
 40
-0.878556481368408
 40
-0.878556481368408
 10
588.8016182722265
 20
640.7728740504194
 30
0.0
 41
1.0
 10
546.3617874546662
 20
622.8373632179737
 30
0.0
 41
1.0
 10
527.4733425123942
 20
585.1947553898732
 30
0.0
 41
1.0
 10
525.6840309497857
 20
548.540299266456
 30
0.0
 41
1.0
  0
SPLINE
  5
164
330
1F
100
AcDbEntity
  8
LINEE VISIBILI 2D
100
AcDbSpline
210
0.0
220
0.0
230
1.0
 70
    12
 71
     3
 72
     9
 73
     5
 74
     0
 42
0.0000000001
 43
0.0000000001
 40
0.6906439992447947
 40
0.6906439992447947
 40
0.6906439992447947
 40
0.6906439992447947
 40
0.833333333333334
 40
1.0
 40
1.0
 40
1.0
 40
1.0
 10
618.1510296630973
 20
427.5567733456347
 30
0.0
 41
1.0
 10
574.3716261211847
 20
441.9138297554725
 30
0.0
 41
1.0
 10
504.7832519732434
 20
500.0769988269219
 30
0.0
 41
1.0
 10
530.5580395620491
 20
614.6585361336026
 30
0.0
 41
1.0
 10
588.8016182722268
 20
639.272874050143
 30
0.0
 41
1.0
  0
SPLINE
  5
165
330
1F
100
AcDbEntity
  8
LINEE VISIBILI 2D
100
AcDbSpline
210
0.0
220
0.0
230
1.0
 70
    12
 71
     3
 72
    11
 73
     7
 74
     0
 42
0.0000000001
 43
0.0000000001
 40
0.0
 40
0.0
 40
0.0
 40
0.0
 40
0.0548
 40
0.166666666666667
 40
0.333333333333333
 40
0.5
 40
0.5
 40
0.5
 40
0.5
 10
588.8016182722268
 20
639.272874050143
 30
0.0
 41
1.0
 10
607.9521069521336
 20
647.3660683575547
 30
0.0
 41
1.0
 10
680.7803719772455
 20
659.7763759306916
 30
0.0
 41
1.0
 10
840.7135513442265
 20
632.5678802368407
 30
0.0
 41
1.0
 10
928.4542466130385
 20
516.7985001985332
 30
0.0
 41
1.0
 10
866.4270086588926
 20
452.294772509985
 30
0.0
 41
1.0
 10
816.2187697530926
 20
433.5378362662312
 30
0.0
 41
1.0
  0
SPLINE
  5
166
330
1F
100
AcDbEntity
  8
LINEE VISIBILI 2D
100
AcDbSpline
210
0.0
220
0.0
230
1.0
 70
    12
 71
     2
 72
     6
 73
     3
 74
     0
 42
0.0000000001
 43
0.0000000001
 40
0.0
 40
0.0
 40
0.0
 40
5.452371686336816
 40
5.452371686336816
 40
5.452371686336816
 10
816.2187697530926
 20
433.5378362662312
 30
0.0
 41
1.0
 10
813.664735704882
 20
432.5840557422516
 30
0.0
 41
0.9999295731060682
 10
811.08878382985
 20
431.6911620504495
 30
0.0
 41
1.0
  0
ENDSEC
  0
SECTION
  2
OBJECTS
  0
DICTIONARY
  5
C
330
0
100
AcDbDictionary
281
     1
  3
ACAD_GROUP
350
D
  3
ACAD_LAYOUT
350
1A
  3
ACAD_MLEADERSTYLE
350
168
  3
ACAD_MLINESTYLE
350
17
  3
ACAD_PLOTSETTINGS
350
19
  3
ACAD_PLOTSTYLENAME
350
E
  3
ACAD_SCALELIST
350
3B
  3
ACAD_TABLESTYLE
350
167
  3
ACAD_VISUALSTYLE
350
2A
  0
DICTIONARY
  5
D
102
{ACAD_REACTORS
330
C
102
}
330
C
100
AcDbDictionary
281
     1
  0
DICTIONARY
  5
1A
102
{ACAD_REACTORS
330
C
102
}
330
C
100
AcDbDictionary
281
     1
  3
Layout1
350
1E
  3
Layout2
350
26
  3
Model
350
22
  0
DICTIONARY
  5
168
102
{ACAD_REACTORS
330
C
102
}
330
C
100
AcDbDictionary
281
     1
  0
DICTIONARY
  5
17
102
{ACAD_REACTORS
330
C
102
}
330
C
100
AcDbDictionary
281
     1
  3
Standard
350
18
  0
DICTIONARY
  5
19
102
{ACAD_REACTORS
330
C
102
}
330
C
100
AcDbDictionary
281
     1
  0
ACDBDICTIONARYWDFLT
  5
E
102
{ACAD_REACTORS
330
C
102
}
330
C
100
AcDbDictionary
281
     1
  3
Normal
350
F
100
AcDbDictionaryWithDefault
340
F
  0
DICTIONARY
  5
3B
102
{ACAD_REACTORS
330
C
102
}
330
C
100
AcDbDictionary
281
     1
  3
A0
350
3C
  3
A1
350
3D
  3
A2
350
3E
  3
A3
350
3F
  3
A4
350
40
  3
A5
350
41
  3
A6
350
42
  3
A7
350
43
  3
A8
350
44
  3
A9
350
45
  3
B0
350
46
  3
B1
350
47
  3
B2
350
48
  3
B3
350
49
  3
B4
350
4A
  3
B5
350
4B
  3
B6
350
4C
  3
B7
350
4D
  3
B8
350
4E
  3
B9
350
4F
  3
C0
350
50
  3
C1
350
51
  3
C2
350
52
  3
C3
350
53
  3
C4
350
54
  3
C5
350
55
  3
C6
350
56
  3
C7
350
57
  3
C8
350
58
  3
C9
350
59
  3
D0
350
5A
  3
D1
350
5B
  3
D2
350
5C
  0
DICTIONARY
  5
167
102
{ACAD_REACTORS
330
C
102
}
330
C
100
AcDbDictionary
281
     1
  0
DICTIONARY
  5
2A
102
{ACAD_REACTORS
330
C
102
}
330
C
100
AcDbDictionary
281
     1
  3
2dWireframe
350
2F
  3
3D Hidden
350
31
  3
3dWireframe
350
30
  3
Basic
350
32
  3
Brighten
350
36
  3
ColorChange
350
3A
  3
Conceptual
350
34
  3
Dim
350
35
  3
Facepattern
350
39
  3
Flat
350
2B
  3
FlatWithEdges
350
2C
  3
Gouraud
350
2D
  3
GouraudWithEdges
350
2E
  3
Linepattern
350
38
  3
Realistic
350
33
  3
Thicken
350
37
  0
LAYOUT
  5
1E
102
{ACAD_REACTORS
330
1A
102
}
330
1A
100
AcDbPlotSettings
  1

  2
none_device
  4

  6

 40
0.0
 41
0.0
 42
0.0
 43
0.0
 44
0.0
 45
0.0
 46
0.0
 47
0.0
 48
0.0
 49
0.0
140
0.0
141
0.0
142
1.0
143
1.0
 70
   688
 72
     0
 73
     0
 74
     5
  7

 75
    16
 76
     0
 77
     2
 78
   300
147
1.0
148
0.0
149
0.0
100
AcDbLayout
  1
Layout1
 70
     1
 71
     1
 10
0.0
 20
0.0
 11
12.0
 21
9.0
 12
0.0
 22
0.0
 32
0.0
 14
1.000000000000000E+20
 24
1.000000000000000E+20
 34
1.000000000000000E+20
 15
-1.000000000000000E+20
 25
-1.000000000000000E+20
 35
-1.000000000000000E+20
146
0.0
 13
0.0
 23
0.0
 33
0.0
 16
1.0
 26
0.0
 36
0.0
 17
0.0
 27
1.0
 37
0.0
 76
     0
330
1B
  0
LAYOUT
  5
26
102
{ACAD_REACTORS
330
1A
102
}
330
1A
100
AcDbPlotSettings
  1

  2
none_device
  4

  6

 40
0.0
 41
0.0
 42
0.0
 43
0.0
 44
0.0
 45
0.0
 46
0.0
 47
0.0
 48
0.0
 49
0.0
140
0.0
141
0.0
142
1.0
143
1.0
 70
   688
 72
     0
 73
     0
 74
     5
  7

 75
    16
 76
     0
 77
     2
 78
   300
147
1.0
148
0.0
149
0.0
100
AcDbLayout
  1
Layout2
 70
     1
 71
     2
 10
0.0
 20
0.0
 11
0.0
 21
0.0
 12
0.0
 22
0.0
 32
0.0
 14
0.0
 24
0.0
 34
0.0
 15
0.0
 25
0.0
 35
0.0
146
0.0
 13
0.0
 23
0.0
 33
0.0
 16
1.0
 26
0.0
 36
0.0
 17
0.0
 27
1.0
 37
0.0
 76
     0
330
23
  0
LAYOUT
  5
22
102
{ACAD_REACTORS
330
1A
102
}
330
1A
100
AcDbPlotSettings
  1

  2
none_device
  4

  6

 40
0.0
 41
0.0
 42
0.0
 43
0.0
 44
0.0
 45
0.0
 46
0.0
 47
0.0
 48
0.0
 49
0.0
140
0.0
141
0.0
142
1.0
143
1.0
 70
  1712
 72
     0
 73
     0
 74
     0
  7

 75
     0
 76
     0
 77
     2
 78
   300
147
1.0
148
0.0
149
0.0
100
AcDbLayout
  1
Model
 70
     1
 71
     0
 10
0.0
 20
0.0
 11
12.0
 21
9.0
 12
0.0
 22
0.0
 32
0.0
 14
0.0006825636679719
 24
0.0041688596558133
 34
0.0
 15
896.5437508154813
 25
654.645945641404
 35
0.0
146
0.0
 13
0.0
 23
0.0
 33
0.0
 16
1.0
 26
0.0
 36
0.0
 17
0.0
 27
1.0
 37
0.0
 76
     0
330
1F
331
29
  0
MLINESTYLE
  5
18
102
{ACAD_REACTORS
330
17
102
}
330
17
100
AcDbMlineStyle
  2
Standard
 70
     0
  3

 62
   256
 51
90.0
 52
90.0
 71
     2
 49
0.5
 62
   256
  6
BYLAYER
 49
-0.5
 62
   256
  6
BYLAYER
  0
ACDBPLACEHOLDER
  5
F
102
{ACAD_REACTORS
330
E
102
}
330
E
  0
SCALE
  5
3C
102
{ACAD_REACTORS
330
3B
102
}
330
3B
100
AcDbScale
 70
     0
300
1:1
140
1.0
141
1.0
290
     1
  0
SCALE
  5
3D
102
{ACAD_REACTORS
330
3B
102
}
330
3B
100
AcDbScale
 70
     0
300
1:2
140
1.0
141
2.0
290
     0
  0
SCALE
  5
3E
102
{ACAD_REACTORS
330
3B
102
}
330
3B
100
AcDbScale
 70
     0
300
1:4
140
1.0
141
4.0
290
     0
  0
SCALE
  5
3F
102
{ACAD_REACTORS
330
3B
102
}
330
3B
100
AcDbScale
 70
     0
300
1:5
140
1.0
141
5.0
290
     0
  0
SCALE
  5
40
102
{ACAD_REACTORS
330
3B
102
}
330
3B
100
AcDbScale
 70
     0
300
1:8
140
1.0
141
8.0
290
     0
  0
SCALE
  5
41
102
{ACAD_REACTORS
330
3B
102
}
330
3B
100
AcDbScale
 70
     0
300
1:10
140
1.0
141
10.0
290
     0
  0
SCALE
  5
42
102
{ACAD_REACTORS
330
3B
102
}
330
3B
100
AcDbScale
 70
     0
300
1:16
140
1.0
141
16.0
290
     0
  0
SCALE
  5
43
102
{ACAD_REACTORS
330
3B
102
}
330
3B
100
AcDbScale
 70
     0
300
1:20
140
1.0
141
20.0
290
     0
  0
SCALE
  5
44
102
{ACAD_REACTORS
330
3B
102
}
330
3B
100
AcDbScale
 70
     0
300
1:30
140
1.0
141
30.0
290
     0
  0
SCALE
  5
45
102
{ACAD_REACTORS
330
3B
102
}
330
3B
100
AcDbScale
 70
     0
300
1:40
140
1.0
141
40.0
290
     0
  0
SCALE
  5
46
102
{ACAD_REACTORS
330
3B
102
}
330
3B
100
AcDbScale
 70
     0
300
1:50
140
1.0
141
50.0
290
     0
  0
SCALE
  5
47
102
{ACAD_REACTORS
330
3B
102
}
330
3B
100
AcDbScale
 70
     0
300
1:100
140
1.0
141
100.0
290
     0
  0
SCALE
  5
48
102
{ACAD_REACTORS
330
3B
102
}
330
3B
100
AcDbScale
 70
     0
300
2:1
140
2.0
141
1.0
290
     0
  0
SCALE
  5
49
102
{ACAD_REACTORS
330
3B
102
}
330
3B
100
AcDbScale
 70
     0
300
4:1
140
4.0
141
1.0
290
     0
  0
SCALE
  5
4A
102
{ACAD_REACTORS
330
3B
102
}
330
3B
100
AcDbScale
 70
     0
300
8:1
140
8.0
141
1.0
290
     0
  0
SCALE
  5
4B
102
{ACAD_REACTORS
330
3B
102
}
330
3B
100
AcDbScale
 70
     0
300
10:1
140
10.0
141
1.0
290
     0
  0
SCALE
  5
4C
102
{ACAD_REACTORS
330
3B
102
}
330
3B
100
AcDbScale
 70
     0
300
100:1
140
100.0
141
1.0
290
     0
  0
SCALE
  5
4D
102
{ACAD_REACTORS
330
3B
102
}
330
3B
100
AcDbScale
 70
     0
300
1/128" = 1'-0"
140
0.0078125
141
12.0
290
     0
  0
SCALE
  5
4E
102
{ACAD_REACTORS
330
3B
102
}
330
3B
100
AcDbScale
 70
     0
300
1/64" = 1'-0"
140
0.015625
141
12.0
290
     0
  0
SCALE
  5
4F
102
{ACAD_REACTORS
330
3B
102
}
330
3B
100
AcDbScale
 70
     0
300
1/32" = 1'-0"
140
0.03125
141
12.0
290
     0
  0
SCALE
  5
50
102
{ACAD_REACTORS
330
3B
102
}
330
3B
100
AcDbScale
 70
     0
300
1/16" = 1'-0"
140
0.0625
141
12.0
290
     0
  0
SCALE
  5
51
102
{ACAD_REACTORS
330
3B
102
}
330
3B
100
AcDbScale
 70
     0
300
3/32" = 1'-0"
140
0.09375
141
12.0
290
     0
  0
SCALE
  5
52
102
{ACAD_REACTORS
330
3B
102
}
330
3B
100
AcDbScale
 70
     0
300
1/8" = 1'-0"
140
0.125
141
12.0
290
     0
  0
SCALE
  5
53
102
{ACAD_REACTORS
330
3B
102
}
330
3B
100
AcDbScale
 70
     0
300
3/16" = 1'-0"
140
0.1875
141
12.0
290
     0
  0
SCALE
  5
54
102
{ACAD_REACTORS
330
3B
102
}
330
3B
100
AcDbScale
 70
     0
300
1/4" = 1'-0"
140
0.25
141
12.0
290
     0
  0
SCALE
  5
55
102
{ACAD_REACTORS
330
3B
102
}
330
3B
100
AcDbScale
 70
     0
300
3/8" = 1'-0"
140
0.375
141
12.0
290
     0
  0
SCALE
  5
56
102
{ACAD_REACTORS
330
3B
102
}
330
3B
100
AcDbScale
 70
     0
300
1/2" = 1'-0"
140
0.5
141
12.0
290
     0
  0
SCALE
  5
57
102
{ACAD_REACTORS
330
3B
102
}
330
3B
100
AcDbScale
 70
     0
300
3/4" = 1'-0"
140
0.75
141
12.0
290
     0
  0
SCALE
  5
58
102
{ACAD_REACTORS
330
3B
102
}
330
3B
100
AcDbScale
 70
     0
300
1" = 1'-0"
140
1.0
141
12.0
290
     0
  0
SCALE
  5
59
102
{ACAD_REACTORS
330
3B
102
}
330
3B
100
AcDbScale
 70
     0
300
1-1/2" = 1'-0"
140
1.5
141
12.0
290
     0
  0
SCALE
  5
5A
102
{ACAD_REACTORS
330
3B
102
}
330
3B
100
AcDbScale
 70
     0
300
3" = 1'-0"
140
3.0
141
12.0
290
     0
  0
SCALE
  5
5B
102
{ACAD_REACTORS
330
3B
102
}
330
3B
100
AcDbScale
 70
     0
300
6" = 1'-0"
140
6.0
141
12.0
290
     0
  0
SCALE
  5
5C
102
{ACAD_REACTORS
330
3B
102
}
330
3B
100
AcDbScale
 70
     0
300
1'-0" = 1'-0"
140
12.0
141
12.0
290
     0
  0
VISUALSTYLE
  5
2F
102
{ACAD_REACTORS
330
2A
102
}
330
2A
100
AcDbVisualStyle
  2
2dWireframe
 70
     4
 71
     0
 72
     2
 73
     0
 90
        0
 40
-0.6
 41
-30.0
 62
     5
 63
     7
421
 16777215
 74
     1
 91
        4
 64
     7
 65
   257
 75
     1
175
     1
 42
1.0
 92
        0
 66
   257
 43
1.0
 76
     1
 77
     6
 78
     2
 67
     7
 79
     5
170
     0
171
     0
290
     0
174
     0
 93
        1
 44
0.0
173
     0
291
     0
 45
0.0
1001
ACAD
1000
AcDbSavedByObjectVersion
1070
     0
  0
VISUALSTYLE
  5
31
102
{ACAD_REACTORS
330
2A
102
}
330
2A
100
AcDbVisualStyle
  2
3D Hidden
 70
     6
 71
     1
 72
     2
 73
     2
 90
        0
 40
-0.6
 41
-30.0
 62
     5
 63
     7
421
 16777215
 74
     2
 91
        2
 64
     7
 65
   257
 75
     2
175
     1
 42
40.0
 92
        0
 66
   257
 43
1.0
 76
     1
 77
     6
 78
     2
 67
     7
 79
     3
170
     0
171
     0
290
     0
174
     0
 93
        1
 44
0.0
173
     0
291
     0
 45
0.0
1001
ACAD
1000
AcDbSavedByObjectVersion
1070
     0
  0
VISUALSTYLE
  5
30
102
{ACAD_REACTORS
330
2A
102
}
330
2A
100
AcDbVisualStyle
  2
3dWireframe
 70
     5
 71
     0
 72
     2
 73
     0
 90
        0
 40
-0.6
 41
-30.0
 62
     5
 63
     7
421
 16777215
 74
     1
 91
        4
 64
     7
 65
   257
 75
     1
175
     1
 42
1.0
 92
        0
 66
   257
 43
1.0
 76
     1
 77
     6
 78
     2
 67
     7
 79
     5
170
     0
171
     0
290
     0
174
     0
 93
        1
 44
0.0
173
     0
291
     0
 45
0.0
1001
ACAD
1000
AcDbSavedByObjectVersion
1070
     0
  0
VISUALSTYLE
  5
32
102
{ACAD_REACTORS
330
2A
102
}
330
2A
100
AcDbVisualStyle
  2
Basic
 70
     7
 71
     1
 72
     0
 73
     1
 90
        0
 40
-0.6
 41
-30.0
 62
     5
 63
     7
421
 16777215
 74
     0
 91
        4
 64
     7
 65
   257
 75
     1
175
     1
 42
1.0
 92
        8
 66
     7
 43
1.0
 76
     1
 77
     6
 78
     2
 67
     7
 79
     5
170
     0
171
     0
290
     0
174
     0
 93
        1
 44
0.0
173
     0
291
     1
 45
0.0
1001
ACAD
1000
AcDbSavedByObjectVersion
1070
     0
  0
VISUALSTYLE
  5
36
102
{ACAD_REACTORS
330
2A
102
}
330
2A
100
AcDbVisualStyle
  2
Brighten
 70
    12
 71
     2
 72
     2
 73
     0
 90
        0
 40
-0.6
 41
-30.0
 62
     5
 63
     7
421
 16777215
 74
     1
 91
        4
 64
     7
 65
   257
 75
     1
175
     1
 42
1.0
 92
        8
 66
     7
 43
1.0
 76
     1
 77
     6
 78
     2
 67
     7
 79
     5
170
     0
171
     0
290
     0
174
     0
 93
        1
 44
50.0
173
     0
291
     1
 45
0.0
1001
ACAD
1000
AcDbSavedByObjectVersion
1070
     0
  0
VISUALSTYLE
  5
3A
102
{ACAD_REACTORS
330
2A
102
}
330
2A
100
AcDbVisualStyle
  2
ColorChange
 70
    16
 71
     2
 72
     2
 73
     3
 90
        0
 40
-0.6
 41
-30.0
 62
     5
 63
     8
421
  8421504
 74
     1
 91
        4
 64
     7
 65
   257
 75
     1
175
     1
 42
1.0
 92
        8
 66
     8
424
  8421504
 43
1.0
 76
     1
 77
     6
 78
     2
 67
     7
 79
     5
170
     0
171
     0
290
     0
174
     0
 93
        1
 44
0.0
173
     0
291
     1
 45
0.0
1001
ACAD
1000
AcDbSavedByObjectVersion
1070
     0
  0
VISUALSTYLE
  5
34
102
{ACAD_REACTORS
330
2A
102
}
330
2A
100
AcDbVisualStyle
  2
Conceptual
 70
     9
 71
     3
 72
     2
 73
     0
 90
        0
 40
-0.6
 41
-30.0
 62
     5
 63
     7
421
 16777215
 74
     2
 91
        2
 64
     7
 65
   257
 75
     1
175
     1
 42
40.0
 92
        8
 66
     7
 43
1.0
 76
     1
 77
     6
 78
     2
 67
     7
 79
     3
170
     0
171
     0
290
     0
174
     0
 93
        1
 44
0.0
173
     0
291
     0
 45
0.0
1001
ACAD
1000
AcDbSavedByObjectVersion
1070
     0
  0
VISUALSTYLE
  5
35
102
{ACAD_REACTORS
330
2A
102
}
330
2A
100
AcDbVisualStyle
  2
Dim
 70
    11
 71
     2
 72
     2
 73
     0
 90
        0
 40
-0.6
 41
-30.0
 62
     5
 63
     7
421
 16777215
 74
     1
 91
        4
 64
     7
 65
   257
 75
     1
175
     1
 42
1.0
 92
        8
 66
     7
 43
1.0
 76
     1
 77
     6
 78
     2
 67
     7
 79
     5
170
     0
171
     0
290
     0
174
     0
 93
        1
 44
-50.0
173
     0
291
     1
 45
0.0
1001
ACAD
1000
AcDbSavedByObjectVersion
1070
     0
  0
VISUALSTYLE
  5
39
102
{ACAD_REACTORS
330
2A
102
}
330
2A
100
AcDbVisualStyle
  2
Facepattern
 70
    15
 71
     2
 72
     2
 73
     0
 90
        0
 40
-0.6
 41
-30.0
 62
     5
 63
     7
421
 16777215
 74
     1
 91
        4
 64
     7
 65
   257
 75
     1
175
     1
 42
1.0
 92
        8
 66
     7
 43
1.0
 76
     1
 77
     6
 78
     2
 67
     7
 79
     5
170
     0
171
     0
290
     0
174
     0
 93
        1
 44
0.0
173
     0
291
     1
 45
0.0
1001
ACAD
1000
AcDbSavedByObjectVersion
1070
     0
  0
VISUALSTYLE
  5
2B
102
{ACAD_REACTORS
330
2A
102
}
330
2A
100
AcDbVisualStyle
  2
Flat
 70
     0
 71
     2
 72
     1
 73
     1
 90
        2
 40
-0.6
 41
30.0
 62
     5
 63
     7
421
 16777215
 74
     0
 91
        4
 64
     7
 65
   257
 75
     1
175
     1
 42
1.0
 92
        8
 66
     7
 43
1.0
 76
     1
 77
     6
 78
     2
 67
     7
 79
     5
170
     0
171
     0
290
     0
174
     0
 93
       13
 44
0.0
173
     0
291
     1
 45
0.0
1001
ACAD
1000
AcDbSavedByObjectVersion
1070
     0
  0
VISUALSTYLE
  5
2C
102
{ACAD_REACTORS
330
2A
102
}
330
2A
100
AcDbVisualStyle
  2
FlatWithEdges
 70
     1
 71
     2
 72
     1
 73
     1
 90
        2
 40
-0.6
 41
30.0
 62
     5
 63
     7
421
 16777215
 74
     1
 91
        4
 64
     7
 65
   257
 75
     1
175
     1
 42
1.0
 92
        0
 66
   257
 43
1.0
 76
     1
 77
     6
 78
     2
 67
     7
 79
     5
170
     0
171
     0
290
     0
174
     0
 93
       13
 44
0.0
173
     0
291
     1
 45
0.0
1001
ACAD
1000
AcDbSavedByObjectVersion
1070
     0
  0
VISUALSTYLE
  5
2D
102
{ACAD_REACTORS
330
2A
102
}
330
2A
100
AcDbVisualStyle
  2
Gouraud
 70
     2
 71
     2
 72
     2
 73
     1
 90
        2
 40
-0.6
 41
30.0
 62
     5
 63
     7
421
 16777215
 74
     0
 91
        4
 64
     7
 65
   257
 75
     1
175
     1
 42
1.0
 92
        0
 66
     7
 43
1.0
 76
     1
 77
     6
 78
     2
 67
     7
 79
     5
170
     0
171
     0
290
     0
174
     0
 93
       13
 44
0.0
173
     0
291
     1
 45
0.0
1001
ACAD
1000
AcDbSavedByObjectVersion
1070
     0
  0
VISUALSTYLE
  5
2E
102
{ACAD_REACTORS
330
2A
102
}
330
2A
100
AcDbVisualStyle
  2
GouraudWithEdges
 70
     3
 71
     2
 72
     2
 73
     1
 90
        2
 40
-0.6
 41
30.0
 62
     5
 63
     7
421
 16777215
 74
     1
 91
        4
 64
     7
 65
   257
 75
     1
175
     1
 42
1.0
 92
        0
 66
   257
 43
1.0
 76
     1
 77
     6
 78
     2
 67
     7
 79
     5
170
     0
171
     0
290
     0
174
     0
 93
       13
 44
0.0
173
     0
291
     1
 45
0.0
1001
ACAD
1000
AcDbSavedByObjectVersion
1070
     0
  0
VISUALSTYLE
  5
38
102
{ACAD_REACTORS
330
2A
102
}
330
2A
100
AcDbVisualStyle
  2
Linepattern
 70
    14
 71
     2
 72
     2
 73
     0
 90
        0
 40
-0.6
 41
-30.0
 62
     5
 63
     7
421
 16777215
 74
     1
 91
        4
 64
     7
 65
   257
 75
     7
175
     7
 42
1.0
 92
        8
 66
     7
 43
1.0
 76
     1
 77
     6
 78
     2
 67
     7
 79
     5
170
     0
171
     0
290
     0
174
     0
 93
        1
 44
0.0
173
     0
291
     1
 45
0.0
1001
ACAD
1000
AcDbSavedByObjectVersion
1070
     0
  0
VISUALSTYLE
  5
33
102
{ACAD_REACTORS
330
2A
102
}
330
2A
100
AcDbVisualStyle
  2
Realistic
 70
     8
 71
     2
 72
     2
 73
     0
 90
        0
 40
-0.6
 41
-30.0
 62
     5
 63
     7
421
 16777215
 74
     1
 91
        0
 64
     7
 65
   257
 75
     1
175
     1
 42
1.0
 92
        8
 66
     8
424
  7895160
 43
1.0
 76
     1
 77
     6
 78
     2
 67
     7
 79
     5
170
     0
171
     0
290
     0
174
     0
 93
       13
 44
0.0
173
     0
291
     0
 45
0.0
1001
ACAD
1000
AcDbSavedByObjectVersion
1070
     0
  0
VISUALSTYLE
  5
37
102
{ACAD_REACTORS
330
2A
102
}
330
2A
100
AcDbVisualStyle
  2
Thicken
 70
    13
 71
     2
 72
     2
 73
     0
 90
        0
 40
-0.6
 41
-30.0
 62
     5
 63
     7
421
 16777215
 74
     1
 91
        4
 64
     7
 65
   257
 75
     1
175
     1
 42
1.0
 92
       12
 66
     7
 43
1.0
 76
     1
 77
     6
 78
     2
 67
     7
 79
     5
170
     0
171
     0
290
     0
174
     0
 93
        1
 44
0.0
173
     0
291
     1
 45
0.0
1001
ACAD
1000
AcDbSavedByObjectVersion
1070
     0
  0
ENDSEC
  0
EOF
