  0
SECTION
  2
HEADER
  9
$ACADVER
  1
AC1027
  9
$ACADMAINTVER
 70
     8
  9
$DWGCODEPAGE
  3
ANSI_1252
  9
$LASTSAVEDBY
  1
imac
  9
$REQUIREDVERSIONS
160
                 0
  9
$INSBASE
 10
0.0
 20
0.0
 30
0.0
  9
$EXTMIN
 10
770.239968808153
 20
151.5726152329751
 30
0.0
  9
$EXTMAX
 10
1127.449572654792
 20
507.9123390243471
 30
0.0
  9
$LIMMIN
 10
0.0
 20
0.0
  9
$LIMMAX
 10
12.0
 20
9.0
  9
$ORTHOMODE
 70
     0
  9
$REGENMODE
 70
     1
  9
$FILLMODE
 70
     1
  9
$QTEXTMODE
 70
     0
  9
$MIRRTEXT
 70
     1
  9
$LTSCALE
 40
1.0
  9
$ATTMODE
 70
     1
  9
$TEXTSIZE
 40
0.2
  9
$TRACEWID
 40
0.05
  9
$TEXTSTYLE
  7
Standard
  9
$CLAYER
  8
0
  9
$CELTYPE
  6
ByLayer
  9
$CECOLOR
 62
   256
  9
$CELTSCALE
 40
1.0
  9
$DISPSILH
 70
     0
  9
$DIMSCALE
 40
1.0
  9
$DIMASZ
 40
0.18
  9
$DIMEXO
 40
0.0625
  9
$DIMDLI
 40
0.38
  9
$DIMRND
 40
0.0
  9
$DIMDLE
 40
0.0
  9
$DIMEXE
 40
0.18
  9
$DIMTP
 40
0.0
  9
$DIMTM
 40
0.0
  9
$DIMTXT
 40
0.18
  9
$DIMCEN
 40
0.09
  9
$DIMTSZ
 40
0.0
  9
$DIMTOL
 70
     0
  9
$DIMLIM
 70
     0
  9
$DIMTIH
 70
     1
  9
$DIMTOH
 70
     1
  9
$DIMSE1
 70
     0
  9
$DIMSE2
 70
     0
  9
$DIMTAD
 70
     0
  9
$DIMZIN
 70
     0
  9
$DIMBLK
  1

  9
$DIMASO
 70
     1
  9
$DIMSHO
 70
     1
  9
$DIMPOST
  1

  9
$DIMAPOST
  1

  9
$DIMALT
 70
     0
  9
$DIMALTD
 70
     2
  9
$DIMALTF
 40
25.4
  9
$DIMLFAC
 40
1.0
  9
$DIMTOFL
 70
     0
  9
$DIMTVP
 40
0.0
  9
$DIMTIX
 70
     0
  9
$DIMSOXD
 70
     0
  9
$DIMSAH
 70
     0
  9
$DIMBLK1
  1

  9
$DIMBLK2
  1

  9
$DIMSTYLE
  2
Standard
  9
$DIMCLRD
 70
     0
  9
$DIMCLRE
 70
     0
  9
$DIMCLRT
 70
     0
  9
$DIMTFAC
 40
1.0
  9
$DIMGAP
 40
0.09
  9
$DIMJUST
 70
     0
  9
$DIMSD1
 70
     0
  9
$DIMSD2
 70
     0
  9
$DIMTOLJ
 70
     1
  9
$DIMTZIN
 70
     0
  9
$DIMALTZ
 70
     0
  9
$DIMALTTZ
 70
     0
  9
$DIMUPT
 70
     0
  9
$DIMDEC
 70
     4
  9
$DIMTDEC
 70
     4
  9
$DIMALTU
 70
     2
  9
$DIMALTTD
 70
     2
  9
$DIMTXSTY
  7
Standard
  9
$DIMAUNIT
 70
     0
  9
$DIMADEC
 70
     0
  9
$DIMALTRND
 40
0.0
  9
$DIMAZIN
 70
     0
  9
$DIMDSEP
 70
    46
  9
$DIMATFIT
 70
     3
  9
$DIMFRAC
 70
     0
  9
$DIMLDRBLK
  1

  9
$DIMLUNIT
 70
     2
  9
$DIMLWD
 70
    -2
  9
$DIMLWE
 70
    -2
  9
$DIMTMOVE
 70
     2
  9
$DIMFXL
 40
1.0
  9
$DIMFXLON
 70
     0
  9
$DIMJOGANG
 40
0.7853981633974483
  9
$DIMTFILL
 70
     0
  9
$DIMTFILLCLR
 70
     0
  9
$DIMARCSYM
 70
     0
  9
$DIMLTYPE
  6

  9
$DIMLTEX1
  6

  9
$DIMLTEX2
  6

  9
$DIMTXTDIRECTION
 70
     0
  9
$LUNITS
 70
     2
  9
$LUPREC
 70
     3
  9
$SKETCHINC
 40
0.1
  9
$FILLETRAD
 40
0.5
  9
$AUNITS
 70
     0
  9
$AUPREC
 70
     0
  9
$MENU
  1
.
  9
$ELEVATION
 40
0.0
  9
$PELEVATION
 40
0.0
  9
$THICKNESS
 40
0.0
  9
$LIMCHECK
 70
     0
  9
$CHAMFERA
 40
0.5
  9
$CHAMFERB
 40
0.5
  9
$CHAMFERC
 40
1.0
  9
$CHAMFERD
 40
0.0
  9
$SKPOLY
 70
     0
  9
$TDCREATE
 40
2456626.651812940
  9
$TDUCREATE
 40
2456626.610146273
  9
$TDUPDATE
 40
2457434.833543924
  9
$TDUUPDATE
 40
2457434.791877258
  9
$TDINDWG
 40
0.0002185995
  9
$TDUSRTIMER
 40
0.0002185995
  9
$USRTIMER
 70
     1
  9
$ANGBASE
 50
0.0
  9
$ANGDIR
 70
     0
  9
$PDMODE
 70
     0
  9
$PDSIZE
 40
0.0
  9
$PLINEWID
 40
0.0
  9
$SPLFRAME
 70
     0
  9
$SPLINETYPE
 70
     6
  9
$SPLINESEGS
 70
     8
  9
$HANDSEED
  5
17B
  9
$SURFTAB1
 70
     6
  9
$SURFTAB2
 70
     6
  9
$SURFTYPE
 70
     6
  9
$SURFU
 70
     6
  9
$SURFV
 70
     6
  9
$UCSBASE
  2

  9
$UCSNAME
  2

  9
$UCSORG
 10
0.0
 20
0.0
 30
0.0
  9
$UCSXDIR
 10
1.0
 20
0.0
 30
0.0
  9
$UCSYDIR
 10
0.0
 20
1.0
 30
0.0
  9
$UCSORTHOREF
  2

  9
$UCSORTHOVIEW
 70
     0
  9
$UCSORGTOP
 10
0.0
 20
0.0
 30
0.0
  9
$UCSORGBOTTOM
 10
0.0
 20
0.0
 30
0.0
  9
$UCSORGLEFT
 10
0.0
 20
0.0
 30
0.0
  9
$UCSORGRIGHT
 10
0.0
 20
0.0
 30
0.0
  9
$UCSORGFRONT
 10
0.0
 20
0.0
 30
0.0
  9
$UCSORGBACK
 10
0.0
 20
0.0
 30
0.0
  9
$PUCSBASE
  2

  9
$PUCSNAME
  2

  9
$PUCSORG
 10
0.0
 20
0.0
 30
0.0
  9
$PUCSXDIR
 10
1.0
 20
0.0
 30
0.0
  9
$PUCSYDIR
 10
0.0
 20
1.0
 30
0.0
  9
$PUCSORTHOREF
  2

  9
$PUCSORTHOVIEW
 70
     0
  9
$PUCSORGTOP
 10
0.0
 20
0.0
 30
0.0
  9
$PUCSORGBOTTOM
 10
0.0
 20
0.0
 30
0.0
  9
$PUCSORGLEFT
 10
0.0
 20
0.0
 30
0.0
  9
$PUCSORGRIGHT
 10
0.0
 20
0.0
 30
0.0
  9
$PUCSORGFRONT
 10
0.0
 20
0.0
 30
0.0
  9
$PUCSORGBACK
 10
0.0
 20
0.0
 30
0.0
  9
$USERI1
 70
     0
  9
$USERI2
 70
     0
  9
$USERI3
 70
     0
  9
$USERI4
 70
     0
  9
$USERI5
 70
     0
  9
$USERR1
 40
0.0
  9
$USERR2
 40
0.0
  9
$USERR3
 40
0.0
  9
$USERR4
 40
0.0
  9
$USERR5
 40
0.0
  9
$WORLDVIEW
 70
     1
  9
$SHADEDGE
 70
     3
  9
$SHADEDIF
 70
    70
  9
$TILEMODE
 70
     1
  9
$MAXACTVP
 70
    64
  9
$PINSBASE
 10
0.0
 20
0.0
 30
0.0
  9
$PLIMCHECK
 70
     0
  9
$PEXTMIN
 10
1.000000000000000E+20
 20
1.000000000000000E+20
 30
1.000000000000000E+20
  9
$PEXTMAX
 10
-1.000000000000000E+20
 20
-1.000000000000000E+20
 30
-1.000000000000000E+20
  9
$PLIMMIN
 10
0.0
 20
0.0
  9
$PLIMMAX
 10
12.0
 20
9.0
  9
$UNITMODE
 70
     0
  9
$VISRETAIN
 70
     1
  9
$PLINEGEN
 70
     0
  9
$PSLTSCALE
 70
     1
  9
$TREEDEPTH
 70
  3020
  9
$CMLSTYLE
  2
Standard
  9
$CMLJUST
 70
     0
  9
$CMLSCALE
 40
1.0
  9
$PROXYGRAPHICS
 70
     1
  9
$MEASUREMENT
 70
     0
  9
$CELWEIGHT
370
    -1
  9
$ENDCAPS
280
     0
  9
$JOINSTYLE
280
     0
  9
$LWDISPLAY
290
     0
  9
$INSUNITS
 70
     4
  9
$HYPERLINKBASE
  1

  9
$STYLESHEET
  1

  9
$XEDIT
290
     1
  9
$CEPSNTYPE
380
     0
  9
$PSTYLEMODE
290
     1
  9
$FINGERPRINTGUID
  2
{5B7EA860-28DA-468E-A8E8-7CFD6ABABAD3}
  9
$VERSIONGUID
  2
{6E1CB1B5-8715-9246-869D-D181F56460E5}
  9
$EXTNAMES
290
     1
  9
$PSVPSCALE
 40
0.0
  9
$OLESTARTUP
290
     0
  9
$SORTENTS
280
   127
  9
$INDEXCTL
280
     0
  9
$HIDETEXT
280
     1
  9
$XCLIPFRAME
280
     0
  9
$HALOGAP
280
     0
  9
$OBSCOLOR
 70
   257
  9
$OBSLTYPE
280
     0
  9
$INTERSECTIONDISPLAY
280
     0
  9
$INTERSECTIONCOLOR
 70
   257
  9
$DIMASSOC
280
     2
  9
$PROJECTNAME
  1

  9
$CAMERADISPLAY
290
     0
  9
$LENSLENGTH
 40
50.0
  9
$CAMERAHEIGHT
 40
0.0
  9
$STEPSPERSEC
 40
2.0
  9
$STEPSIZE
 40
6.0
  9
$3DDWFPREC
 40
2.0
  9
$PSOLWIDTH
 40
0.25
  9
$PSOLHEIGHT
 40
4.0
  9
$LOFTANG1
 40
1.570796326794896
  9
$LOFTANG2
 40
1.570796326794896
  9
$LOFTMAG1
 40
0.0
  9
$LOFTMAG2
 40
0.0
  9
$LOFTPARAM
 70
     7
  9
$LOFTNORMALS
280
     1
  9
$LATITUDE
 40
37.795
  9
$LONGITUDE
 40
-122.394
  9
$NORTHDIRECTION
 40
0.0
  9
$TIMEZONE
 70
 -8000
  9
$LIGHTGLYPHDISPLAY
280
     1
  9
$TILEMODELIGHTSYNCH
280
     1
  9
$CMATERIAL
347
11E
  9
$SOLIDHIST
280
     0
  9
$SHOWHIST
280
     1
  9
$DWFFRAME
280
     2
  9
$DGNFRAME
280
     0
  9
$REALWORLDSCALE
290
     1
  9
$INTERFERECOLOR
 62
     1
  9
$INTERFEREOBJVS
345
33
  9
$INTERFEREVPVS
346
136
  9
$CSHADOW
280
     0
  9
$SHADOWPLANELOCATION
 40
0.0
  0
ENDSEC
  0
SECTION
  2
CLASSES
  0
CLASS
  1
ACDBDICTIONARYWDFLT
  2
AcDbDictionaryWithDefault
  3
ObjectDBX Classes
 90
        0
 91
        1
280
     0
281
     0
  0
CLASS
  1
VISUALSTYLE
  2
AcDbVisualStyle
  3
ObjectDBX Classes
 90
     4095
 91
       26
280
     0
281
     0
  0
CLASS
  1
MATERIAL
  2
AcDbMaterial
  3
ObjectDBX Classes
 90
     1153
 91
        3
280
     0
281
     0
  0
CLASS
  1
TABLESTYLE
  2
AcDbTableStyle
  3
ObjectDBX Classes
 90
     4095
 91
        1
280
     0
281
     0
  0
CLASS
  1
SCALE
  2
AcDbScale
  3
ObjectDBX Classes
 90
     1153
 91
       17
280
     0
281
     0
  0
CLASS
  1
MLEADERSTYLE
  2
AcDbMLeaderStyle
  3
ACDB_MLEADERSTYLE_CLASS
 90
     4095
 91
        1
280
     0
281
     0
  0
CLASS
  1
ACDBSECTIONVIEWSTYLE
  2
AcDbSectionViewStyle
  3
ObjectDBX Classes
 90
     1025
 91
        1
280
     0
281
     0
  0
CLASS
  1
ACDBDETAILVIEWSTYLE
  2
AcDbDetailViewStyle
  3
ObjectDBX Classes
 90
     1025
 91
        1
280
     0
281
     0
  0
CLASS
  1
DICTIONARYVAR
  2
AcDbDictionaryVar
  3
ObjectDBX Classes
 90
        0
 91
        9
280
     0
281
     0
  0
CLASS
  1
CELLSTYLEMAP
  2
AcDbCellStyleMap
  3
ObjectDBX Classes
 90
     1152
 91
        1
280
     0
281
     0
  0
ENDSEC
  0
SECTION
  2
TABLES
  0
TABLE
  2
VPORT
  5
8
330
0
100
AcDbSymbolTable
 70
     1
  0
VPORT
  5
29
330
8
100
AcDbSymbolTableRecord
100
AcDbViewportTableRecord
  2
*Active
 70
     0
 10
0.0
 20
0.0
 11
1.0
 21
1.0
 12
1052.448333229411
 22
328.8283628752182
 13
0.0
 23
0.0
 14
0.5
 24
0.5
 15
0.5
 25
0.5
 16
0.0
 26
0.0
 36
1.0
 17
0.0
 27
0.0
 37
0.0
 40
582.4433794203652
 41
1.655310621242485
 42
50.0
 43
0.0
 44
0.0
 50
0.0
 51
0.0
 71
     0
 72
   100
 73
     1
 74
     3
 75
     0
 76
     0
 77
     0
 78
     0
281
     0
 65
     1
110
0.0
120
0.0
130
0.0
111
1.0
121
0.0
131
0.0
112
0.0
122
1.0
132
0.0
 79
     0
146
0.0
348
2F
 60
     3
 61
     5
292
     1
282
     1
141
0.0
142
0.0
 63
   250
421
  3355443
1001
ACAD_NAV_VCDISPLAY
1070
     3
  0
ENDTAB
  0
TABLE
  2
LTYPE
  5
5
330
0
100
AcDbSymbolTable
 70
     2
  0
LTYPE
  5
14
330
5
100
AcDbSymbolTableRecord
100
AcDbLinetypeTableRecord
  2
ByBlock
 70
     0
  3

 72
    65
 73
     0
 40
0.0
  0
LTYPE
  5
15
330
5
100
AcDbSymbolTableRecord
100
AcDbLinetypeTableRecord
  2
ByLayer
 70
     0
  3

 72
    65
 73
     0
 40
0.0
  0
LTYPE
  5
16
330
5
100
AcDbSymbolTableRecord
100
AcDbLinetypeTableRecord
  2
Continuous
 70
     0
  3
Solid line
 72
    65
 73
     0
 40
0.0
  0
LTYPE
  5
156
330
5
100
AcDbSymbolTableRecord
100
AcDbLinetypeTableRecord
  2
PHANTOM2
 70
     0
  3
Phantom (.5x) ___ _ _ ___ _ _ ___ _ _ ___ _ _
 72
    65
 73
     6
 40
1.25
 49
0.625
 74
     0
 49
-0.125
 74
     0
 49
0.125
 74
     0
 49
-0.125
 74
     0
 49
0.125
 74
     0
 49
-0.125
 74
     0
  0
ENDTAB
  0
TABLE
  2
LAYER
  5
2
102
{ACAD_XDICTIONARY
360
167
102
}
330
0
100
AcDbSymbolTable
 70
     3
  0
LAYER
  5
10
102
{ACAD_XDICTIONARY
360
15E
102
}
330
2
100
AcDbSymbolTableRecord
100
AcDbLayerTableRecord
  2
0
 70
     0
 62
     7
  6
Continuous
370
    -3
390
F
347
12E
348
0
  0
LAYER
  5
3B
102
{ACAD_XDICTIONARY
360
160
102
}
330
2
100
AcDbSymbolTableRecord
100
AcDbLayerTableRecord
  2
Linee visibili 2D
 70
     0
 62
     7
  6
Continuous
370
    -3
390
F
347
12E
348
0
  0
LAYER
  5
4B
102
{ACAD_XDICTIONARY
360
162
102
}
330
2
100
AcDbSymbolTableRecord
100
AcDbLayerTableRecord
  2
Linee visibili 2D - Tangent
 70
     0
 62
     7
  6
Continuous
370
    -3
390
F
347
12E
348
0
  0
ENDTAB
  0
TABLE
  2
STYLE
  5
3
330
0
100
AcDbSymbolTable
 70
     1
  0
STYLE
  5
11
330
3
100
AcDbSymbolTableRecord
100
AcDbTextStyleTableRecord
  2
Standard
 70
     0
 40
0.0
 41
1.0
 50
0.0
 71
     0
 42
0.2
  3
txt
  4

  0
ENDTAB
  0
TABLE
  2
VIEW
  5
6
330
0
100
AcDbSymbolTable
 70
     1
  0
ENDTAB
  0
TABLE
  2
UCS
  5
7
330
0
100
AcDbSymbolTable
 70
     0
  0
ENDTAB
  0
TABLE
  2
APPID
  5
9
330
0
100
AcDbSymbolTable
 70
     2
  0
APPID
  5
12
330
9
100
AcDbSymbolTableRecord
100
AcDbRegAppTableRecord
  2
ACAD
 70
     0
  0
APPID
  5
177
330
9
100
AcDbSymbolTableRecord
100
AcDbRegAppTableRecord
  2
ACAD_NAV_VCDISPLAY
 70
     0
  0
ENDTAB
  0
TABLE
  2
DIMSTYLE
  5
A
330
0
100
AcDbSymbolTable
 70
     1
100
AcDbDimStyleTable
 71
     0
  0
DIMSTYLE
105
27
330
A
100
AcDbSymbolTableRecord
100
AcDbDimStyleTableRecord
  2
Standard
 70
     0
340
11
  0
ENDTAB
  0
TABLE
  2
BLOCK_RECORD
  5
1
330
0
100
AcDbSymbolTable
 70
     1
  0
BLOCK_RECORD
  5
1F
330
1
100
AcDbSymbolTableRecord
100
AcDbBlockTableRecord
  2
*Model_Space
340
22
 70
     0
280
     1
281
     0
  0
BLOCK_RECORD
  5
1B
330
1
100
AcDbSymbolTableRecord
100
AcDbBlockTableRecord
  2
*Paper_Space
340
1E
 70
     0
280
     1
281
     0
  0
BLOCK_RECORD
  5
23
330
1
100
AcDbSymbolTableRecord
100
AcDbBlockTableRecord
  2
*Paper_Space0
340
26
 70
     0
280
     1
281
     0
  0
ENDTAB
  0
ENDSEC
  0
SECTION
  2
BLOCKS
  0
BLOCK
  5
20
330
1F
100
AcDbEntity
  8
0
100
AcDbBlockBegin
  2
*Model_Space
 70
     0
 10
0.0
 20
0.0
 30
0.0
  3
*Model_Space
  1

  0
ENDBLK
  5
21
330
1F
100
AcDbEntity
  8
0
100
AcDbBlockEnd
  0
BLOCK
  5
1C
330
1B
100
AcDbEntity
 67
     1
  8
0
100
AcDbBlockBegin
  2
*Paper_Space
 70
     0
 10
0.0
 20
0.0
 30
0.0
  3
*Paper_Space
  1

  0
ENDBLK
  5
1D
330
1B
100
AcDbEntity
 67
     1
  8
0
100
AcDbBlockEnd
  0
BLOCK
  5
24
330
23
100
AcDbEntity
 67
     1
  8
0
100
AcDbBlockBegin
  2
*Paper_Space0
 70
     0
 10
0.0
 20
0.0
 30
0.0
  3
*Paper_Space0
  1

  0
ENDBLK
  5
25
330
23
100
AcDbEntity
 67
     1
  8
0
100
AcDbBlockEnd
  0
ENDSEC
  0
SECTION
  2
ENTITIES
  0
SPLINE
  5
3C
330
1F
100
AcDbEntity
  8
Linee visibili 2D
100
AcDbSpline
210
0.0
220
0.0
230
1.0
 70
    24
 71
     2
 72
     6
 73
     3
 74
     0
 42
0.0000000001
 43
0.0000000001
 40
0.0
 40
0.0
 40
0.0
 40
0.1927532806796535
 40
0.1927532806796535
 40
0.1927532806796535
 10
1010.685336634353
 20
506.9977676698081
 30
0.0
 10
1010.685336634353
 20
506.9013910294683
 30
0.0
 10
1010.685336634353
 20
506.8050143891285
 30
0.0
  0
SPLINE
  5
3D
330
1F
100
AcDbEntity
  8
Linee visibili 2D
100
AcDbSpline
210
0.0
220
0.0
230
1.0
 70
    24
 71
     2
 72
     6
 73
     3
 74
     0
 42
0.0000000001
 43
0.0000000001
 40
0.0
 40
0.0
 40
0.0
 40
0.1519080516657709
 40
0.1519080516657709
 40
0.1519080516657709
 10
1115.484833597903
 20
507.7604309726813
 30
0.0
 10
1115.484833597903
 20
507.8363849985142
 30
0.0
 10
1115.484833597903
 20
507.9123390243471
 30
0.0
  0
SPLINE
  5
3E
330
1F
100
AcDbEntity
  8
Linee visibili 2D
100
AcDbSpline
210
0.0
220
0.0
230
1.0
 70
    24
 71
     2
 72
     6
 73
     3
 74
     0
 42
0.0000000001
 43
0.0000000001
 40
0.0
 40
0.0
 40
0.0
 40
9.105863643026026
 40
9.105863643026026
 40
9.105863643026026
 10
980.8459745894564
 20
397.0310411727613
 30
0.0
 10
985.3989064109695
 20
397.0310411727613
 30
0.0
 10
989.9518382324824
 20
397.0310411727613
 30
0.0
  0
SPLINE
  5
3F
330
1F
100
AcDbEntity
  8
Linee visibili 2D
100
AcDbSpline
210
0.0
220
0.0
230
1.0
 70
    24
 71
     2
 72
     6
 73
     3
 74
     0
 42
0.0000000001
 43
0.0000000001
 40
0.0
 40
0.0
 40
0.0
 40
9.105863643026026
 40
9.105863643026026
 40
9.105863643026026
 10
989.9518382324824
 20
470.5333983786731
 30
0.0
 10
985.3989064109695
 20
470.5333983786731
 30
0.0
 10
980.8459745894564
 20
470.5333983786731
 30
0.0
  0
SPLINE
  5
40
330
1F
100
AcDbEntity
  8
Linee visibili 2D
100
AcDbSpline
210
0.0
220
0.0
230
1.0
 70
    24
 71
     2
 72
     6
 73
     3
 74
     0
 42
0.0000000001
 43
0.0000000001
 40
0.0
 40
0.0
 40
0.0
 40
13.50205642859275
 40
13.50205642859275
 40
13.50205642859275
 10
989.9518382324824
 20
389.0178631522482
 30
0.0
 10
996.7018382324825
 20
388.9000414639827
 30
0.0
 10
1003.451838232482
 20
388.7822197757172
 30
0.0
  0
SPLINE
  5
41
330
1F
100
AcDbEntity
  8
Linee visibili 2D
100
AcDbSpline
210
0.0
220
0.0
230
1.0
 70
    24
 71
     2
 72
     6
 73
     3
 74
     0
 42
0.0000000001
 43
0.0000000001
 40
0.0
 40
0.0
 40
0.0
 40
13.50205642859295
 40
13.50205642859295
 40
13.50205642859295
 10
1127.449572654792
 20
494.3643316103747
 30
0.0
 10
1127.272851338202
 20
501.1130464159128
 30
0.0
 10
1127.096130021611
 20
507.8617612214509
 30
0.0
  0
SPLINE
  5
42
330
1F
100
AcDbEntity
  8
Linee visibili 2D
100
AcDbSpline
210
0.0
220
0.0
230
1.0
 70
    12
 71
     3
 72
    15
 73
    11
 74
     0
 42
0.0000000001
 43
0.0000000001
 40
0.0
 40
0.0
 40
0.0
 40
0.0
 40
0.1503187728230841
 40
0.1503187728230841
 40
0.1503187728230841
 40
0.6503187728230833
 40
1.150318772823082
 40
1.150318772823082
 40
1.150318772823082
 40
2.15031877282308
 40
2.15031877282308
 40
2.15031877282308
 40
2.15031877282308
 10
1010.685336681434
 20
506.9977556138345
 30
0.0
 41
1.0
 10
1010.735441031149
 20
506.9981928678702
 30
0.0
 41
1.0
 10
1010.785545380864
 20
506.9986301219057
 30
0.0
 41
1.0
 10
1010.835649730579
 20
506.9990673759415
 30
0.0
 41
1.0
 10
1010.863704999953
 20
506.9993242669527
 30
0.0
 41
1.0
 10
1011.189733092784
 20
507.002169471015
 30
0.0
 41
1.0
 10
1011.944502995013
 20
507.008756248164
 30
0.0
 41
1.0
 10
1012.359174423274
 20
507.0123750308952
 30
0.0
 41
1.0
 10
1012.562656913203
 20
507.0141507956825
 30
0.0
 41
1.0
 10
1012.768523449587
 20
507.015947365728
 30
0.0
 41
1.0
 10
1012.981057022085
 20
507.0178021181163
 30
0.0
 41
1.0
  0
SPLINE
  5
43
330
1F
100
AcDbEntity
  8
Linee visibili 2D
100
AcDbSpline
210
0.0
220
0.0
230
1.0
 70
    24
 71
     2
 72
     6
 73
     3
 74
     0
 42
0.0000000001
 43
0.0000000001
 40
0.0
 40
0.0
 40
0.0
 40
102.5076797541619
 40
102.5076797541619
 40
102.5076797541619
 10
1012.981057022085
 20
507.0178021181163
 30
0.0
 10
1064.232945309995
 20
507.4650705712318
 30
0.0
 10
1115.484833597903
 20
507.9123390243471
 30
0.0
  0
SPLINE
  5
44
330
1F
100
AcDbEntity
  8
Linee visibili 2D
100
AcDbSpline
210
0.0
220
0.0
230
1.0
 70
    24
 71
     2
 72
     6
 73
     3
 74
     0
 42
0.0000000001
 43
0.0000000001
 40
0.0
 40
0.0
 40
0.0
 40
73.50198928166114
 40
73.50198928166114
 40
73.50198928166114
 10
980.8459745894564
 20
397.0312251348866
 30
0.0
 10
980.8459745894564
 20
433.7822197757172
 30
0.0
 10
980.8459745894564
 20
470.5332144165478
 30
0.0
  0
SPLINE
  5
45
330
1F
100
AcDbEntity
  8
Linee visibili 2D
100
AcDbSpline
210
0.0
220
0.0
230
1.0
 70
    12
 71
     2
 72
     6
 73
     3
 74
     0
 42
0.0000000001
 43
0.0000000001
 40
0.0
 40
0.0
 40
0.0
 40
21.67895963112075
 40
21.67895963112075
 40
21.67895963112075
 10
999.8225105341044
 20
502.9816455286524
 30
0.0
 41
1.0
 10
990.0636890971048
 20
496.3960395822547
 30
0.0
 41
0.8851897720106897
 10
989.9533763498995
 20
484.623502361321
 30
0.0
 41
1.0
  0
SPLINE
  5
46
330
1F
100
AcDbEntity
  8
Linee visibili 2D
100
AcDbSpline
210
0.0
220
0.0
230
1.0
 70
    12
 71
     2
 72
     6
 73
     3
 74
     0
 42
0.0000000001
 43
0.0000000001
 40
0.0
 40
0.0
 40
0.0
 40
0.2631380771000635
 40
0.2631380771000635
 40
0.2631380771000635
 10
989.9533763313003
 20
484.623500770756
 30
0.0
 41
1.0
 10
989.9518372818668
 20
484.4919392318657
 30
0.0
 41
0.999982874126311
 10
989.9518382325107
 20
484.3603686911378
 30
0.0
 41
1.0
  0
SPLINE
  5
47
330
1F
100
AcDbEntity
  8
Linee visibili 2D
100
AcDbSpline
210
0.0
220
0.0
230
1.0
 70
    24
 71
     2
 72
     6
 73
     3
 74
     0
 42
0.0000000001
 43
0.0000000001
 40
0.0
 40
0.0
 40
0.0
 40
2.15127427903252
 40
2.15127427903252
 40
2.15127427903252
 10
989.9518382325107
 20
484.3603686911378
 30
0.0
 10
989.9518382324966
 20
483.2847315516215
 30
0.0
 10
989.9518382324826
 20
482.2090944121052
 30
0.0
  0
SPLINE
  5
48
330
1F
100
AcDbEntity
  8
Linee visibili 2D
100
AcDbSpline
210
0.0
220
0.0
230
1.0
 70
    24
 71
     2
 72
     6
 73
     3
 74
     0
 42
0.0000000001
 43
0.0000000001
 40
0.0
 40
0.0
 40
0.0
 40
2.06672066079642
 40
2.06672066079642
 40
2.06672066079642
 10
989.9518382324826
 20
482.2090914563768
 30
0.0
 10
989.9518382324826
 20
481.1757311259786
 30
0.0
 10
989.9518382324826
 20
480.1423707955803
 30
0.0
  0
SPLINE
  5
49
330
1F
100
AcDbEntity
  8
Linee visibili 2D
100
AcDbSpline
210
0.0
220
0.0
230
1.0
 70
    24
 71
     2
 72
     6
 73
     3
 74
     0
 42
0.0000000001
 43
0.0000000001
 40
0.0
 40
0.0
 40
0.0
 40
13.13594107884751
 40
13.13594107884751
 40
13.13594107884751
 10
989.9518382324826
 20
480.1423632364429
 30
0.0
 10
989.9518382324824
 20
473.5743926970191
 30
0.0
 10
989.9518382324824
 20
467.0064221575954
 30
0.0
  0
SPLINE
  5
4A
330
1F
100
AcDbEntity
  8
Linee visibili 2D
100
AcDbSpline
210
0.0
220
0.0
230
1.0
 70
    24
 71
     2
 72
     6
 73
     3
 74
     0
 42
0.0000000001
 43
0.0000000001
 40
0.0
 40
0.0
 40
0.0
 40
77.98855900534721
 40
77.98855900534721
 40
77.98855900534721
 10
989.9518382324824
 20
467.0064221575954
 30
0.0
 10
989.9518382324824
 20
428.0121426549217
 30
0.0
 10
989.9518382324824
 20
389.0178631522481
 30
0.0
  0
SPLINE
  5
4C
330
1F
100
AcDbEntity
  8
Linee visibili 2D - Tangent
100
AcDbSpline
210
0.0
220
0.0
230
1.0
 70
    12
 71
     2
 72
     6
 73
     3
 74
     0
 42
0.0000000001
 43
0.0000000001
 40
0.0
 40
0.0
 40
0.0
 40
13.50371701938427
 40
13.50371701938427
 40
13.50371701938427
 10
1003.451838232483
 20
467.3232394381938
 30
0.0
 41
1.0
 10
996.701830355076
 20
467.1651664645183
 30
0.0
 41
0.9999999987635437
 10
989.9518382324822
 20
467.0064221576247
 30
0.0
 41
1.0
  0
SPLINE
  5
4D
330
1F
100
AcDbEntity
  8
Linee visibili 2D
100
AcDbSpline
210
0.0
220
0.0
230
1.0
 70
    24
 71
     2
 72
     6
 73
     3
 74
     0
 42
0.0000000001
 43
0.0000000001
 40
0.0
 40
0.0
 40
0.0
 40
2.256028323917462
 40
2.256028323917462
 40
2.256028323917462
 10
1003.451838232482
 20
483.3583669698603
 30
0.0
 10
1003.451838232482
 20
482.2303528079015
 30
0.0
 10
1003.451838232482
 20
481.1023386459428
 30
0.0
  0
SPLINE
  5
4E
330
1F
100
AcDbEntity
  8
Linee visibili 2D
100
AcDbSpline
210
0.0
220
0.0
230
1.0
 70
    24
 71
     2
 72
     6
 73
     3
 74
     0
 42
0.0000000001
 43
0.0000000001
 40
0.0
 40
0.0
 40
0.0
 40
0.8959133760786812
 40
0.8959133760786812
 40
0.8959133760786812
 10
1003.451838232482
 20
484.2551011821575
 30
0.0
 10
1003.451838232482
 20
483.8071444941181
 30
0.0
 10
1003.451838232482
 20
483.3591878060787
 30
0.0
  0
SPLINE
  5
4F
330
1F
100
AcDbEntity
  8
Linee visibili 2D
100
AcDbSpline
210
0.0
220
0.0
230
1.0
 70
    24
 71
     2
 72
     6
 73
     3
 74
     0
 42
0.0000000001
 43
0.0000000001
 40
0.0
 40
0.0
 40
0.0
 40
0.1046415411232147
 40
0.1046415411232147
 40
0.1046415411232147
 10
1003.451838232486
 20
484.3604297430107
 30
0.0
 10
1003.451838232484
 20
484.3081089724491
 30
0.0
 10
1003.451838232483
 20
484.2557882018875
 30
0.0
  0
SPLINE
  5
50
330
1F
100
AcDbEntity
  8
Linee visibili 2D
100
AcDbSpline
210
0.0
220
0.0
230
1.0
 70
    24
 71
     2
 72
     6
 73
     3
 74
     0
 42
0.0000000001
 43
0.0000000001
 40
0.0
 40
0.0
 40
0.0
 40
78.54101966248009
 40
78.54101966248009
 40
78.54101966248009
 10
1003.451838232482
 20
467.3232394381973
 30
0.0
 10
1003.451838232482
 20
428.0527296069572
 30
0.0
 10
1003.451838232482
 20
388.7822197757172
 30
0.0
  0
SPLINE
  5
51
330
1F
100
AcDbEntity
  8
Linee visibili 2D
100
AcDbSpline
210
0.0
220
0.0
230
1.0
 70
    24
 71
     2
 72
     6
 73
     3
 74
     0
 42
0.0000000001
 43
0.0000000001
 40
0.0
 40
0.0
 40
0.0
 40
11.96630843907621
 40
11.96630843907621
 40
11.96630843907621
 10
1003.451838232482
 20
479.2895478772735
 30
0.0
 10
1003.451838232482
 20
473.3063936577354
 30
0.0
 10
1003.451838232482
 20
467.3232394381973
 30
0.0
  0
SPLINE
  5
52
330
1F
100
AcDbEntity
  8
Linee visibili 2D
100
AcDbSpline
210
0.0
220
0.0
230
1.0
 70
    24
 71
     2
 72
     6
 73
     3
 74
     0
 42
0.0000000001
 43
0.0000000001
 40
0.0
 40
0.0
 40
0.0
 40
1.812790768669287
 40
1.812790768669287
 40
1.812790768669287
 10
1003.451838232482
 20
481.1023386459428
 30
0.0
 10
1003.451838232482
 20
480.1959432616081
 30
0.0
 10
1003.451838232482
 20
479.2895478772735
 30
0.0
  0
SPLINE
  5
53
330
1F
100
AcDbEntity
  8
Linee visibili 2D - Tangent
100
AcDbSpline
210
0.0
220
0.0
230
1.0
 70
    12
 71
     2
 72
     6
 73
     3
 74
     0
 42
0.0000000001
 43
0.0000000001
 40
0.0
 40
0.0
 40
0.0
 40
13.5027454447308
 40
13.5027454447308
 40
13.5027454447308
 10
1015.646769560002
 20
506.8891573873369
 30
0.0
 41
1.0
 10
1015.569450836423
 20
500.1382274175731
 30
0.0
 41
0.9999999999116614
 10
1015.492311579522
 20
493.3872953947549
 30
0.0
 41
1.0
  0
SPLINE
  5
54
330
1F
100
AcDbEntity
  8
Linee visibili 2D
100
AcDbSpline
210
0.0
220
0.0
230
1.0
 70
    24
 71
     2
 72
     6
 73
     3
 74
     0
 42
0.0000000001
 43
0.0000000001
 40
0.0
 40
0.0
 40
0.0
 40
1.925558486323948
 40
1.925558486323948
 40
1.925558486323948
 10
1015.492311579508
 20
493.387295394755
 30
0.0
 10
1014.529568996029
 20
493.3788936675125
 30
0.0
 10
1013.56682641255
 20
493.3704919402701
 30
0.0
  0
SPLINE
  5
55
330
1F
100
AcDbEntity
  8
Linee visibili 2D
100
AcDbSpline
210
0.0
220
0.0
230
1.0
 70
    24
 71
     2
 72
     6
 73
     3
 74
     0
 42
0.0000000001
 43
0.0000000001
 40
0.0
 40
0.0
 40
0.0
 40
111.9615242270582
 40
111.9615242270582
 40
111.9615242270582
 10
1127.449572654792
 20
494.3643316103746
 30
0.0
 10
1071.47094211715
 20
493.8758135025648
 30
0.0
 10
1015.492311579508
 20
493.387295394755
 30
0.0
  0
SPLINE
  5
56
330
1F
100
AcDbEntity
  8
Linee visibili 2D
100
AcDbSpline
210
0.0
220
0.0
230
1.0
 70
    12
 71
     2
 72
     6
 73
     3
 74
     0
 42
0.0000000001
 43
0.0000000001
 40
0.0
 40
0.0
 40
0.0
 40
1.200289313468517
 40
1.200289313468517
 40
1.200289313468517
 10
1013.566826412544
 20
493.3704919411846
 30
0.0
 41
1.0
 10
1012.966704612731
 20
493.3652541560812
 30
0.0
 41
0.9999999999999991
 10
1012.366582813353
 20
493.3600163200663
 30
0.0
 41
1.0
  0
SPLINE
  5
57
330
1F
100
AcDbEntity
  8
Linee visibili 2D
100
AcDbSpline
210
0.0
220
0.0
230
1.0
 70
    12
 71
     2
 72
     6
 73
     3
 74
     0
 42
0.0000000001
 43
0.0000000001
 40
0.0
 40
0.0
 40
0.0
 40
12.95511029946053
 40
12.95511029946053
 40
12.95511029946053
 10
1011.273187609141
 20
493.282906353489
 30
0.0
 41
1.0
 10
1003.451847038208
 20
492.2497167793641
 30
0.0
 41
0.7519847706184137
 10
1003.451838232486
 20
484.3604298012829
 30
0.0
 41
1.0
  0
SPLINE
  5
58
330
1F
100
AcDbEntity
  8
Linee visibili 2D
100
AcDbSpline
210
0.0
220
0.0
230
1.0
 70
    12
 71
     2
 72
     6
 73
     3
 74
     0
 42
0.0000000001
 43
0.0000000001
 40
0.0
 40
0.0
 40
0.0
 40
1.062422079191621
 40
1.062422079191621
 40
1.062422079191621
 10
1012.362365229236
 20
493.359975427951
 30
0.0
 41
1.0
 10
1011.83053568503
 20
493.3552395987901
 30
0.0
 41
0.9981971141436865
 10
1011.303105468899
 20
493.286811101229
 30
0.0
 41
1.0
  0
SPLINE
  5
59
330
1F
100
AcDbEntity
  8
Linee visibili 2D
100
AcDbSpline
210
0.0
220
0.0
230
1.0
 70
    24
 71
     2
 72
     6
 73
     3
 74
     0
 42
0.0000000001
 43
0.0000000001
 40
0.0
 40
0.0
 40
0.0
 40
0.7076519414809326
 40
0.7076519414809326
 40
0.7076519414809326
 10
1011.466202143037
 20
496.2704689153654
 30
0.0
 10
1011.820028113778
 20
496.2704689153654
 30
0.0
 10
1012.173854084518
 20
496.2704689153654
 30
0.0
  0
SPLINE
  5
5A
330
1F
100
AcDbEntity
  8
Linee visibili 2D
100
AcDbSpline
210
0.0
220
0.0
230
1.0
 70
    24
 71
     2
 72
     6
 73
     3
 74
     0
 42
0.0000000001
 43
0.0000000001
 40
0.0
 40
0.0
 40
0.0
 40
1.551667909838765
 40
1.551667909838765
 40
1.551667909838765
 10
1013.807100010848
 20
506.8731028344035
 30
0.0
 10
1013.031295597309
 20
506.866332491855
 30
0.0
 10
1012.255491183769
 20
506.8595621493066
 30
0.0
  0
SPLINE
  5
5B
330
1F
100
AcDbEntity
  8
Linee visibili 2D
100
AcDbSpline
210
0.0
220
0.0
230
1.0
 70
    24
 71
     2
 72
     6
 73
     3
 74
     0
 42
0.0000000001
 43
0.0000000001
 40
0.0
 40
0.0
 40
0.0
 40
1.839728963304393
 40
1.839728963304393
 40
1.839728963304393
 10
1015.646769559936
 20
506.889157387337
 30
0.0
 10
1014.726940103905
 20
506.8811301572842
 30
0.0
 10
1013.807110647873
 20
506.8731029272314
 30
0.0
  0
SPLINE
  5
5C
330
1F
100
AcDbEntity
  8
Linee visibili 2D
100
AcDbSpline
210
0.0
220
0.0
230
1.0
 70
    24
 71
     2
 72
     6
 73
     3
 74
     0
 42
0.0000000001
 43
0.0000000001
 40
0.0
 40
0.0
 40
0.0
 40
111.4536042734126
 40
111.4536042734126
 40
111.4536042734126
 10
1127.096130021611
 20
507.8617612214507
 30
0.0
 10
1071.371449790774
 20
507.3754593043938
 30
0.0
 10
1015.646769559936
 20
506.889157387337
 30
0.0
  0
SPLINE
  5
5D
330
1F
100
AcDbEntity
  8
Linee visibili 2D
100
AcDbSpline
210
0.0
220
0.0
230
1.0
 70
    12
 71
     2
 72
     6
 73
     3
 74
     0
 42
0.0000000001
 43
0.0000000001
 40
0.0
 40
0.0
 40
0.0
 40
13.1951476484103
 40
13.1951476484103
 40
13.1951476484103
 10
1012.236504361713
 20
506.8596540287549
 30
0.0
 41
1.0
 10
1005.442003365571
 20
506.8013243702239
 30
0.0
 41
0.9570343989005529
 10
999.8225105341044
 20
502.9816455286524
 30
0.0
 41
1.0
  0
SPLINE
  5
5E
330
1F
100
AcDbEntity
  8
Linee visibili 2D
100
AcDbSpline
210
0.0
220
0.0
230
1.0
 70
    24
 71
     2
 72
     6
 73
     3
 74
     0
 42
0.0000000001
 43
0.0000000001
 40
0.0
 40
0.0
 40
0.0
 40
13.48797792067694
 40
13.48797792067694
 40
13.48797792067694
 10
890.0043240421259
 20
507.3403048863638
 30
0.0
 10
890.122027360252
 20
500.5973431464404
 30
0.0
 10
890.2397306783782
 20
493.8543814065171
 30
0.0
  0
SPLINE
  5
5F
330
1F
100
AcDbEntity
  8
Linee visibili 2D
100
AcDbSpline
210
0.0
220
0.0
230
1.0
 70
    24
 71
     2
 72
     6
 73
     3
 74
     0
 42
0.0000000001
 43
0.0000000001
 40
0.0
 40
0.0
 40
0.0
 40
13.47435142975031
 40
13.47435142975031
 40
13.47435142975031
 10
770.239968808153
 20
493.840819238237
 30
0.0
 10
770.3575532142223
 20
500.5769687704662
 30
0.0
 10
770.4751376202916
 20
507.3131183026955
 30
0.0
  0
SPLINE
  5
60
330
1F
100
AcDbEntity
  8
Linee visibili 2D
100
AcDbSpline
210
0.0
220
0.0
230
1.0
 70
    12
 71
     2
 72
     6
 73
     3
 74
     0
 42
0.0000000001
 43
0.0000000001
 40
0.0
 40
0.0
 40
0.0
 40
2.604215432527644
 40
2.604215432527644
 40
2.604215432527644
 10
815.9921069962752
 20
507.8842489067577
 30
0.0
 41
1.0
 10
814.6900103698124
 20
507.8788490316606
 30
0.0
 41
0.9999998767861047
 10
813.3879197462517
 20
507.8721563989918
 30
0.0
 41
1.0
  0
SPLINE
  5
61
330
1F
100
AcDbEntity
  8
Linee visibili 2D
100
AcDbSpline
210
0.0
220
0.0
230
1.0
 70
    12
 71
     2
 72
     6
 73
     3
 74
     0
 42
0.0000000001
 43
0.0000000001
 40
0.0
 40
0.0
 40
0.0
 40
17.47214503744843
 40
17.47214503744843
 40
17.47214503744843
 10
838.9760326379953
 20
507.902105946337
 30
0.0
 41
1.0
 10
830.2399681103489
 20
507.9225721304418
 30
0.0
 41
0.9999972558344783
 10
821.5039035827025
 20
507.9021059463285
 30
0.0
 41
1.0
  0
SPLINE
  5
62
330
1F
100
AcDbEntity
  8
Linee visibili 2D
100
AcDbSpline
210
0.0
220
0.0
230
1.0
 70
    12
 71
     2
 72
     6
 73
     3
 74
     0
 42
0.0000000001
 43
0.0000000001
 40
0.0
 40
0.0
 40
0.0
 40
2.604215412520987
 40
2.604215412520987
 40
2.604215412520987
 10
847.0920164675474
 20
507.8721563990455
 30
0.0
 41
1.0
 10
845.7899258539898
 20
507.8788490316577
 30
0.0
 41
0.9999998767861065
 10
844.4878292375303
 20
507.8842489067175
 30
0.0
 41
1.0
  0
SPLINE
  5
63
330
1F
100
AcDbEntity
  8
Linee visibili 2D
100
AcDbSpline
210
0.0
220
0.0
230
1.0
 70
    12
 71
     2
 72
     6
 73
     3
 74
     0
 42
0.0000000001
 43
0.0000000001
 40
0.0
 40
0.0
 40
0.0
 40
2.62904152502255
 40
2.62904152502255
 40
2.62904152502255
 10
839.9876907420082
 20
483.3591878060787
 30
0.0
 41
1.0
 10
840.4637525052333
 20
482.121138600944
 30
0.0
 41
0.9865932985093861
 10
841.3131330374033
 20
481.1023386459428
 30
0.0
 41
1.0
  0
SPLINE
  5
64
330
1F
100
AcDbEntity
  8
Linee visibili 2D
100
AcDbSpline
210
0.0
220
0.0
230
1.0
 70
    12
 71
     2
 72
     6
 73
     3
 74
     0
 42
0.0000000001
 43
0.0000000001
 40
0.0
 40
0.0
 40
0.0
 40
0.9311027322106475
 40
0.9311027322106475
 40
0.9311027322106475
 10
839.7377798972804
 20
484.2551011821575
 30
0.0
 41
1.0
 10
839.8269378698881
 20
483.7971589629869
 30
0.0
 41
0.9968221885503661
 10
839.9876907420082
 20
483.3591878060787
 30
0.0
 41
1.0
  0
SPLINE
  5
65
330
1F
100
AcDbEntity
  8
Linee visibili 2D
100
AcDbSpline
210
0.0
220
0.0
230
1.0
 70
    12
 71
     2
 72
     6
 73
     3
 74
     0
 42
0.0000000001
 43
0.0000000001
 40
0.0
 40
0.0
 40
0.0
 40
0.1071339366950766
 40
0.1071339366950766
 40
0.1071339366950766
 10
839.7182036852449
 20
484.3604298012829
 30
0.0
 41
1.0
 10
839.7274994819683
 20
484.3076739918865
 30
0.0
 41
0.9999563097206214
 10
839.7377798972804
 20
484.2551011821575
 30
0.0
 41
1.0
  0
SPLINE
  5
66
330
1F
100
AcDbEntity
  8
Linee visibili 2D
100
AcDbSpline
210
0.0
220
0.0
230
1.0
 70
    24
 71
     2
 72
     6
 73
     3
 74
     0
 42
0.0000000001
 43
0.0000000001
 40
0.0
 40
0.0
 40
0.0
 40
0.1064325268907793
 40
0.1064325268907793
 40
0.1064325268907793
 10
820.7422608668512
 20
484.2557882018877
 30
0.0
 10
820.75198237203
 20
484.3081089724492
 30
0.0
 10
820.7617038772086
 20
484.3604297430107
 30
0.0
  0
SPLINE
  5
67
330
1F
100
AcDbEntity
  8
Linee visibili 2D
100
AcDbSpline
210
0.0
220
0.0
230
1.0
 70
    24
 71
     2
 72
     6
 73
     3
 74
     0
 42
0.0000000001
 43
0.0000000001
 40
0.0
 40
0.0
 40
0.0
 40
0.9316866952780433
 40
0.9316866952780433
 40
0.9316866952780433
 10
820.491910651223
 20
483.3583669698606
 30
0.0
 10
820.617085759037
 20
483.8070775858741
 30
0.0
 10
820.7422608668512
 20
484.2557882018877
 30
0.0
  0
SPLINE
  5
68
330
1F
100
AcDbEntity
  8
Linee visibili 2D
100
AcDbSpline
210
0.0
220
0.0
230
1.0
 70
    12
 71
     2
 72
     6
 73
     3
 74
     0
 42
0.0000000001
 43
0.0000000001
 40
0.0
 40
0.0
 40
0.0
 40
2.627461727003112
 40
2.627461727003112
 40
2.627461727003112
 10
819.167188790246
 20
481.1028508867524
 30
0.0
 41
1.0
 10
820.0156257918573
 20
482.121321727445
 30
0.0
 41
0.9866598537888426
 10
820.491910651223
 20
483.3583669698606
 30
0.0
 41
1.0
  0
SPLINE
  5
69
330
1F
100
AcDbEntity
  8
Linee visibili 2D
100
AcDbSpline
210
0.0
220
0.0
230
1.0
 70
    12
 71
     2
 72
     6
 73
     3
 74
     0
 42
0.0000000001
 43
0.0000000001
 40
0.0
 40
0.0
 40
0.0
 40
2.51868531517702
 40
2.51868531517702
 40
2.51868531517702
 10
817.4229943028739
 20
479.2896318509056
 30
0.0
 41
1.0
 10
818.3685178348291
 20
480.1256102290189
 30
0.0
 41
0.996736358276923
 10
819.167188790246
 20
481.1028508867524
 30
0.0
 41
1.0
  0
SPLINE
  5
6A
330
1F
100
AcDbEntity
  8
Linee visibili 2D
100
AcDbSpline
210
0.0
220
0.0
230
1.0
 70
     8
 71
     3
 72
    12
 73
     8
 74
     0
 42
0.0000000001
 43
0.0000000001
 40
0.0
 40
0.0
 40
0.0
 40
0.0
 40
2.527367072118694
 40
6.306987379196159
 40
10.56481989651252
 40
16.88789949838684
 40
20.97430135032326
 40
20.97430135032326
 40
20.97430135032326
 40
20.97430135032326
 10
800.239968112038
 20
467.3232394381973
 30
0.0
 10
800.8584530812528
 20
467.8954958655867
 30
0.0
 10
802.4717264188261
 20
469.2454226504056
 30
0.0
 10
805.31201527861
 20
471.3303391904503
 30
0.0
 10
809.3411822925938
 20
473.9180695604104
 30
0.0
 10
813.5874662185688
 20
476.3467854593423
 30
0.0
 10
816.411041409318
 20
478.3742987254458
 30
0.0
 10
817.4229943028739
 20
479.2896318509056
 30
0.0
  0
SPLINE
  5
6B
330
1F
100
AcDbEntity
  8
Linee visibili 2D
100
AcDbSpline
210
0.0
220
0.0
230
1.0
 70
    12
 71
     2
 72
    12
 73
     9
 74
     0
 42
0.0000000001
 43
0.0000000001
 40
0.0
 40
0.0
 40
0.0
 40
54.26696244065104
 40
54.26696244065104
 40
108.533924881302
 40
108.533924881302
 40
162.8008873219531
 40
162.8008873219531
 40
217.0678497626042
 40
217.0678497626042
 40
217.0678497626042
 10
860.2399681120754
 20
467.3232394381973
 30
0.0
 41
1.0
 10
883.3329688055888
 20
446.6682316961155
 30
0.0
 41
0.8236571160905942
 10
872.2777242653744
 20
417.7252257359164
 30
0.0
 41
1.0
 10
861.2224797251599
 20
388.7822197757172
 30
0.0
 41
0.8236571160905944
 10
830.2399681120567
 20
388.7822197757172
 30
0.0
 41
1.0
 10
799.2574564989536
 20
388.7822197757172
 30
0.0
 41
0.8236571160905942
 10
788.2022119587389
 20
417.7252257359164
 30
0.0
 41
1.0
 10
777.1469674185243
 20
446.6682316961156
 30
0.0
 41
0.8236571160905954
 10
800.239968112038
 20
467.3232394381973
 30
0.0
 41
1.0
  0
SPLINE
  5
6C
330
1F
100
AcDbEntity
  8
Linee visibili 2D
100
AcDbSpline
210
0.0
220
0.0
230
1.0
 70
     8
 71
     3
 72
    13
 73
     9
 74
     0
 42
0.0000000001
 43
0.0000000001
 40
0.0
 40
0.0
 40
0.0
 40
0.0
 40
1.962731408905664
 40
4.011168299747057
 40
10.34834282850888
 40
14.71248782943405
 40
18.49435764646878
 40
20.97462837031541
 40
20.97462837031541
 40
20.97462837031541
 40
20.97462837031541
 10
843.0570413087609
 20
479.2895478772735
 30
0.0
 10
843.5463880591655
 20
478.8559686432003
 30
0.0
 10
844.5776639120381
 20
478.0013387520784
 30
0.0
 10
847.4258300880611
 20
476.0519778123294
 30
0.0
 10
851.112892376703
 20
473.9339262671212
 30
0.0
 10
855.174393927937
 20
471.3217083577335
 30
0.0
 10
858.0320240830001
 20
469.2256471857555
 30
0.0
 10
859.6350118223783
 20
467.887552147312
 30
0.0
 10
860.2399681120754
 20
467.3232394381973
 30
0.0
  0
SPLINE
  5
6D
330
1F
100
AcDbEntity
  8
Linee visibili 2D
100
AcDbSpline
210
0.0
220
0.0
230
1.0
 70
    12
 71
     2
 72
     6
 73
     3
 74
     0
 42
0.0000000001
 43
0.0000000001
 40
0.0
 40
0.0
 40
0.0
 40
2.51811399683798
 40
2.51811399683798
 40
2.51811399683798
 10
841.3131330374033
 20
481.1023386459428
 30
0.0
 41
1.0
 10
842.1125395476227
 20
480.1261523037696
 30
0.0
 41
0.9968121310719698
 10
843.0570413087609
 20
479.2895478772735
 30
0.0
 41
1.0
  0
SPLINE
  5
6E
330
1F
100
AcDbEntity
  8
Linee visibili 2D
100
AcDbSpline
210
0.0
220
0.0
230
1.0
 70
    12
 71
     2
 72
     6
 73
     3
 74
     0
 42
0.0000000001
 43
0.0000000001
 40
0.0
 40
0.0
 40
0.0
 40
3.349962424964574
 40
3.349962424964574
 40
3.349962424964574
 10
860.2399681120708
 20
493.3872953947592
 30
0.0
 41
1.0
 10
858.565008105433
 20
493.3788669424384
 30
0.0
 41
0.9999999998727084
 10
856.8900478306849
 20
493.3704919402816
 30
0.0
 41
1.0
  0
SPLINE
  5
6F
330
1F
100
AcDbEntity
  8
Linee visibili 2D
100
AcDbSpline
210
0.0
220
0.0
230
1.0
 70
    12
 71
     2
 72
     6
 73
     3
 74
     0
 42
0.0000000001
 43
0.0000000001
 40
0.0
 40
0.0
 40
0.0
 40
29.68390424300615
 40
29.68390424300615
 40
29.68390424300615
 10
889.9199007655397
 20
493.7867296004635
 30
0.0
 41
1.0
 10
875.0831520797476
 20
493.3479258968519
 30
0.0
 41
0.999870243204127
 10
860.2399681120708
 20
493.387295394755
 30
0.0
 41
1.0
  0
SPLINE
  5
70
330
1F
100
AcDbEntity
  8
Linee visibili 2D
100
AcDbSpline
210
0.0
220
0.0
230
1.0
 70
    12
 71
     2
 72
    12
 73
     9
 74
     0
 42
0.0000000001
 43
0.0000000001
 40
-255.2544031041445
 40
-255.2544031041445
 40
-255.2544031041445
 40
-235.6194490192102
 40
-235.6194490192102
 40
-177.6616153291679
 40
-177.6616153291679
 40
-119.7037816391015
 40
-119.7037816391015
 40
-117.6738415813125
 40
-117.6738415813125
 40
-117.6738415813125
 10
770.3355381074514
 20
493.8111988162157
 30
0.0
 41
0.9225075026092284
 10
769.7922849902998
 20
493.8950916046557
 30
0.0
 41
0.9483383350728189
 10
772.2844185346919
 20
493.9762550955568
 30
0.0
 41
1.0
 10
801.2602340156444
 20
494.4628973908875
 30
0.0
 41
0.9999490238115264
 10
830.2399681120219
 20
494.3643316103751
 30
0.0
 41
1.0
 10
859.2197022084111
 20
494.4628973908875
 30
0.0
 41
0.9999490238115265
 10
888.1955176893757
 20
493.9762550955572
 30
0.0
 41
1.0
 10
889.2116772524344
 20
493.9752311364595
 30
0.0
 41
0.9982442385177094
 10
890.2205854557447
 20
493.8540472126841
 30
0.0
 41
1.0
  0
SPLINE
  5
71
330
1F
100
AcDbEntity
  8
Linee visibili 2D
100
AcDbSpline
210
0.0
220
0.0
230
1.0
 70
    12
 71
     2
 72
     6
 73
     3
 74
     0
 42
0.0000000001
 43
0.0000000001
 40
0.0
 40
0.0
 40
0.0
 40
29.71715360387973
 40
29.71715360387973
 40
29.71715360387973
 10
800.239968112038
 20
493.3872953947551
 30
0.0
 41
1.0
 10
785.3801190125238
 20
493.3446702712403
 30
0.0
 41
0.9998654051577736
 10
770.5268711452163
 20
493.7895971796347
 30
0.0
 41
1.0
  0
SPLINE
  5
72
330
1F
100
AcDbEntity
  8
Linee visibili 2D
100
AcDbSpline
210
0.0
220
0.0
230
1.0
 70
    24
 71
     2
 72
     6
 73
     3
 74
     0
 42
0.0000000001
 43
0.0000000001
 40
0.0
 40
0.0
 40
0.0
 40
3.305749744946013
 40
3.305749744946013
 40
3.305749744946013
 10
803.545676267025
 20
493.3707131674242
 30
0.0
 10
801.8928221895315
 20
493.3790042810896
 30
0.0
 10
800.239968112038
 20
493.387295394755
 30
0.0
  0
SPLINE
  5
73
330
1F
100
AcDbEntity
  8
Linee visibili 2D
100
AcDbSpline
210
0.0
220
0.0
230
1.0
 70
    24
 71
     2
 72
     6
 73
     3
 74
     0
 42
0.0000000001
 43
0.0000000001
 40
0.0
 40
0.0
 40
0.0
 40
2.230651570901372
 40
2.230651570901372
 40
2.230651570901372
 10
805.7763020032327
 20
493.3599774451765
 30
0.0
 10
804.6609891351289
 20
493.3653453063004
 30
0.0
 10
803.545676267025
 20
493.3707131674242
 30
0.0
  0
SPLINE
  5
74
330
1F
100
AcDbEntity
  8
Linee visibili 2D
100
AcDbSpline
210
0.0
220
0.0
230
1.0
 70
    12
 71
     2
 72
     6
 73
     3
 74
     0
 42
0.0000000001
 43
0.0000000001
 40
0.0
 40
0.0
 40
0.0
 40
2.170047149466324
 40
2.170047149466324
 40
2.170047149466324
 10
856.8900478306851
 20
493.3704919402697
 30
0.0
 41
1.0
 10
855.8050382670963
 20
493.3649731278616
 30
0.0
 41
0.9999999664632406
 10
854.720025990473
 20
493.3600163197833
 30
0.0
 41
1.0
  0
SPLINE
  5
75
330
1F
100
AcDbEntity
  8
Linee visibili 2D
100
AcDbSpline
210
0.0
220
0.0
230
1.0
 70
     8
 71
     3
 72
    12
 73
     8
 74
     0
 42
0.0000000001
 43
0.0000000001
 40
0.0
 40
0.0
 40
0.0
 40
0.0
 40
3.592133007680907
 40
6.235286635711869
 40
10.21680366180733
 40
13.93052851830905
 40
17.79183570926802
 40
17.79183570926802
 40
17.79183570926802
 40
17.79183570926802
 10
852.3533974148982
 20
493.282906353489
 30
0.0
 10
851.1698924857599
 20
493.2208584527225
 30
0.0
 10
849.0607376082357
 20
493.0669931824298
 30
0.0
 10
845.7507469711611
 20
492.5128805503058
 30
0.0
 10
842.3757839917085
 20
491.3591403853656
 30
0.0
 10
839.8961497040184
 20
488.2260417717414
 30
0.0
 10
839.52189989438
 20
485.6328847890049
 30
0.0
 10
839.7182036852449
 20
484.3604298012829
 30
0.0
  0
SPLINE
  5
76
330
1F
100
AcDbEntity
  8
Linee visibili 2D
100
AcDbSpline
210
0.0
220
0.0
230
1.0
 70
    12
 71
     2
 72
     6
 73
     3
 74
     0
 42
0.0000000001
 43
0.0000000001
 40
0.0
 40
0.0
 40
0.0
 40
48.94372398725581
 40
48.94372398725581
 40
48.94372398725581
 10
805.7763020032329
 20
493.359977331669
 30
0.0
 41
1.0
 10
830.2481639968526
 20
493.359997293799
 30
0.0
 41
0.9999999999999998
 10
854.7200259904732
 20
493.3600162408741
 30
0.0
 41
1.0
  0
SPLINE
  5
77
330
1F
100
AcDbEntity
  8
Linee visibili 2D
100
AcDbSpline
210
0.0
220
0.0
230
1.0
 70
    12
 71
     3
 72
    12
 73
     8
 74
     0
 42
0.0000000001
 43
0.0000000001
 40
-1.0
 40
-1.0
 40
-1.0
 40
-1.0
 40
-0.7499729721025465
 40
-0.7499729721025465
 40
-0.4999138940872948
 40
-0.4999138940872948
 40
0.0
 40
0.0
 40
0.0
 40
0.0
 10
818.5465268565199
 20
490.5242324367743
 30
0.0
 41
1.0
 10
817.67659430889
 20
491.3021747749432
 30
0.0
 41
1.0
 10
816.8048870508986
 20
491.7341063397816
 30
0.0
 41
1.0
 10
815.058254091153
 20
492.365126904365
 30
0.0
 41
1.0
 10
814.1829840314075
 20
492.5677125631008
 30
0.0
 41
1.0
 10
811.557285093295
 20
493.0493844245203
 30
0.0
 41
1.0
 10
809.8059146253508
 20
493.1923326399489
 30
0.0
 41
1.0
 10
808.0550243158066
 20
493.2868075173984
 30
0.0
 41
1.0
  0
SPLINE
  5
78
330
1F
100
AcDbEntity
  8
Linee visibili 2D
100
AcDbSpline
210
0.0
220
0.0
230
1.0
 70
    12
 71
     2
 72
     6
 73
     3
 74
     0
 42
0.0000000001
 43
0.0000000001
 40
0.0
 40
0.0
 40
0.0
 40
6.816432648756602
 40
6.816432648756602
 40
6.816432648756602
 10
820.7617038772086
 20
484.3604297430107
 30
0.0
 41
1.0
 10
821.2875677304657
 20
488.0293690468181
 30
0.0
 41
0.8835676032691804
 10
818.5465268565199
 20
490.5242324367743
 30
0.0
 41
1.0
  0
SPLINE
  5
79
330
1F
100
AcDbEntity
  8
Linee visibili 2D - Tangent
100
AcDbSpline
210
0.0
220
0.0
230
1.0
 70
    24
 71
     2
 72
     6
 73
     3
 74
     0
 42
0.0000000001
 43
0.0000000001
 40
0.0
 40
0.0
 40
0.0
 40
18.95649980803603
 40
18.95649980803603
 40
18.95649980803603
 10
820.7617038772086
 20
484.3604297430107
 30
0.0
 10
830.2399537812267
 20
484.3604297721468
 30
0.0
 10
839.7182036852449
 20
484.3604298012829
 30
0.0
  0
SPLINE
  5
7A
330
1F
100
AcDbEntity
  8
Linee visibili 2D
100
AcDbSpline
210
0.0
220
0.0
230
1.0
 70
    12
 71
     2
 72
    12
 73
     9
 74
     0
 42
0.0000000001
 43
0.0000000001
 40
-254.0306947035747
 40
-254.0306947035747
 40
-254.0306947035747
 40
-234.489872034069
 40
-234.489872034069
 40
-176.7773242689653
 40
-176.7773242689653
 40
-119.0647765038617
 40
-119.0647765038617
 40
-117.0273002449914
 40
-117.0273002449914
 40
-117.0273002449914
 10
770.5661446665486
 20
507.3115297082869
 30
0.0
 41
0.922637458391039
 10
770.038869738609
 20
507.3950298810905
 30
0.0
 41
0.9484249722606927
 10
772.5296876034121
 20
507.4757825146033
 30
0.0
 41
1.0
 10
801.3828832611659
 20
507.9595216194973
 30
0.0
 41
0.9999492391061796
 10
830.2399681120443
 20
507.8617612214507
 30
0.0
 41
1.0
 10
859.0970529629228
 20
507.9595216194964
 30
0.0
 41
0.9999492391061796
 10
887.9502486206764
 20
507.4757825146031
 30
0.0
 41
1.0
 10
888.970130059115
 20
507.474017100343
 30
0.0
 41
0.9983170732466033
 10
889.9829473179568
 20
507.3541735967567
 30
0.0
 41
1.0
  0
SPLINE
  5
7B
330
1F
100
AcDbEntity
  8
Linee visibili 2D
100
AcDbSpline
210
0.0
220
0.0
230
1.0
 70
    24
 71
     2
 72
     6
 73
     3
 74
     0
 42
0.0000000001
 43
0.0000000001
 40
0.0
 40
0.0
 40
0.0
 40
9.105863643026026
 40
9.105863643026026
 40
9.105863643026026
 10
793.4887895091008
 20
289.0703496552851
 30
0.0
 10
793.4887895091008
 20
293.6232814767981
 30
0.0
 10
793.4887895091008
 20
298.1762132983111
 30
0.0
  0
SPLINE
  5
7C
330
1F
100
AcDbEntity
  8
Linee visibili 2D
100
AcDbSpline
210
0.0
220
0.0
230
1.0
 70
    24
 71
     2
 72
     6
 73
     3
 74
     0
 42
0.0000000001
 43
0.0000000001
 40
0.0
 40
0.0
 40
0.0
 40
9.105863643026026
 40
9.105863643026026
 40
9.105863643026026
 10
866.9911467150127
 20
298.1762132983111
 30
0.0
 10
866.9911467150127
 20
293.6232814767981
 30
0.0
 10
866.9911467150127
 20
289.0703496552851
 30
0.0
  0
SPLINE
  5
7D
330
1F
100
AcDbEntity
  8
Linee visibili 2D
100
AcDbSpline
210
0.0
220
0.0
230
1.0
 70
    12
 71
     2
 72
     6
 73
     3
 74
     0
 42
0.0000000001
 43
0.0000000001
 40
0.0
 40
0.0
 40
0.0
 40
13.65477087047926
 40
13.65477087047926
 40
13.65477087047926
 10
823.4004377178363
 20
289.0693906312807
 30
0.0
 41
1.0
 10
830.2278175053285
 20
289.0580649253034
 30
0.0
 41
0.9999991769568028
 10
837.0552038776246
 20
289.0642582812564
 30
0.0
 41
1.0
  0
SPLINE
  5
7E
330
1F
100
AcDbEntity
  8
Linee visibili 2D
100
AcDbSpline
210
0.0
220
0.0
230
1.0
 70
    24
 71
     2
 72
     6
 73
     3
 74
     0
 42
0.0000000001
 43
0.0000000001
 40
0.0
 40
0.0
 40
0.0
 40
0.0454842665058202
 40
0.0454842665058202
 40
0.0454842665058202
 10
848.7363292556844
 20
289.0657506548001
 30
0.0
 10
848.7135871237928
 20
289.065742786289
 30
0.0
 10
848.6908449919011
 20
289.065734917778
 30
0.0
  0
SPLINE
  5
7F
330
1F
100
AcDbEntity
  8
Linee visibili 2D
100
AcDbSpline
210
0.0
220
0.0
230
1.0
 70
    24
 71
     2
 72
     6
 73
     3
 74
     0
 42
0.0000000001
 43
0.0000000001
 40
0.0
 40
0.0
 40
0.0
 40
13.50204262257755
 40
13.50204262257755
 40
13.50204262257755
 10
785.2399683530048
 20
275.5703634591977
 30
0.0
 10
785.3577899207962
 20
282.3203565572415
 30
0.0
 10
785.4756114885876
 20
289.0703496552852
 30
0.0
  0
SPLINE
  5
80
330
1F
100
AcDbEntity
  8
Linee visibili 2D
100
AcDbSpline
210
0.0
220
0.0
230
1.0
 70
    24
 71
     2
 72
     6
 73
     3
 74
     0
 42
0.0000000001
 43
0.0000000001
 40
0.0
 40
0.0
 40
0.0
 40
13.50204262257755
 40
13.50204262257755
 40
13.50204262257755
 10
875.0043247355259
 20
289.0703496552852
 30
0.0
 10
875.1221463033171
 20
282.3203565572415
 30
0.0
 10
875.2399678711086
 20
275.5703634591977
 30
0.0
  0
SPLINE
  5
81
330
1F
100
AcDbEntity
  8
Linee visibili 2D
100
AcDbSpline
210
0.0
220
0.0
230
1.0
 70
    24
 71
     2
 72
     6
 73
     3
 74
     0
 42
0.0000000001
 43
0.0000000001
 40
0.0
 40
0.0
 40
0.0
 40
36.77406235499494
 40
36.77406235499494
 40
36.77406235499494
 10
837.6968281429551
 20
230.0116215704828
 30
0.0
 10
837.6968281429551
 20
248.3986527479803
 30
0.0
 10
837.6968281429551
 20
266.7856839254778
 30
0.0
  0
SPLINE
  5
82
330
1F
100
AcDbEntity
  8
Linee visibili 2D
100
AcDbSpline
210
0.0
220
0.0
230
1.0
 70
    24
 71
     2
 72
     6
 73
     3
 74
     0
 42
0.0000000001
 43
0.0000000001
 40
0.0
 40
0.0
 40
0.0
 40
38.21347369814245
 40
38.21347369814245
 40
38.21347369814245
 10
820.440269402983
 20
266.7666967039984
 30
0.0
 10
820.440269402983
 20
247.6599598549272
 30
0.0
 10
820.440269402983
 20
228.553223005856
 30
0.0
  0
SPLINE
  5
83
330
1F
100
AcDbEntity
  8
Linee visibili 2D
100
AcDbSpline
210
0.0
220
0.0
230
1.0
 70
    24
 71
     2
 72
     6
 73
     3
 74
     0
 42
0.0000000001
 43
0.0000000001
 40
0.0
 40
0.0
 40
0.0
 40
36.75507561336153
 40
36.75507561336153
 40
36.75507561336153
 10
822.783108081121
 20
230.0116210906369
 30
0.0
 10
822.783108081121
 20
248.3891588973177
 30
0.0
 10
822.783108081121
 20
266.7666967039984
 30
0.0
  0
SPLINE
  5
84
330
1F
100
AcDbEntity
  8
Linee visibili 2D
100
AcDbSpline
210
0.0
220
0.0
230
1.0
 70
    15
 71
     2
 72
    12
 73
     9
 74
     0
 42
0.0000000001
 43
0.0000000001
 40
0.0
 40
0.0
 40
0.0
 40
19.370909047206
 40
19.370909047206
 40
38.74181809441201
 40
38.74181809441201
 40
58.11272714161802
 40
58.11272714161802
 40
77.48363618882402
 40
77.48363618882402
 40
77.48363618882402
 10
830.2399681120567
 20
184.3295181938961
 30
0.0
 41
1.0
 10
842.5718718113021
 20
184.3290486238688
 30
0.0
 41
0.7071067811865476
 10
842.5723413813294
 20
196.6609523231141
 30
0.0
 41
1.0
 10
842.5728109513567
 20
208.9928560223595
 30
0.0
 41
0.7071067811865476
 10
830.2409072521113
 20
208.9933255923868
 30
0.0
 41
1.0
 10
817.9090035528659
 20
208.9937951624141
 30
0.0
 41
0.7071067811865476
 10
817.9085339828386
 20
196.6618914631687
 30
0.0
 41
1.0
 10
817.9080644128115
 20
184.3299877639233
 30
0.0
 41
0.7071067811865476
 10
830.2399681120567
 20
184.3295181938961
 30
0.0
 41
1.0
  0
SPLINE
  5
85
330
1F
100
AcDbEntity
  8
Linee visibili 2D
100
AcDbSpline
210
0.0
220
0.0
230
1.0
 70
    12
 71
     2
 72
     8
 73
     5
 74
     0
 42
0.0000000001
 43
0.0000000001
 40
0.0
 40
0.0
 40
0.0
 40
25.06257556176858
 40
25.06257556176858
 40
50.12515112353719
 40
50.12515112353719
 40
50.12515112353719
 10
830.2399681120382
 20
212.6411194163643
 30
0.0
 41
1.0
 10
846.1952992540219
 20
212.6414231814242
 30
0.0
 41
0.707106781442859
 10
846.1956030306486
 20
196.6860920394408
 30
0.0
 41
1.0
 10
846.1952992540219
 20
180.7307608974573
 30
0.0
 41
0.707106781442856
 10
830.2399681120382
 20
180.7310646625172
 30
0.0
 41
1.0
  0
SPLINE
  5
86
330
1F
100
AcDbEntity
  8
Linee visibili 2D
100
AcDbSpline
210
0.0
220
0.0
230
1.0
 70
    12
 71
     2
 72
     8
 73
     5
 74
     0
 42
0.0000000001
 43
0.0000000001
 40
0.0
 40
0.0
 40
0.0
 40
25.06257556176857
 40
25.06257556176857
 40
50.12515112353714
 40
50.12515112353714
 40
50.12515112353714
 10
830.2399681120382
 20
180.7310646625173
 30
0.0
 41
1.0
 10
814.2846369700546
 20
180.7307608974574
 30
0.0
 41
0.7071067814428587
 10
814.2843331934278
 20
196.6860920394408
 30
0.0
 41
1.0
 10
814.2846369700544
 20
212.6414231814243
 30
0.0
 41
0.707106781442855
 10
830.2399681120382
 20
212.6411194163643
 30
0.0
 41
1.0
  0
SPLINE
  5
87
330
1F
100
AcDbEntity
  8
Linee visibili 2D
100
AcDbSpline
210
0.0
220
0.0
230
1.0
 70
    13
 71
     3
 72
    44
 73
    40
 74
     0
 42
0.0000000001
 43
0.0000000001
 40
-75.01443842736688
 40
-75.01443842736688
 40
-75.01443842736688
 40
-75.01443842736688
 40
-41.50714221369047
 40
-41.50714221369047
 40
-41.50714221369047
 40
-35.96935240376737
 40
-35.96935240376737
 40
-35.96935240376737
 40
11.16607347031618
 40
11.16607347031618
 40
11.16607347031618
 40
58.30149934439973
 40
58.30149934439973
 40
58.30149934439973
 40
105.4369252184833
 40
105.4369252184833
 40
105.4369252184833
 40
152.5723510925668
 40
152.5723510925668
 40
152.5723510925668
 40
158.1101409053581
 40
158.1101409053581
 40
158.1101409053581
 40
191.6172831190485
 40
191.6172831190485
 40
191.6172831190485
 40
192.2482070898689
 40
192.2482070898689
 40
192.2482070898689
 40
194.8557745332053
 40
194.8557745332053
 40
194.8557745332053
 40
204.1406700361543
 40
204.1406700361543
 40
204.1406700361543
 40
206.7480834659807
 40
206.7480834659807
 40
206.7480834659807
 40
207.3790068878043
 40
207.3790068878043
 40
207.3790068878043
 40
207.3790068878043
 10
836.8899680989761
 20
266.0411308656821
 30
0.0
 41
1.0
 10
836.8899681033299
 20
254.8724574128479
 30
0.0
 41
1.0
 10
836.889968107684
 20
243.7037839600138
 30
0.0
 41
1.0
 10
836.889968112038
 20
232.5351105071796
 30
0.0
 41
1.0
 10
836.8899910360108
 20
230.5524759050773
 30
0.0
 41
0.869434617156984
 10
838.0685347084709
 20
228.9581500983225
 30
0.0
 41
0.8694346171569842
 10
839.9639681120413
 20
228.3766243649216
 30
0.0
 41
1.0
 10
856.4064072195364
 20
223.3313775263023
 30
0.0
 41
0.8384872709140338
 10
865.5729892022257
 20
208.7786425867485
 30
0.0
 41
0.838487270914034
 10
863.0221550428665
 20
191.7697753535162
 30
0.0
 41
1.0
 10
860.4713208835072
 20
174.7609081202839
 30
0.0
 41
0.8384872709140342
 10
847.4390471416706
 20
163.5373542898737
 30
0.0
 41
0.838487270914034
 10
830.239968112075
 20
163.5373542898642
 30
0.0
 41
1.0
 10
813.0408890824792
 20
163.5373542898545
 30
0.0
 41
0.838487270914034
 10
800.0086153406302
 20
174.7609081202501
 30
0.0
 41
0.8384872709140338
 10
797.4577811812517
 20
191.7697753534795
 30
0.0
 41
1.0
 10
794.9069470218733
 20
208.778642586709
 30
0.0
 41
0.838487270914034
 10
804.0735290045464
 20
223.331377526273
 30
0.0
 41
0.8384872709140338
 10
820.515968112036
 20
228.3766243649107
 30
0.0
 41
1.0
 10
822.4114015190398
 20
228.9581500944388
 30
0.0
 41
0.8694346162156373
 10
823.589945192775
 20
230.5524759029196
 30
0.0
 41
0.8694346162156374
 10
823.5899681120381
 20
232.5351105071681
 30
0.0
 41
1.0
 10
823.5899681045092
 20
243.7037326286304
 30
0.0
 41
1.0
 10
823.5899680969803
 20
254.8723547500928
 30
0.0
 41
1.0
 10
823.5899680894513
 20
266.0409768715551
 30
0.0
 41
1.0
 10
823.5897846858163
 20
266.2520512829751
 30
0.0
 41
0.9927582125160077
 10
823.6206300387799
 20
266.460859819663
 30
0.0
 41
0.9927582125160075
 10
823.681834021869
 20
266.6628660404762
 30
0.0
 41
1.0
 10
823.9492434456403
 20
267.5507158219343
 30
0.0
 41
0.8808455280392216
 10
824.6754140865551
 20
268.1273103368495
 30
0.0
 41
0.8808455280392209
 10
825.6007665067985
 20
268.186538140341
 30
0.0
 41
1.0
 10
828.6914022674856
 20
268.3870257818561
 30
0.0
 41
0.9986017323840968
 10
831.7885339565878
 20
268.3870257818569
 30
0.0
 41
0.9986017323840972
 10
834.8791697172753
 20
268.1865381403436
 30
0.0
 41
1.0
 10
835.8044600578054
 20
268.127314344177
 30
0.0
 41
0.880859140976908
 10
836.5306026356657
 20
267.5507845280095
 30
0.0
 41
0.8808591409769078
 10
836.7980576993565
 20
266.663013464493
 30
0.0
 41
1.0
 10
836.8592724487916
 20
266.4610108907398
 30
0.0
 41
0.9927599447483657
 10
836.8901326784325
 20
266.252204924403
 30
0.0
 41
0.9927599447483654
 10
836.8899680989761
 20
266.0411308656821
 30
0.0
 41
1.0
  0
SPLINE
  5
88
330
1F
100
AcDbEntity
  8
Linee visibili 2D
100
AcDbSpline
210
0.0
220
0.0
230
1.0
 70
    24
 71
     2
 72
     6
 73
     3
 74
     0
 42
0.0000000001
 43
0.0000000001
 40
0.0
 40
0.0
 40
0.0
 40
69.44972333137974
 40
69.44972333137974
 40
69.44972333137974
 10
866.9909627528873
 20
298.1762132983111
 30
0.0
 10
832.2661010871975
 20
298.1762132983111
 30
0.0
 10
797.5412394215076
 20
298.1762132983111
 30
0.0
  0
SPLINE
  5
89
330
1F
100
AcDbEntity
  8
Linee visibili 2D
100
AcDbSpline
210
0.0
220
0.0
230
1.0
 70
    24
 71
     2
 72
     6
 73
     3
 74
     0
 42
0.0000000001
 43
0.0000000001
 40
0.0
 40
0.0
 40
0.0
 40
4.052265950281423
 40
4.052265950281423
 40
4.052265950281423
 10
797.5412394215076
 20
298.1762132983111
 30
0.0
 10
795.5151064463668
 20
298.1762132983111
 30
0.0
 10
793.4889734712262
 20
298.1762132983111
 30
0.0
  0
SPLINE
  5
8A
330
1F
100
AcDbEntity
  8
Linee visibili 2D
100
AcDbSpline
210
0.0
220
0.0
230
1.0
 70
     8
 71
     3
 72
    14
 73
    10
 74
     0
 42
0.0000000001
 43
0.0000000001
 40
0.0
 40
0.0
 40
0.0
 40
0.0
 40
2.607393663607488
 40
5.0236425527655
 40
8.981921982519855
 40
10.06720424423408
 40
10.8288630338174
 40
11.41429522888617
 40
12.32864728462674
 40
12.32864728462674
 40
12.32864728462674
 40
12.32864728462674
 10
841.4640160628241
 20
279.1996773536634
 30
0.0
 10
840.9162143404744
 20
279.869983408941
 30
0.0
 10
839.8629621344882
 20
281.1854933485505
 30
0.0
 10
838.1607615143373
 20
283.62910623296
 30
0.0
 10
836.8820619186353
 20
285.7961624302105
 30
0.0
 10
836.2902494019722
 20
287.6322740146124
 30
0.0
 10
836.2749573688295
 20
288.4849390280973
 30
0.0
 10
836.8286413058664
 20
289.0654764445202
 30
0.0
 10
837.3859761629393
 20
289.0397762544528
 30
0.0
 10
837.6746296720645
 20
289.0688115378682
 30
0.0
  0
SPLINE
  5
8B
330
1F
100
AcDbEntity
  8
Linee visibili 2D
100
AcDbSpline
210
0.0
220
0.0
230
1.0
 70
    12
 71
     2
 72
     6
 73
     3
 74
     0
 42
0.0000000001
 43
0.0000000001
 40
0.0
 40
0.0
 40
0.0
 40
0.1319170117488814
 40
0.1319170117488814
 40
0.1319170117488814
 10
837.6746481450595
 20
289.0688119818847
 30
0.0
 41
1.0
 10
837.7405913423526
 20
289.0703734303411
 30
0.0
 41
0.9999277925013256
 10
837.8065530192964
 20
289.0703496552571
 30
0.0
 41
1.0
  0
SPLINE
  5
8C
330
1F
100
AcDbEntity
  8
Linee visibili 2D
100
AcDbSpline
210
0.0
220
0.0
230
1.0
 70
    24
 71
     2
 72
     6
 73
     3
 74
     0
 42
0.0000000001
 43
0.0000000001
 40
0.0
 40
0.0
 40
0.0
 40
1.417556390995457
 40
1.417556390995457
 40
1.417556390995457
 10
837.8065530192964
 20
289.0703496552571
 30
0.0
 10
838.515331214794
 20
289.0703496552711
 30
0.0
 10
839.2241094102917
 20
289.0703496552851
 30
0.0
  0
SPLINE
  5
8D
330
1F
100
AcDbEntity
  8
Linee visibili 2D
100
AcDbSpline
210
0.0
220
0.0
230
1.0
 70
    24
 71
     2
 72
     6
 73
     3
 74
     0
 42
0.0000000001
 43
0.0000000001
 40
0.0
 40
0.0
 40
0.0
 40
1.991272229072251
 40
1.991272229072251
 40
1.991272229072251
 10
839.2241094102917
 20
289.0703496552851
 30
0.0
 10
840.2197455248279
 20
289.0703496552851
 30
0.0
 10
841.215381639364
 20
289.0703496552851
 30
0.0
  0
SPLINE
  5
8E
330
1F
100
AcDbEntity
  8
Linee visibili 2D
100
AcDbSpline
210
0.0
220
0.0
230
1.0
 70
    24
 71
     2
 72
     6
 73
     3
 74
     0
 42
0.0000000001
 43
0.0000000001
 40
0.0
 40
0.0
 40
0.0
 40
11.50363885802625
 40
11.50363885802625
 40
11.50363885802625
 10
848.7363292540491
 20
289.0703496552851
 30
0.0
 10
854.4881486830623
 20
289.0703496552851
 30
0.0
 10
860.2399681120756
 20
289.0703496552851
 30
0.0
  0
SPLINE
  5
8F
330
1F
100
AcDbEntity
  8
Linee visibili 2D
100
AcDbSpline
210
0.0
220
0.0
230
1.0
 70
    24
 71
     2
 72
     6
 73
     3
 74
     0
 42
0.0000000001
 43
0.0000000001
 40
0.0
 40
0.0
 40
0.0
 40
7.475462443665151
 40
7.475462443665151
 40
7.475462443665151
 10
841.215381639364
 20
289.0703496552851
 30
0.0
 10
844.9531128611965
 20
289.0703496552851
 30
0.0
 10
848.6908440830292
 20
289.0703496552851
 30
0.0
  0
SPLINE
  5
90
330
1F
100
AcDbEntity
  8
Linee visibili 2D
100
AcDbSpline
210
0.0
220
0.0
230
1.0
 70
    24
 71
     2
 72
     6
 73
     3
 74
     0
 42
0.0000000001
 43
0.0000000001
 40
0.0
 40
0.0
 40
0.0
 40
14.76417235793681
 40
14.76417235793681
 40
14.76417235793681
 10
785.4757957541012
 20
289.0703496552852
 30
0.0
 10
792.8578819330696
 20
289.0703496552852
 30
0.0
 10
800.239968112038
 20
289.0703496552851
 30
0.0
  0
SPLINE
  5
91
330
1F
100
AcDbEntity
  8
Linee visibili 2D
100
AcDbSpline
210
0.0
220
0.0
230
1.0
 70
    24
 71
     2
 72
     6
 73
     3
 74
     0
 42
0.0000000001
 43
0.0000000001
 40
0.0
 40
0.0
 40
0.0
 40
14.76417235793684
 40
14.76417235793684
 40
14.76417235793684
 10
860.2399681120756
 20
289.0703496552851
 30
0.0
 10
867.6220542910439
 20
289.0703496552852
 30
0.0
 10
875.0041404700123
 20
289.0703496552852
 30
0.0
  0
SPLINE
  5
92
330
1F
100
AcDbEntity
  8
Linee visibili 2D - Tangent
100
AcDbSpline
210
0.0
220
0.0
230
1.0
 70
    24
 71
     2
 72
     6
 73
     3
 74
     0
 42
0.0000000001
 43
0.0000000001
 40
0.0
 40
0.0
 40
0.0
 40
13.50000000000003
 40
13.50000000000003
 40
13.50000000000003
 10
860.2399681120754
 20
275.5703496552851
 30
0.0
 10
860.2399681120756
 20
282.3203496552851
 30
0.0
 10
860.2399681120756
 20
289.0703496552851
 30
0.0
  0
SPLINE
  5
93
330
1F
100
AcDbEntity
  8
Linee visibili 2D
100
AcDbSpline
210
0.0
220
0.0
230
1.0
 70
     8
 71
     3
 72
    12
 73
     8
 74
     0
 42
0.0000000001
 43
0.0000000001
 40
0.0
 40
0.0
 40
0.0
 40
0.0
 40
0.7812239423433409
 40
1.511350120672259
 40
2.331762244866351
 40
3.434257746901407
 40
12.38277541135728
 40
12.38277541135728
 40
12.38277541135728
 40
12.38277541135728
 10
822.8053057362762
 20
289.0688115564781
 30
0.0
 10
823.0566662086339
 20
289.0660297561471
 30
0.0
 10
823.5990096317321
 20
289.100937381894
 30
0.0
 10
824.2165776859881
 20
288.5188979937943
 30
0.0
 10
824.2095610958708
 20
287.5906783689313
 30
0.0
 10
822.9809889772774
 20
284.1685376684704
 30
0.0
 10
820.8662868497938
 20
281.4749982734582
 30
0.0
 10
818.9945665543962
 20
279.1761742201716
 30
0.0
  0
SPLINE
  5
94
330
1F
100
AcDbEntity
  8
Linee visibili 2D
100
AcDbSpline
210
0.0
220
0.0
230
1.0
 70
    12
 71
     2
 72
     6
 73
     3
 74
     0
 42
0.0000000001
 43
0.0000000001
 40
0.0
 40
0.0
 40
0.0
 40
0.1319345233544452
 40
0.1319345233544452
 40
0.1319345233544452
 10
822.6733831697792
 20
289.0703496552571
 30
0.0
 41
1.0
 10
822.739353422375
 20
289.0703499058334
 30
0.0
 41
0.999931995298971
 10
822.8053057362762
 20
289.0688115564781
 30
0.0
 41
1.0
  0
SPLINE
  5
95
330
1F
100
AcDbEntity
  8
Linee visibili 2D
100
AcDbSpline
210
0.0
220
0.0
230
1.0
 70
    24
 71
     2
 72
     6
 73
     3
 74
     0
 42
0.0000000001
 43
0.0000000001
 40
0.0
 40
0.0
 40
0.0
 40
1.417558800825077
 40
1.417558800825077
 40
1.417558800825077
 10
821.2558243689541
 20
289.0703496552851
 30
0.0
 10
821.9646037693667
 20
289.0703496552711
 30
0.0
 10
822.6733831697792
 20
289.0703496552571
 30
0.0
  0
SPLINE
  5
96
330
1F
100
AcDbEntity
  8
Linee visibili 2D
100
AcDbSpline
210
0.0
220
0.0
230
1.0
 70
    24
 71
     2
 72
     6
 73
     3
 74
     0
 42
0.0000000001
 43
0.0000000001
 40
0.0
 40
0.0
 40
0.0
 40
1.991278018432751
 40
1.991278018432751
 40
1.991278018432751
 10
819.2645463505213
 20
289.0703496552851
 30
0.0
 10
820.2601853597377
 20
289.0703496552851
 30
0.0
 10
821.2558243689541
 20
289.0703496552851
 30
0.0
  0
SPLINE
  5
97
330
1F
100
AcDbEntity
  8
Linee visibili 2D
100
AcDbSpline
210
0.0
220
0.0
230
1.0
 70
    24
 71
     2
 72
     6
 73
     3
 74
     0
 42
0.0000000001
 43
0.0000000001
 40
0.0
 40
0.0
 40
0.0
 40
19.02457823848334
 40
19.02457823848334
 40
19.02457823848334
 10
800.239968112038
 20
289.0703496552851
 30
0.0
 10
809.7522572312797
 20
289.0703496552851
 30
0.0
 10
819.2645463505213
 20
289.0703496552851
 30
0.0
  0
SPLINE
  5
98
330
1F
100
AcDbEntity
  8
Linee visibili 2D - Tangent
100
AcDbSpline
210
0.0
220
0.0
230
1.0
 70
    24
 71
     2
 72
     6
 73
     3
 74
     0
 42
0.0000000001
 43
0.0000000001
 40
0.0
 40
0.0
 40
0.0
 40
13.50000000000003
 40
13.50000000000003
 40
13.50000000000003
 10
800.239968112038
 20
275.5703496552851
 30
0.0
 10
800.239968112038
 20
282.3203496552851
 30
0.0
 10
800.239968112038
 20
289.0703496552851
 30
0.0
  0
SPLINE
  5
99
330
1F
100
AcDbEntity
  8
Linee visibili 2D
100
AcDbSpline
210
0.0
220
0.0
230
1.0
 70
    24
 71
     2
 72
     6
 73
     3
 74
     0
 42
0.0000000001
 43
0.0000000001
 40
0.0
 40
0.0
 40
0.0
 40
15.49002746805939
 40
15.49002746805939
 40
15.49002746805939
 10
800.239968112038
 20
275.5703496552851
 30
0.0
 10
807.9849818460678
 20
275.5703496552851
 30
0.0
 10
815.7299955800974
 20
275.570349655285
 30
0.0
  0
SPLINE
  5
9A
330
1F
100
AcDbEntity
  8
Linee visibili 2D
100
AcDbSpline
210
0.0
220
0.0
230
1.0
 70
    24
 71
     2
 72
     6
 73
     3
 74
     0
 42
0.0000000001
 43
0.0000000001
 40
0.0
 40
0.0
 40
0.0
 40
14.99920893341604
 40
14.99920893341604
 40
14.99920893341604
 10
785.2407591786219
 20
275.5703496552852
 30
0.0
 10
792.74036364533
 20
275.5703496552851
 30
0.0
 10
800.239968112038
 20
275.5703496552851
 30
0.0
  0
SPLINE
  5
9B
330
1F
100
AcDbEntity
  8
Linee visibili 2D
100
AcDbSpline
210
0.0
220
0.0
230
1.0
 70
    24
 71
     2
 72
     6
 73
     3
 74
     0
 42
0.0000000001
 43
0.0000000001
 40
0.0
 40
0.0
 40
0.0
 40
14.99920893341613
 40
14.99920893341613
 40
14.99920893341613
 10
860.2399681120754
 20
275.5703496552851
 30
0.0
 10
867.7395725787835
 20
275.5703496552851
 30
0.0
 10
875.2391770454915
 20
275.5703496552852
 30
0.0
  0
SPLINE
  5
9C
330
1F
100
AcDbEntity
  8
Linee visibili 2D
100
AcDbSpline
210
0.0
220
0.0
230
1.0
 70
    24
 71
     2
 72
     6
 73
     3
 74
     0
 42
0.0000000001
 43
0.0000000001
 40
0.0
 40
0.0
 40
0.0
 40
15.50164227741868
 40
15.50164227741868
 40
15.50164227741868
 10
844.7383258346567
 20
275.570349655285
 30
0.0
 10
852.4891469733661
 20
275.5703496552851
 30
0.0
 10
860.2399681120754
 20
275.5703496552851
 30
0.0
  0
SPLINE
  5
9D
330
1F
100
AcDbEntity
  8
Linee visibili 2D
100
AcDbSpline
210
0.0
220
0.0
230
1.0
 70
    12
 71
     2
 72
     6
 73
     3
 74
     0
 42
0.0000000001
 43
0.0000000001
 40
0.0
 40
0.0
 40
0.0
 40
0.1544582978772008
 40
0.1544582978772008
 40
0.1544582978772008
 10
800.239968112038
 20
263.3754183278312
 30
0.0
 41
1.0
 10
800.239696916063
 20
263.4526473180497
 30
0.0
 41
0.9999938344509869
 10
800.239968112038
 20
263.5298763082682
 30
0.0
 41
1.0
  0
SPLINE
  5
9E
330
1F
100
AcDbEntity
  8
Linee visibili 2D
100
AcDbSpline
210
0.0
220
0.0
230
1.0
 70
    24
 71
     2
 72
     6
 73
     3
 74
     0
 42
0.0000000001
 43
0.0000000001
 40
0.0
 40
0.0
 40
0.0
 40
0.1544579804288446
 40
0.1544579804288446
 40
0.1544579804288446
 10
860.2399681120505
 20
263.3754183278313
 30
0.0
 10
860.2399681120607
 20
263.4526473180457
 30
0.0
 10
860.2399681120708
 20
263.5298763082601
 30
0.0
  0
SPLINE
  5
9F
330
1F
100
AcDbEntity
  8
Linee visibili 2D
100
AcDbSpline
210
0.0
220
0.0
230
1.0
 70
    12
 71
     2
 72
     6
 73
     3
 74
     0
 42
0.0000000001
 43
0.0000000001
 40
0.0
 40
0.0
 40
0.0
 40
3.423239110677406
 40
3.423239110677406
 40
3.423239110677406
 10
860.2399681120708
 20
263.5298763082601
 30
0.0
 41
1.0
 10
858.7573010573452
 20
264.3850626874701
 30
0.0
 41
0.9999990179348531
 10
857.2722427863487
 20
265.2360898727581
 30
0.0
 41
1.0
  0
SPLINE
  5
A0
330
1F
100
AcDbEntity
  8
Linee visibili 2D
100
AcDbSpline
210
0.0
220
0.0
230
1.0
 70
    12
 71
     2
 72
    12
 73
     9
 74
     0
 42
0.0000000001
 43
0.0000000001
 40
0.0
 40
0.0
 40
0.0
 40
78.53755295882229
 40
78.53755295882229
 40
157.0761551768229
 40
157.0761551768229
 40
235.6147573948236
 40
235.6147573948236
 40
314.1523103536497
 40
314.1523103536497
 40
314.1523103536497
 10
800.239968112038
 20
263.5298763082682
 30
0.0
 41
1.0
 10
760.3685954261052
 20
240.5117155971856
 30
0.0
 41
0.7933433620464259
 10
772.2844185346919
 20
196.0417792128523
 30
0.0
 41
1.0
 10
784.2012104440019
 20
151.5720448024668
 30
0.0
 41
0.7933569927136756
 10
830.2399681120219
 20
151.5726152329751
 30
0.0
 41
1.0
 10
876.2787257800415
 20
151.572044802442
 30
0.0
 41
0.7933569927136767
 10
888.1955176893757
 20
196.041779212821
 30
0.0
 41
1.0
 10
900.1113407979847
 20
240.5117155971473
 30
0.0
 41
0.7933433620465054
 10
860.2399681120708
 20
263.5298763082601
 30
0.0
 41
1.0
  0
SPLINE
  5
A1
330
1F
100
AcDbEntity
  8
Linee visibili 2D
100
AcDbSpline
210
0.0
220
0.0
230
1.0
 70
    24
 71
     2
 72
     6
 73
     3
 74
     0
 42
0.0000000001
 43
0.0000000001
 40
0.0
 40
0.0
 40
0.0
 40
38.23734021640868
 40
38.23734021640868
 40
38.23734021640868
 10
840.039666821093
 20
266.7905632222647
 30
0.0
 10
840.039666821093
 20
247.6718931140604
 30
0.0
 10
840.0396668210932
 20
228.553223005856
 30
0.0
  0
SPLINE
  5
A2
330
1F
100
AcDbEntity
  8
Linee visibili 2D
100
AcDbSpline
210
0.0
220
0.0
230
1.0
 70
    24
 71
     2
 72
     6
 73
     3
 74
     0
 42
0.0000000001
 43
0.0000000001
 40
0.0
 40
0.0
 40
0.0
 40
57.07588851968671
 40
57.07588851968671
 40
57.07588851968671
 10
880.7380261090077
 20
240.2260831058986
 30
0.0
 10
880.7380261090077
 20
211.6881388460552
 30
0.0
 10
880.7380261090077
 20
183.1501945862118
 30
0.0
  0
SPLINE
  5
A3
330
1F
100
AcDbEntity
  8
Linee visibili 2D
100
AcDbSpline
210
0.0
220
0.0
230
1.0
 70
    12
 71
     2
 72
     6
 73
     3
 74
     0
 42
0.0000000001
 43
0.0000000001
 40
0.0
 40
0.0
 40
0.0
 40
29.40278588591265
 40
29.40278588591265
 40
29.40278588591265
 10
888.2423828464935
 20
211.2545387819774
 30
0.0
 41
1.0
 10
888.1300691147313
 20
196.2304584793774
 30
0.0
 41
0.9680519527632096
 10
880.7380261090077
 20
183.1501945862118
 30
0.0
 41
1.0
  0
SPLINE
  5
A4
330
1F
100
AcDbEntity
  8
Linee visibili 2D
100
AcDbSpline
210
0.0
220
0.0
230
1.0
 70
    12
 71
     2
 72
     6
 73
     3
 74
     0
 42
0.0000000001
 43
0.0000000001
 40
0.0
 40
0.0
 40
0.0
 40
30.26999415627541
 40
30.26999415627541
 40
30.26999415627541
 10
880.7380261090077
 20
240.2260831058986
 30
0.0
 41
1.0
 10
888.3581616846965
 20
226.7422088890981
 30
0.0
 41
0.9661504577427939
 10
888.2423828464935
 20
211.2545387819774
 30
0.0
 41
1.0
  0
SPLINE
  5
A5
330
1F
100
AcDbEntity
  8
Linee visibili 2D
100
AcDbSpline
210
0.0
220
0.0
230
1.0
 70
    12
 71
     2
 72
     6
 73
     3
 74
     0
 42
0.0000000001
 43
0.0000000001
 40
0.0
 40
0.0
 40
0.0
 40
59.67278032798329
 40
59.67278032798329
 40
59.67278032798329
 10
779.7419101150684
 20
183.1501945862338
 30
0.0
 41
1.0
 10
763.6142740757335
 20
211.6881388460552
 30
0.0
 41
0.8705955900451188
 10
779.7419101150684
 20
240.2260831058767
 30
0.0
 41
1.0
  0
SPLINE
  5
A6
330
1F
100
AcDbEntity
  8
Linee visibili 2D
100
AcDbSpline
210
0.0
220
0.0
230
1.0
 70
    24
 71
     2
 72
     6
 73
     3
 74
     0
 42
0.0000000001
 43
0.0000000001
 40
0.0
 40
0.0
 40
0.0
 40
57.07588851964287
 40
57.07588851964287
 40
57.07588851964287
 10
779.7419101150684
 20
240.2260831058767
 30
0.0
 10
779.7419101150684
 20
211.6881388460552
 30
0.0
 10
779.7419101150684
 20
183.1501945862338
 30
0.0
  0
SPLINE
  5
A7
330
1F
100
AcDbEntity
  8
Linee visibili 2D
100
AcDbSpline
210
0.0
220
0.0
230
1.0
 70
    24
 71
     2
 72
     6
 73
     3
 74
     0
 42
0.0000000001
 43
0.0000000001
 40
0.0
 40
0.0
 40
0.0
 40
93.67065104809105
 40
93.67065104809105
 40
93.67065104809105
 10
864.458682393842
 20
258.5234643701008
 30
0.0
 10
864.4586823938418
 20
211.6881388460552
 30
0.0
 10
864.4586823938418
 20
164.8528133220097
 30
0.0
  0
SPLINE
  5
A8
330
1F
100
AcDbEntity
  8
Linee visibili 2D
100
AcDbSpline
210
0.0
220
0.0
230
1.0
 70
    12
 71
     2
 72
     6
 73
     3
 74
     0
 42
0.0000000001
 43
0.0000000001
 40
0.0
 40
0.0
 40
0.0
 40
7.560056132158213
 40
7.560056132158213
 40
7.560056132158213
 10
870.2555155732868
 20
169.6973769403734
 30
0.0
 41
1.0
 10
867.5156812419809
 20
167.0853412194512
 30
0.0
 41
0.9978638264344072
 10
864.4586823938418
 20
164.8528133220097
 30
0.0
 41
1.0
  0
SPLINE
  5
A9
330
1F
100
AcDbEntity
  8
Linee visibili 2D
100
AcDbSpline
210
0.0
220
0.0
230
1.0
 70
    24
 71
     2
 72
     6
 73
     3
 74
     0
 42
0.0000000001
 43
0.0000000001
 40
0.0
 40
0.0
 40
0.0
 40
83.98152381136355
 40
83.98152381136355
 40
83.98152381136355
 10
870.2555155732868
 20
169.6973769403734
 30
0.0
 10
870.2555155732868
 20
211.6881388460552
 30
0.0
 10
870.2555155732868
 20
253.678900751737
 30
0.0
  0
SPLINE
  5
AA
330
1F
100
AcDbEntity
  8
Linee visibili 2D
100
AcDbSpline
210
0.0
220
0.0
230
1.0
 70
    12
 71
     2
 72
     6
 73
     3
 74
     0
 42
0.0000000001
 43
0.0000000001
 40
0.0
 40
0.0
 40
0.0
 40
7.560056132158193
 40
7.560056132158193
 40
7.560056132158193
 10
864.458682393842
 20
258.5234643701008
 30
0.0
 41
1.0
 10
867.5156812419809
 20
256.2909364726592
 30
0.0
 41
0.997863826434407
 10
870.2555155732868
 20
253.678900751737
 30
0.0
 41
1.0
  0
SPLINE
  5
AB
330
1F
100
AcDbEntity
  8
Linee visibili 2D
100
AcDbSpline
210
0.0
220
0.0
230
1.0
 70
    24
 71
     2
 72
     6
 73
     3
 74
     0
 42
0.0000000001
 43
0.0000000001
 40
0.0
 40
0.0
 40
0.0
 40
79.25238791884436
 40
79.25238791884436
 40
79.25238791884436
 10
872.5983542514249
 20
251.3143328054773
 30
0.0
 10
872.5983542514248
 20
211.6881388460552
 30
0.0
 10
872.5983542514248
 20
172.061944886633
 30
0.0
  0
SPLINE
  5
AC
330
1F
100
AcDbEntity
  8
Linee visibili 2D
100
AcDbSpline
210
0.0
220
0.0
230
1.0
 70
    12
 71
     2
 72
     6
 73
     3
 74
     0
 42
0.0000000001
 43
0.0000000001
 40
0.0
 40
0.0
 40
0.0
 40
9.32500903810272
 40
9.32500903810272
 40
9.32500903810272
 10
878.3951874308698
 20
179.3532818586116
 30
0.0
 41
1.0
 10
875.7918690603345
 20
175.4730013728268
 30
0.0
 41
0.9967399739648184
 10
872.5983542514248
 20
172.061944886633
 30
0.0
 41
1.0
  0
SPLINE
  5
AD
330
1F
100
AcDbEntity
  8
Linee visibili 2D
100
AcDbSpline
210
0.0
220
0.0
230
1.0
 70
    24
 71
     2
 72
     6
 73
     3
 74
     0
 42
0.0000000001
 43
0.0000000001
 40
0.0
 40
0.0
 40
0.0
 40
64.6697139748872
 40
64.6697139748872
 40
64.6697139748872
 10
878.3951874308698
 20
179.3532818586116
 30
0.0
 10
878.3951874308698
 20
211.6881388460552
 30
0.0
 10
878.3951874308698
 20
244.0229958334988
 30
0.0
  0
SPLINE
  5
AE
330
1F
100
AcDbEntity
  8
Linee visibili 2D
100
AcDbSpline
210
0.0
220
0.0
230
1.0
 70
    12
 71
     2
 72
     6
 73
     3
 74
     0
 42
0.0000000001
 43
0.0000000001
 40
0.0
 40
0.0
 40
0.0
 40
9.325009038102669
 40
9.325009038102669
 40
9.325009038102669
 10
872.5983542514249
 20
251.3143328054773
 30
0.0
 41
1.0
 10
875.7918690603345
 20
247.9032763192837
 30
0.0
 41
0.9967399739648177
 10
878.3951874308698
 20
244.0229958334988
 30
0.0
 41
1.0
  0
SPLINE
  5
AF
330
1F
100
AcDbEntity
  8
Linee visibili 2D
100
AcDbSpline
210
0.0
220
0.0
230
1.0
 70
    12
 71
     2
 72
     6
 73
     3
 74
     0
 42
0.0000000001
 43
0.0000000001
 40
0.0
 40
0.0
 40
0.0
 40
7.560056132159927
 40
7.560056132159927
 40
7.560056132159927
 10
790.2244206507893
 20
253.6789007517252
 30
0.0
 41
1.0
 10
792.9642549820953
 20
256.2909364726488
 30
0.0
 41
0.9978638264344057
 10
796.0212538302343
 20
258.5234643700917
 30
0.0
 41
1.0
  0
SPLINE
  5
B0
330
1F
100
AcDbEntity
  8
Linee visibili 2D
100
AcDbSpline
210
0.0
220
0.0
230
1.0
 70
    24
 71
     2
 72
     6
 73
     3
 74
     0
 42
0.0000000001
 43
0.0000000001
 40
0.0
 40
0.0
 40
0.0
 40
83.98152381133996
 40
83.98152381133996
 40
83.98152381133996
 10
790.2244206507893
 20
169.6973769403852
 30
0.0
 10
790.2244206507893
 20
211.6881388460552
 30
0.0
 10
790.2244206507893
 20
253.6789007517252
 30
0.0
  0
SPLINE
  5
B1
330
1F
100
AcDbEntity
  8
Linee visibili 2D
100
AcDbSpline
210
0.0
220
0.0
230
1.0
 70
    12
 71
     2
 72
     6
 73
     3
 74
     0
 42
0.0000000001
 43
0.0000000001
 40
0.0
 40
0.0
 40
0.0
 40
7.56005613215998
 40
7.56005613215998
 40
7.56005613215998
 10
796.0212538302343
 20
164.8528133220187
 30
0.0
 41
1.0
 10
792.9642549820953
 20
167.0853412194615
 30
0.0
 41
0.997863826434404
 10
790.2244206507893
 20
169.6973769403852
 30
0.0
 41
1.0
  0
SPLINE
  5
B2
330
1F
100
AcDbEntity
  8
Linee visibili 2D
100
AcDbSpline
210
0.0
220
0.0
230
1.0
 70
    24
 71
     2
 72
     6
 73
     3
 74
     0
 42
0.0000000001
 43
0.0000000001
 40
0.0
 40
0.0
 40
0.0
 40
93.67065104807299
 40
93.67065104807299
 40
93.67065104807299
 10
796.0212538302343
 20
258.5234643700917
 30
0.0
 10
796.0212538302343
 20
211.6881388460552
 30
0.0
 10
796.0212538302343
 20
164.8528133220187
 30
0.0
  0
SPLINE
  5
B3
330
1F
100
AcDbEntity
  8
Linee visibili 2D
100
AcDbSpline
210
0.0
220
0.0
230
1.0
 70
    12
 71
     2
 72
     6
 73
     3
 74
     0
 42
0.0000000001
 43
0.0000000001
 40
0.0
 40
0.0
 40
0.0
 40
9.325009038106815
 40
9.325009038106815
 40
9.325009038106815
 10
782.0847487932065
 20
244.0229958334803
 30
0.0
 41
1.0
 10
784.6880671637413
 20
247.903276319268
 30
0.0
 41
0.9967399739648145
 10
787.8815819726513
 20
251.3143328054642
 30
0.0
 41
1.0
  0
SPLINE
  5
B4
330
1F
100
AcDbEntity
  8
Linee visibili 2D
100
AcDbSpline
210
0.0
220
0.0
230
1.0
 70
    24
 71
     2
 72
     6
 73
     3
 74
     0
 42
0.0000000001
 43
0.0000000001
 40
0.0
 40
0.0
 40
0.0
 40
64.66971397485031
 40
64.66971397485031
 40
64.66971397485031
 10
782.0847487932065
 20
179.35328185863
 30
0.0
 10
782.0847487932065
 20
211.6881388460552
 30
0.0
 10
782.0847487932065
 20
244.0229958334803
 30
0.0
  0
SPLINE
  5
B5
330
1F
100
AcDbEntity
  8
Linee visibili 2D
100
AcDbSpline
210
0.0
220
0.0
230
1.0
 70
    12
 71
     2
 72
     6
 73
     3
 74
     0
 42
0.0000000001
 43
0.0000000001
 40
0.0
 40
0.0
 40
0.0
 40
9.325009038106822
 40
9.325009038106822
 40
9.325009038106822
 10
787.8815819726513
 20
172.0619448866462
 30
0.0
 41
1.0
 10
784.6880671637415
 20
175.4730013728425
 30
0.0
 41
0.9967399739648151
 10
782.0847487932065
 20
179.35328185863
 30
0.0
 41
1.0
  0
SPLINE
  5
B6
330
1F
100
AcDbEntity
  8
Linee visibili 2D
100
AcDbSpline
210
0.0
220
0.0
230
1.0
 70
    24
 71
     2
 72
     6
 73
     3
 74
     0
 42
0.0000000001
 43
0.0000000001
 40
0.0
 40
0.0
 40
0.0
 40
79.2523879188179
 40
79.2523879188179
 40
79.2523879188179
 10
787.8815819726513
 20
251.3143328054642
 30
0.0
 10
787.8815819726513
 20
211.6881388460552
 30
0.0
 10
787.8815819726513
 20
172.0619448866462
 30
0.0
  0
SPLINE
  5
B7
330
1F
100
AcDbEntity
  8
Linee visibili 2D
100
AcDbSpline
210
0.0
220
0.0
230
1.0
 70
    24
 71
     2
 72
     6
 73
     3
 74
     0
 42
0.0000000001
 43
0.0000000001
 40
0.0
 40
0.0
 40
0.0
 40
44.51468911133471
 40
44.51468911133471
 40
44.51468911133471
 10
853.976171858121
 20
220.0984982067564
 30
0.0
 10
853.976171858121
 20
242.3558427624237
 30
0.0
 10
853.976171858121
 20
264.6131873180911
 30
0.0
  0
SPLINE
  5
B8
330
1F
100
AcDbEntity
  8
Linee visibili 2D
100
AcDbSpline
210
0.0
220
0.0
230
1.0
 70
    12
 71
     2
 72
     6
 73
     3
 74
     0
 42
0.0000000001
 43
0.0000000001
 40
0.0
 40
0.0
 40
0.0
 40
5.953666024956069
 40
5.953666024956069
 40
5.953666024956069
 10
848.4284421638117
 20
266.7666967039984
 30
0.0
 41
1.0
 10
851.2577249453107
 20
265.8327060602618
 30
0.0
 41
0.9986781707252033
 10
853.976171858121
 20
264.6131873180911
 30
0.0
 41
1.0
  0
SPLINE
  5
B9
330
1F
100
AcDbEntity
  8
Linee visibili 2D
100
AcDbSpline
210
0.0
220
0.0
230
1.0
 70
    12
 71
     2
 72
     6
 73
     3
 74
     0
 42
0.0000000001
 43
0.0000000001
 40
0.0
 40
0.0
 40
0.0
 40
2.736684859102948
 40
2.736684859102948
 40
2.736684859102948
 10
857.2601941009484
 20
265.2150878769191
 30
0.0
 41
1.0
 10
856.1177360148155
 20
265.9685086463419
 30
0.0
 41
0.9998028410372514
 10
855.0060934648101
 20
266.7666967039984
 30
0.0
 41
1.0
  0
SPLINE
  5
BA
330
1F
100
AcDbEntity
  8
Linee visibili 2D
100
AcDbSpline
210
0.0
220
0.0
230
1.0
 70
    12
 71
     2
 72
     6
 73
     3
 74
     0
 42
0.0000000001
 43
0.0000000001
 40
0.0
 40
0.0
 40
0.0
 40
3.502347840260324
 40
3.502347840260324
 40
3.502347840260324
 10
860.2399681120505
 20
263.3754183278313
 30
0.0
 41
1.0
 10
858.7251449224892
 20
264.2548631350102
 30
0.0
 41
0.999632742185201
 10
857.2601941009484
 20
265.2150878769191
 30
0.0
 41
1.0
  0
SPLINE
  5
BB
330
1F
100
AcDbEntity
  8
Linee visibili 2D
100
AcDbSpline
210
0.0
220
0.0
230
1.0
 70
    12
 71
     2
 72
    12
 73
     9
 74
     0
 42
0.0000000001
 43
0.0000000001
 40
0.0
 40
0.0
 40
0.0
 40
78.16103505981939
 40
78.16103505981939
 40
156.3231188019262
 40
156.3231188019262
 40
234.4852025440331
 40
234.4852025440331
 40
312.6462376038525
 40
312.6462376038525
 40
312.6462376038525
 10
800.239968112038
 20
263.3754183278312
 30
0.0
 41
1.0
 10
760.6242646454575
 20
240.3843816555962
 30
0.0
 41
0.7936898916190247
 10
772.5296876034121
 20
196.154836862457
 30
0.0
 41
1.0
 10
784.4360713470343
 20
151.9254915662626
 30
0.0
 41
0.7937035515434197
 10
830.2399681120443
 20
151.9260578661564
 30
0.0
 41
1.0
 10
876.0438648770543
 20
151.9254915662625
 30
0.0
 41
0.7937035515434192
 10
887.9502486206764
 20
196.154836862457
 30
0.0
 41
1.0
 10
899.855671578631
 20
240.3843816555961
 30
0.0
 41
0.7936898916190259
 10
860.2399681120505
 20
263.3754183278313
 30
0.0
 41
1.0
  0
SPLINE
  5
BC
330
1F
100
AcDbEntity
  8
Linee visibili 2D
100
AcDbSpline
210
0.0
220
0.0
230
1.0
 70
    12
 71
     2
 72
     6
 73
     3
 74
     0
 42
0.0000000001
 43
0.0000000001
 40
0.0
 40
0.0
 40
0.0
 40
3.502325084900174
 40
3.502325084900174
 40
3.502325084900174
 10
803.2197258692804
 20
265.2150772431866
 30
0.0
 41
1.0
 10
801.7546857833377
 20
264.2550155530304
 30
0.0
 41
0.9996355995490583
 10
800.239968112038
 20
263.3754183278312
 30
0.0
 41
1.0
  0
SPLINE
  5
BD
330
1F
100
AcDbEntity
  8
Linee visibili 2D
100
AcDbSpline
210
0.0
220
0.0
230
1.0
 70
    12
 71
     2
 72
     6
 73
     3
 74
     0
 42
0.0000000001
 43
0.0000000001
 40
0.0
 40
0.0
 40
0.0
 40
2.736701902734234
 40
2.736701902734234
 40
2.736701902734234
 10
805.4738449665476
 20
266.7666967039984
 30
0.0
 41
1.0
 10
804.3620125564851
 20
265.9687657095088
 30
0.0
 41
0.9998074379492109
 10
803.2197258692802
 20
265.2150772431866
 30
0.0
 41
1.0
  0
SPLINE
  5
BE
330
1F
100
AcDbEntity
  8
Linee visibili 2D
100
AcDbSpline
210
0.0
220
0.0
230
1.0
 70
    12
 71
     2
 72
     6
 73
     3
 74
     0
 42
0.0000000001
 43
0.0000000001
 40
0.0
 40
0.0
 40
0.0
 40
5.953666024969601
 40
5.953666024969601
 40
5.953666024969601
 10
806.5037643659552
 20
264.6131873180855
 30
0.0
 41
1.0
 10
809.2222112787716
 20
265.8327060602596
 30
0.0
 41
0.9986781707251978
 10
812.051494060277
 20
266.7666967039984
 30
0.0
 41
1.0
  0
SPLINE
  5
BF
330
1F
100
AcDbEntity
  8
Linee visibili 2D
100
AcDbSpline
210
0.0
220
0.0
230
1.0
 70
    24
 71
     2
 72
     6
 73
     3
 74
     0
 42
0.0000000001
 43
0.0000000001
 40
0.0
 40
0.0
 40
0.0
 40
44.51468911132929
 40
44.51468911132929
 40
44.51468911132929
 10
806.5037643659552
 20
220.0984982067562
 30
0.0
 10
806.5037643659552
 20
242.3558427624209
 30
0.0
 10
806.5037643659552
 20
264.6131873180855
 30
0.0
  0
SPLINE
  5
C0
330
1F
100
AcDbEntity
  8
Linee visibili 2D
100
AcDbSpline
210
0.0
220
0.0
230
1.0
 70
    24
 71
     2
 72
     6
 73
     3
 74
     0
 42
0.0000000001
 43
0.0000000001
 40
0.0
 40
0.0
 40
0.0
 40
46.04184263739242
 40
46.04184263739242
 40
46.04184263739242
 10
804.1609256878171
 20
263.498868142968
 30
0.0
 10
804.1609256878171
 20
240.4779468242718
 30
0.0
 10
804.1609256878171
 20
217.4570255055756
 30
0.0
  0
SPLINE
  5
C1
330
1F
100
AcDbEntity
  8
Linee visibili 2D
100
AcDbSpline
210
0.0
220
0.0
230
1.0
 70
    12
 71
     2
 72
     6
 73
     3
 74
     0
 42
0.0000000001
 43
0.0000000001
 40
0.0
 40
0.0
 40
0.0
 40
6.69918214616911
 40
6.69918214616911
 40
6.69918214616911
 10
798.3640925083723
 20
260.1483976004391
 30
0.0
 41
1.0
 10
801.1654189211423
 20
261.9916139215326
 30
0.0
 41
0.9983247617321319
 10
804.1609256878171
 20
263.498868142968
 30
0.0
 41
1.0
  0
SPLINE
  5
C2
330
1F
100
AcDbEntity
  8
Linee visibili 2D
100
AcDbSpline
210
0.0
220
0.0
230
1.0
 70
    24
 71
     2
 72
     6
 73
     3
 74
     0
 42
0.0000000001
 43
0.0000000001
 40
0.0
 40
0.0
 40
0.0
 40
53.69108837384443
 40
53.69108837384443
 40
53.69108837384443
 10
798.3640925083723
 20
206.4573092265947
 30
0.0
 10
798.3640925083723
 20
233.3028534135169
 30
0.0
 10
798.3640925083723
 20
260.1483976004391
 30
0.0
  0
SPLINE
  5
C3
330
1F
100
AcDbEntity
  8
Linee visibili 2D
100
AcDbSpline
210
0.0
220
0.0
230
1.0
 70
    12
 71
     2
 72
     6
 73
     3
 74
     0
 42
0.0000000001
 43
0.0000000001
 40
0.0
 40
0.0
 40
0.0
 40
19.83383612193468
 40
19.83383612193468
 40
19.83383612193468
 10
798.3640925083723
 20
186.9148748522869
 30
0.0
 41
1.0
 10
795.3675659081101
 20
196.6860920394408
 30
0.0
 41
0.9560536597747809
 10
798.3640925083723
 20
206.4573092265947
 30
0.0
 41
1.0
  0
SPLINE
  5
C4
330
1F
100
AcDbEntity
  8
Linee visibili 2D
100
AcDbSpline
210
0.0
220
0.0
230
1.0
 70
    24
 71
     2
 72
     6
 73
     3
 74
     0
 42
0.0000000001
 43
0.0000000001
 40
0.0
 40
0.0
 40
0.0
 40
23.68651759610854
 40
23.68651759610854
 40
23.68651759610854
 10
798.3640925083723
 20
163.2278800916713
 30
0.0
 10
798.3640925083723
 20
175.0711388897256
 30
0.0
 10
798.3640925083723
 20
186.9143976877798
 30
0.0
  0
SPLINE
  5
C5
330
1F
100
AcDbEntity
  8
Linee visibili 2D
100
AcDbSpline
210
0.0
220
0.0
230
1.0
 70
    12
 71
     2
 72
     6
 73
     3
 74
     0
 42
0.0000000001
 43
0.0000000001
 40
0.0
 40
0.0
 40
0.0
 40
6.699182146169172
 40
6.699182146169172
 40
6.699182146169172
 10
804.1609256878171
 20
159.8774095491424
 30
0.0
 41
1.0
 10
801.1654189211425
 20
161.3846637705778
 30
0.0
 41
0.9983247617321321
 10
798.3640925083723
 20
163.2278800916713
 30
0.0
 41
1.0
  0
SPLINE
  5
C6
330
1F
100
AcDbEntity
  8
Linee visibili 2D
100
AcDbSpline
210
0.0
220
0.0
230
1.0
 70
    24
 71
     2
 72
     6
 73
     3
 74
     0
 42
0.0000000001
 43
0.0000000001
 40
0.0
 40
0.0
 40
0.0
 40
16.0342091482722
 40
16.0342091482722
 40
16.0342091482722
 10
804.1609256878171
 20
175.9116186974146
 30
0.0
 10
804.1609256878171
 20
167.8945141232785
 30
0.0
 10
804.1609256878171
 20
159.8774095491424
 30
0.0
  0
SPLINE
  5
C7
330
1F
100
AcDbEntity
  8
Linee visibili 2D
100
AcDbSpline
210
0.0
220
0.0
230
1.0
 70
    24
 71
     2
 72
     6
 73
     3
 74
     0
 42
0.0000000001
 43
0.0000000001
 40
0.0
 40
0.0
 40
0.0
 40
14.50619663817925
 40
14.50619663817925
 40
14.50619663817925
 10
806.5037643659552
 20
158.7630903740248
 30
0.0
 10
806.5037643659552
 20
166.0161886931145
 30
0.0
 10
806.5037643659552
 20
173.2692870122041
 30
0.0
  0
SPLINE
  5
C8
330
1F
100
AcDbEntity
  8
Linee visibili 2D
100
AcDbSpline
210
0.0
220
0.0
230
1.0
 70
    12
 71
     2
 72
     6
 73
     3
 74
     0
 42
0.0000000001
 43
0.0000000001
 40
0.0
 40
0.0
 40
0.0
 40
6.215808311380401
 40
6.215808311380401
 40
6.215808311380401
 10
812.3005975454001
 20
156.5279438888649
 30
0.0
 41
1.0
 10
809.3421142426963
 20
157.4897346281048
 30
0.0
 41
0.9985587276585084
 10
806.5037643659552
 20
158.7630903740248
 30
0.0
 41
1.0
  0
SPLINE
  5
C9
330
1F
100
AcDbEntity
  8
Linee visibili 2D
100
AcDbSpline
210
0.0
220
0.0
230
1.0
 70
    24
 71
     2
 72
     6
 73
     3
 74
     0
 42
0.0000000001
 43
0.0000000001
 40
0.0
 40
0.0
 40
0.0
 40
12.05606434008672
 40
12.05606434008672
 40
12.05606434008672
 10
812.3005975454001
 20
168.5840082289517
 30
0.0
 10
812.3005975454001
 20
162.5559760589083
 30
0.0
 10
812.3005975454001
 20
156.5279438888649
 30
0.0
  0
SPLINE
  5
CA
330
1F
100
AcDbEntity
  8
Linee visibili 2D
100
AcDbSpline
210
0.0
220
0.0
230
1.0
 70
    24
 71
     2
 72
     6
 73
     3
 74
     0
 42
0.0000000001
 43
0.0000000001
 40
0.0
 40
0.0
 40
0.0
 40
11.39633578516512
 40
11.39633578516512
 40
11.39633578516512
 10
814.6434362235382
 20
155.8202919473834
 30
0.0
 10
814.6434362235382
 20
161.518459839966
 30
0.0
 10
814.6434362235382
 20
167.2166277325485
 30
0.0
  0
SPLINE
  5
CB
330
1F
100
AcDbEntity
  8
Linee visibili 2D
100
AcDbSpline
210
0.0
220
0.0
230
1.0
 70
    12
 71
     2
 72
     6
 73
     3
 74
     0
 42
0.0000000001
 43
0.0000000001
 40
0.0
 40
0.0
 40
0.0
 40
5.943944639424144
 40
5.943944639424144
 40
5.943944639424144
 10
820.440269402983
 20
154.5179190698969
 30
0.0
 41
1.0
 10
817.5083928722411
 20
155.0201760433262
 30
0.0
 41
0.9986824997192552
 10
814.6434362235382
 20
155.8202919473834
 30
0.0
 41
1.0
  0
SPLINE
  5
CC
330
1F
100
AcDbEntity
  8
Linee visibili 2D
100
AcDbSpline
210
0.0
220
0.0
230
1.0
 70
    24
 71
     2
 72
     6
 73
     3
 74
     0
 42
0.0000000001
 43
0.0000000001
 40
0.0
 40
0.0
 40
0.0
 40
10.29459785299231
 40
10.29459785299231
 40
10.29459785299231
 10
820.440269402983
 20
164.8125169228892
 30
0.0
 10
820.440269402983
 20
159.6652179963931
 30
0.0
 10
820.440269402983
 20
154.5179190698969
 30
0.0
  0
SPLINE
  5
CD
330
1F
100
AcDbEntity
  8
Linee visibili 2D
100
AcDbSpline
210
0.0
220
0.0
230
1.0
 70
    24
 71
     2
 72
     6
 73
     3
 74
     0
 42
0.0000000001
 43
0.0000000001
 40
0.0
 40
0.0
 40
0.0
 40
10.01435096293795
 40
10.01435096293795
 40
10.01435096293795
 10
822.783108081121
 20
154.1654184434018
 30
0.0
 10
822.783108081121
 20
159.1725939248708
 30
0.0
 10
822.783108081121
 20
164.1797694063398
 30
0.0
  0
SPLINE
  5
CE
330
1F
100
AcDbEntity
  8
Linee visibili 2D
100
AcDbSpline
210
0.0
220
0.0
230
1.0
 70
    12
 71
     2
 72
     6
 73
     3
 74
     0
 42
0.0000000001
 43
0.0000000001
 40
0.0
 40
0.0
 40
0.0
 40
5.817309945081954
 40
5.817309945081954
 40
5.817309945081954
 10
828.579941260566
 20
153.7078625885641
 30
0.0
 41
1.0
 10
825.6700211844369
 20
153.7909013871398
 30
0.0
 41
0.99873823592555
 10
822.783108081121
 20
154.1654184434018
 30
0.0
 41
1.0
  0
SPLINE
  5
CF
330
1F
100
AcDbEntity
  8
Linee visibili 2D
100
AcDbSpline
210
0.0
220
0.0
230
1.0
 70
    24
 71
     2
 72
     6
 73
     3
 74
     0
 42
0.0000000001
 43
0.0000000001
 40
0.0
 40
0.0
 40
0.0
 40
9.679694322866879
 40
9.679694322866879
 40
9.679694322866879
 10
828.579941260566
 20
163.387556911431
 30
0.0
 10
828.579941260566
 20
158.5477097499976
 30
0.0
 10
828.579941260566
 20
153.7078625885641
 30
0.0
  0
SPLINE
  5
D0
330
1F
100
AcDbEntity
  8
Linee visibili 2D
100
AcDbSpline
210
0.0
220
0.0
230
1.0
 70
    24
 71
     2
 72
     6
 73
     3
 74
     0
 42
0.0000000001
 43
0.0000000001
 40
0.0
 40
0.0
 40
0.0
 40
9.67969432286722
 40
9.67969432286722
 40
9.67969432286722
 10
831.8999949635102
 20
163.387556911431
 30
0.0
 10
831.8999949635102
 20
158.5477097499973
 30
0.0
 10
831.8999949635102
 20
153.7078625885637
 30
0.0
  0
SPLINE
  5
D1
330
1F
100
AcDbEntity
  8
Linee visibili 2D
100
AcDbSpline
210
0.0
220
0.0
230
1.0
 70
    12
 71
     2
 72
     6
 73
     3
 74
     0
 42
0.0000000001
 43
0.0000000001
 40
0.0
 40
0.0
 40
0.0
 40
5.817309945081797
 40
5.817309945081797
 40
5.817309945081797
 10
837.6968281429551
 20
154.1654184434002
 30
0.0
 41
1.0
 10
834.8099150396393
 20
153.790901387139
 30
0.0
 41
0.9987382359255514
 10
831.8999949635102
 20
153.7078625885637
 30
0.0
 41
1.0
  0
SPLINE
  5
D2
330
1F
100
AcDbEntity
  8
Linee visibili 2D
100
AcDbSpline
210
0.0
220
0.0
230
1.0
 70
    24
 71
     2
 72
     6
 73
     3
 74
     0
 42
0.0000000001
 43
0.0000000001
 40
0.0
 40
0.0
 40
0.0
 40
10.02187976101157
 40
10.02187976101157
 40
10.02187976101157
 10
837.6968281429551
 20
154.1654184434002
 30
0.0
 10
837.6968281429551
 20
159.176358323906
 30
0.0
 10
837.6968281429551
 20
164.1872982044118
 30
0.0
  0
SPLINE
  5
D3
330
1F
100
AcDbEntity
  8
Linee visibili 2D
100
AcDbSpline
210
0.0
220
0.0
230
1.0
 70
    24
 71
     2
 72
     6
 73
     3
 74
     0
 42
0.0000000001
 43
0.0000000001
 40
0.0
 40
0.0
 40
0.0
 40
10.26394764643457
 40
10.26394764643457
 40
10.26394764643457
 10
840.0396668210932
 20
164.7818667163294
 30
0.0
 10
840.0396668210932
 20
159.6498928931121
 30
0.0
 10
840.0396668210932
 20
154.5179190698948
 30
0.0
  0
SPLINE
  5
D4
330
1F
100
AcDbEntity
  8
Linee visibili 2D
100
AcDbSpline
210
0.0
220
0.0
230
1.0
 70
    12
 71
     2
 72
     6
 73
     3
 74
     0
 42
0.0000000001
 43
0.0000000001
 40
0.0
 40
0.0
 40
0.0
 40
5.943944639423789
 40
5.943944639423789
 40
5.943944639423789
 10
845.8365000005381
 20
155.82029194738
 30
0.0
 41
1.0
 10
842.9715433518349
 20
155.0201760433234
 30
0.0
 41
0.9986824997192551
 10
840.0396668210932
 20
154.5179190698948
 30
0.0
 41
1.0
  0
SPLINE
  5
D5
330
1F
100
AcDbEntity
  8
Linee visibili 2D
100
AcDbSpline
210
0.0
220
0.0
230
1.0
 70
    24
 71
     2
 72
     6
 73
     3
 74
     0
 42
0.0000000001
 43
0.0000000001
 40
0.0
 40
0.0
 40
0.0
 40
11.38701217397187
 40
11.38701217397187
 40
11.38701217397187
 10
845.8365000005381
 20
155.82029194738
 30
0.0
 10
845.8365000005381
 20
161.5137980343659
 30
0.0
 10
845.8365000005381
 20
167.2073041213519
 30
0.0
  0
SPLINE
  5
D6
330
1F
100
AcDbEntity
  8
Linee visibili 2D
100
AcDbSpline
210
0.0
220
0.0
230
1.0
 70
    24
 71
     2
 72
     6
 73
     3
 74
     0
 42
0.0000000001
 43
0.0000000001
 40
0.0
 40
0.0
 40
0.0
 40
12.05380346453302
 40
12.05380346453302
 40
12.05380346453302
 10
848.179338678676
 20
168.5817473533939
 30
0.0
 10
848.179338678676
 20
162.5548456211274
 30
0.0
 10
848.179338678676
 20
156.5279438888609
 30
0.0
  0
SPLINE
  5
D7
330
1F
100
AcDbEntity
  8
Linee visibili 2D
100
AcDbSpline
210
0.0
220
0.0
230
1.0
 70
    12
 71
     2
 72
     6
 73
     3
 74
     0
 42
0.0000000001
 43
0.0000000001
 40
0.0
 40
0.0
 40
0.0
 40
6.21580831137992
 40
6.21580831137992
 40
6.21580831137992
 10
853.976171858121
 20
158.7630903740193
 30
0.0
 41
1.0
 10
851.1378219813797
 20
157.4897346281
 30
0.0
 41
0.9985587276585077
 10
848.179338678676
 20
156.5279438888609
 30
0.0
 41
1.0
  0
SPLINE
  5
D8
330
1F
100
AcDbEntity
  8
Linee visibili 2D
100
AcDbSpline
210
0.0
220
0.0
230
1.0
 70
    24
 71
     2
 72
     6
 73
     3
 74
     0
 42
0.0000000001
 43
0.0000000001
 40
0.0
 40
0.0
 40
0.0
 40
14.5103597848474
 40
14.5103597848474
 40
14.5103597848474
 10
853.976171858121
 20
158.7630903740193
 30
0.0
 10
853.976171858121
 20
166.018270266443
 30
0.0
 10
853.976171858121
 20
173.2734501588667
 30
0.0
  0
SPLINE
  5
D9
330
1F
100
AcDbEntity
  8
Linee visibili 2D
100
AcDbSpline
210
0.0
220
0.0
230
1.0
 70
    24
 71
     2
 72
     6
 73
     3
 74
     0
 42
0.0000000001
 43
0.0000000001
 40
0.0
 40
0.0
 40
0.0
 40
16.03774902416974
 40
16.03774902416974
 40
16.03774902416974
 10
856.319010536259
 20
175.9151585733059
 30
0.0
 10
856.319010536259
 20
167.896284061221
 30
0.0
 10
856.319010536259
 20
159.8774095491361
 30
0.0
  0
SPLINE
  5
DA
330
1F
100
AcDbEntity
  8
Linee visibili 2D
100
AcDbSpline
210
0.0
220
0.0
230
1.0
 70
    12
 71
     2
 72
     6
 73
     3
 74
     0
 42
0.0000000001
 43
0.0000000001
 40
0.0
 40
0.0
 40
0.0
 40
6.699182146168215
 40
6.699182146168215
 40
6.699182146168215
 10
862.1158437157038
 20
163.2278800916632
 30
0.0
 41
1.0
 10
859.3145173029338
 20
161.3846637705706
 30
0.0
 41
0.998324761732133
 10
856.319010536259
 20
159.8774095491361
 30
0.0
 41
1.0
  0
SPLINE
  5
DB
330
1F
100
AcDbEntity
  8
Linee visibili 2D
100
AcDbSpline
210
0.0
220
0.0
230
1.0
 70
    24
 71
     2
 72
     6
 73
     3
 74
     0
 42
0.0000000001
 43
0.0000000001
 40
0.0
 40
0.0
 40
0.0
 40
23.68699476062339
 40
23.68699476062339
 40
23.68699476062339
 10
862.1158437157038
 20
163.2278800916632
 30
0.0
 10
862.1158437157038
 20
175.0713774719748
 30
0.0
 10
862.1158437157038
 20
186.9148748522865
 30
0.0
  0
SPLINE
  5
DC
330
1F
100
AcDbEntity
  8
Linee visibili 2D
100
AcDbSpline
210
0.0
220
0.0
230
1.0
 70
    24
 71
     2
 72
     6
 73
     3
 74
     0
 42
0.0000000001
 43
0.0000000001
 40
0.0
 40
0.0
 40
0.0
 40
53.69108837385216
 40
53.69108837385216
 40
53.69108837385216
 10
862.1158437157038
 20
206.4573092265951
 30
0.0
 10
862.1158437157038
 20
233.3028534135212
 30
0.0
 10
862.1158437157038
 20
260.1483976004473
 30
0.0
  0
SPLINE
  5
DD
330
1F
100
AcDbEntity
  8
Linee visibili 2D
100
AcDbSpline
210
0.0
220
0.0
230
1.0
 70
    12
 71
     2
 72
     6
 73
     3
 74
     0
 42
0.0000000001
 43
0.0000000001
 40
0.0
 40
0.0
 40
0.0
 40
6.699182146168199
 40
6.699182146168199
 40
6.699182146168199
 10
856.319010536259
 20
263.4988681429742
 30
0.0
 41
1.0
 10
859.3145173029338
 20
261.9916139215397
 30
0.0
 41
0.9983247617321341
 10
862.1158437157038
 20
260.1483976004473
 30
0.0
 41
1.0
  0
SPLINE
  5
DE
330
1F
100
AcDbEntity
  8
Linee visibili 2D
100
AcDbSpline
210
0.0
220
0.0
230
1.0
 70
    24
 71
     2
 72
     6
 73
     3
 74
     0
 42
0.0000000001
 43
0.0000000001
 40
0.0
 40
0.0
 40
0.0
 40
45.99739206674063
 40
45.99739206674063
 40
45.99739206674063
 10
856.319010536259
 20
263.4988681429742
 30
0.0
 10
856.319010536259
 20
240.5001721096039
 30
0.0
 10
856.319010536259
 20
217.5014760762336
 30
0.0
  0
SPLINE
  5
DF
330
1F
100
AcDbEntity
  8
Linee visibili 2D
100
AcDbSpline
210
0.0
220
0.0
230
1.0
 70
    24
 71
     2
 72
     6
 73
     3
 74
     0
 42
0.0000000001
 43
0.0000000001
 40
0.0
 40
0.0
 40
0.0
 40
41.97852085406853
 40
41.97852085406853
 40
41.97852085406853
 10
812.3005975454001
 20
266.7666967039984
 30
0.0
 10
812.3005975454001
 20
245.7774362769642
 30
0.0
 10
812.3005975454001
 20
224.7881758499299
 30
0.0
  0
SPLINE
  5
E0
330
1F
100
AcDbEntity
  8
Linee visibili 2D
100
AcDbSpline
210
0.0
220
0.0
230
1.0
 70
    24
 71
     2
 72
     6
 73
     3
 74
     0
 42
0.0000000001
 43
0.0000000001
 40
0.0
 40
0.0
 40
0.0
 40
40.61373642461882
 40
40.61373642461882
 40
40.61373642461882
 10
814.6434362235382
 20
226.1529602793796
 30
0.0
 10
814.6434362235382
 20
246.459828491689
 30
0.0
 10
814.6434362235382
 20
266.7666967039984
 30
0.0
  0
SPLINE
  5
E1
330
1F
100
AcDbEntity
  8
Linee visibili 2D
100
AcDbSpline
210
0.0
220
0.0
230
1.0
 70
    24
 71
     2
 72
     6
 73
     3
 74
     0
 42
0.0000000001
 43
0.0000000001
 40
0.0
 40
0.0
 40
0.0
 40
40.64967567745731
 40
40.64967567745731
 40
40.64967567745731
 10
845.8365000005381
 20
226.1529602793797
 30
0.0
 10
845.8365000005381
 20
246.4777981181084
 30
0.0
 10
845.8365000005381
 20
266.802635956837
 30
0.0
  0
SPLINE
  5
E2
330
1F
100
AcDbEntity
  8
Linee visibili 2D
100
AcDbSpline
210
0.0
220
0.0
230
1.0
 70
    24
 71
     2
 72
     6
 73
     3
 74
     0
 42
0.0000000001
 43
0.0000000001
 40
0.0
 40
0.0
 40
0.0
 40
42.01933940369392
 40
42.01933940369392
 40
42.01933940369392
 10
848.179338678676
 20
266.8075152536239
 30
0.0
 10
848.179338678676
 20
245.7978455517769
 30
0.0
 10
848.179338678676
 20
224.78817584993
 30
0.0
  0
SPLINE
  5
E3
330
1F
100
AcDbEntity
  8
Linee visibili 2D
100
AcDbSpline
210
0.0
220
0.0
230
1.0
 70
    12
 71
     2
 72
     6
 73
     3
 74
     0
 42
0.0000000001
 43
0.0000000001
 40
0.0
 40
0.0
 40
0.0
 40
11.37244267920463
 40
11.37244267920463
 40
11.37244267920463
 10
862.1159615014809
 20
206.4569283275382
 30
0.0
 41
1.0
 10
863.8074523165149
 20
200.9686634898432
 30
0.0
 41
0.9852326921216818
 10
863.5481100748449
 20
195.2315096913375
 30
0.0
 41
1.0
  0
SPLINE
  5
E4
330
1F
100
AcDbEntity
  8
Linee visibili 2D
100
AcDbSpline
210
0.0
220
0.0
230
1.0
 70
    12
 71
     2
 72
     6
 73
     3
 74
     0
 42
0.0000000001
 43
0.0000000001
 40
0.0
 40
0.0
 40
0.0
 40
0.3280097556477249
 40
0.3280097556477249
 40
0.3280097556477249
 10
820.4408569816289
 20
228.553410952321
 30
0.0
 41
1.0
 10
820.5970682024069
 20
228.6033750076827
 30
0.0
 41
0.9999790216994245
 10
820.7539135716642
 20
228.6513112410315
 30
0.0
 41
1.0
  0
SPLINE
  5
E5
330
1F
100
AcDbEntity
  8
Linee visibili 2D
100
AcDbSpline
210
0.0
220
0.0
230
1.0
 70
    12
 71
     2
 72
     6
 73
     3
 74
     0
 42
0.0000000001
 43
0.0000000001
 40
0.0
 40
0.0
 40
0.0
 40
3.453653507625854
 40
3.453653507625854
 40
3.453653507625854
 10
853.9767632034639
 20
220.0978985365371
 30
0.0
 41
1.0
 10
855.1903728275414
 20
218.8672847367754
 30
0.0
 41
0.9986622573116422
 10
856.2703984066159
 20
217.5179132562846
 30
0.0
 41
1.0
  0
SPLINE
  5
E6
330
1F
100
AcDbEntity
  8
Linee visibili 2D
100
AcDbSpline
210
0.0
220
0.0
230
1.0
 70
    12
 71
     2
 72
     6
 73
     3
 74
     0
 42
0.0000000001
 43
0.0000000001
 40
0.0
 40
0.0
 40
0.0
 40
2.712291873923006
 40
2.712291873923006
 40
2.712291873923006
 10
812.3005975454001
 20
224.7881758499299
 30
0.0
 41
1.0
 10
813.4411854851913
 20
225.5234943680108
 30
0.0
 41
0.9989808829715061
 10
814.6434362235382
 20
226.1529602793796
 30
0.0
 41
1.0
  0
SPLINE
  5
E7
330
1F
100
AcDbEntity
  8
Linee visibili 2D
100
AcDbSpline
210
0.0
220
0.0
230
1.0
 70
    12
 71
     2
 72
     6
 73
     3
 74
     0
 42
0.0000000001
 43
0.0000000001
 40
0.0
 40
0.0
 40
0.0
 40
2.71242103762708
 40
2.71242103762708
 40
2.71242103762708
 10
814.6434362235382
 20
167.219223799502
 30
0.0
 41
1.0
 10
813.4390928365204
 20
167.8450973939155
 30
0.0
 41
0.9988380942493364
 10
812.3005975454001
 20
168.5840082289517
 30
0.0
 41
1.0
  0
SPLINE
  5
E8
330
1F
100
AcDbEntity
  8
Linee visibili 2D
100
AcDbSpline
210
0.0
220
0.0
230
1.0
 70
    12
 71
     2
 72
     6
 73
     3
 74
     0
 42
0.0000000001
 43
0.0000000001
 40
0.0
 40
0.0
 40
0.0
 40
2.712208421065624
 40
2.712208421065624
 40
2.712208421065624
 10
848.1792687509537
 20
168.5839631961207
 30
0.0
 41
1.0
 10
847.0387091632819
 20
167.8486783777841
 30
0.0
 41
0.9989812522268913
 10
845.8365000005381
 20
167.2192237995019
 30
0.0
 41
1.0
  0
SPLINE
  5
E9
330
1F
100
AcDbEntity
  8
Linee visibili 2D
100
AcDbSpline
210
0.0
220
0.0
230
1.0
 70
    12
 71
     2
 72
     6
 73
     3
 74
     0
 42
0.0000000001
 43
0.0000000001
 40
0.0
 40
0.0
 40
0.0
 40
2.711944227807097
 40
2.711944227807097
 40
2.711944227807097
 10
845.8369238721498
 20
226.1527402338536
 30
0.0
 41
1.0
 10
847.0410562080299
 20
225.5269770677247
 30
0.0
 41
0.9988376577885826
 10
848.179338678676
 20
224.78817584993
 30
0.0
 41
1.0
  0
SPLINE
  5
EA
330
1F
100
AcDbEntity
  8
Linee visibili 2D
100
AcDbSpline
210
0.0
220
0.0
230
1.0
 70
    12
 71
     2
 72
     6
 73
     3
 74
     0
 42
0.0000000001
 43
0.0000000001
 40
0.0
 40
0.0
 40
0.0
 40
3.387230445366313
 40
3.387230445366313
 40
3.387230445366313
 10
806.5037643659552
 20
173.2736858721253
 30
0.0
 41
1.0
 10
805.3135126252334
 20
174.4805668133079
 30
0.0
 41
0.99871352558684
 10
804.2516212580675
 20
175.8017963682378
 30
0.0
 41
1.0
  0
SPLINE
  5
EB
330
1F
100
AcDbEntity
  8
Linee visibili 2D
100
AcDbSpline
210
0.0
220
0.0
230
1.0
 70
    12
 71
     2
 72
     6
 73
     3
 74
     0
 42
0.0000000001
 43
0.0000000001
 40
0.0
 40
0.0
 40
0.0
 40
3.321368095442798
 40
3.321368095442798
 40
3.321368095442798
 10
831.8999949635102
 20
163.387556911431
 30
0.0
 41
1.0
 10
830.240009402115
 20
163.3040952735335
 30
0.0
 41
0.9987384881665162
 10
828.5800236339499
 20
163.3875527988317
 30
0.0
 41
1.0
  0
SPLINE
  5
EC
330
1F
100
AcDbEntity
  8
Linee visibili 2D
100
AcDbSpline
210
0.0
220
0.0
230
1.0
 70
    12
 71
     2
 72
     6
 73
     3
 74
     0
 42
0.0000000001
 43
0.0000000001
 40
0.0
 40
0.0
 40
0.0
 40
2.425485202619361
 40
2.425485202619361
 40
2.425485202619361
 10
840.0388214903328
 20
164.8186906790167
 30
0.0
 41
1.0
 10
838.8827921682761
 20
164.4491624610768
 30
0.0
 41
0.9988745259044888
 10
837.69694965066
 20
164.1908362705301
 30
0.0
 41
1.0
  0
SPLINE
  5
ED
330
1F
100
AcDbEntity
  8
Linee visibili 2D
100
AcDbSpline
210
0.0
220
0.0
230
1.0
 70
    12
 71
     2
 72
     6
 73
     3
 74
     0
 42
0.0000000001
 43
0.0000000001
 40
0.0
 40
0.0
 40
0.0
 40
2.425558634514239
 40
2.425558634514239
 40
2.425558634514239
 10
822.7825741562273
 20
164.1909275982398
 30
0.0
 41
1.0
 10
821.5973377979738
 20
164.4518161708335
 30
0.0
 41
0.9989741971841313
 10
820.4405656365137
 20
164.8188669012612
 30
0.0
 41
1.0
  0
SPLINE
  5
EE
330
1F
100
AcDbEntity
  8
Linee visibili 2D
100
AcDbSpline
210
0.0
220
0.0
230
1.0
 70
    12
 71
     2
 72
     6
 73
     3
 74
     0
 42
0.0000000001
 43
0.0000000001
 40
0.0
 40
0.0
 40
0.0
 40
0.7139844822158948
 40
0.7139844822158948
 40
0.7139844822158948
 10
839.3563600592822
 20
228.7601866532794
 30
0.0
 41
1.0
 10
839.6994282567108
 20
228.6613759576088
 30
0.0
 41
0.9999065495876639
 10
840.0396668210932
 20
228.553223005856
 30
0.0
 41
1.0
  0
SPLINE
  5
EF
330
1F
100
AcDbEntity
  8
Linee visibili 2D
100
AcDbSpline
210
0.0
220
0.0
230
1.0
 70
    12
 71
     2
 72
     6
 73
     3
 74
     0
 42
0.0000000001
 43
0.0000000001
 40
0.0
 40
0.0
 40
0.0
 40
3.532005984738446
 40
3.532005984738446
 40
3.532005984738446
 10
804.16121276624
 20
217.4573868236669
 30
0.0
 41
1.0
 10
805.261322298994
 20
218.8410639170263
 30
0.0
 41
0.9985510272624615
 10
806.5037643659552
 20
220.0984982067562
 30
0.0
 41
1.0
  0
SPLINE
  5
F0
330
1F
100
AcDbEntity
  8
Linee visibili 2D
100
AcDbSpline
210
0.0
220
0.0
230
1.0
 70
    12
 71
     2
 72
     6
 73
     3
 74
     0
 42
0.0000000001
 43
0.0000000001
 40
0.0
 40
0.0
 40
0.0
 40
8.461832158099086
 40
8.461832158099086
 40
8.461832158099086
 10
863.5480937503029
 20
195.2311359285959
 30
0.0
 41
1.0
 10
863.3677413459619
 20
190.9807331137046
 30
0.0
 41
0.9918008688550933
 10
862.1158437157038
 20
186.9148748522865
 30
0.0
 41
1.0
  0
SPLINE
  5
F1
330
1F
100
AcDbEntity
  8
Linee visibili 2D
100
AcDbSpline
210
0.0
220
0.0
230
1.0
 70
    12
 71
     2
 72
     6
 73
     3
 74
     0
 42
0.0000000001
 43
0.0000000001
 40
0.0
 40
0.0
 40
0.0
 40
3.532343972988408
 40
3.532343972988408
 40
3.532343972988408
 10
856.3189423137158
 20
175.9150727134958
 30
0.0
 41
1.0
 10
855.218696900987
 20
174.5312898604499
 30
0.0
 41
0.9985525608122491
 10
853.9761800691801
 20
173.2736941880291
 30
0.0
 41
1.0
  0
SPLINE
  5
F2
330
1F
100
AcDbEntity
  8
Linee visibili 2D
100
AcDbSpline
210
0.0
220
0.0
230
1.0
 70
    24
 71
     2
 72
     6
 73
     3
 74
     0
 42
0.0000000001
 43
0.0000000001
 40
0.0
 40
0.0
 40
0.0
 40
3.320053702944221
 40
3.320053702944221
 40
3.320053702944221
 10
831.8999949635101
 20
269.1624055803704
 30
0.0
 10
830.239968112038
 20
269.1624055803704
 30
0.0
 10
828.579941260566
 20
269.1624055803704
 30
0.0
  0
SPLINE
  5
F3
330
1F
100
AcDbEntity
  8
Linee visibili 2D
100
AcDbSpline
210
0.0
220
0.0
230
1.0
 70
    12
 71
     2
 72
     6
 73
     3
 74
     0
 42
0.0000000001
 43
0.0000000001
 40
0.0
 40
0.0
 40
0.0
 40
5.817310049801108
 40
5.817310049801108
 40
5.817310049801108
 10
822.783108081121
 20
269.2108592487086
 30
0.0
 41
1.0
 10
825.6700209379417
 20
269.5853794278497
 30
0.0
 41
0.9987381819534437
 10
828.579941260566
 20
269.6684151035463
 30
0.0
 41
1.0
  0
SPLINE
  5
F4
330
1F
100
AcDbEntity
  8
Linee visibili 2D
100
AcDbSpline
210
0.0
220
0.0
230
1.0
 70
    24
 71
     2
 72
     6
 73
     3
 74
     0
 42
0.0000000001
 43
0.0000000001
 40
0.0
 40
0.0
 40
0.0
 40
2.444162544710138
 40
2.444162544710138
 40
2.444162544710138
 10
822.783108081121
 20
266.7666967039984
 30
0.0
 10
822.783108081121
 20
267.9887779763535
 30
0.0
 10
822.783108081121
 20
269.2108592487086
 30
0.0
  0
SPLINE
  5
F5
330
1F
100
AcDbEntity
  8
Linee visibili 2D - Tangent
100
AcDbSpline
210
0.0
220
0.0
230
1.0
 70
    24
 71
     2
 72
     6
 73
     3
 74
     0
 42
0.0000000001
 43
0.0000000001
 40
0.0
 40
0.0
 40
0.0
 40
2.342838678137979
 40
2.342838678137979
 40
2.342838678137979
 10
820.440269402983
 20
266.7666967039984
 30
0.0
 10
821.6116887420522
 20
266.7666967039984
 30
0.0
 10
822.783108081121
 20
266.7666967039984
 30
0.0
  0
SPLINE
  5
F6
330
1F
100
AcDbEntity
  8
Linee visibili 2D
100
AcDbSpline
210
0.0
220
0.0
230
1.0
 70
    24
 71
     2
 72
     6
 73
     3
 74
     0
 42
0.0000000001
 43
0.0000000001
 40
0.0
 40
0.0
 40
0.0
 40
2.091661918215038
 40
2.091661918215038
 40
2.091661918215038
 10
820.440269402983
 20
268.8583586222135
 30
0.0
 10
820.440269402983
 20
267.8125276631059
 30
0.0
 10
820.440269402983
 20
266.7666967039984
 30
0.0
  0
SPLINE
  5
F7
330
1F
100
AcDbEntity
  8
Linee visibili 2D
100
AcDbSpline
210
0.0
220
0.0
230
1.0
 70
    12
 71
     2
 72
     6
 73
     3
 74
     0
 42
0.0000000001
 43
0.0000000001
 40
0.0
 40
0.0
 40
0.0
 40
5.943944813132005
 40
5.943944813132005
 40
5.943944813132005
 10
814.6434362235382
 20
267.5559857447269
 30
0.0
 41
1.0
 10
817.5083917574466
 20
268.3561066107106
 30
0.0
 41
0.9986824121001465
 10
820.440269402983
 20
268.8583586222135
 30
0.0
 41
1.0
  0
SPLINE
  5
F8
330
1F
100
AcDbEntity
  8
Linee visibili 2D
100
AcDbSpline
210
0.0
220
0.0
230
1.0
 70
    24
 71
     2
 72
     6
 73
     3
 74
     0
 42
0.0000000001
 43
0.0000000001
 40
0.0
 40
0.0
 40
0.0
 40
0.7892890407284768
 40
0.7892890407284768
 40
0.7892890407284768
 10
814.6434362235382
 20
266.7666967039984
 30
0.0
 10
814.6434362235382
 20
267.1613412243627
 30
0.0
 10
814.6434362235382
 20
267.5559857447269
 30
0.0
  0
SPLINE
  5
F9
330
1F
100
AcDbEntity
  8
Linee visibili 2D - Tangent
100
AcDbSpline
210
0.0
220
0.0
230
1.0
 70
    24
 71
     2
 72
     6
 73
     3
 74
     0
 42
0.0000000001
 43
0.0000000001
 40
0.0
 40
0.0
 40
0.0
 40
2.342838678137979
 40
2.342838678137979
 40
2.342838678137979
 10
812.3005975454001
 20
266.7666967039984
 30
0.0
 10
813.4720168844692
 20
266.7666967039984
 30
0.0
 10
814.6434362235382
 20
266.7666967039984
 30
0.0
  0
SPLINE
  5
FA
330
1F
100
AcDbEntity
  8
Linee visibili 2D
100
AcDbSpline
210
0.0
220
0.0
230
1.0
 70
    12
 71
     2
 72
     6
 73
     3
 74
     0
 42
0.0000000001
 43
0.0000000001
 40
0.0
 40
0.0
 40
0.0
 40
0.262139812351564
 40
0.262139812351564
 40
0.262139812351564
 10
812.051494060277
 20
266.7666967039984
 30
0.0
 41
1.0
 10
812.1759527862145
 20
266.8077990800368
 30
0.0
 41
0.9999974035837405
 10
812.3005975454001
 20
266.8483338032455
 30
0.0
 41
1.0
  0
SPLINE
  5
FB
330
1F
100
AcDbEntity
  8
Linee visibili 2D - Tangent
100
AcDbSpline
210
0.0
220
0.0
230
1.0
 70
    24
 71
     2
 72
     6
 73
     3
 74
     0
 42
0.0000000001
 43
0.0000000001
 40
0.0
 40
0.0
 40
0.0
 40
6.577649093729348
 40
6.577649093729348
 40
6.577649093729348
 10
805.4738449665476
 20
266.7666967039984
 30
0.0
 10
808.7626695134122
 20
266.7666967039984
 30
0.0
 10
812.051494060277
 20
266.7666967039984
 30
0.0
  0
SPLINE
  5
FC
330
1F
100
AcDbEntity
  8
Linee visibili 2D
100
AcDbSpline
210
0.0
220
0.0
230
1.0
 70
    12
 71
     2
 72
     6
 73
     3
 74
     0
 42
0.0000000001
 43
0.0000000001
 40
0.0
 40
0.0
 40
0.0
 40
18.39928677316151
 40
18.39928677316151
 40
18.39928677316151
 10
818.9945665543962
 20
279.1761742201717
 30
0.0
 41
1.0
 10
813.006919767208
 20
272.1295264503244
 30
0.0
 41
0.9923344301170381
 10
805.4738449665476
 20
266.7666967039984
 30
0.0
 41
1.0
  0
SPLINE
  5
FD
330
1F
100
AcDbEntity
  8
Linee visibili 2D - Tangent
100
AcDbSpline
210
0.0
220
0.0
230
1.0
 70
    24
 71
     2
 72
     6
 73
     3
 74
     0
 42
0.0000000001
 43
0.0000000001
 40
0.0
 40
0.0
 40
0.0
 40
22.46946180060999
 40
22.46946180060999
 40
22.46946180060999
 10
841.4640160628241
 20
279.1996773536634
 30
0.0
 10
830.2292913086102
 20
279.1879257869175
 30
0.0
 10
818.9945665543962
 20
279.1761742201717
 30
0.0
  0
SPLINE
  5
FE
330
1F
100
AcDbEntity
  8
Linee visibili 2D
100
AcDbSpline
210
0.0
220
0.0
230
1.0
 70
    12
 71
     2
 72
     6
 73
     3
 74
     0
 42
0.0000000001
 43
0.0000000001
 40
0.0
 40
0.0
 40
0.0
 40
18.43248455464926
 40
18.43248455464926
 40
18.43248455464926
 10
855.0060934648101
 20
266.7666967039984
 30
0.0
 41
1.0
 10
847.4486219307303
 20
272.1265996506939
 30
0.0
 41
0.9920927090444903
 10
841.4640160628241
 20
279.1996773536634
 30
0.0
 41
1.0
  0
SPLINE
  5
FF
330
1F
100
AcDbEntity
  8
Linee visibili 2D - Tangent
100
AcDbSpline
210
0.0
220
0.0
230
1.0
 70
    24
 71
     2
 72
     6
 73
     3
 74
     0
 42
0.0000000001
 43
0.0000000001
 40
0.0
 40
0.0
 40
0.0
 40
6.577651300998525
 40
6.577651300998525
 40
6.577651300998525
 10
848.4284421638117
 20
266.7666967039984
 30
0.0
 10
851.7172678143108
 20
266.7666967039984
 30
0.0
 10
855.0060934648101
 20
266.7666967039984
 30
0.0
  0
SPLINE
  5
100
330
1F
100
AcDbEntity
  8
Linee visibili 2D
100
AcDbSpline
210
0.0
220
0.0
230
1.0
 70
    24
 71
     2
 72
     6
 73
     3
 74
     0
 42
0.0000000001
 43
0.0000000001
 40
0.0
 40
0.0
 40
0.0
 40
0.2524256332074415
 40
0.2524256332074415
 40
0.2524256332074415
 10
848.179338678676
 20
266.8075152536239
 30
0.0
 10
848.3038904212438
 20
266.7871059788112
 30
0.0
 10
848.4284421638117
 20
266.7666967039984
 30
0.0
  0
SPLINE
  5
101
330
1F
100
AcDbEntity
  8
Linee visibili 2D - Tangent
100
AcDbSpline
210
0.0
220
0.0
230
1.0
 70
    24
 71
     2
 72
     6
 73
     3
 74
     0
 42
0.0000000001
 43
0.0000000001
 40
0.0
 40
0.0
 40
0.0
 40
2.342843759049399
 40
2.342843759049399
 40
2.342843759049399
 10
845.8365000005381
 20
266.802635956837
 30
0.0
 10
847.007919339607
 20
266.8050756052305
 30
0.0
 10
848.179338678676
 20
266.8075152536239
 30
0.0
  0
SPLINE
  5
102
330
1F
100
AcDbEntity
  8
Linee visibili 2D
100
AcDbSpline
210
0.0
220
0.0
230
1.0
 70
    24
 71
     2
 72
     6
 73
     3
 74
     0
 42
0.0000000001
 43
0.0000000001
 40
0.0
 40
0.0
 40
0.0
 40
0.7533497878933702
 40
0.7533497878933702
 40
0.7533497878933702
 10
845.8365000005381
 20
266.802635956837
 30
0.0
 10
845.8365000005381
 20
267.1793108507837
 30
0.0
 10
845.8365000005381
 20
267.5559857447304
 30
0.0
  0
SPLINE
  5
103
330
1F
100
AcDbEntity
  8
Linee visibili 2D
100
AcDbSpline
210
0.0
220
0.0
230
1.0
 70
    12
 71
     2
 72
     6
 73
     3
 74
     0
 42
0.0000000001
 43
0.0000000001
 40
0.0
 40
0.0
 40
0.0
 40
5.943944812320421
 40
5.943944812320421
 40
5.943944812320421
 10
840.0396668210932
 20
268.8583586222156
 30
0.0
 41
1.0
 10
842.9715444614235
 20
268.3561065875411
 30
0.0
 41
0.9986824125093342
 10
845.8365000005381
 20
267.5559857447304
 30
0.0
 41
1.0
  0
SPLINE
  5
104
330
1F
100
AcDbEntity
  8
Linee visibili 2D
100
AcDbSpline
210
0.0
220
0.0
230
1.0
 70
    24
 71
     2
 72
     6
 73
     3
 74
     0
 42
0.0000000001
 43
0.0000000001
 40
0.0
 40
0.0
 40
0.0
 40
2.067795399950881
 40
2.067795399950881
 40
2.067795399950881
 10
840.0396668210932
 20
268.8583586222156
 30
0.0
 10
840.039666821093
 20
267.8244609222402
 30
0.0
 10
840.039666821093
 20
266.7905632222647
 30
0.0
  0
SPLINE
  5
105
330
1F
100
AcDbEntity
  8
Linee visibili 2D - Tangent
100
AcDbSpline
210
0.0
220
0.0
230
1.0
 70
    24
 71
     2
 72
     6
 73
     3
 74
     0
 42
0.0000000001
 43
0.0000000001
 40
0.0
 40
0.0
 40
0.0
 40
2.342843759049342
 40
2.342843759049342
 40
2.342843759049342
 10
837.6968281429551
 20
266.7856839254778
 30
0.0
 10
838.8682474820241
 20
266.7881235738712
 30
0.0
 10
840.039666821093
 20
266.7905632222647
 30
0.0
  0
SPLINE
  5
106
330
1F
100
AcDbEntity
  8
Linee visibili 2D
100
AcDbSpline
210
0.0
220
0.0
230
1.0
 70
    24
 71
     2
 72
     6
 73
     3
 74
     0
 42
0.0000000001
 43
0.0000000001
 40
0.0
 40
0.0
 40
0.0
 40
2.425175323232394
 40
2.425175323232394
 40
2.425175323232394
 10
837.6968281429551
 20
266.7856839254778
 30
0.0
 10
837.6968281429551
 20
267.998271587094
 30
0.0
 10
837.6968281429551
 20
269.2108592487102
 30
0.0
  0
SPLINE
  5
107
330
1F
100
AcDbEntity
  8
Linee visibili 2D
100
AcDbSpline
210
0.0
220
0.0
230
1.0
 70
    12
 71
     2
 72
     6
 73
     3
 74
     0
 42
0.0000000001
 43
0.0000000001
 40
0.0
 40
0.0
 40
0.0
 40
5.8173100499162
 40
5.8173100499162
 40
5.8173100499162
 10
831.8999949635101
 20
269.6684151035466
 30
0.0
 41
1.0
 10
834.8099152864056
 20
269.5853794312856
 30
0.0
 41
0.9987381818940759
 10
837.6968281429551
 20
269.2108592487102
 30
0.0
 41
1.0
  0
SPLINE
  5
108
330
1F
100
AcDbEntity
  8
Linee visibili 2D
100
AcDbSpline
210
0.0
220
0.0
230
1.0
 70
    24
 71
     2
 72
     6
 73
     3
 74
     0
 42
0.0000000001
 43
0.0000000001
 40
0.0
 40
0.0
 40
0.0
 40
0.5060095231758908
 40
0.5060095231758908
 40
0.5060095231758908
 10
828.579941260566
 20
269.6684151035463
 30
0.0
 10
828.579941260566
 20
269.4154103419584
 30
0.0
 10
828.579941260566
 20
269.1624055803704
 30
0.0
  0
SPLINE
  5
109
330
1F
100
AcDbEntity
  8
Linee visibili 2D
100
AcDbSpline
210
0.0
220
0.0
230
1.0
 70
    24
 71
     2
 72
     6
 73
     3
 74
     0
 42
0.0000000001
 43
0.0000000001
 40
0.0
 40
0.0
 40
0.0
 40
0.8447803482762026
 40
0.8447803482762026
 40
0.8447803482762026
 10
828.579941260566
 20
268.3176252320942
 30
0.0
 10
828.579941260566
 20
268.7400154062323
 30
0.0
 10
828.579941260566
 20
269.1624055803704
 30
0.0
  0
SPLINE
  5
10A
330
1F
100
AcDbEntity
  8
Linee visibili 2D
100
AcDbSpline
210
0.0
220
0.0
230
1.0
 70
    24
 71
     2
 72
     6
 73
     3
 74
     0
 42
0.0000000001
 43
0.0000000001
 40
0.0
 40
0.0
 40
0.0
 40
0.5060095231762603
 40
0.5060095231762603
 40
0.5060095231762603
 10
831.8999949635101
 20
269.6684151035466
 30
0.0
 10
831.8999949635101
 20
269.4154103419585
 30
0.0
 10
831.8999949635101
 20
269.1624055803704
 30
0.0
  0
SPLINE
  5
10B
330
1F
100
AcDbEntity
  8
Linee visibili 2D
100
AcDbSpline
210
0.0
220
0.0
230
1.0
 70
    24
 71
     2
 72
     6
 73
     3
 74
     0
 42
0.0000000001
 43
0.0000000001
 40
0.0
 40
0.0
 40
0.0
 40
0.8447803481479212
 40
0.8447803481479212
 40
0.8447803481479212
 10
831.8999949635101
 20
268.3176252322225
 30
0.0
 10
831.8999949635101
 20
268.7400154062965
 30
0.0
 10
831.8999949635101
 20
269.1624055803704
 30
0.0
  0
SPLINE
  5
10C
330
1F
100
AcDbEntity
  8
Linee visibili 2D
100
AcDbSpline
210
0.0
220
0.0
230
1.0
 70
    12
 71
     2
 72
     6
 73
     3
 74
     0
 42
0.0000000001
 43
0.0000000001
 40
0.0
 40
0.0
 40
0.0
 40
5.866089454112457
 40
5.866089454112457
 40
5.866089454112457
 10
837.7054104599038
 20
164.153703346683
 30
0.0
 41
1.0
 10
834.8387540931964
 20
163.4981594966649
 30
0.0
 41
0.9961221894710606
 10
831.9015739546095
 20
163.3552284028777
 30
0.0
 41
1.0
  0
SPLINE
  5
10D
330
1F
100
AcDbEntity
  8
Linee visibili 2D
100
AcDbSpline
210
0.0
220
0.0
230
1.0
 70
    12
 71
     2
 72
     6
 73
     3
 74
     0
 42
0.0000000001
 43
0.0000000001
 40
0.0
 40
0.0
 40
0.0
 40
6.290254621787025
 40
6.290254621787025
 40
6.290254621787025
 10
845.8516300964811
 20
167.1895029609586
 30
0.0
 41
1.0
 10
843.0656999908356
 20
165.7095999498086
 30
0.0
 41
0.9955004811517738
 10
840.0505995740251
 20
164.7818667163294
 30
0.0
 41
1.0
  0
SPLINE
  5
10E
330
1F
100
AcDbEntity
  8
Linee visibili 2D
100
AcDbSpline
210
0.0
220
0.0
230
1.0
 70
    12
 71
     2
 72
     6
 73
     3
 74
     0
 42
0.0000000001
 43
0.0000000001
 40
0.0
 40
0.0
 40
0.0
 40
7.477450074132343
 40
7.477450074132343
 40
7.477450074132343
 10
853.9908453509262
 20
173.2592468957962
 30
0.0
 41
1.0
 10
851.3563148077226
 20
170.584514625852
 30
0.0
 41
0.9937794914406229
 10
848.1950917664635
 20
168.559270743657
 30
0.0
 41
1.0
  0
SPLINE
  5
10F
330
1F
100
AcDbEntity
  8
Linee visibili 2D
100
AcDbSpline
210
0.0
220
0.0
230
1.0
 70
    12
 71
     2
 72
     6
 73
     3
 74
     0
 42
0.0000000001
 43
0.0000000001
 40
0.0
 40
0.0
 40
0.0
 40
12.51380082330182
 40
12.51380082330182
 40
12.51380082330182
 10
862.1296182327705
 20
186.910532888286
 30
0.0
 41
1.0
 10
860.2805304140568
 20
180.8546345584655
 30
0.0
 41
0.982325921732643
 10
856.3340117155224
 20
175.9030670789137
 30
0.0
 41
1.0
  0
SPLINE
  5
110
330
1F
100
AcDbEntity
  8
Linee visibili 2D
100
AcDbSpline
210
0.0
220
0.0
230
1.0
 70
    12
 71
     2
 72
     6
 73
     3
 74
     0
 42
0.0000000001
 43
0.0000000001
 40
0.0
 40
0.0
 40
0.0
 40
12.5793483697204
 40
12.5793483697204
 40
12.5793483697204
 10
856.2498598386385
 20
217.5014760762336
 30
0.0
 41
1.0
 10
860.2366866020524
 20
212.5388885499291
 30
0.0
 41
0.9821826783694868
 10
862.109914690129
 20
206.4550510169449
 30
0.0
 41
1.0
  0
SPLINE
  5
111
330
1F
100
AcDbEntity
  8
Linee visibili 2D
100
AcDbSpline
210
0.0
220
0.0
230
1.0
 70
    12
 71
     2
 72
     6
 73
     3
 74
     0
 42
0.0000000001
 43
0.0000000001
 40
0.0
 40
0.0
 40
0.0
 40
7.465543982987953
 40
7.465543982987953
 40
7.465543982987953
 10
848.1631896219969
 20
224.7623376599116
 30
0.0
 41
1.0
 10
851.3215957179076
 20
222.7438345005292
 30
0.0
 41
0.9937906003851463
 10
853.9554035887981
 20
220.0768249073037
 30
0.0
 41
1.0
  0
SPLINE
  5
112
330
1F
100
AcDbEntity
  8
Linee visibili 2D
100
AcDbSpline
210
0.0
220
0.0
230
1.0
 70
    12
 71
     2
 72
     6
 73
     3
 74
     0
 42
0.0000000001
 43
0.0000000001
 40
0.0
 40
0.0
 40
0.0
 40
6.278394439383203
 40
6.278394439383203
 40
6.278394439383203
 10
840.0308959650683
 20
228.5240524173405
 30
0.0
 41
1.0
 10
843.0410957791352
 20
227.6006903635101
 30
0.0
 41
0.9955100766099892
 10
845.8233367211501
 20
226.1265683388329
 30
0.0
 41
1.0
  0
SPLINE
  5
113
330
1F
100
AcDbEntity
  8
Linee visibili 2D
100
AcDbSpline
210
0.0
220
0.0
230
1.0
 70
    12
 71
     2
 72
     6
 73
     3
 74
     0
 42
0.0000000001
 43
0.0000000001
 40
0.0
 40
0.0
 40
0.0
 40
6.172936747200501
 40
6.172936747200501
 40
6.172936747200501
 10
814.7511045191558
 20
226.1755842005275
 30
0.0
 41
1.0
 10
817.4908152505842
 20
227.6162904893316
 30
0.0
 41
0.995665889515428
 10
820.4499487583966
 20
228.5246837882087
 30
0.0
 41
1.0
  0
SPLINE
  5
114
330
1F
100
AcDbEntity
  8
Linee visibili 2D
100
AcDbSpline
210
0.0
220
0.0
230
1.0
 70
    12
 71
     2
 72
     6
 73
     3
 74
     0
 42
0.0000000001
 43
0.0000000001
 40
0.0
 40
0.0
 40
0.0
 40
7.463266936447351
 40
7.463266936447351
 40
7.463266936447351
 10
806.525630574532
 20
220.077978869461
 30
0.0
 41
1.0
 10
809.1592596365504
 20
222.7435147804457
 30
0.0
 41
0.9938028427814955
 10
812.3167212746391
 20
224.7613154973293
 30
0.0
 41
1.0
  0
SPLINE
  5
115
330
1F
100
AcDbEntity
  8
Linee visibili 2D
100
AcDbSpline
210
0.0
220
0.0
230
1.0
 70
    12
 71
     2
 72
     6
 73
     3
 74
     0
 42
0.0000000001
 43
0.0000000001
 40
0.0
 40
0.0
 40
0.0
 40
12.50130522378289
 40
12.50130522378289
 40
12.50130522378289
 10
798.3705478598968
 20
206.4558397836413
 30
0.0
 41
1.0
 10
800.2304213716799
 20
212.5016502043779
 30
0.0
 41
0.9823634500480174
 10
804.1812787236178
 20
217.4414557985241
 30
0.0
 41
1.0
  0
SPLINE
  5
116
330
1F
100
AcDbEntity
  8
Linee visibili 2D
100
AcDbSpline
210
0.0
220
0.0
230
1.0
 70
    12
 71
     2
 72
     6
 73
     3
 74
     0
 42
0.0000000001
 43
0.0000000001
 40
0.0
 40
0.0
 40
0.0
 40
12.51328928930447
 40
12.51328928930447
 40
12.51328928930447
 10
804.1461377323198
 20
175.9037218571067
 30
0.0
 41
1.0
 10
800.2005766766886
 20
180.8555112576497
 30
0.0
 41
0.9823640096506469
 10
798.3499953391579
 20
186.9105107641919
 30
0.0
 41
1.0
  0
SPLINE
  5
117
330
1F
100
AcDbEntity
  8
Linee visibili 2D
100
AcDbSpline
210
0.0
220
0.0
230
1.0
 70
    12
 71
     2
 72
     6
 73
     3
 74
     0
 42
0.0000000001
 43
0.0000000001
 40
0.0
 40
0.0
 40
0.0
 40
7.477186124412091
 40
7.477186124412091
 40
7.477186124412091
 10
812.284295841068
 20
168.5586237271414
 30
0.0
 41
1.0
 10
809.123262372034
 20
170.5839536241112
 30
0.0
 41
0.9937718385826125
 10
806.4893032616746
 20
173.2590897307174
 30
0.0
 41
1.0
  0
SPLINE
  5
118
330
1F
100
AcDbEntity
  8
Linee visibili 2D
100
AcDbSpline
210
0.0
220
0.0
230
1.0
 70
    12
 71
     2
 72
     6
 73
     3
 74
     0
 42
0.0000000001
 43
0.0000000001
 40
0.0
 40
0.0
 40
0.0
 40
6.290613236562847
 40
6.290613236562847
 40
6.290613236562847
 10
820.4292305626992
 20
164.7822071218306
 30
0.0
 41
1.0
 10
817.41372196838
 20
165.7092798909384
 30
0.0
 41
0.9954928537603533
 10
814.6275045037532
 20
167.1890596858547
 30
0.0
 41
1.0
  0
SPLINE
  5
119
330
1F
100
AcDbEntity
  8
Linee visibili 2D
100
AcDbSpline
210
0.0
220
0.0
230
1.0
 70
    12
 71
     2
 72
     6
 73
     3
 74
     0
 42
0.0000000001
 43
0.0000000001
 40
0.0
 40
0.0
 40
0.0
 40
5.86635670790547
 40
5.86635670790547
 40
5.86635670790547
 10
828.5784742007033
 20
163.3559456213148
 30
0.0
 41
1.0
 10
825.6412375220133
 20
163.4996265661488
 30
0.0
 41
0.9961429792045827
 10
822.7743466660781
 20
164.1545619375448
 30
0.0
 41
1.0
  0
ENDSEC
  0
SECTION
  2
OBJECTS
  0
DICTIONARY
  5
C
330
0
100
AcDbDictionary
281
     1
  3
ACAD_CIP_PREVIOUS_PRODUCT_INFO
350
15D
  3
ACAD_COLOR
350
140
  3
ACAD_DETAILVIEWSTYLE
350
158
  3
ACAD_GROUP
350
D
  3
ACAD_LAYOUT
350
1A
  3
ACAD_MATERIAL
350
11D
  3
ACAD_MLEADERSTYLE
350
11B
  3
ACAD_MLINESTYLE
350
17
  3
ACAD_PLOTSETTINGS
350
19
  3
ACAD_PLOTSTYLENAME
350
E
  3
ACAD_SCALELIST
350
142
  3
ACAD_SECTIONVIEWSTYLE
350
155
  3
ACAD_TABLESTYLE
350
11A
  3
ACAD_VISUALSTYLE
350
2A
  3
ACDB_RECOMPOSE_DATA
350
17A
  3
AcDbVariableDictionary
350
16D
  0
DICTIONARY
  5
167
330
2
100
AcDbDictionary
280
     1
281
     1
  3
ACAD_LAYERSTATES
360
168
  0
DICTIONARY
  5
15E
330
10
100
AcDbDictionary
280
     1
281
     1
  3
ADSK_XREC_LAYER_RECONCILED
360
15F
  0
DICTIONARY
  5
160
330
3B
100
AcDbDictionary
280
     1
281
     1
  3
ADSK_XREC_LAYER_RECONCILED
360
161
  0
DICTIONARY
  5
162
330
4B
100
AcDbDictionary
280
     1
281
     1
  3
ADSK_XREC_LAYER_RECONCILED
360
163
  0
XRECORD
  5
15D
102
{ACAD_REACTORS
330
C
102
}
330
C
100
AcDbXrecord
280
     1
300
ACDMAC
300
2013
300

  0
DICTIONARY
  5
140
102
{ACAD_REACTORS
330
C
102
}
330
C
100
AcDbDictionary
281
     1
  0
DICTIONARY
  5
158
102
{ACAD_REACTORS
330
C
102
}
330
C
100
AcDbDictionary
281
     1
  3
Imperial24
350
159
  0
DICTIONARY
  5
D
102
{ACAD_REACTORS
330
C
102
}
330
C
100
AcDbDictionary
281
     1
  0
DICTIONARY
  5
1A
102
{ACAD_REACTORS
330
C
102
}
330
C
100
AcDbDictionary
281
     1
  3
Layout1
350
1E
  3
Layout2
350
26
  3
Model
350
22
  0
DICTIONARY
  5
11D
102
{ACAD_REACTORS
330
C
102
}
330
C
100
AcDbDictionary
281
     1
  3
ByBlock
350
126
  3
ByLayer
350
11E
  3
Global
350
12E
  0
DICTIONARY
  5
11B
102
{ACAD_REACTORS
330
C
102
}
330
C
100
AcDbDictionary
281
     1
  3
Standard
350
154
  0
DICTIONARY
  5
17
102
{ACAD_REACTORS
330
C
102
}
330
C
100
AcDbDictionary
281
     1
  3
Standard
350
18
  0
DICTIONARY
  5
19
102
{ACAD_REACTORS
330
C
102
}
330
C
100
AcDbDictionary
281
     1
  0
ACDBDICTIONARYWDFLT
  5
E
102
{ACAD_REACTORS
330
C
102
}
330
C
100
AcDbDictionary
281
     1
  3
Normal
350
F
100
AcDbDictionaryWithDefault
340
F
  0
DICTIONARY
  5
142
102
{ACAD_REACTORS
330
C
102
}
330
C
100
AcDbDictionary
281
     1
  3
A0
350
143
  3
A1
350
144
  3
A2
350
145
  3
A3
350
146
  3
A4
350
147
  3
A5
350
148
  3
A6
350
149
  3
A7
350
14A
  3
A8
350
14B
  3
A9
350
14C
  3
B0
350
14D
  3
B1
350
14E
  3
B2
350
14F
  3
B3
350
150
  3
B4
350
151
  3
B5
350
152
  3
B6
350
153
  0
DICTIONARY
  5
155
102
{ACAD_REACTORS
330
C
102
}
330
C
100
AcDbDictionary
281
     1
  3
Imperial24
350
157
  0
DICTIONARY
  5
11A
102
{ACAD_REACTORS
330
C
102
}
330
C
100
AcDbDictionary
281
     1
  3
Standard
350
141
  0
DICTIONARY
  5
2A
102
{ACAD_REACTORS
330
C
102
}
330
C
100
AcDbDictionary
281
     1
  3
2dWireframe
350
2F
  3
3D Hidden
350
31
  3
3dWireframe
350
30
  3
Basic
350
32
  3
Brighten
350
36
  3
ColorChange
350
3A
  3
Conceptual
350
34
  3
Dim
350
35
  3
EdgeColorOff
350
13F
  3
Facepattern
350
39
  3
Flat
350
2B
  3
FlatWithEdges
350
2C
  3
Gouraud
350
2D
  3
GouraudWithEdges
350
2E
  3
Hidden
350
137
  3
JitterOff
350
13D
  3
Linepattern
350
38
  3
OverhangOff
350
13E
  3
Realistic
350
33
  3
Shaded
350
13C
  3
Shaded with edges
350
13B
  3
Shades of Gray
350
138
  3
Sketchy
350
139
  3
Thicken
350
37
  3
Wireframe
350
136
  3
X-Ray
350
13A
  0
XRECORD
  5
17A
102
{ACAD_REACTORS
330
C
102
}
330
C
100
AcDbXrecord
280
     1
 90
        1
330
141
  0
DICTIONARY
  5
16D
102
{ACAD_REACTORS
330
C
102
}
330
C
100
AcDbDictionary
281
     1
  3
CANNOSCALE
350
173
  3
CMLEADERSTYLE
350
16F
  3
CTABLESTYLE
350
16E
  3
CVIEWDETAILSTYLE
350
170
  3
CVIEWSECTIONSTYLE
350
171
  3
LAYEREVAL
350
175
  3
LAYERNOTIFY
350
176
  3
LIGHTINGUNITS
350
174
  3
MSLTSCALE
350
172
  0
DICTIONARY
  5
168
102
{ACAD_REACTORS
330
167
102
}
330
167
100
AcDbDictionary
281
     1
  0
XRECORD
  5
15F
102
{ACAD_REACTORS
330
15E
102
}
330
15E
100
AcDbXrecord
280
     1
290
     1
  0
XRECORD
  5
161
102
{ACAD_REACTORS
330
160
102
}
330
160
100
AcDbXrecord
280
     1
290
     1
  0
XRECORD
  5
163
102
{ACAD_REACTORS
330
162
102
}
330
162
100
AcDbXrecord
280
     1
290
     1
  0
ACDBDETAILVIEWSTYLE
  5
159
102
{ACAD_REACTORS
330
158
102
}
330
158
100
AcDbModelDocViewStyle
 70
     0
  3
Imperial24
290
     1
100
AcDbDetailViewStyle
 70
     0
 71
     0
 90
        3
 71
     1
340
11
 62
   256
 40
0.24
340
0
 62
   256
 40
0.24
300

 40
0.36
280
     3
 71
     2
340
16
 90
       25
 62
   256
 71
     3
340
11
 62
   256
 40
0.24
 90
        1
 40
0.75
 90
        1
300
%<\AcVar ViewType \f "%tc1">% %<\AcVar ViewDetailId>%\PSCALE %<\AcVar ViewScale \f "%sn">%
 71
     4
340
16
 90
       25
 62
   256
340
16
 90
       25
 62
   256
280
     0
  0
LAYOUT
  5
1E
102
{ACAD_REACTORS
330
1A
102
}
330
1A
100
AcDbPlotSettings
  1

  2
none_device
  4

  6

 40
0.0
 41
0.0
 42
0.0
 43
0.0
 44
0.0
 45
0.0
 46
0.0
 47
0.0
 48
0.0
 49
0.0
140
0.0
141
0.0
142
1.0
143
1.0
 70
   688
 72
     0
 73
     0
 74
     5
  7

 75
    16
147
1.0
 76
     0
 77
     2
 78
   300
148
0.0
149
0.0
100
AcDbLayout
  1
Layout1
 70
     1
 71
     1
 10
0.0
 20
0.0
 11
12.0
 21
9.0
 12
0.0
 22
0.0
 32
0.0
 14
1.000000000000000E+20
 24
1.000000000000000E+20
 34
1.000000000000000E+20
 15
-1.000000000000000E+20
 25
-1.000000000000000E+20
 35
-1.000000000000000E+20
146
0.0
 13
0.0
 23
0.0
 33
0.0
 16
1.0
 26
0.0
 36
0.0
 17
0.0
 27
1.0
 37
0.0
 76
     0
330
1B
  0
LAYOUT
  5
26
102
{ACAD_REACTORS
330
1A
102
}
330
1A
100
AcDbPlotSettings
  1

  2
none_device
  4

  6

 40
0.0
 41
0.0
 42
0.0
 43
0.0
 44
0.0
 45
0.0
 46
0.0
 47
0.0
 48
0.0
 49
0.0
140
0.0
141
0.0
142
1.0
143
1.0
 70
   688
 72
     0
 73
     0
 74
     5
  7

 75
    16
147
1.0
 76
     0
 77
     2
 78
   300
148
0.0
149
0.0
100
AcDbLayout
  1
Layout2
 70
     1
 71
     2
 10
0.0
 20
0.0
 11
0.0
 21
0.0
 12
0.0
 22
0.0
 32
0.0
 14
0.0
 24
0.0
 34
0.0
 15
0.0
 25
0.0
 35
0.0
146
0.0
 13
0.0
 23
0.0
 33
0.0
 16
1.0
 26
0.0
 36
0.0
 17
0.0
 27
1.0
 37
0.0
 76
     0
330
23
  0
LAYOUT
  5
22
102
{ACAD_REACTORS
330
1A
102
}
330
1A
100
AcDbPlotSettings
  1

  2
none_device
  4

  6

 40
0.0
 41
0.0
 42
0.0
 43
0.0
 44
0.0
 45
0.0
 46
0.0
 47
0.0
 48
0.0
 49
0.0
140
0.0
141
0.0
142
1.0
143
1.0
 70
  1712
 72
     0
 73
     0
 74
     0
  7

 75
     0
147
1.0
 76
     0
 77
     2
 78
   300
148
0.0
149
0.0
100
AcDbLayout
  1
Model
 70
     1
 71
     0
 10
0.0
 20
0.0
 11
12.0
 21
9.0
 12
0.0
 22
0.0
 32
0.0
 14
770.239968808153
 24
151.5726152329751
 34
0.0
 15
1127.449572654792
 25
507.9123390243462
 35
0.0
146
0.0
 13
0.0
 23
0.0
 33
0.0
 16
1.0
 26
0.0
 36
0.0
 17
0.0
 27
1.0
 37
0.0
 76
     0
330
1F
331
29
  0
MATERIAL
  5
126
102
{ACAD_XDICTIONARY
360
127
102
}
102
{ACAD_REACTORS
330
11D
102
}
330
11D
100
AcDbMaterial
  1
ByBlock
 72
     0
 43
0.0008202099737533
 43
0.0
 43
0.0
 43
0.0
 43
0.0
 43
0.0008202099737533
 43
0.0
 43
0.0
 43
0.0
 43
0.0
 43
1.0
 43
0.0
 43
0.0
 43
0.0
 43
0.0
 43
1.0
 77
     0
 47
0.0008202099737533
 47
0.0
 47
0.0
 47
0.0
 47
0.0
 47
0.0008202099737533
 47
0.0
 47
0.0
 47
0.0
 47
0.0
 47
1.0
 47
0.0
 47
0.0
 47
0.0
 47
0.0
 47
1.0
171
     0
 49
0.0008202099737533
 49
0.0
 49
0.0
 49
0.0
 49
0.0
 49
0.0008202099737533
 49
0.0
 49
0.0
 49
0.0
 49
0.0
 49
1.0
 49
0.0
 49
0.0
 49
0.0
 49
0.0
 49
1.0
175
     0
142
0.0008202099737533
142
0.0
142
0.0
142
0.0
142
0.0
142
0.0008202099737533
142
0.0
142
0.0
142
0.0
142
0.0
142
1.0
142
0.0
142
0.0
142
0.0
142
0.0
142
1.0
179
     0
144
0.0008202099737533
144
0.0
144
0.0
144
0.0
144
0.0
144
0.0008202099737533
144
0.0
144
0.0
144
0.0
144
0.0
144
1.0
144
0.0
144
0.0
144
0.0
144
0.0
144
1.0
147
0.0008202099737533
147
0.0
147
0.0
147
0.0
147
0.0
147
0.0008202099737533
147
0.0
147
0.0
147
0.0
147
0.0
147
1.0
147
0.0
147
0.0
147
0.0
147
0.0
147
1.0
  0
MATERIAL
  5
11E
102
{ACAD_XDICTIONARY
360
11F
102
}
102
{ACAD_REACTORS
330
11D
102
}
330
11D
100
AcDbMaterial
  1
ByLayer
 72
     0
 43
0.0008202099737533
 43
0.0
 43
0.0
 43
0.0
 43
0.0
 43
0.0008202099737533
 43
0.0
 43
0.0
 43
0.0
 43
0.0
 43
1.0
 43
0.0
 43
0.0
 43
0.0
 43
0.0
 43
1.0
 77
     0
 47
0.0008202099737533
 47
0.0
 47
0.0
 47
0.0
 47
0.0
 47
0.0008202099737533
 47
0.0
 47
0.0
 47
0.0
 47
0.0
 47
1.0
 47
0.0
 47
0.0
 47
0.0
 47
0.0
 47
1.0
171
     0
 49
0.0008202099737533
 49
0.0
 49
0.0
 49
0.0
 49
0.0
 49
0.0008202099737533
 49
0.0
 49
0.0
 49
0.0
 49
0.0
 49
1.0
 49
0.0
 49
0.0
 49
0.0
 49
0.0
 49
1.0
175
     0
142
0.0008202099737533
142
0.0
142
0.0
142
0.0
142
0.0
142
0.0008202099737533
142
0.0
142
0.0
142
0.0
142
0.0
142
1.0
142
0.0
142
0.0
142
0.0
142
0.0
142
1.0
179
     0
144
0.0008202099737533
144
0.0
144
0.0
144
0.0
144
0.0
144
0.0008202099737533
144
0.0
144
0.0
144
0.0
144
0.0
144
1.0
144
0.0
144
0.0
144
0.0
144
0.0
144
1.0
147
0.0008202099737533
147
0.0
147
0.0
147
0.0
147
0.0
147
0.0008202099737533
147
0.0
147
0.0
147
0.0
147
0.0
147
1.0
147
0.0
147
0.0
147
0.0
147
0.0
147
1.0
  0
MATERIAL
  5
12E
102
{ACAD_XDICTIONARY
360
12F
102
}
102
{ACAD_REACTORS
330
11D
102
}
330
11D
100
AcDbMaterial
  1
Global
 72
     0
 43
0.0008202099737533
 43
0.0
 43
0.0
 43
0.0
 43
0.0
 43
0.0008202099737533
 43
0.0
 43
0.0
 43
0.0
 43
0.0
 43
1.0
 43
0.0
 43
0.0
 43
0.0
 43
0.0
 43
1.0
 77
     0
 47
0.0008202099737533
 47
0.0
 47
0.0
 47
0.0
 47
0.0
 47
0.0008202099737533
 47
0.0
 47
0.0
 47
0.0
 47
0.0
 47
1.0
 47
0.0
 47
0.0
 47
0.0
 47
0.0
 47
1.0
171
     0
 49
0.0008202099737533
 49
0.0
 49
0.0
 49
0.0
 49
0.0
 49
0.0008202099737533
 49
0.0
 49
0.0
 49
0.0
 49
0.0
 49
1.0
 49
0.0
 49
0.0
 49
0.0
 49
0.0
 49
1.0
175
     0
142
0.0008202099737533
142
0.0
142
0.0
142
0.0
142
0.0
142
0.0008202099737533
142
0.0
142
0.0
142
0.0
142
0.0
142
1.0
142
0.0
142
0.0
142
0.0
142
0.0
142
1.0
179
     0
144
0.0008202099737533
144
0.0
144
0.0
144
0.0
144
0.0
144
0.0008202099737533
144
0.0
144
0.0
144
0.0
144
0.0
144
1.0
144
0.0
144
0.0
144
0.0
144
0.0
144
1.0
147
0.0008202099737533
147
0.0
147
0.0
147
0.0
147
0.0
147
0.0008202099737533
147
0.0
147
0.0
147
0.0
147
0.0
147
1.0
147
0.0
147
0.0
147
0.0
147
0.0
147
1.0
  0
MLEADERSTYLE
  5
154
102
{ACAD_REACTORS
330
11B
102
}
330
11B
100
AcDbMLeaderStyle
179
     2
170
     2
171
     1
172
     0
 90
        2
 40
0.0
 41
0.0
173
     1
 91
-1056964608
340
14
 92
       -2
290
     1
 42
0.09
291
     1
 43
0.36
  3
Standard
 44
0.18
300

342
11
174
     1
178
     6
175
     1
176
     0
 93
-1056964608
 45
0.18
292
     0
297
     0
 46
0.18
 94
-1056964608
 47
1.0
 49
1.0
140
1.0
293
     1
141
0.0
294
     1
177
     0
142
1.0
295
     1
296
     0
143
0.125
271
     0
272
     9
273
     9
298
     1
  0
MLINESTYLE
  5
18
102
{ACAD_REACTORS
330
17
102
}
330
17
100
AcDbMlineStyle
  2
STANDARD
 70
     0
  3

 62
   256
 51
90.0
 52
90.0
 71
     2
 49
0.5
 62
   256
  6
BYLAYER
 49
-0.5
 62
   256
  6
BYLAYER
  0
ACDBPLACEHOLDER
  5
F
102
{ACAD_REACTORS
330
E
102
}
330
E
  0
SCALE
  5
143
102
{ACAD_REACTORS
330
142
102
}
330
142
100
AcDbScale
 70
     0
300
1:1
140
1.0
141
1.0
290
     1
  0
SCALE
  5
144
102
{ACAD_REACTORS
330
142
102
}
330
142
100
AcDbScale
 70
     0
300
1/128" = 1'-0"
140
0.0078125
141
12.0
290
     0
  0
SCALE
  5
145
102
{ACAD_REACTORS
330
142
102
}
330
142
100
AcDbScale
 70
     0
300
1/64" = 1'-0"
140
0.015625
141
12.0
290
     0
  0
SCALE
  5
146
102
{ACAD_REACTORS
330
142
102
}
330
142
100
AcDbScale
 70
     0
300
1/32" = 1'-0"
140
0.03125
141
12.0
290
     0
  0
SCALE
  5
147
102
{ACAD_REACTORS
330
142
102
}
330
142
100
AcDbScale
 70
     0
300
1/16" = 1'-0"
140
0.0625
141
12.0
290
     0
  0
SCALE
  5
148
102
{ACAD_REACTORS
330
142
102
}
330
142
100
AcDbScale
 70
     0
300
3/32" = 1'-0"
140
0.09375
141
12.0
290
     0
  0
SCALE
  5
149
102
{ACAD_REACTORS
330
142
102
}
330
142
100
AcDbScale
 70
     0
300
1/8" = 1'-0"
140
0.125
141
12.0
290
     0
  0
SCALE
  5
14A
102
{ACAD_REACTORS
330
142
102
}
330
142
100
AcDbScale
 70
     0
300
3/16" = 1'-0"
140
0.1875
141
12.0
290
     0
  0
SCALE
  5
14B
102
{ACAD_REACTORS
330
142
102
}
330
142
100
AcDbScale
 70
     0
300
1/4" = 1'-0"
140
0.25
141
12.0
290
     0
  0
SCALE
  5
14C
102
{ACAD_REACTORS
330
142
102
}
330
142
100
AcDbScale
 70
     0
300
3/8" = 1'-0"
140
0.375
141
12.0
290
     0
  0
SCALE
  5
14D
102
{ACAD_REACTORS
330
142
102
}
330
142
100
AcDbScale
 70
     0
300
1/2" = 1'-0"
140
0.5
141
12.0
290
     0
  0
SCALE
  5
14E
102
{ACAD_REACTORS
330
142
102
}
330
142
100
AcDbScale
 70
     0
300
3/4" = 1'-0"
140
0.75
141
12.0
290
     0
  0
SCALE
  5
14F
102
{ACAD_REACTORS
330
142
102
}
330
142
100
AcDbScale
 70
     0
300
1" = 1'-0"
140
1.0
141
12.0
290
     0
  0
SCALE
  5
150
102
{ACAD_REACTORS
330
142
102
}
330
142
100
AcDbScale
 70
     0
300
1-1/2" = 1'-0"
140
1.5
141
12.0
290
     0
  0
SCALE
  5
151
102
{ACAD_REACTORS
330
142
102
}
330
142
100
AcDbScale
 70
     0
300
3" = 1'-0"
140
3.0
141
12.0
290
     0
  0
SCALE
  5
152
102
{ACAD_REACTORS
330
142
102
}
330
142
100
AcDbScale
 70
     0
300
6" = 1'-0"
140
6.0
141
12.0
290
     0
  0
SCALE
  5
153
102
{ACAD_REACTORS
330
142
102
}
330
142
100
AcDbScale
 70
     0
300
1'-0" = 1'-0"
140
12.0
141
12.0
290
     0
  0
ACDBSECTIONVIEWSTYLE
  5
157
102
{ACAD_REACTORS
330
155
102
}
330
155
100
AcDbModelDocViewStyle
 70
     0
  3
Imperial24
290
     1
100
AcDbSectionViewStyle
 70
     0
 71
     0
 90
       78
 71
     1
340
11
 62
   256
 40
0.24
340
0
340
0
 62
   256
 40
0.24
300
I, O, Q, S, X, Z
 40
0.48
 90
        3
 40
0.18
 90
        1
 71
     2
340
156
 90
       25
 62
   256
340
16
 90
       50
 62
   256
 40
0.24
 40
0.0
 40
0.24
 71
     3
340
11
 62
   256
 40
0.24
 90
        1
 40
0.75
 90
        1
300
%<\AcVar ViewType \f "%tc1">% %<\AcVar ViewSectionStartId>%-%<\AcVar ViewSectionEndId>%\PSCALE %<\AcVar ViewScale \f "%sn">%
 71
     4
 62
   256
 62
   257
300
ANSI31
 40
1.0
 90
        0
290
     0
290
     0
 90
        6
 40
0.0
 40
1.570796326794896
 40
0.2617993877991494
 40
1.308996938995747
 40
-0.2617993877991494
 40
1.832595714594046
  0
TABLESTYLE
  5
141
102
{ACAD_XDICTIONARY
360
178
102
}
102
{ACAD_REACTORS
330
11A
102
}
330
11A
100
AcDbTableStyle
280
     0
  3
Standard
 70
     0
 71
     0
 40
0.06
 41
0.06
280
     0
281
     0
  7
Standard
140
0.18
170
     2
 62
     0
 63
     7
283
     0
 90
      512
 91
        0
  1

274
    -2
284
     1
 64
     0
275
    -2
285
     1
 65
     0
276
    -2
286
     1
 66
     0
277
    -2
287
     1
 67
     0
278
    -2
288
     1
 68
     0
279
    -2
289
     1
 69
     0
  7
Standard
140
0.25
170
     5
 62
     0
 63
     7
283
     0
 90
      512
 91
        0
  1

274
    -2
284
     1
 64
     0
275
    -2
285
     1
 65
     0
276
    -2
286
     1
 66
     0
277
    -2
287
     1
 67
     0
278
    -2
288
     1
 68
     0
279
    -2
289
     1
 69
     0
  7
Standard
140
0.18
170
     5
 62
     0
 63
     7
283
     0
 90
      512
 91
        0
  1

274
    -2
284
     1
 64
     0
275
    -2
285
     1
 65
     0
276
    -2
286
     1
 66
     0
277
    -2
287
     1
 67
     0
278
    -2
288
     1
 68
     0
279
    -2
289
     1
 69
     0
  0
VISUALSTYLE
  5
2F
102
{ACAD_REACTORS
330
2A
102
}
330
2A
100
AcDbVisualStyle
  2
2dWireframe
 70
     4
177
     3
291
     0
 70
    58
 90
        0
176
     1
 90
        2
176
     1
 90
        0
176
     1
 90
        0
176
     1
 40
0.6
176
     1
 40
30.0
176
     1
 62
     7
420
 16777215
176
     1
 90
        1
176
     1
 90
        4
176
     1
 62
     7
176
     1
 62
   257
176
     1
 90
        1
176
     1
 90
        1
176
     1
 40
1.0
176
     1
 90
        0
176
     1
 62
   257
176
     1
 40
1.0
176
     1
 90
        1
176
     1
 90
        6
176
     1
 90
        2
176
     1
 62
     7
176
     1
 90
        5
176
     1
 90
        0
176
     1
 90
        0
176
     1
290
     0
176
     1
 90
        1
176
     1
 40
0.0
176
     1
 90
        0
176
     1
290
     1
176
     1
290
     1
176
     1
290
     0
176
     1
290
     0
176
     1
290
     0
176
     1
290
     0
176
     1
290
     0
176
     1
290
     0
176
     1
290
     0
176
     1
 90
       50
176
     1
 40
0.0
176
     1
 40
1.0
176
     1
 90
        0
176
     1
 62
    18
420
        0
176
     1
 90
       50
176
     1
 90
        3
176
     1
 62
     5
420
      255
176
     1
290
     0
176
     1
 90
       50
176
     1
 90
       50
176
     1
 90
       50
176
     1
290
     0
176
     1
 90
       50
176
     1
 62
   256
176
     0
 40
1.0
176
     0
 90
        2
176
     1
  1
strokes_ogs.tif
176
     1
290
     0
176
     1
 40
1.0
176
     1
 40
1.0
176
     1
  0
VISUALSTYLE
  5
31
102
{ACAD_REACTORS
330
2A
102
}
330
2A
100
AcDbVisualStyle
  2
3D Hidden
 70
     6
177
     3
291
     0
 70
    58
 90
        1
176
     1
 90
        2
176
     1
 90
        2
176
     1
 90
        0
176
     1
 40
0.6
176
     1
 40
30.0
176
     1
 62
     7
420
 16777215
176
     1
 90
        2
176
     1
 90
        2
176
     1
 62
     7
176
     1
 62
   257
176
     1
 90
        2
176
     1
 90
        1
176
     1
 40
40.0
176
     1
 90
        0
176
     1
 62
   257
176
     1
 40
1.0
176
     1
 90
        1
176
     1
 90
        6
176
     1
 90
        2
176
     1
 62
     7
176
     1
 90
        3
176
     1
 90
        0
176
     1
 90
        0
176
     1
290
     0
176
     1
 90
        1
176
     1
 40
0.0
176
     1
 90
        0
176
     1
290
     0
176
     1
290
     1
176
     1
290
     1
176
     1
290
     0
176
     1
290
     0
176
     1
290
     0
176
     1
290
     0
176
     1
290
     0
176
     1
290
     0
176
     1
 90
       50
176
     1
 40
0.0
176
     1
 40
1.0
176
     1
 90
        0
176
     1
 62
    18
420
        0
176
     1
 90
       50
176
     1
 90
        3
176
     1
 62
     5
420
      255
176
     1
290
     0
176
     1
 90
       50
176
     1
 90
       50
176
     1
 90
       50
176
     1
290
     0
176
     1
 90
       50
176
     1
 62
   256
176
     0
 40
1.0
176
     0
 90
        2
176
     1
  1
strokes_ogs.tif
176
     1
290
     0
176
     1
 40
1.0
176
     1
 40
1.0
176
     1
  0
VISUALSTYLE
  5
30
102
{ACAD_REACTORS
330
2A
102
}
330
2A
100
AcDbVisualStyle
  2
3dWireframe
 70
     5
177
     3
291
     0
 70
    58
 90
        0
176
     1
 90
        2
176
     1
 90
        0
176
     1
 90
        0
176
     1
 40
0.6
176
     1
 40
30.0
176
     1
 62
     7
420
 16777215
176
     1
 90
        1
176
     1
 90
        4
176
     1
 62
     7
176
     1
 62
   257
176
     1
 90
        1
176
     1
 90
        1
176
     1
 40
1.0
176
     1
 90
        0
176
     1
 62
   257
176
     1
 40
1.0
176
     1
 90
        1
176
     1
 90
        6
176
     1
 90
        2
176
     1
 62
     7
176
     1
 90
        5
176
     1
 90
        0
176
     1
 90
        0
176
     1
290
     0
176
     1
 90
        1
176
     1
 40
0.0
176
     1
 90
        0
176
     1
290
     0
176
     1
290
     1
176
     1
290
     1
176
     1
290
     0
176
     1
290
     0
176
     1
290
     0
176
     1
290
     0
176
     1
290
     0
176
     1
290
     0
176
     1
 90
       50
176
     1
 40
0.0
176
     1
 40
1.0
176
     1
 90
        0
176
     1
 62
    18
420
        0
176
     1
 90
       50
176
     1
 90
        3
176
     1
 62
     5
420
      255
176
     1
290
     0
176
     1
 90
       50
176
     1
 90
       50
176
     1
 90
       50
176
     1
290
     0
176
     1
 90
       50
176
     1
 62
   256
176
     0
 40
1.0
176
     0
 90
        2
176
     1
  1
strokes_ogs.tif
176
     1
290
     0
176
     1
 40
1.0
176
     1
 40
1.0
176
     1
  0
VISUALSTYLE
  5
32
102
{ACAD_REACTORS
330
2A
102
}
330
2A
100
AcDbVisualStyle
  2
Basic
 70
     7
177
     3
291
     1
 70
    58
 90
        1
176
     1
 90
        0
176
     1
 90
        1
176
     1
 90
        0
176
     1
 40
0.6
176
     1
 40
30.0
176
     1
 62
     7
420
 16777215
176
     1
 90
        0
176
     1
 90
        4
176
     1
 62
     7
176
     1
 62
   257
176
     1
 90
        1
176
     1
 90
        1
176
     1
 40
1.0
176
     1
 90
        8
176
     1
 62
     7
176
     1
 40
1.0
176
     1
 90
        1
176
     1
 90
        6
176
     1
 90
        2
176
     1
 62
     7
176
     1
 90
        5
176
     1
 90
        0
176
     1
 90
        0
176
     1
290
     0
176
     1
 90
        1
176
     1
 40
0.0
176
     1
 90
        0
176
     1
290
     0
176
     1
290
     1
176
     1
290
     1
176
     1
290
     0
176
     1
290
     0
176
     1
290
     0
176
     1
290
     0
176
     1
290
     0
176
     1
290
     0
176
     1
 90
       50
176
     1
 40
0.0
176
     1
 40
1.0
176
     1
 90
        0
176
     1
 62
    18
420
        0
176
     1
 90
       50
176
     1
 90
        3
176
     1
 62
     5
420
      255
176
     1
290
     0
176
     1
 90
       50
176
     1
 90
       50
176
     1
 90
       50
176
     1
290
     0
176
     1
 90
       50
176
     1
 62
   256
176
     0
 40
1.0
176
     0
 90
        2
176
     1
  1
strokes_ogs.tif
176
     1
290
     0
176
     1
 40
1.0
176
     1
 40
1.0
176
     1
  0
VISUALSTYLE
  5
36
102
{ACAD_REACTORS
330
2A
102
}
330
2A
100
AcDbVisualStyle
  2
Brighten
 70
    12
177
     3
291
     1
 70
    58
 90
        2
176
     1
 90
        2
176
     1
 90
        0
176
     1
 90
        0
176
     1
 40
0.6
176
     1
 40
30.0
176
     1
 62
     7
420
 16777215
176
     1
 90
        1
176
     1
 90
        4
176
     1
 62
     7
176
     1
 62
   257
176
     1
 90
        1
176
     1
 90
        1
176
     1
 40
1.0
176
     1
 90
        8
176
     1
 62
     7
176
     1
 40
1.0
176
     1
 90
        1
176
     1
 90
        6
176
     1
 90
        2
176
     1
 62
     7
176
     1
 90
        5
176
     1
 90
        0
176
     1
 90
        0
176
     1
290
     0
176
     1
 90
        1
176
     1
 40
50.0
176
     1
 90
        0
176
     1
290
     0
176
     1
290
     1
176
     1
290
     1
176
     1
290
     0
176
     1
290
     0
176
     1
290
     0
176
     1
290
     0
176
     1
290
     0
176
     1
290
     0
176
     1
 90
       50
176
     1
 40
0.0
176
     1
 40
1.0
176
     1
 90
        0
176
     1
 62
    18
420
        0
176
     1
 90
       50
176
     1
 90
        3
176
     1
 62
     5
420
      255
176
     1
290
     0
176
     1
 90
       50
176
     1
 90
       50
176
     1
 90
       50
176
     1
290
     0
176
     1
 90
       50
176
     1
 62
   256
176
     0
 40
1.0
176
     0
 90
        2
176
     1
  1
strokes_ogs.tif
176
     1
290
     0
176
     1
 40
1.0
176
     1
 40
1.0
176
     1
  0
VISUALSTYLE
  5
3A
102
{ACAD_REACTORS
330
2A
102
}
330
2A
100
AcDbVisualStyle
  2
ColorChange
 70
    16
177
     3
291
     1
 70
    58
 90
        2
176
     1
 90
        2
176
     1
 90
        3
176
     1
 90
        0
176
     1
 40
0.6
176
     1
 40
30.0
176
     1
 62
     8
420
  8421504
176
     1
 90
        1
176
     1
 90
        4
176
     1
 62
     7
176
     1
 62
   257
176
     1
 90
        1
176
     1
 90
        1
176
     1
 40
1.0
176
     1
 90
        8
176
     1
 62
     8
420
  8421504
176
     1
 40
1.0
176
     1
 90
        1
176
     1
 90
        6
176
     1
 90
        2
176
     1
 62
     7
176
     1
 90
        5
176
     1
 90
        0
176
     1
 90
        0
176
     1
290
     0
176
     1
 90
        1
176
     1
 40
0.0
176
     1
 90
        0
176
     1
290
     0
176
     1
290
     1
176
     1
290
     1
176
     1
290
     0
176
     1
290
     0
176
     1
290
     0
176
     1
290
     0
176
     1
290
     0
176
     1
290
     0
176
     1
 90
       50
176
     1
 40
0.0
176
     1
 40
1.0
176
     1
 90
        0
176
     1
 62
    18
420
        0
176
     1
 90
       50
176
     1
 90
        3
176
     1
 62
     5
420
      255
176
     1
290
     0
176
     1
 90
       50
176
     1
 90
       50
176
     1
 90
       50
176
     1
290
     0
176
     1
 90
       50
176
     1
 62
   256
176
     0
 40
1.0
176
     0
 90
        2
176
     1
  1
strokes_ogs.tif
176
     1
290
     0
176
     1
 40
1.0
176
     1
 40
1.0
176
     1
  0
VISUALSTYLE
  5
34
102
{ACAD_REACTORS
330
2A
102
}
330
2A
100
AcDbVisualStyle
  2
Conceptual
 70
     9
177
     3
291
     0
 70
    58
 90
        3
176
     1
 90
        2
176
     1
 90
        0
176
     1
 90
        0
176
     1
 40
0.6
176
     1
 40
30.0
176
     1
 62
     7
420
 16777215
176
     1
 90
        2
176
     1
 90
        2
176
     1
 62
     7
176
     1
 62
   257
176
     1
 90
        1
176
     1
 90
        1
176
     1
 40
40.0
176
     1
 90
        8
176
     1
 62
     7
176
     1
 40
1.0
176
     1
 90
        1
176
     1
 90
        6
176
     1
 90
        2
176
     1
 62
     7
176
     1
 90
        3
176
     1
 90
        0
176
     1
 90
        0
176
     1
290
     0
176
     1
 90
        1
176
     1
 40
0.0
176
     1
 90
        0
176
     1
290
     0
176
     1
290
     1
176
     1
290
     1
176
     1
290
     0
176
     1
290
     0
176
     1
290
     0
176
     1
290
     0
176
     1
290
     0
176
     1
290
     0
176
     1
 90
       50
176
     1
 40
0.0
176
     1
 40
1.0
176
     1
 90
        0
176
     1
 62
    18
420
        0
176
     1
 90
       50
176
     1
 90
        3
176
     1
 62
     5
420
      255
176
     1
290
     0
176
     1
 90
       50
176
     1
 90
       50
176
     1
 90
       50
176
     1
290
     0
176
     1
 90
       50
176
     1
 62
   256
176
     0
 40
1.0
176
     0
 90
        2
176
     1
  1
strokes_ogs.tif
176
     1
290
     0
176
     1
 40
1.0
176
     1
 40
1.0
176
     1
  0
VISUALSTYLE
  5
35
102
{ACAD_REACTORS
330
2A
102
}
330
2A
100
AcDbVisualStyle
  2
Dim
 70
    11
177
     3
291
     1
 70
    58
 90
        2
176
     1
 90
        2
176
     1
 90
        0
176
     1
 90
        0
176
     1
 40
0.6
176
     1
 40
30.0
176
     1
 62
     7
420
 16777215
176
     1
 90
        1
176
     1
 90
        4
176
     1
 62
     7
176
     1
 62
   257
176
     1
 90
        1
176
     1
 90
        1
176
     1
 40
1.0
176
     1
 90
        8
176
     1
 62
     7
176
     1
 40
1.0
176
     1
 90
        1
176
     1
 90
        6
176
     1
 90
        2
176
     1
 62
     7
176
     1
 90
        5
176
     1
 90
        0
176
     1
 90
        0
176
     1
290
     0
176
     1
 90
        1
176
     1
 40
-50.0
176
     1
 90
        0
176
     1
290
     0
176
     1
290
     1
176
     1
290
     1
176
     1
290
     0
176
     1
290
     0
176
     1
290
     0
176
     1
290
     0
176
     1
290
     0
176
     1
290
     0
176
     1
 90
       50
176
     1
 40
0.0
176
     1
 40
1.0
176
     1
 90
        0
176
     1
 62
    18
420
        0
176
     1
 90
       50
176
     1
 90
        3
176
     1
 62
     5
420
      255
176
     1
290
     0
176
     1
 90
       50
176
     1
 90
       50
176
     1
 90
       50
176
     1
290
     0
176
     1
 90
       50
176
     1
 62
   256
176
     0
 40
1.0
176
     0
 90
        2
176
     1
  1
strokes_ogs.tif
176
     1
290
     0
176
     1
 40
1.0
176
     1
 40
1.0
176
     1
  0
VISUALSTYLE
  5
13F
102
{ACAD_REACTORS
330
2A
102
}
330
2A
100
AcDbVisualStyle
  2
EdgeColorOff
 70
    22
177
     3
291
     1
 70
    58
 90
        2
176
     0
 90
        2
176
     0
 90
        0
176
     0
 90
        0
176
     0
 40
0.6
176
     0
 40
30.0
176
     0
 62
     7
420
 16777215
176
     0
 90
        1
176
     0
 90
        4
176
     0
 62
     7
176
     0
 62
   257
176
     0
 90
        1
176
     0
 90
        1
176
     0
 40
1.0
176
     0
 90
        8
176
     2
 62
     7
176
     0
 40
1.0
176
     0
 90
        1
176
     0
 90
        6
176
     0
 90
        2
176
     0
 62
     7
176
     0
 90
        5
176
     0
 90
        0
176
     0
 90
        0
176
     0
290
     0
176
     0
 90
        1
176
     0
 40
0.0
176
     0
 90
        0
176
     0
290
     0
176
     0
290
     1
176
     0
290
     1
176
     0
290
     0
176
     0
290
     0
176
     0
290
     0
176
     0
290
     0
176
     0
290
     0
176
     0
290
     0
176
     0
 90
       50
176
     0
 40
0.0
176
     0
 40
1.0
176
     0
 90
        0
176
     0
 62
    18
420
        0
176
     0
 90
       50
176
     0
 90
        3
176
     0
 62
     5
420
      255
176
     0
290
     0
176
     0
 90
       50
176
     0
 90
       50
176
     0
 90
       50
176
     0
290
     0
176
     0
 90
       50
176
     0
 62
   256
176
     0
 40
1.0
176
     0
 90
        2
176
     0
  1
strokes_ogs.tif
176
     0
290
     0
176
     0
 40
1.0
176
     0
 40
1.0
176
     0
  0
VISUALSTYLE
  5
39
102
{ACAD_REACTORS
330
2A
102
}
330
2A
100
AcDbVisualStyle
  2
Facepattern
 70
    15
177
     3
291
     1
 70
    58
 90
        2
176
     1
 90
        2
176
     1
 90
        0
176
     1
 90
        0
176
     1
 40
0.6
176
     1
 40
30.0
176
     1
 62
     7
420
 16777215
176
     1
 90
        1
176
     1
 90
        4
176
     1
 62
     7
176
     1
 62
   257
176
     1
 90
        1
176
     1
 90
        1
176
     1
 40
1.0
176
     1
 90
        8
176
     1
 62
     7
176
     1
 40
1.0
176
     1
 90
        1
176
     1
 90
        6
176
     1
 90
        2
176
     1
 62
     7
176
     1
 90
        5
176
     1
 90
        0
176
     1
 90
        0
176
     1
290
     0
176
     1
 90
        1
176
     1
 40
0.0
176
     1
 90
        0
176
     1
290
     0
176
     1
290
     1
176
     1
290
     1
176
     1
290
     0
176
     1
290
     0
176
     1
290
     0
176
     1
290
     0
176
     1
290
     0
176
     1
290
     0
176
     1
 90
       50
176
     1
 40
0.0
176
     1
 40
1.0
176
     1
 90
        0
176
     1
 62
    18
420
        0
176
     1
 90
       50
176
     1
 90
        3
176
     1
 62
     5
420
      255
176
     1
290
     0
176
     1
 90
       50
176
     1
 90
       50
176
     1
 90
       50
176
     1
290
     0
176
     1
 90
       50
176
     1
 62
   256
176
     0
 40
1.0
176
     0
 90
        2
176
     1
  1
strokes_ogs.tif
176
     1
290
     0
176
     1
 40
1.0
176
     1
 40
1.0
176
     1
  0
VISUALSTYLE
  5
2B
102
{ACAD_REACTORS
330
2A
102
}
330
2A
100
AcDbVisualStyle
  2
Flat
 70
     0
177
     3
291
     1
 70
    58
 90
        2
176
     1
 90
        1
176
     1
 90
        1
176
     1
 90
        2
176
     1
 40
0.6
176
     1
 40
30.0
176
     1
 62
     7
420
 16777215
176
     1
 90
        0
176
     1
 90
        4
176
     1
 62
     7
176
     1
 62
   257
176
     1
 90
        1
176
     1
 90
        1
176
     1
 40
1.0
176
     1
 90
        8
176
     1
 62
     7
176
     1
 40
1.0
176
     1
 90
        1
176
     1
 90
        6
176
     1
 90
        2
176
     1
 62
     7
176
     1
 90
        5
176
     1
 90
        0
176
     1
 90
        0
176
     1
290
     0
176
     1
 90
       13
176
     1
 40
0.0
176
     1
 90
        0
176
     1
290
     0
176
     1
290
     1
176
     1
290
     1
176
     1
290
     0
176
     1
290
     0
176
     1
290
     0
176
     1
290
     0
176
     1
290
     0
176
     1
290
     0
176
     1
 90
       50
176
     1
 40
0.0
176
     1
 40
1.0
176
     1
 90
        0
176
     1
 62
    18
420
        0
176
     1
 90
       50
176
     1
 90
        3
176
     1
 62
     5
420
      255
176
     1
290
     0
176
     1
 90
       50
176
     1
 90
       50
176
     1
 90
       50
176
     1
290
     0
176
     1
 90
       50
176
     1
 62
   256
176
     0
 40
1.0
176
     0
 90
        2
176
     1
  1
strokes_ogs.tif
176
     1
290
     0
176
     1
 40
1.0
176
     1
 40
1.0
176
     1
  0
VISUALSTYLE
  5
2C
102
{ACAD_REACTORS
330
2A
102
}
330
2A
100
AcDbVisualStyle
  2
FlatWithEdges
 70
     1
177
     3
291
     1
 70
    58
 90
        2
176
     1
 90
        1
176
     1
 90
        1
176
     1
 90
        2
176
     1
 40
0.6
176
     1
 40
30.0
176
     1
 62
     7
420
 16777215
176
     1
 90
        1
176
     1
 90
        4
176
     1
 62
     7
176
     1
 62
   257
176
     1
 90
        1
176
     1
 90
        1
176
     1
 40
1.0
176
     1
 90
        0
176
     1
 62
   257
176
     1
 40
1.0
176
     1
 90
        1
176
     1
 90
        6
176
     1
 90
        2
176
     1
 62
     7
176
     1
 90
        5
176
     1
 90
        0
176
     1
 90
        0
176
     1
290
     0
176
     1
 90
       13
176
     1
 40
0.0
176
     1
 90
        0
176
     1
290
     0
176
     1
290
     1
176
     1
290
     1
176
     1
290
     0
176
     1
290
     0
176
     1
290
     0
176
     1
290
     0
176
     1
290
     0
176
     1
290
     0
176
     1
 90
       50
176
     1
 40
0.0
176
     1
 40
1.0
176
     1
 90
        0
176
     1
 62
    18
420
        0
176
     1
 90
       50
176
     1
 90
        3
176
     1
 62
     5
420
      255
176
     1
290
     0
176
     1
 90
       50
176
     1
 90
       50
176
     1
 90
       50
176
     1
290
     0
176
     1
 90
       50
176
     1
 62
   256
176
     0
 40
1.0
176
     0
 90
        2
176
     1
  1
strokes_ogs.tif
176
     1
290
     0
176
     1
 40
1.0
176
     1
 40
1.0
176
     1
  0
VISUALSTYLE
  5
2D
102
{ACAD_REACTORS
330
2A
102
}
330
2A
100
AcDbVisualStyle
  2
Gouraud
 70
     2
177
     3
291
     1
 70
    58
 90
        2
176
     1
 90
        2
176
     1
 90
        1
176
     1
 90
        2
176
     1
 40
0.6
176
     1
 40
30.0
176
     1
 62
     7
420
 16777215
176
     1
 90
        0
176
     1
 90
        4
176
     1
 62
     7
176
     1
 62
   257
176
     1
 90
        1
176
     1
 90
        1
176
     1
 40
1.0
176
     1
 90
        0
176
     1
 62
     7
176
     1
 40
1.0
176
     1
 90
        1
176
     1
 90
        6
176
     1
 90
        2
176
     1
 62
     7
176
     1
 90
        5
176
     1
 90
        0
176
     1
 90
        0
176
     1
290
     0
176
     1
 90
       13
176
     1
 40
0.0
176
     1
 90
        0
176
     1
290
     0
176
     1
290
     1
176
     1
290
     1
176
     1
290
     0
176
     1
290
     0
176
     1
290
     0
176
     1
290
     0
176
     1
290
     0
176
     1
290
     0
176
     1
 90
       50
176
     1
 40
0.0
176
     1
 40
1.0
176
     1
 90
        0
176
     1
 62
    18
420
        0
176
     1
 90
       50
176
     1
 90
        3
176
     1
 62
     5
420
      255
176
     1
290
     0
176
     1
 90
       50
176
     1
 90
       50
176
     1
 90
       50
176
     1
290
     0
176
     1
 90
       50
176
     1
 62
   256
176
     0
 40
1.0
176
     0
 90
        2
176
     1
  1
strokes_ogs.tif
176
     1
290
     0
176
     1
 40
1.0
176
     1
 40
1.0
176
     1
  0
VISUALSTYLE
  5
2E
102
{ACAD_REACTORS
330
2A
102
}
330
2A
100
AcDbVisualStyle
  2
GouraudWithEdges
 70
     3
177
     3
291
     1
 70
    58
 90
        2
176
     1
 90
        2
176
     1
 90
        1
176
     1
 90
        2
176
     1
 40
0.6
176
     1
 40
30.0
176
     1
 62
     7
420
 16777215
176
     1
 90
        1
176
     1
 90
        4
176
     1
 62
     7
176
     1
 62
   257
176
     1
 90
        1
176
     1
 90
        1
176
     1
 40
1.0
176
     1
 90
        0
176
     1
 62
   257
176
     1
 40
1.0
176
     1
 90
        1
176
     1
 90
        6
176
     1
 90
        2
176
     1
 62
     7
176
     1
 90
        5
176
     1
 90
        0
176
     1
 90
        0
176
     1
290
     0
176
     1
 90
       13
176
     1
 40
0.0
176
     1
 90
        0
176
     1
290
     0
176
     1
290
     1
176
     1
290
     1
176
     1
290
     0
176
     1
290
     0
176
     1
290
     0
176
     1
290
     0
176
     1
290
     0
176
     1
290
     0
176
     1
 90
       50
176
     1
 40
0.0
176
     1
 40
1.0
176
     1
 90
        0
176
     1
 62
    18
420
        0
176
     1
 90
       50
176
     1
 90
        3
176
     1
 62
     5
420
      255
176
     1
290
     0
176
     1
 90
       50
176
     1
 90
       50
176
     1
 90
       50
176
     1
290
     0
176
     1
 90
       50
176
     1
 62
   256
176
     0
 40
1.0
176
     0
 90
        2
176
     1
  1
strokes_ogs.tif
176
     1
290
     0
176
     1
 40
1.0
176
     1
 40
1.0
176
     1
  0
VISUALSTYLE
  5
137
102
{ACAD_REACTORS
330
2A
102
}
330
2A
100
AcDbVisualStyle
  2
Hidden
 70
     6
177
     3
291
     0
 70
    58
 90
        1
176
     1
 90
        2
176
     1
 90
        2
176
     1
 90
        0
176
     1
 40
0.6
176
     1
 40
30.0
176
     1
 62
     7
420
 16777215
176
     1
 90
        2
176
     1
 90
        2
176
     1
 62
     7
176
     1
 62
   257
176
     1
 90
        2
176
     1
 90
        1
176
     1
 40
40.0
176
     1
 90
        0
176
     1
 62
   257
176
     1
 40
1.0
176
     1
 90
        1
176
     1
 90
        6
176
     1
 90
        2
176
     1
 62
     7
176
     1
 90
        3
176
     1
 90
        0
176
     1
 90
        0
176
     1
290
     0
176
     1
 90
        1
176
     1
 40
0.0
176
     1
 90
        0
176
     1
290
     0
176
     1
290
     1
176
     1
290
     1
176
     1
290
     0
176
     1
290
     0
176
     1
290
     0
176
     1
290
     0
176
     1
290
     0
176
     1
290
     0
176
     1
 90
       50
176
     1
 40
0.0
176
     1
 40
1.0
176
     1
 90
        0
176
     1
 62
    18
420
        0
176
     1
 90
       50
176
     1
 90
        3
176
     1
 62
     5
420
      255
176
     1
290
     0
176
     1
 90
       50
176
     1
 90
       50
176
     1
 90
       50
176
     1
290
     0
176
     1
 90
       50
176
     1
 62
   256
176
     0
 40
1.0
176
     0
 90
        2
176
     1
  1
strokes_ogs.tif
176
     1
290
     0
176
     1
 40
1.0
176
     1
 40
1.0
176
     1
  0
VISUALSTYLE
  5
13D
102
{ACAD_REACTORS
330
2A
102
}
330
2A
100
AcDbVisualStyle
  2
JitterOff
 70
    20
177
     3
291
     1
 70
    58
 90
        2
176
     0
 90
        2
176
     0
 90
        0
176
     0
 90
        0
176
     0
 40
0.6
176
     0
 40
30.0
176
     0
 62
     7
420
 16777215
176
     0
 90
        1
176
     0
 90
        4
176
     0
 62
     7
176
     0
 62
   257
176
     0
 90
        1
176
     0
 90
        1
176
     0
 40
1.0
176
     0
 90
       10
176
     2
 62
     7
176
     0
 40
1.0
176
     0
 90
        1
176
     0
 90
        6
176
     0
 90
        2
176
     0
 62
     7
176
     0
 90
        5
176
     0
 90
        0
176
     0
 90
        0
176
     0
290
     0
176
     0
 90
        1
176
     0
 40
0.0
176
     0
 90
        0
176
     0
290
     0
176
     0
290
     1
176
     0
290
     1
176
     0
290
     0
176
     0
290
     0
176
     0
290
     0
176
     0
290
     0
176
     0
290
     0
176
     0
290
     0
176
     0
 90
       50
176
     0
 40
0.0
176
     0
 40
1.0
176
     0
 90
        0
176
     0
 62
    18
420
        0
176
     0
 90
       50
176
     0
 90
        3
176
     0
 62
     5
420
      255
176
     0
290
     0
176
     0
 90
       50
176
     0
 90
       50
176
     0
 90
       50
176
     0
290
     0
176
     0
 90
       50
176
     0
 62
   256
176
     0
 40
1.0
176
     0
 90
        2
176
     0
  1
strokes_ogs.tif
176
     0
290
     0
176
     0
 40
1.0
176
     0
 40
1.0
176
     0
  0
VISUALSTYLE
  5
38
102
{ACAD_REACTORS
330
2A
102
}
330
2A
100
AcDbVisualStyle
  2
Linepattern
 70
    14
177
     3
291
     1
 70
    58
 90
        2
176
     1
 90
        2
176
     1
 90
        0
176
     1
 90
        0
176
     1
 40
0.6
176
     1
 40
30.0
176
     1
 62
     7
420
 16777215
176
     1
 90
        1
176
     1
 90
        4
176
     1
 62
     7
176
     1
 62
   257
176
     1
 90
        7
176
     1
 90
        7
176
     1
 40
1.0
176
     1
 90
        8
176
     1
 62
     7
176
     1
 40
1.0
176
     1
 90
        1
176
     1
 90
        6
176
     1
 90
        2
176
     1
 62
     7
176
     1
 90
        5
176
     1
 90
        0
176
     1
 90
        0
176
     1
290
     0
176
     1
 90
        1
176
     1
 40
0.0
176
     1
 90
        0
176
     1
290
     0
176
     1
290
     1
176
     1
290
     1
176
     1
290
     0
176
     1
290
     0
176
     1
290
     0
176
     1
290
     0
176
     1
290
     0
176
     1
290
     0
176
     1
 90
       50
176
     1
 40
0.0
176
     1
 40
1.0
176
     1
 90
        0
176
     1
 62
    18
420
        0
176
     1
 90
       50
176
     1
 90
        3
176
     1
 62
     5
420
      255
176
     1
290
     0
176
     1
 90
       50
176
     1
 90
       50
176
     1
 90
       50
176
     1
290
     0
176
     1
 90
       50
176
     1
 62
   256
176
     0
 40
1.0
176
     0
 90
        2
176
     1
  1
strokes_ogs.tif
176
     1
290
     0
176
     1
 40
1.0
176
     1
 40
1.0
176
     1
  0
VISUALSTYLE
  5
13E
102
{ACAD_REACTORS
330
2A
102
}
330
2A
100
AcDbVisualStyle
  2
OverhangOff
 70
    21
177
     3
291
     1
 70
    58
 90
        2
176
     0
 90
        2
176
     0
 90
        0
176
     0
 90
        0
176
     0
 40
0.6
176
     0
 40
30.0
176
     0
 62
     7
420
 16777215
176
     0
 90
        1
176
     0
 90
        4
176
     0
 62
     7
176
     0
 62
   257
176
     0
 90
        1
176
     0
 90
        1
176
     0
 40
1.0
176
     0
 90
        9
176
     2
 62
     7
176
     0
 40
1.0
176
     0
 90
        1
176
     0
 90
        6
176
     0
 90
        2
176
     0
 62
     7
176
     0
 90
        5
176
     0
 90
        0
176
     0
 90
        0
176
     0
290
     0
176
     0
 90
        1
176
     0
 40
0.0
176
     0
 90
        0
176
     0
290
     0
176
     0
290
     1
176
     0
290
     1
176
     0
290
     0
176
     0
290
     0
176
     0
290
     0
176
     0
290
     0
176
     0
290
     0
176
     0
290
     0
176
     0
 90
       50
176
     0
 40
0.0
176
     0
 40
1.0
176
     0
 90
        0
176
     0
 62
    18
420
        0
176
     0
 90
       50
176
     0
 90
        3
176
     0
 62
     5
420
      255
176
     0
290
     0
176
     0
 90
       50
176
     0
 90
       50
176
     0
 90
       50
176
     0
290
     0
176
     0
 90
       50
176
     0
 62
   256
176
     0
 40
1.0
176
     0
 90
        2
176
     0
  1
strokes_ogs.tif
176
     0
290
     0
176
     0
 40
1.0
176
     0
 40
1.0
176
     0
  0
VISUALSTYLE
  5
33
102
{ACAD_REACTORS
330
2A
102
}
330
2A
100
AcDbVisualStyle
  2
Realistic
 70
     8
177
     3
291
     0
 70
    58
 90
        2
176
     1
 90
        2
176
     1
 90
        0
176
     1
 90
        0
176
     1
 40
0.6
176
     1
 40
30.0
176
     1
 62
     7
420
 16777215
176
     1
 90
        1
176
     1
 90
        0
176
     1
 62
     7
176
     1
 62
   257
176
     1
 90
        1
176
     1
 90
        1
176
     1
 40
1.0
176
     1
 90
        8
176
     1
 62
     8
420
  7895160
176
     1
 40
1.0
176
     1
 90
        1
176
     1
 90
        6
176
     1
 90
        2
176
     1
 62
     7
176
     1
 90
        5
176
     1
 90
        0
176
     1
 90
        0
176
     1
290
     0
176
     1
 90
       13
176
     1
 40
0.0
176
     1
 90
        0
176
     1
290
     0
176
     1
290
     1
176
     1
290
     1
176
     1
290
     0
176
     1
290
     0
176
     1
290
     0
176
     1
290
     0
176
     1
290
     0
176
     1
290
     0
176
     1
 90
       50
176
     1
 40
0.0
176
     1
 40
1.0
176
     1
 90
        0
176
     1
 62
    18
420
        0
176
     1
 90
       50
176
     1
 90
        3
176
     1
 62
     5
420
      255
176
     1
290
     0
176
     1
 90
       50
176
     1
 90
       50
176
     1
 90
       50
176
     1
290
     0
176
     1
 90
       50
176
     1
 62
   256
176
     0
 40
1.0
176
     0
 90
        2
176
     1
  1
strokes_ogs.tif
176
     1
290
     0
176
     1
 40
1.0
176
     1
 40
1.0
176
     1
  0
VISUALSTYLE
  5
13C
102
{ACAD_REACTORS
330
2A
102
}
330
2A
100
AcDbVisualStyle
  2
Shaded
 70
    27
177
     3
291
     0
 70
    58
 90
        2
176
     1
 90
        2
176
     1
 90
        1
176
     1
 90
        2
176
     1
 40
0.6
176
     1
 40
30.0
176
     1
 62
     7
420
 16777215
176
     1
 90
        0
176
     1
 90
        4
176
     1
 62
     7
176
     1
 62
   257
176
     1
 90
        1
176
     1
 90
        1
176
     1
 40
1.0
176
     1
 90
        8
176
     1
 62
   257
176
     1
 40
1.0
176
     1
 90
        1
176
     1
 90
        6
176
     1
 90
        2
176
     1
 62
     8
420
  7895160
176
     1
 90
        3
176
     1
 90
        0
176
     1
 90
        0
176
     1
290
     0
176
     1
 90
        5
176
     1
 40
0.0
176
     1
 90
        0
176
     1
290
     0
176
     1
290
     1
176
     1
290
     1
176
     1
290
     0
176
     1
290
     0
176
     1
290
     0
176
     1
290
     0
176
     1
290
     0
176
     1
290
     0
176
     1
 90
       50
176
     1
 40
0.0
176
     1
 40
1.0
176
     1
 90
        0
176
     1
 62
    18
420
        0
176
     1
 90
       50
176
     1
 90
        3
176
     1
 62
     5
420
      255
176
     1
290
     0
176
     1
 90
       50
176
     1
 90
       50
176
     1
 90
       50
176
     1
290
     0
176
     1
 90
       50
176
     1
 62
   256
176
     0
 40
1.0
176
     0
 90
        2
176
     1
  1
strokes_ogs.tif
176
     1
290
     0
176
     1
 40
1.0
176
     1
 40
1.0
176
     1
  0
VISUALSTYLE
  5
13B
102
{ACAD_REACTORS
330
2A
102
}
330
2A
100
AcDbVisualStyle
  2
Shaded with edges
 70
    26
177
     3
291
     0
 70
    58
 90
        2
176
     1
 90
        2
176
     1
 90
        1
176
     1
 90
        2
176
     1
 40
0.6
176
     1
 40
30.0
176
     1
 62
     7
420
 16777215
176
     1
 90
        1
176
     1
 90
       10
176
     1
 62
     7
176
     1
 62
   257
176
     1
 90
        2
176
     1
 90
        1
176
     1
 40
1.0
176
     1
 90
        8
176
     1
 62
   257
176
     1
 40
1.0
176
     1
 90
        1
176
     1
 90
        6
176
     1
 90
        2
176
     1
 62
     7
176
     1
 90
        3
176
     1
 90
        0
176
     1
 90
        0
176
     1
290
     0
176
     1
 90
        5
176
     1
 40
0.0
176
     1
 90
        0
176
     1
290
     0
176
     1
290
     1
176
     1
290
     1
176
     1
290
     0
176
     1
290
     0
176
     1
290
     0
176
     1
290
     0
176
     1
290
     0
176
     1
290
     0
176
     1
 90
       50
176
     1
 40
0.0
176
     1
 40
1.0
176
     1
 90
        0
176
     1
 62
    18
420
        0
176
     1
 90
       50
176
     1
 90
        3
176
     1
 62
     5
420
      255
176
     1
290
     0
176
     1
 90
       50
176
     1
 90
       50
176
     1
 90
       50
176
     1
290
     0
176
     1
 90
       50
176
     1
 62
   256
176
     0
 40
1.0
176
     0
 90
        2
176
     1
  1
strokes_ogs.tif
176
     1
290
     0
176
     1
 40
1.0
176
     1
 40
1.0
176
     1
  0
VISUALSTYLE
  5
138
102
{ACAD_REACTORS
330
2A
102
}
330
2A
100
AcDbVisualStyle
  2
Shades of Gray
 70
    23
177
     3
291
     0
 70
    58
 90
        2
176
     1
 90
        2
176
     1
 90
        3
176
     1
 90
        0
176
     1
 40
0.6
176
     1
 40
30.0
176
     1
 62
     7
420
 16777215
176
     1
 90
        2
176
     1
 90
        2
176
     1
 62
     7
176
     1
 62
     7
176
     1
 90
        1
176
     1
 90
        1
176
     1
 40
40.0
176
     1
 90
        8
176
     1
 62
     7
176
     1
 40
1.0
176
     1
 90
        1
176
     1
 90
        6
176
     1
 90
        2
176
     1
 62
     7
176
     1
 90
        3
176
     1
 90
        0
176
     1
 90
        0
176
     1
290
     0
176
     1
 90
        1
176
     1
 40
0.0
176
     1
 90
        0
176
     1
290
     0
176
     1
290
     1
176
     1
290
     1
176
     1
290
     0
176
     1
290
     0
176
     1
290
     0
176
     1
290
     0
176
     1
290
     0
176
     1
290
     0
176
     1
 90
       50
176
     1
 40
0.0
176
     1
 40
1.0
176
     1
 90
        0
176
     1
 62
    18
420
        0
176
     1
 90
       50
176
     1
 90
        3
176
     1
 62
     5
420
      255
176
     1
290
     0
176
     1
 90
       50
176
     1
 90
       50
176
     1
 90
       50
176
     1
290
     0
176
     1
 90
       50
176
     1
 62
   256
176
     0
 40
1.0
176
     0
 90
        2
176
     1
  1
strokes_ogs.tif
176
     1
290
     0
176
     1
 40
1.0
176
     1
 40
1.0
176
     1
  0
VISUALSTYLE
  5
139
102
{ACAD_REACTORS
330
2A
102
}
330
2A
100
AcDbVisualStyle
  2
Sketchy
 70
    24
177
     3
291
     0
 70
    58
 90
        1
176
     1
 90
        2
176
     1
 90
        2
176
     1
 90
        0
176
     1
 40
0.6
176
     1
 40
30.0
176
     1
 62
     7
420
 16777215
176
     1
 90
        2
176
     1
 90
        2
176
     1
 62
     7
176
     1
 62
     7
176
     1
 90
        1
176
     1
 90
        1
176
     1
 40
40.0
176
     1
 90
       11
176
     1
 62
     7
176
     1
 40
1.0
176
     1
 90
        1
176
     1
 90
        6
176
     1
 90
        2
176
     1
 62
     7
176
     1
 90
        6
176
     1
 90
        0
176
     1
 90
        0
176
     1
290
     0
176
     1
 90
        1
176
     1
 40
0.0
176
     1
 90
        0
176
     1
290
     0
176
     1
290
     1
176
     1
290
     1
176
     1
290
     0
176
     1
290
     0
176
     1
290
     0
176
     1
290
     0
176
     1
290
     0
176
     1
290
     0
176
     1
 90
       50
176
     1
 40
0.0
176
     1
 40
1.0
176
     1
 90
        0
176
     1
 62
    18
420
        0
176
     1
 90
       50
176
     1
 90
        3
176
     1
 62
     5
420
      255
176
     1
290
     0
176
     1
 90
       50
176
     1
 90
       50
176
     1
 90
       50
176
     1
290
     0
176
     1
 90
       50
176
     1
 62
   256
176
     0
 40
1.0
176
     0
 90
        2
176
     1
  1
strokes_ogs.tif
176
     1
290
     0
176
     1
 40
1.0
176
     1
 40
1.0
176
     1
  0
VISUALSTYLE
  5
37
102
{ACAD_REACTORS
330
2A
102
}
330
2A
100
AcDbVisualStyle
  2
Thicken
 70
    13
177
     3
291
     1
 70
    58
 90
        2
176
     1
 90
        2
176
     1
 90
        0
176
     1
 90
        0
176
     1
 40
0.6
176
     1
 40
30.0
176
     1
 62
     7
420
 16777215
176
     1
 90
        1
176
     1
 90
        4
176
     1
 62
     7
176
     1
 62
   257
176
     1
 90
        1
176
     1
 90
        1
176
     1
 40
1.0
176
     1
 90
       12
176
     1
 62
     7
176
     1
 40
1.0
176
     1
 90
        1
176
     1
 90
        6
176
     1
 90
        2
176
     1
 62
     7
176
     1
 90
        5
176
     1
 90
        0
176
     1
 90
        0
176
     1
290
     0
176
     1
 90
        1
176
     1
 40
0.0
176
     1
 90
        0
176
     1
290
     0
176
     1
290
     1
176
     1
290
     1
176
     1
290
     0
176
     1
290
     0
176
     1
290
     0
176
     1
290
     0
176
     1
290
     0
176
     1
290
     0
176
     1
 90
       50
176
     1
 40
0.0
176
     1
 40
1.0
176
     1
 90
        0
176
     1
 62
    18
420
        0
176
     1
 90
       50
176
     1
 90
        3
176
     1
 62
     5
420
      255
176
     1
290
     0
176
     1
 90
       50
176
     1
 90
       50
176
     1
 90
       50
176
     1
290
     0
176
     1
 90
       50
176
     1
 62
   256
176
     0
 40
1.0
176
     0
 90
        2
176
     1
  1
strokes_ogs.tif
176
     1
290
     0
176
     1
 40
1.0
176
     1
 40
1.0
176
     1
  0
VISUALSTYLE
  5
136
102
{ACAD_REACTORS
330
2A
102
}
330
2A
100
AcDbVisualStyle
  2
Wireframe
 70
     5
177
     3
291
     0
 70
    58
 90
        0
176
     1
 90
        2
176
     1
 90
        0
176
     1
 90
        0
176
     1
 40
0.6
176
     1
 40
30.0
176
     1
 62
     7
420
 16777215
176
     1
 90
        1
176
     1
 90
        4
176
     1
 62
     7
176
     1
 62
   257
176
     1
 90
        1
176
     1
 90
        1
176
     1
 40
1.0
176
     1
 90
        0
176
     1
 62
   257
176
     1
 40
1.0
176
     1
 90
        1
176
     1
 90
        6
176
     1
 90
        2
176
     1
 62
     7
176
     1
 90
        3
176
     1
 90
        0
176
     1
 90
        0
176
     1
290
     0
176
     1
 90
        1
176
     1
 40
0.0
176
     1
 90
        0
176
     1
290
     0
176
     1
290
     1
176
     1
290
     1
176
     1
290
     0
176
     1
290
     0
176
     1
290
     0
176
     1
290
     0
176
     1
290
     0
176
     1
290
     0
176
     1
 90
       50
176
     1
 40
0.0
176
     1
 40
1.0
176
     1
 90
        0
176
     1
 62
    18
420
        0
176
     1
 90
       50
176
     1
 90
        3
176
     1
 62
     5
420
      255
176
     1
290
     0
176
     1
 90
       50
176
     1
 90
       50
176
     1
 90
       50
176
     1
290
     0
176
     1
 90
       50
176
     1
 62
   256
176
     0
 40
1.0
176
     0
 90
        2
176
     1
  1
strokes_ogs.tif
176
     1
290
     0
176
     1
 40
1.0
176
     1
 40
1.0
176
     1
  0
VISUALSTYLE
  5
13A
102
{ACAD_REACTORS
330
2A
102
}
330
2A
100
AcDbVisualStyle
  2
X-Ray
 70
    25
177
     3
291
     0
 70
    58
 90
        2
176
     1
 90
        2
176
     1
 90
        1
176
     1
 90
        1
176
     1
 40
0.5
176
     1
 40
30.0
176
     1
 62
     7
420
 16777215
176
     1
 90
        1
176
     1
 90
        0
176
     1
 62
     7
176
     1
 62
   257
176
     1
 90
        1
176
     1
 90
        1
176
     1
 40
1.0
176
     1
 90
        8
176
     1
 62
     7
176
     1
 40
1.0
176
     1
 90
        1
176
     1
 90
        6
176
     1
 90
        2
176
     1
 62
     7
176
     1
 90
        3
176
     1
 90
        0
176
     1
 90
        0
176
     1
290
     0
176
     1
 90
       13
176
     1
 40
0.0
176
     1
 90
        0
176
     1
290
     0
176
     1
290
     1
176
     1
290
     1
176
     1
290
     0
176
     1
290
     0
176
     1
290
     0
176
     1
290
     0
176
     1
290
     0
176
     1
290
     0
176
     1
 90
       50
176
     1
 40
0.0
176
     1
 40
1.0
176
     1
 90
        0
176
     1
 62
    18
420
        0
176
     1
 90
       50
176
     1
 90
        3
176
     1
 62
     5
420
      255
176
     1
290
     0
176
     1
 90
       50
176
     1
 90
       50
176
     1
 90
       50
176
     1
290
     0
176
     1
 90
       50
176
     1
 62
   256
176
     0
 40
1.0
176
     0
 90
        2
176
     1
  1
strokes_ogs.tif
176
     1
290
     0
176
     1
 40
1.0
176
     1
 40
1.0
176
     1
  0
DICTIONARYVAR
  5
173
102
{ACAD_REACTORS
330
16D
102
}
330
16D
100
DictionaryVariables
280
     0
  1
1:1
  0
DICTIONARYVAR
  5
16F
102
{ACAD_REACTORS
330
16D
102
}
330
16D
100
DictionaryVariables
280
     0
  1
STANDARD
  0
DICTIONARYVAR
  5
16E
102
{ACAD_REACTORS
330
16D
102
}
330
16D
100
DictionaryVariables
280
     0
  1
STANDARD
  0
DICTIONARYVAR
  5
170
102
{ACAD_REACTORS
330
16D
102
}
330
16D
100
DictionaryVariables
280
     0
  1
Imperial24
  0
DICTIONARYVAR
  5
171
102
{ACAD_REACTORS
330
16D
102
}
330
16D
100
DictionaryVariables
280
     0
  1
Imperial24
  0
DICTIONARYVAR
  5
175
102
{ACAD_REACTORS
330
16D
102
}
330
16D
100
DictionaryVariables
280
     0
  1
1
  0
DICTIONARYVAR
  5
176
102
{ACAD_REACTORS
330
16D
102
}
330
16D
100
DictionaryVariables
280
     0
  1
15
  0
DICTIONARYVAR
  5
174
102
{ACAD_REACTORS
330
16D
102
}
330
16D
100
DictionaryVariables
280
     0
  1
0
  0
DICTIONARYVAR
  5
172
102
{ACAD_REACTORS
330
16D
102
}
330
16D
100
DictionaryVariables
280
     0
  1
0
  0
DICTIONARY
  5
127
330
126
100
AcDbDictionary
280
     1
281
     1
  3
BUMPTILE
360
129
  3
DIFFUSETILE
360
128
  3
OPACITYTILE
360
12C
  3
REFLECTIONTILE
360
12B
  3
REFRACTIONTILE
360
12D
  3
SPECULARTILE
360
12A
  0
DICTIONARY
  5
11F
330
11E
100
AcDbDictionary
280
     1
281
     1
  3
BUMPTILE
360
121
  3
DIFFUSETILE
360
120
  3
OPACITYTILE
360
124
  3
REFLECTIONTILE
360
123
  3
REFRACTIONTILE
360
125
  3
SPECULARTILE
360
122
  0
DICTIONARY
  5
12F
330
12E
100
AcDbDictionary
280
     1
281
     1
  3
BUMPTILE
360
131
  3
DIFFUSETILE
360
130
  3
OPACITYTILE
360
134
  3
REFLECTIONTILE
360
133
  3
REFRACTIONTILE
360
135
  3
SPECULARTILE
360
132
  0
DICTIONARY
  5
178
330
141
100
AcDbDictionary
280
     1
281
     1
  3
ACAD_ROUNDTRIP_2008_TABLESTYLE_CELLSTYLEMAP
360
179
  0
XRECORD
  5
129
102
{ACAD_REACTORS
330
127
102
}
330
127
100
AcDbXrecord
280
     1
270
     1
271
     1
  0
XRECORD
  5
128
102
{ACAD_REACTORS
330
127
102
}
330
127
100
AcDbXrecord
280
     1
270
     1
271
     1
  0
XRECORD
  5
12C
102
{ACAD_REACTORS
330
127
102
}
330
127
100
AcDbXrecord
280
     1
270
     1
271
     1
  0
XRECORD
  5
12B
102
{ACAD_REACTORS
330
127
102
}
330
127
100
AcDbXrecord
280
     1
270
     1
271
     1
  0
XRECORD
  5
12D
102
{ACAD_REACTORS
330
127
102
}
330
127
100
AcDbXrecord
280
     1
270
     1
271
     1
  0
XRECORD
  5
12A
102
{ACAD_REACTORS
330
127
102
}
330
127
100
AcDbXrecord
280
     1
270
     1
271
     1
  0
XRECORD
  5
121
102
{ACAD_REACTORS
330
11F
102
}
330
11F
100
AcDbXrecord
280
     1
270
     1
271
     1
  0
XRECORD
  5
120
102
{ACAD_REACTORS
330
11F
102
}
330
11F
100
AcDbXrecord
280
     1
270
     1
271
     1
  0
XRECORD
  5
124
102
{ACAD_REACTORS
330
11F
102
}
330
11F
100
AcDbXrecord
280
     1
270
     1
271
     1
  0
XRECORD
  5
123
102
{ACAD_REACTORS
330
11F
102
}
330
11F
100
AcDbXrecord
280
     1
270
     1
271
     1
  0
XRECORD
  5
125
102
{ACAD_REACTORS
330
11F
102
}
330
11F
100
AcDbXrecord
280
     1
270
     1
271
     1
  0
XRECORD
  5
122
102
{ACAD_REACTORS
330
11F
102
}
330
11F
100
AcDbXrecord
280
     1
270
     1
271
     1
  0
XRECORD
  5
131
102
{ACAD_REACTORS
330
12F
102
}
330
12F
100
AcDbXrecord
280
     1
270
     1
271
     1
  0
XRECORD
  5
130
102
{ACAD_REACTORS
330
12F
102
}
330
12F
100
AcDbXrecord
280
     1
270
     1
271
     1
  0
XRECORD
  5
134
102
{ACAD_REACTORS
330
12F
102
}
330
12F
100
AcDbXrecord
280
     1
270
     1
271
     1
  0
XRECORD
  5
133
102
{ACAD_REACTORS
330
12F
102
}
330
12F
100
AcDbXrecord
280
     1
270
     1
271
     1
  0
XRECORD
  5
135
102
{ACAD_REACTORS
330
12F
102
}
330
12F
100
AcDbXrecord
280
     1
270
     1
271
     1
  0
XRECORD
  5
132
102
{ACAD_REACTORS
330
12F
102
}
330
12F
100
AcDbXrecord
280
     1
270
     1
271
     1
  0
CELLSTYLEMAP
  5
179
102
{ACAD_REACTORS
330
178
102
}
330
178
100
AcDbCellStyleMap
 90
        3
300
CELLSTYLE
  1
TABLEFORMAT_BEGIN
 90
        5
170
     1
 91
        0
 92
    32768
 62
   257
 93
        1
300
CONTENTFORMAT
  1
CONTENTFORMAT_BEGIN
 90
        0
 91
        0
 92
      512
 93
        0
300

 40
0.0
140
1.0
 94
        5
 62
     0
340
11
144
0.25
309
CONTENTFORMAT_END
171
     0
 94
        0
309
TABLEFORMAT_END
  1
CELLSTYLE_BEGIN
 90
        1
 91
        1
300
_TITLE
309
CELLSTYLE_END
300
CELLSTYLE
  1
TABLEFORMAT_BEGIN
 90
        5
170
     1
 91
        0
 92
        0
 62
   257
 93
        1
300
CONTENTFORMAT
  1
CONTENTFORMAT_BEGIN
 90
        0
 91
        0
 92
      512
 93
        0
300

 40
0.0
140
1.0
 94
        5
 62
     0
340
11
144
0.18
309
CONTENTFORMAT_END
171
     0
 94
        0
309
TABLEFORMAT_END
  1
CELLSTYLE_BEGIN
 90
        2
 91
        1
300
_HEADER
309
CELLSTYLE_END
300
CELLSTYLE
  1
TABLEFORMAT_BEGIN
 90
        5
170
     1
 91
        0
 92
        0
 62
   257
 93
        1
300
CONTENTFORMAT
  1
CONTENTFORMAT_BEGIN
 90
        0
 91
        0
 92
      512
 93
        0
300

 40
0.0
140
1.0
 94
        2
 62
     0
340
11
144
0.18
309
CONTENTFORMAT_END
171
     0
 94
        0
309
TABLEFORMAT_END
  1
CELLSTYLE_BEGIN
 90
        3
 91
        2
300
_DATA
309
CELLSTYLE_END
  0
ENDSEC
  0
SECTION
  2
ACDSDATA
 70
     2
 71
     2
  0
ACDSSCHEMA
 90
        0
  1
AcDb_Thumbnail_Schema
  2
AcDbDs::ID
280
    10
 91
        8
  2
Thumbnail_Data
280
    15
 91
        0
101
ACDSRECORD
 95
        0
 90
        1
  2
AcDbDs::TreatedAsObjectData
280
     1
291
     1
101
ACDSRECORD
 95
        0
 90
        2
  2
AcDbDs::Legacy
280
     1
291
     1
101
ACDSRECORD
  1
AcDbDs::ID
 90
        3
  2
AcDs:Indexable
280
     1
291
     1
101
ACDSRECORD
  1
AcDbDs::ID
 90
        4
  2
AcDbDs::HandleAttribute
280
     7
282
     1
  0
ACDSSCHEMA
 90
        1
  1
AcDbDs::TreatedAsObjectDataSchema
  2
AcDbDs::TreatedAsObjectData
280
     1
 91
        0
  0
ACDSSCHEMA
 90
        2
  1
AcDbDs::LegacySchema
  2
AcDbDs::Legacy
280
     1
 91
        0
  0
ACDSSCHEMA
 90
        3
  1
AcDbDs::IndexedPropertySchema
  2
AcDs:Indexable
280
     1
 91
        0
  0
ACDSSCHEMA
 90
        4
  1
AcDbDs::HandleAttributeSchema
  2
AcDbDs::HandleAttribute
280
     7
 91
        1
284
     1
  0
ACDSRECORD
 90
        0
  2
AcDbDs::ID
280
    10
320
22
  2
Thumbnail_Data
280
    15
 94
     1335
310
89504E470D0A1A0A0000000D49484452000001000000009A0803000000712666C500000300504C54452128300000000000000000000000000000000000000000000000000000000000000000330000660000990000CC0000FF0033000033330033660033990033CC0033FF0066000066330066660066990066CC0066FF0099
310
000099330099660099990099CC0099FF00CC0000CC3300CC6600CC9900CCCC00CCFF00FF0000FF3300FF6600FF9900FFCC00FFFF3300003300333300663300993300CC3300FF3333003333333333663333993333CC3333FF3366003366333366663366993366CC3366FF3399003399333399663399993399CC3399FF33CC00
310
33CC3333CC6633CC9933CCCC33CCFF33FF0033FF3333FF6633FF9933FFCC33FFFF6600006600336600666600996600CC6600FF6633006633336633666633996633CC6633FF6666006666336666666666996666CC6666FF6699006699336699666699996699CC6699FF66CC0066CC3366CC6666CC9966CCCC66CCFF66FF0066
310
FF3366FF6666FF9966FFCC66FFFF9900009900339900669900999900CC9900FF9933009933339933669933999933CC9933FF9966009966339966669966999966CC9966FF9999009999339999669999999999CC9999FF99CC0099CC3399CC6699CC9999CCCC99CCFF99FF0099FF3399FF6699FF9999FFCC99FFFFCC0000CC00
310
33CC0066CC0099CC00CCCC00FFCC3300CC3333CC3366CC3399CC33CCCC33FFCC6600CC6633CC6666CC6699CC66CCCC66FFCC9900CC9933CC9966CC9999CC99CCCC99FFCCCC00CCCC33CCCC66CCCC99CCCCCCCCCCFFCCFF00CCFF33CCFF66CCFF99CCFFCCCCFFFFFF0000FF0033FF0066FF0099FF00CCFF00FFFF3300FF3333
310
FF3366FF3399FF33CCFF33FFFF6600FF6633FF6666FF6699FF66CCFF66FFFF9900FF9933FF9966FF9999FF99CCFF99FFFFCC00FFCC33FFCC66FFCC99FFCCCCFFCCFFFFFF00FFFF33FFFF66FFFF99FFFFCCFFFFFF0000000D0D0D1A1A1A2828283535354343435050505D5D5D6B6B6B787878868686939393A1A1A1AEAEAEBB
310
BBBBC9C9C9D6D6D6E4E4E4F1F1F1FFFFFF000000000000000000000000000000000000000000000000000000000000544354A8000001F249444154789CEDDCDB7682301085E1BCFFFBCE7D5BC53042CC70584233FBFFAE284617B3492207692900000000000000000000003459E4E4FB2F29E28CB0C0EE8BBF05F63F207700
310
167F40EA009EF50F1FC0F1416CE7DEFE1FD9864EED5A87FB7F3C7BF69A95117AF83ECF7A36269030005B2D44AD5305E077FC96C2B205609DBF5ACD2D5900CB52E2E38301BFE53AD69504B559AE21D02A243AC44B1F40701E942A80761DF2010467820410B418C8A73208A0FB1E02085A8C447D0E200002D8B1B6BE982900F9
310
43E1036743F903082FF8E70AE0C805910DAD46F2B6C7E34B3DE92E89155FB5E655E132DFE8DADEF8CB1B040000000000000000BE60FCA75D4E6A542B144092279E8E7377F9AC3E375384FAC05C6C6B49402DD6F57CAD0016835E6E0E98B8DF07A895FEA0F905503DABB66949AF0FD832009D19F04FEDF73E00A14E60CD0084
310
86C1C7004412B0F610D0E903EA01180174021048C05C002619809F03A6552E80FC09B800DC4AC900566B2502B01A40737DFE53027BDBD37357D00CC04F862A01F8B15EBBC1627D6E04301FF0880660DD1E70E7A65DC4FC24584A31E900AC4EFC3A67836F07426E412780D6BF519499021F56E742F5F0E8B64DBA98BF1C50EA
310
AD119DFACBEA371242E3FF65AEFBB5FFEFDEA2ABCD9537E6440D7E08C8922E1E0000000000000000000086F003667F67148DE393E30000000049454E44AE426082
  0
ENDSEC
  0
EOF
