  0
SECTION
  2
HEADER
  9
$ACADVER
  1
AC1027
  9
$ACADMAINTVER
 70
     8
  9
$DWGCODEPAGE
  3
ANSI_1252
  9
$LASTSAVEDBY
  1
imac
  9
$REQUIREDVERSIONS
160
                 0
  9
$INSBASE
 10
0.0
 20
0.0
 30
0.0
  9
$EXTMIN
 10
1296.258292715426
 20
365.1572364906532
 30
0.0
  9
$EXTMAX
 10
1786.144643292019
 20
848.0904822213647
 30
0.0
  9
$LIMMIN
 10
0.0
 20
0.0
  9
$LIMMAX
 10
12.0
 20
9.0
  9
$ORTHOMODE
 70
     0
  9
$REGENMODE
 70
     1
  9
$FILLMODE
 70
     1
  9
$QTEXTMODE
 70
     0
  9
$MIRRTEXT
 70
     1
  9
$LTSCALE
 40
1.0
  9
$ATTMODE
 70
     1
  9
$TEXTSIZE
 40
0.2
  9
$TRACEWID
 40
0.05
  9
$TEXTSTYLE
  7
Standard
  9
$CLAYER
  8
0
  9
$CELTYPE
  6
ByLayer
  9
$CECOLOR
 62
   256
  9
$CELTSCALE
 40
1.0
  9
$DISPSILH
 70
     0
  9
$DIMSCALE
 40
1.0
  9
$DIMASZ
 40
0.18
  9
$DIMEXO
 40
0.0625
  9
$DIMDLI
 40
0.38
  9
$DIMRND
 40
0.0
  9
$DIMDLE
 40
0.0
  9
$DIMEXE
 40
0.18
  9
$DIMTP
 40
0.0
  9
$DIMTM
 40
0.0
  9
$DIMTXT
 40
0.18
  9
$DIMCEN
 40
0.09
  9
$DIMTSZ
 40
0.0
  9
$DIMTOL
 70
     0
  9
$DIMLIM
 70
     0
  9
$DIMTIH
 70
     1
  9
$DIMTOH
 70
     1
  9
$DIMSE1
 70
     0
  9
$DIMSE2
 70
     0
  9
$DIMTAD
 70
     0
  9
$DIMZIN
 70
     0
  9
$DIMBLK
  1

  9
$DIMASO
 70
     1
  9
$DIMSHO
 70
     1
  9
$DIMPOST
  1

  9
$DIMAPOST
  1

  9
$DIMALT
 70
     0
  9
$DIMALTD
 70
     2
  9
$DIMALTF
 40
25.4
  9
$DIMLFAC
 40
1.0
  9
$DIMTOFL
 70
     0
  9
$DIMTVP
 40
0.0
  9
$DIMTIX
 70
     0
  9
$DIMSOXD
 70
     0
  9
$DIMSAH
 70
     0
  9
$DIMBLK1
  1

  9
$DIMBLK2
  1

  9
$DIMSTYLE
  2
Standard
  9
$DIMCLRD
 70
     0
  9
$DIMCLRE
 70
     0
  9
$DIMCLRT
 70
     0
  9
$DIMTFAC
 40
1.0
  9
$DIMGAP
 40
0.09
  9
$DIMJUST
 70
     0
  9
$DIMSD1
 70
     0
  9
$DIMSD2
 70
     0
  9
$DIMTOLJ
 70
     1
  9
$DIMTZIN
 70
     0
  9
$DIMALTZ
 70
     0
  9
$DIMALTTZ
 70
     0
  9
$DIMUPT
 70
     0
  9
$DIMDEC
 70
     4
  9
$DIMTDEC
 70
     4
  9
$DIMALTU
 70
     2
  9
$DIMALTTD
 70
     2
  9
$DIMTXSTY
  7
Standard
  9
$DIMAUNIT
 70
     0
  9
$DIMADEC
 70
     0
  9
$DIMALTRND
 40
0.0
  9
$DIMAZIN
 70
     0
  9
$DIMDSEP
 70
    46
  9
$DIMATFIT
 70
     3
  9
$DIMFRAC
 70
     0
  9
$DIMLDRBLK
  1

  9
$DIMLUNIT
 70
     2
  9
$DIMLWD
 70
    -2
  9
$DIMLWE
 70
    -2
  9
$DIMTMOVE
 70
     2
  9
$DIMFXL
 40
1.0
  9
$DIMFXLON
 70
     0
  9
$DIMJOGANG
 40
0.7853981633974483
  9
$DIMTFILL
 70
     0
  9
$DIMTFILLCLR
 70
     0
  9
$DIMARCSYM
 70
     0
  9
$DIMLTYPE
  6

  9
$DIMLTEX1
  6

  9
$DIMLTEX2
  6

  9
$DIMTXTDIRECTION
 70
     0
  9
$LUNITS
 70
     2
  9
$LUPREC
 70
     3
  9
$SKETCHINC
 40
0.1
  9
$FILLETRAD
 40
0.5
  9
$AUNITS
 70
     0
  9
$AUPREC
 70
     0
  9
$MENU
  1
.
  9
$ELEVATION
 40
0.0
  9
$PELEVATION
 40
0.0
  9
$THICKNESS
 40
0.0
  9
$LIMCHECK
 70
     0
  9
$CHAMFERA
 40
0.5
  9
$CHAMFERB
 40
0.5
  9
$CHAMFERC
 40
1.0
  9
$CHAMFERD
 40
0.0
  9
$SKPOLY
 70
     0
  9
$TDCREATE
 40
2456626.683321828
  9
$TDUCREATE
 40
2456626.641655162
  9
$TDUPDATE
 40
2457434.834322083
  9
$TDUUPDATE
 40
2457434.792655417
  9
$TDINDWG
 40
0.0001621875
  9
$TDUSRTIMER
 40
0.0001621875
  9
$USRTIMER
 70
     1
  9
$ANGBASE
 50
0.0
  9
$ANGDIR
 70
     0
  9
$PDMODE
 70
     0
  9
$PDSIZE
 40
0.0
  9
$PLINEWID
 40
0.0
  9
$SPLFRAME
 70
     0
  9
$SPLINETYPE
 70
     6
  9
$SPLINESEGS
 70
     8
  9
$HANDSEED
  5
185
  9
$SURFTAB1
 70
     6
  9
$SURFTAB2
 70
     6
  9
$SURFTYPE
 70
     6
  9
$SURFU
 70
     6
  9
$SURFV
 70
     6
  9
$UCSBASE
  2

  9
$UCSNAME
  2

  9
$UCSORG
 10
0.0
 20
0.0
 30
0.0
  9
$UCSXDIR
 10
1.0
 20
0.0
 30
0.0
  9
$UCSYDIR
 10
0.0
 20
1.0
 30
0.0
  9
$UCSORTHOREF
  2

  9
$UCSORTHOVIEW
 70
     0
  9
$UCSORGTOP
 10
0.0
 20
0.0
 30
0.0
  9
$UCSORGBOTTOM
 10
0.0
 20
0.0
 30
0.0
  9
$UCSORGLEFT
 10
0.0
 20
0.0
 30
0.0
  9
$UCSORGRIGHT
 10
0.0
 20
0.0
 30
0.0
  9
$UCSORGFRONT
 10
0.0
 20
0.0
 30
0.0
  9
$UCSORGBACK
 10
0.0
 20
0.0
 30
0.0
  9
$PUCSBASE
  2

  9
$PUCSNAME
  2

  9
$PUCSORG
 10
0.0
 20
0.0
 30
0.0
  9
$PUCSXDIR
 10
1.0
 20
0.0
 30
0.0
  9
$PUCSYDIR
 10
0.0
 20
1.0
 30
0.0
  9
$PUCSORTHOREF
  2

  9
$PUCSORTHOVIEW
 70
     0
  9
$PUCSORGTOP
 10
0.0
 20
0.0
 30
0.0
  9
$PUCSORGBOTTOM
 10
0.0
 20
0.0
 30
0.0
  9
$PUCSORGLEFT
 10
0.0
 20
0.0
 30
0.0
  9
$PUCSORGRIGHT
 10
0.0
 20
0.0
 30
0.0
  9
$PUCSORGFRONT
 10
0.0
 20
0.0
 30
0.0
  9
$PUCSORGBACK
 10
0.0
 20
0.0
 30
0.0
  9
$USERI1
 70
     0
  9
$USERI2
 70
     0
  9
$USERI3
 70
     0
  9
$USERI4
 70
     0
  9
$USERI5
 70
     0
  9
$USERR1
 40
0.0
  9
$USERR2
 40
0.0
  9
$USERR3
 40
0.0
  9
$USERR4
 40
0.0
  9
$USERR5
 40
0.0
  9
$WORLDVIEW
 70
     1
  9
$SHADEDGE
 70
     3
  9
$SHADEDIF
 70
    70
  9
$TILEMODE
 70
     1
  9
$MAXACTVP
 70
    64
  9
$PINSBASE
 10
0.0
 20
0.0
 30
0.0
  9
$PLIMCHECK
 70
     0
  9
$PEXTMIN
 10
1.000000000000000E+20
 20
1.000000000000000E+20
 30
1.000000000000000E+20
  9
$PEXTMAX
 10
-1.000000000000000E+20
 20
-1.000000000000000E+20
 30
-1.000000000000000E+20
  9
$PLIMMIN
 10
0.0
 20
0.0
  9
$PLIMMAX
 10
12.0
 20
9.0
  9
$UNITMODE
 70
     0
  9
$VISRETAIN
 70
     1
  9
$PLINEGEN
 70
     0
  9
$PSLTSCALE
 70
     1
  9
$TREEDEPTH
 70
  3020
  9
$CMLSTYLE
  2
Standard
  9
$CMLJUST
 70
     0
  9
$CMLSCALE
 40
1.0
  9
$PROXYGRAPHICS
 70
     1
  9
$MEASUREMENT
 70
     0
  9
$CELWEIGHT
370
    -1
  9
$ENDCAPS
280
     0
  9
$JOINSTYLE
280
     0
  9
$LWDISPLAY
290
     0
  9
$INSUNITS
 70
     4
  9
$HYPERLINKBASE
  1

  9
$STYLESHEET
  1

  9
$XEDIT
290
     1
  9
$CEPSNTYPE
380
     0
  9
$PSTYLEMODE
290
     1
  9
$FINGERPRINTGUID
  2
{490DD183-5822-493C-B527-D2551D0B2902}
  9
$VERSIONGUID
  2
{FAEB1C32-E019-11D5-929B-00C0DF256EC4}
  9
$EXTNAMES
290
     1
  9
$PSVPSCALE
 40
0.0
  9
$OLESTARTUP
290
     0
  9
$SORTENTS
280
   127
  9
$INDEXCTL
280
     0
  9
$HIDETEXT
280
     1
  9
$XCLIPFRAME
280
     0
  9
$HALOGAP
280
     0
  9
$OBSCOLOR
 70
   257
  9
$OBSLTYPE
280
     0
  9
$INTERSECTIONDISPLAY
280
     0
  9
$INTERSECTIONCOLOR
 70
   257
  9
$DIMASSOC
280
     2
  9
$PROJECTNAME
  1

  9
$CAMERADISPLAY
290
     0
  9
$LENSLENGTH
 40
50.0
  9
$CAMERAHEIGHT
 40
0.0
  9
$STEPSPERSEC
 40
2.0
  9
$STEPSIZE
 40
6.0
  9
$3DDWFPREC
 40
2.0
  9
$PSOLWIDTH
 40
0.25
  9
$PSOLHEIGHT
 40
4.0
  9
$LOFTANG1
 40
1.570796326794896
  9
$LOFTANG2
 40
1.570796326794896
  9
$LOFTMAG1
 40
0.0
  9
$LOFTMAG2
 40
0.0
  9
$LOFTPARAM
 70
     7
  9
$LOFTNORMALS
280
     1
  9
$LATITUDE
 40
37.795
  9
$LONGITUDE
 40
-122.394
  9
$NORTHDIRECTION
 40
0.0
  9
$TIMEZONE
 70
 -8000
  9
$LIGHTGLYPHDISPLAY
280
     1
  9
$TILEMODELIGHTSYNCH
280
     1
  9
$CMATERIAL
347
128
  9
$SOLIDHIST
280
     0
  9
$SHOWHIST
280
     1
  9
$DWFFRAME
280
     2
  9
$DGNFRAME
280
     0
  9
$REALWORLDSCALE
290
     1
  9
$INTERFERECOLOR
 62
     1
  9
$INTERFEREOBJVS
345
33
  9
$INTERFEREVPVS
346
140
  9
$CSHADOW
280
     0
  9
$SHADOWPLANELOCATION
 40
0.0
  0
ENDSEC
  0
SECTION
  2
CLASSES
  0
CLASS
  1
ACDBDICTIONARYWDFLT
  2
AcDbDictionaryWithDefault
  3
ObjectDBX Classes
 90
        0
 91
        1
280
     0
281
     0
  0
CLASS
  1
VISUALSTYLE
  2
AcDbVisualStyle
  3
ObjectDBX Classes
 90
     4095
 91
       26
280
     0
281
     0
  0
CLASS
  1
MATERIAL
  2
AcDbMaterial
  3
ObjectDBX Classes
 90
     1153
 91
        3
280
     0
281
     0
  0
CLASS
  1
TABLESTYLE
  2
AcDbTableStyle
  3
ObjectDBX Classes
 90
     4095
 91
        1
280
     0
281
     0
  0
CLASS
  1
SCALE
  2
AcDbScale
  3
ObjectDBX Classes
 90
     1153
 91
       17
280
     0
281
     0
  0
CLASS
  1
MLEADERSTYLE
  2
AcDbMLeaderStyle
  3
ACDB_MLEADERSTYLE_CLASS
 90
     4095
 91
        1
280
     0
281
     0
  0
CLASS
  1
ACDBSECTIONVIEWSTYLE
  2
AcDbSectionViewStyle
  3
ObjectDBX Classes
 90
     1025
 91
        1
280
     0
281
     0
  0
CLASS
  1
ACDBDETAILVIEWSTYLE
  2
AcDbDetailViewStyle
  3
ObjectDBX Classes
 90
     1025
 91
        1
280
     0
281
     0
  0
CLASS
  1
DICTIONARYVAR
  2
AcDbDictionaryVar
  3
ObjectDBX Classes
 90
        0
 91
        9
280
     0
281
     0
  0
CLASS
  1
CELLSTYLEMAP
  2
AcDbCellStyleMap
  3
ObjectDBX Classes
 90
     1152
 91
        1
280
     0
281
     0
  0
ENDSEC
  0
SECTION
  2
TABLES
  0
TABLE
  2
VPORT
  5
8
330
0
100
AcDbSymbolTable
 70
     1
  0
VPORT
  5
29
330
8
100
AcDbSymbolTableRecord
100
AcDbViewportTableRecord
  2
*Active
 70
     0
 10
0.0
 20
0.0
 11
1.0
 21
1.0
 12
1699.056041098731
 22
606.6240378421414
 13
0.0
 23
0.0
 14
0.5
 24
0.5
 15
0.5
 25
0.5
 16
0.0
 26
0.0
 36
1.0
 17
0.0
 27
0.0
 37
0.0
 40
492.592274757036
 41
1.655310621242485
 42
50.0
 43
0.0
 44
0.0
 50
0.0
 51
0.0
 71
     0
 72
   100
 73
     1
 74
     3
 75
     0
 76
     0
 77
     0
 78
     0
281
     0
 65
     1
110
0.0
120
0.0
130
0.0
111
1.0
121
0.0
131
0.0
112
0.0
122
1.0
132
0.0
 79
     0
146
0.0
348
2F
 60
     3
 61
     5
292
     1
282
     1
141
0.0
142
0.0
 63
   250
421
  3355443
1001
ACAD_NAV_VCDISPLAY
1070
     3
  0
ENDTAB
  0
TABLE
  2
LTYPE
  5
5
330
0
100
AcDbSymbolTable
 70
     2
  0
LTYPE
  5
14
330
5
100
AcDbSymbolTableRecord
100
AcDbLinetypeTableRecord
  2
ByBlock
 70
     0
  3

 72
    65
 73
     0
 40
0.0
  0
LTYPE
  5
15
330
5
100
AcDbSymbolTableRecord
100
AcDbLinetypeTableRecord
  2
ByLayer
 70
     0
  3

 72
    65
 73
     0
 40
0.0
  0
LTYPE
  5
16
330
5
100
AcDbSymbolTableRecord
100
AcDbLinetypeTableRecord
  2
Continuous
 70
     0
  3
Solid line
 72
    65
 73
     0
 40
0.0
  0
LTYPE
  5
160
330
5
100
AcDbSymbolTableRecord
100
AcDbLinetypeTableRecord
  2
PHANTOM2
 70
     0
  3
Phantom (.5x) ___ _ _ ___ _ _ ___ _ _ ___ _ _
 72
    65
 73
     6
 40
1.25
 49
0.625
 74
     0
 49
-0.125
 74
     0
 49
0.125
 74
     0
 49
-0.125
 74
     0
 49
0.125
 74
     0
 49
-0.125
 74
     0
  0
ENDTAB
  0
TABLE
  2
LAYER
  5
2
102
{ACAD_XDICTIONARY
360
171
102
}
330
0
100
AcDbSymbolTable
 70
     3
  0
LAYER
  5
10
102
{ACAD_XDICTIONARY
360
168
102
}
330
2
100
AcDbSymbolTableRecord
100
AcDbLayerTableRecord
  2
0
 70
     0
 62
     7
  6
Continuous
370
    -3
390
F
347
138
348
0
  0
LAYER
  5
3B
102
{ACAD_XDICTIONARY
360
16A
102
}
330
2
100
AcDbSymbolTableRecord
100
AcDbLayerTableRecord
  2
Linee visibili 2D
 70
     0
 62
     7
  6
Continuous
370
    -3
390
F
347
138
348
0
  0
LAYER
  5
4B
102
{ACAD_XDICTIONARY
360
16C
102
}
330
2
100
AcDbSymbolTableRecord
100
AcDbLayerTableRecord
  2
Linee visibili 2D - Tangent
 70
     0
 62
     7
  6
Continuous
370
    -3
390
F
347
138
348
0
  0
ENDTAB
  0
TABLE
  2
STYLE
  5
3
330
0
100
AcDbSymbolTable
 70
     1
  0
STYLE
  5
11
330
3
100
AcDbSymbolTableRecord
100
AcDbTextStyleTableRecord
  2
Standard
 70
     0
 40
0.0
 41
1.0
 50
0.0
 71
     0
 42
0.2
  3
txt
  4

  0
ENDTAB
  0
TABLE
  2
VIEW
  5
6
330
0
100
AcDbSymbolTable
 70
     1
  0
ENDTAB
  0
TABLE
  2
UCS
  5
7
330
0
100
AcDbSymbolTable
 70
     0
  0
ENDTAB
  0
TABLE
  2
APPID
  5
9
330
0
100
AcDbSymbolTable
 70
     2
  0
APPID
  5
12
330
9
100
AcDbSymbolTableRecord
100
AcDbRegAppTableRecord
  2
ACAD
 70
     0
  0
APPID
  5
181
330
9
100
AcDbSymbolTableRecord
100
AcDbRegAppTableRecord
  2
ACAD_NAV_VCDISPLAY
 70
     0
  0
ENDTAB
  0
TABLE
  2
DIMSTYLE
  5
A
330
0
100
AcDbSymbolTable
 70
     1
100
AcDbDimStyleTable
 71
     0
  0
DIMSTYLE
105
27
330
A
100
AcDbSymbolTableRecord
100
AcDbDimStyleTableRecord
  2
Standard
 70
     0
340
11
  0
ENDTAB
  0
TABLE
  2
BLOCK_RECORD
  5
1
330
0
100
AcDbSymbolTable
 70
     1
  0
BLOCK_RECORD
  5
1F
330
1
100
AcDbSymbolTableRecord
100
AcDbBlockTableRecord
  2
*Model_Space
340
22
 70
     0
280
     1
281
     0
  0
BLOCK_RECORD
  5
1B
330
1
100
AcDbSymbolTableRecord
100
AcDbBlockTableRecord
  2
*Paper_Space
340
1E
 70
     0
280
     1
281
     0
  0
BLOCK_RECORD
  5
23
330
1
100
AcDbSymbolTableRecord
100
AcDbBlockTableRecord
  2
*Paper_Space0
340
26
 70
     0
280
     1
281
     0
  0
ENDTAB
  0
ENDSEC
  0
SECTION
  2
BLOCKS
  0
BLOCK
  5
20
330
1F
100
AcDbEntity
  8
0
100
AcDbBlockBegin
  2
*Model_Space
 70
     0
 10
0.0
 20
0.0
 30
0.0
  3
*Model_Space
  1

  0
ENDBLK
  5
21
330
1F
100
AcDbEntity
  8
0
100
AcDbBlockEnd
  0
BLOCK
  5
1C
330
1B
100
AcDbEntity
 67
     1
  8
0
100
AcDbBlockBegin
  2
*Paper_Space
 70
     0
 10
0.0
 20
0.0
 30
0.0
  3
*Paper_Space
  1

  0
ENDBLK
  5
1D
330
1B
100
AcDbEntity
 67
     1
  8
0
100
AcDbBlockEnd
  0
BLOCK
  5
24
330
23
100
AcDbEntity
 67
     1
  8
0
100
AcDbBlockBegin
  2
*Paper_Space0
 70
     0
 10
0.0
 20
0.0
 30
0.0
  3
*Paper_Space0
  1

  0
ENDBLK
  5
25
330
23
100
AcDbEntity
 67
     1
  8
0
100
AcDbBlockEnd
  0
ENDSEC
  0
SECTION
  2
ENTITIES
  0
SPLINE
  5
3C
330
1F
100
AcDbEntity
  8
Linee visibili 2D
100
AcDbSpline
210
0.0
220
0.0
230
1.0
 70
    24
 71
     2
 72
     6
 73
     3
 74
     0
 42
0.0000000001
 43
0.0000000001
 40
0.0
 40
0.0
 40
0.0
 40
0.4502586546744188
 40
0.4502586546744188
 40
0.4502586546744188
 10
1734.379413274898
 20
847.6402381560118
 30
0.0
 10
1734.377600974993
 20
847.8653601886882
 30
0.0
 10
1734.375788675088
 20
848.0904822213647
 30
0.0
  0
SPLINE
  5
3D
330
1F
100
AcDbEntity
  8
Linee visibili 2D
100
AcDbSpline
210
0.0
220
0.0
230
1.0
 70
    24
 71
     2
 72
     6
 73
     3
 74
     0
 42
0.0000000001
 43
0.0000000001
 40
0.0
 40
0.0
 40
0.0
 40
0.5463736634191751
 40
0.5463736634191751
 40
0.5463736634191751
 10
1619.685843738421
 20
847.0102751683675
 30
0.0
 10
1619.688042903119
 20
846.7370971884824
 30
0.0
 10
1619.690242067817
 20
846.4639192085972
 30
0.0
  0
SPLINE
  5
3E
330
1F
100
AcDbEntity
  8
Linee visibili 2D
100
AcDbSpline
210
0.0
220
0.0
230
1.0
 70
    24
 71
     2
 72
     6
 73
     3
 74
     0
 42
0.0000000001
 43
0.0000000001
 40
0.0
 40
0.0
 40
0.0
 40
8.519746889778701
 40
8.519746889778701
 40
8.519746889778701
 10
1596.980317828702
 20
804.3814294657122
 30
0.0
 10
1592.720444383813
 20
804.3814294657122
 30
0.0
 10
1588.460570938923
 20
804.3814294657122
 30
0.0
  0
SPLINE
  5
3F
330
1F
100
AcDbEntity
  8
Linee visibili 2D
100
AcDbSpline
210
0.0
220
0.0
230
1.0
 70
    24
 71
     2
 72
     6
 73
     3
 74
     0
 42
0.0000000001
 43
0.0000000001
 40
0.0
 40
0.0
 40
0.0
 40
8.520643672324354
 40
8.520643672324354
 40
8.520643672324354
 10
1588.460570938923
 20
692.8006813183267
 30
0.0
 10
1592.720892775085
 20
692.8006813183267
 30
0.0
 10
1596.981214611248
 20
692.8006813183267
 30
0.0
  0
SPLINE
  5
40
330
1F
100
AcDbEntity
  8
Linee visibili 2D
100
AcDbSpline
210
0.0
220
0.0
230
1.0
 70
    24
 71
     2
 72
     6
 73
     3
 74
     0
 42
0.0000000001
 43
0.0000000001
 40
0.0
 40
0.0
 40
0.0
 40
13.50096908993025
 40
13.50096908993025
 40
13.50096908993025
 10
1786.144643292019
 20
834.5925760852669
 30
0.0
 10
1785.967936207032
 20
841.3407474077756
 30
0.0
 10
1785.791229122045
 20
848.0889187302842
 30
0.0
  0
SPLINE
  5
41
330
1F
100
AcDbEntity
  8
Linee visibili 2D
100
AcDbSpline
210
0.0
220
0.0
230
1.0
 70
    24
 71
     2
 72
     6
 73
     3
 74
     0
 42
0.0000000001
 43
0.0000000001
 40
0.0
 40
0.0
 40
0.0
 40
13.50205643306673
 40
13.50205643306673
 40
13.50205643306673
 10
1596.981214611266
 20
685.2524740236921
 30
0.0
 10
1603.731214613502
 20
685.1346523353875
 30
0.0
 10
1610.481214615739
 20
685.016830647083
 30
0.0
  0
SPLINE
  5
42
330
1F
100
AcDbEntity
  8
Linee visibili 2D
100
AcDbSpline
210
0.0
220
0.0
230
1.0
 70
    12
 71
     3
 72
    13
 73
     9
 74
     0
 42
0.0000000001
 43
0.0000000001
 40
0.0
 40
0.0
 40
0.0
 40
0.0
 40
0.0559454045354712
 40
0.0803429864639088
 40
69.27436174996391
 40
69.27436174996391
 40
69.27436174996391
 40
112.2957095205061
 40
112.2957095205061
 40
112.2957095205061
 40
112.2957095205061
 10
1734.294305010707
 20
848.0898262534193
 30
0.0
 41
1.0
 10
1734.263264316642
 20
848.0892017477989
 30
0.0
 41
1.0
 10
1734.402145422561
 20
848.0911420318916
 30
0.0
 41
1.0
 10
1711.329475532315
 20
847.8707879417397
 30
0.0
 41
1.0
 10
1688.243278787371
 20
847.6621199259808
 30
0.0
 41
1.0
 10
1665.183699538534
 20
847.4384264277741
 30
0.0
 41
1.0
 10
1650.843796322052
 20
847.3028871943968
 30
0.0
 41
1.0
 10
1636.503893105571
 20
847.1673479610196
 30
0.0
 41
1.0
 10
1622.16398988909
 20
847.0318087276423
 30
0.0
 41
1.0
  0
SPLINE
  5
43
330
1F
100
AcDbEntity
  8
Linee visibili 2D
100
AcDbSpline
210
0.0
220
0.0
230
1.0
 70
    12
 71
     2
 72
     8
 73
     5
 74
     0
 42
0.0000000001
 43
0.0000000001
 40
0.0
 40
0.0
 40
0.0
 40
2.346190421284063
 40
2.346190421284063
 40
2.478239736092746
 40
2.478239736092746
 40
2.478239736092746
 10
1622.163989888937
 20
847.0318087081176
 30
0.0
 41
1.0
 10
1620.990938536879
 20
847.0216648100949
 30
0.0
 41
1.0
 10
1619.817887184822
 20
847.0115209120722
 30
0.0
 41
1.0
 10
1619.751865455184
 20
847.0108978988502
 30
0.0
 41
1.0
 10
1619.68584373597
 20
847.0102750205485
 30
0.0
 41
1.0
  0
SPLINE
  5
44
330
1F
100
AcDbEntity
  8
Linee visibili 2D
100
AcDbSpline
210
0.0
220
0.0
230
1.0
 70
    24
 71
     2
 72
     6
 73
     3
 74
     0
 42
0.0000000001
 43
0.0000000001
 40
0.0
 40
0.0
 40
0.0
 40
158.0421352293195
 40
158.0421352293195
 40
158.0421352293195
 10
1627.693049422829
 20
846.7092168180858
 30
0.0
 10
1706.711108157368
 20
847.3987969697445
 30
0.0
 10
1785.729166891907
 20
848.0883771214033
 30
0.0
  0
SPLINE
  5
45
330
1F
100
AcDbEntity
  8
Linee visibili 2D
100
AcDbSpline
210
0.0
220
0.0
230
1.0
 70
    28
 71
     2
 72
    10
 73
     7
 74
     0
 42
0.0000000001
 43
0.0000000001
 40
-205.395268747195
 40
-205.395268747195
 40
-205.395268747195
 40
-175.2706293309397
 40
-175.2706293309397
 40
-87.63531466546984
 40
-87.63531466546984
 40
-30.12463941625526
 40
-30.12463941625526
 40
-30.12463941625526
 10
1588.460570938923
 20
692.8059041278154
 30
0.0
 41
0.8678548172931494
 10
1588.460570938924
 20
692.5995795302672
 30
0.0
 41
0.8993179560328757
 10
1588.460570938923
 20
700.0168575461505
 30
0.0
 41
1.0
 10
1588.460570938923
 20
727.4597645152191
 30
0.0
 41
0.7071067811865476
 10
1588.460570938923
 20
776.033962361088
 30
0.0
 41
1.0
 10
1588.460570938923
 20
803.9376829862044
 30
0.0
 41
0.8077888251536718
 10
1588.460570938923
 20
804.3762066562235
 30
0.0
 41
0.8678548172931494
  0
SPLINE
  5
46
330
1F
100
AcDbEntity
  8
Linee visibili 2D
100
AcDbSpline
210
0.0
220
0.0
230
1.0
 70
    12
 71
     2
 72
    10
 73
     7
 74
     0
 42
0.0000000001
 43
0.0000000001
 40
0.0
 40
0.0
 40
0.0
 40
0.0623033329902683
 40
0.0623033329902683
 40
111.3270431737973
 40
111.3270431737973
 40
222.5917830146044
 40
222.5917830146044
 40
222.5917830146044
 10
1786.082370790154
 20
834.5909465889198
 30
0.0
 41
1.0
 10
1786.11352127049
 20
834.5912184350432
 30
0.0
 41
1.0
 10
1786.144671750825
 20
834.5914902811664
 30
0.0
 41
1.0
 10
1786.144671755362
 20
834.5914891147085
 30
0.0
 41
0.7933533402912759
 10
1723.146689435739
 20
834.0417140519205
 30
0.0
 41
1.0
 10
1660.148707116117
 20
833.4919389891327
 30
0.0
 41
0.7933533402912759
 10
1627.538551861371
 20
833.2073544755884
 30
0.0
 41
1.0
  0
SPLINE
  5
47
330
1F
100
AcDbEntity
  8
Linee visibili 2D
100
AcDbSpline
210
0.0
220
0.0
230
1.0
 70
    24
 71
     2
 72
     6
 73
     3
 74
     0
 42
0.0000000001
 43
0.0000000001
 40
0.0
 40
0.0
 40
0.0
 40
111.2664445480272
 40
111.2664445480272
 40
111.2664445480272
 10
1610.481214615739
 20
796.2832751951102
 30
0.0
 10
1610.481214615739
 20
740.6500529210966
 30
0.0
 10
1610.481214615739
 20
685.016830647083
 30
0.0
  0
SPLINE
  5
48
330
1F
100
AcDbEntity
  8
Linee visibili 2D
100
AcDbSpline
210
0.0
220
0.0
230
1.0
 70
    24
 71
     2
 72
     6
 73
     3
 74
     0
 42
0.0000000001
 43
0.0000000001
 40
0.0
 40
0.0
 40
0.0
 40
4.691084983129425
 40
4.691084983129425
 40
4.691084983129425
 10
1627.693049422829
 20
846.7092168180858
 30
0.0
 10
1625.347596242335
 20
846.6887483582718
 30
0.0
 10
1623.002143061841
 20
846.6682798984578
 30
0.0
  0
SPLINE
  5
49
330
1F
100
AcDbEntity
  8
Linee visibili 2D
100
AcDbSpline
210
0.0
220
0.0
230
1.0
 70
    12
 71
     2
 72
     6
 73
     3
 74
     0
 42
0.0000000001
 43
0.0000000001
 40
0.0
 40
0.0
 40
0.0
 40
41.00440854388934
 40
41.00440854388934
 40
41.00440854388934
 10
1623.002143061841
 20
846.6682798984578
 30
0.0
 41
1.0
 10
1596.981029036129
 20
846.4413826587641
 30
0.0
 41
0.71018035496531
 10
1596.981214611239
 20
820.4192794105235
 30
0.0
 41
1.0
  0
SPLINE
  5
4A
330
1F
100
AcDbEntity
  8
Linee visibili 2D
100
AcDbSpline
210
0.0
220
0.0
230
1.0
 70
    24
 71
     2
 72
     6
 73
     3
 74
     0
 42
0.0000000001
 43
0.0000000001
 40
0.0
 40
0.0
 40
0.0
 40
24.45262355154444
 40
24.45262355154444
 40
24.45262355154444
 10
1596.981214611239
 20
820.4192794105235
 30
0.0
 10
1596.981214611243
 20
808.1929676347513
 30
0.0
 10
1596.981214611248
 20
795.9666558589792
 30
0.0
  0
SPLINE
  5
4C
330
1F
100
AcDbEntity
  8
Linee visibili 2D - Tangent
100
AcDbSpline
210
0.0
220
0.0
230
1.0
 70
    12
 71
     2
 72
     6
 73
     3
 74
     0
 42
0.0000000001
 43
0.0000000001
 40
0.0
 40
0.0
 40
0.0
 40
13.50371237843619
 40
13.50371237843619
 40
13.50371237843619
 10
1596.981214611248
 20
795.9666558589887
 30
0.0
 41
1.0
 10
1603.731209079746
 20
796.1252014746947
 30
0.0
 41
0.9999999993890666
 10
1610.481214615739
 20
796.2832751951075
 30
0.0
 41
1.0
  0
SPLINE
  5
4D
330
1F
100
AcDbEntity
  8
Linee visibili 2D
100
AcDbSpline
210
0.0
220
0.0
230
1.0
 70
    24
 71
     2
 72
     6
 73
     3
 74
     0
 42
0.0000000001
 43
0.0000000001
 40
0.0
 40
0.0
 40
0.0
 40
16.95227029268
 40
16.95227029268
 40
16.95227029268
 10
1610.481214615739
 20
813.2355454877902
 30
0.0
 10
1610.481214615739
 20
804.7594103414501
 30
0.0
 10
1610.481214615739
 20
796.2832751951102
 30
0.0
  0
SPLINE
  5
4E
330
1F
100
AcDbEntity
  8
Linee visibili 2D
100
AcDbSpline
210
0.0
220
0.0
230
1.0
 70
    24
 71
     2
 72
     6
 73
     3
 74
     0
 42
0.0000000001
 43
0.0000000001
 40
0.0
 40
0.0
 40
0.0
 40
2.56812025621906
 40
2.56812025621906
 40
2.56812025621906
 10
1610.481214615739
 20
815.8036657440092
 30
0.0
 10
1610.481214615739
 20
814.5196056158997
 30
0.0
 10
1610.481214615739
 20
813.2355454877902
 30
0.0
  0
SPLINE
  5
4F
330
1F
100
AcDbEntity
  8
Linee visibili 2D
100
AcDbSpline
210
0.0
220
0.0
230
1.0
 70
    24
 71
     2
 72
     6
 73
     3
 74
     0
 42
0.0000000001
 43
0.0000000001
 40
0.0
 40
0.0
 40
0.0
 40
3.197202977611709
 40
3.197202977611709
 40
3.197202977611709
 10
1610.481214615739
 20
819.0008687216209
 30
0.0
 10
1610.481214615739
 20
817.4022672328151
 30
0.0
 10
1610.481214615739
 20
815.8036657440092
 30
0.0
  0
SPLINE
  5
50
330
1F
100
AcDbEntity
  8
Linee visibili 2D
100
AcDbSpline
210
0.0
220
0.0
230
1.0
 70
    24
 71
     2
 72
     6
 73
     3
 74
     0
 42
0.0000000001
 43
0.0000000001
 40
0.0
 40
0.0
 40
0.0
 40
1.269210616410134
 40
1.269210616410134
 40
1.269210616410134
 10
1610.481214615739
 20
820.270079338031
 30
0.0
 10
1610.481214615739
 20
819.6354740298261
 30
0.0
 10
1610.481214615739
 20
819.0008687216209
 30
0.0
  0
SPLINE
  5
51
330
1F
100
AcDbEntity
  8
Linee visibili 2D
100
AcDbSpline
210
0.0
220
0.0
230
1.0
 70
    24
 71
     2
 72
     6
 73
     3
 74
     0
 42
0.0000000001
 43
0.0000000001
 40
0.0
 40
0.0
 40
0.0
 40
0.1492155437961742
 40
0.1492155437961742
 40
0.1492155437961742
 10
1610.481214615744
 20
820.4192948818272
 30
0.0
 10
1610.481214615741
 20
820.3446871099293
 30
0.0
 10
1610.481214615739
 20
820.270079338031
 30
0.0
  0
SPLINE
  5
52
330
1F
100
AcDbEntity
  8
Linee visibili 2D
100
AcDbSpline
210
0.0
220
0.0
230
1.0
 70
    12
 71
     2
 72
     6
 73
     3
 74
     0
 42
0.0000000001
 43
0.0000000001
 40
0.0
 40
0.0
 40
0.0
 40
18.35307387187187
 40
18.35307387187187
 40
18.35307387187187
 10
1621.561459568612
 20
833.0594700004267
 30
0.0
 41
1.0
 10
1610.481224780004
 20
831.5957867954434
 30
0.0
 41
0.7519846343460732
 10
1610.481214615744
 20
820.4192948818272
 30
0.0
 41
1.0
  0
SPLINE
  5
53
330
1F
100
AcDbEntity
  8
Linee visibili 2D
100
AcDbSpline
210
0.0
220
0.0
230
1.0
 70
    12
 71
     2
 72
     6
 73
     3
 74
     0
 42
0.0000000001
 43
0.0000000001
 40
0.0
 40
0.0
 40
0.0
 40
1.553817219335813
 40
1.553817219335813
 40
1.553817219335813
 10
1623.110436108284
 20
833.1687091193712
 30
0.0
 41
1.0
 10
1622.332560135932
 20
833.1621261219948
 30
0.0
 41
0.9980820674470496
 10
1621.561459568612
 20
833.0594700004267
 30
0.0
 41
1.0
  0
SPLINE
  5
54
330
1F
100
AcDbEntity
  8
Linee visibili 2D
100
AcDbSpline
210
0.0
220
0.0
230
1.0
 70
    12
 71
     2
 72
     6
 73
     3
 74
     0
 42
0.0000000001
 43
0.0000000001
 40
0.0
 40
0.0
 40
0.0
 40
1.70040986118447
 40
1.70040986118447
 40
1.70040986118447
 10
1624.810781207543
 20
833.1835495832127
 30
0.0
 41
1.0
 10
1623.96060865757
 20
833.1761293874924
 30
0.0
 41
0.9999999999999991
 10
1623.110436108224
 20
833.1687091230623
 30
0.0
 41
1.0
  0
SPLINE
  5
55
330
1F
100
AcDbEntity
  8
Linee visibili 2D
100
AcDbSpline
210
0.0
220
0.0
230
1.0
 70
    24
 71
     2
 72
     6
 73
     3
 74
     0
 42
0.0000000001
 43
0.0000000001
 40
0.0
 40
0.0
 40
0.0
 40
2.727874522934286
 40
2.727874522934286
 40
2.727874522934286
 10
1627.538551861371
 20
833.2073544755884
 30
0.0
 10
1626.174666534456
 20
833.1954520286588
 30
0.0
 10
1624.81078120754
 20
833.1835495817291
 30
0.0
  0
SPLINE
  5
56
330
1F
100
AcDbEntity
  8
Linee visibili 2D - Tangent
100
AcDbSpline
210
0.0
220
0.0
230
1.0
 70
    12
 71
     2
 72
     6
 73
     3
 74
     0
 42
0.0000000001
 43
0.0000000001
 40
0.0
 40
0.0
 40
0.0
 40
13.50274624723387
 40
13.50274624723387
 40
13.50274624723387
 10
1627.693049422782
 20
846.7092168180851
 30
0.0
 41
1.0
 10
1627.615739497209
 20
839.9582863464978
 30
0.0
 41
0.9999999999589832
 10
1627.538551861336
 20
833.2073544755878
 30
0.0
 41
1.0
  0
SPLINE
  5
57
330
1F
100
AcDbEntity
  8
Linee visibili 2D
100
AcDbSpline
210
0.0
220
0.0
230
1.0
 70
    24
 71
     2
 72
     6
 73
     3
 74
     0
 42
0.0000000001
 43
0.0000000001
 40
0.0
 40
0.0
 40
0.0
 40
110.7141818412384
 40
110.7141818412384
 40
110.7141818412384
 10
1596.981214611273
 20
685.2524740177408
 30
0.0
 10
1596.981214611261
 20
740.6095649383601
 30
0.0
 10
1596.981214611248
 20
795.9666558589792
 30
0.0
  0
SPLINE
  5
58
330
1F
100
AcDbEntity
  8
Linee visibili 2D
100
AcDbSpline
210
0.0
220
0.0
230
1.0
 70
    24
 71
     2
 72
     6
 73
     3
 74
     0
 42
0.0000000001
 43
0.0000000001
 40
0.0
 40
0.0
 40
0.0
 40
13.47172256735422
 40
13.47172256735422
 40
13.47172256735422
 10
1466.022832474495
 20
847.3387302615554
 30
0.0
 10
1466.140393939703
 20
840.6038949603146
 30
0.0
 10
1466.257955404911
 20
833.8690596590739
 30
0.0
  0
SPLINE
  5
59
330
1F
100
AcDbEntity
  8
Linee visibili 2D
100
AcDbSpline
210
0.0
220
0.0
230
1.0
 70
    24
 71
     2
 72
     6
 73
     3
 74
     0
 42
0.0000000001
 43
0.0000000001
 40
0.0
 40
0.0
 40
0.0
 40
13.50154215951372
 40
13.50154215951372
 40
13.50154215951372
 10
1296.258292715426
 20
833.849846587339
 30
0.0
 10
1296.376114402363
 20
840.5995894136523
 30
0.0
 10
1296.493936089301
 20
847.3493322399658
 30
0.0
  0
SPLINE
  5
5A
330
1F
100
AcDbEntity
  8
Linee visibili 2D
100
AcDbSpline
210
0.0
220
0.0
230
1.0
 70
    12
 71
     2
 72
    12
 73
     9
 74
     0
 42
0.0000000001
 43
0.0000000001
 40
0.0
 40
0.0
 40
0.0
 40
2.910089861053881
 40
2.910089861053881
 40
84.771725552295
 40
84.771725552295
 40
166.6333612435363
 40
166.6333612435363
 40
169.5166679937222
 40
169.5166679937222
 40
169.5166679937222
 10
1466.013869315749
 20
847.3385738030781
 30
0.0
 41
1.0
 10
1464.576465239034
 20
847.5996746692219
 30
0.0
 41
0.9939727808347434
 10
1463.116708483718
 20
847.5412421665872
 30
0.0
 41
1.0
 10
1422.190261079463
 20
848.2277474721316
 30
0.0
 41
0.9999491758953935
 10
1381.258291749265
 20
848.0889187302821
 30
0.0
 41
1.0
 10
1340.326322419068
 20
848.2277474721303
 30
0.0
 41
0.9999491758953935
 10
1299.399875014813
 20
847.5412421665867
 30
0.0
 41
1.0
 10
1297.956582946157
 20
847.5390460846076
 30
0.0
 41
0.9982960582133884
 10
1296.523375494964
 20
847.3687134099314
 30
0.0
 41
1.0
  0
SPLINE
  5
5B
330
1F
100
AcDbEntity
  8
Linee visibili 2D - Tangent
100
AcDbSpline
210
0.0
220
0.0
230
1.0
 70
    24
 71
     2
 72
     6
 73
     3
 74
     0
 42
0.0000000001
 43
0.0000000001
 40
0.0
 40
0.0
 40
0.0
 40
26.8550007970182
 40
26.8550007970182
 40
26.8550007970182
 10
1367.83079135078
 20
820.4192948818272
 30
0.0
 10
1381.258291749289
 20
820.4192948818272
 30
0.0
 10
1394.685792147798
 20
820.4192948818272
 30
0.0
  0
SPLINE
  5
5C
330
1F
100
AcDbEntity
  8
Linee visibili 2D
100
AcDbSpline
210
0.0
220
0.0
230
1.0
 70
    24
 71
     2
 72
     6
 73
     3
 74
     0
 42
0.0000000001
 43
0.0000000001
 40
0.0
 40
0.0
 40
0.0
 40
69.36016400516621
 40
69.36016400516621
 40
69.36016400516621
 10
1346.578209746706
 20
833.1687091193712
 30
0.0
 10
1381.258291749289
 20
833.1687091193712
 30
0.0
 10
1415.938373751872
 20
833.1687091193712
 30
0.0
  0
SPLINE
  5
5D
330
1F
100
AcDbEntity
  8
Linee visibili 2D
100
AcDbSpline
210
0.0
220
0.0
230
1.0
 70
    12
 71
     2
 72
     6
 73
     3
 74
     0
 42
0.0000000001
 43
0.0000000001
 40
-82.93883842554773
 40
-82.93883842554773
 40
-82.93883842554773
 40
0.0
 40
0.0
 40
0.0
 10
1466.092338511015
 20
833.8034052154315
 30
0.0
 41
0.9215695043314806
 10
1463.244586934237
 20
833.406296997966
 30
0.0
 41
0.8459616771199678
 10
1423.758291759309
 20
833.2073544755884
 30
0.0
 41
1.0
  0
SPLINE
  5
5E
330
1F
100
AcDbEntity
  8
Linee visibili 2D
100
AcDbSpline
210
0.0
220
0.0
230
1.0
 70
    12
 71
     2
 72
    12
 73
     9
 74
     0
 42
0.0000000001
 43
0.0000000001
 40
0.0
 40
0.0
 40
0.0
 40
2.899518306708734
 40
2.899518306708734
 40
85.00644938692134
 40
85.00644938692134
 40
167.1133804671681
 40
167.1133804671681
 40
169.9891288830457
 40
169.9891288830457
 40
169.9891288830457
 10
1296.268312243814
 20
833.8383442578525
 30
0.0
 41
1.0
 10
1297.69999876266
 20
834.1026105157514
 30
0.0
 41
0.9937138726437833
 10
1299.154596495371
 20
834.0417140519205
 30
0.0
 41
1.0
 10
1340.203668436379
 20
834.7311239704678
 30
0.0
 41
0.9999490238115264
 10
1381.25829174924
 20
834.5914891147089
 30
0.0
 41
1.0
 10
1422.312915062118
 20
834.7311239704669
 30
0.0
 41
0.9999490238115265
 10
1463.361987003143
 20
834.0417140519203
 30
0.0
 41
1.0
 10
1464.801546384482
 20
834.0402634431992
 30
0.0
 41
0.9982442385177037
 10
1466.230833006174
 20
833.8685862178101
 30
0.0
 41
1.0
  0
SPLINE
  5
5F
330
1F
100
AcDbEntity
  8
Linee visibili 2D
100
AcDbSpline
210
0.0
220
0.0
230
1.0
 70
    12
 71
     2
 72
     6
 73
     3
 74
     0
 42
0.0000000001
 43
0.0000000001
 40
-445.0589593632282
 40
-445.0589593632282
 40
-445.0589593632282
 40
-361.6104044826229
 40
-361.6104044826229
 40
-361.6104044826229
 10
1338.758291739263
 20
833.2073544755884
 30
0.0
 41
1.0
 10
1298.984817568792
 20
833.4077438826
 30
0.0
 41
0.8450150052184568
 10
1296.39368255613
 20
833.8078843227989
 30
0.0
 41
0.9225075026092286
  0
SPLINE
  5
60
330
1F
100
AcDbEntity
  8
Linee visibili 2D
100
AcDbSpline
210
0.0
220
0.0
230
1.0
 70
     8
 71
     3
 72
    14
 73
    10
 74
     0
 42
0.0000000001
 43
0.0000000001
 40
0.0
 40
0.0
 40
0.0
 40
0.0
 40
3.580410335708012
 40
8.934846978689529
 40
9.652796897628231
 40
11.78512566409779
 40
14.96673826143193
 40
23.92438661903331
 40
29.71341294266622
 40
29.71341294266622
 40
29.71341294266622
 40
29.71341294266622
 10
1338.758291739263
 20
796.2832751951102
 30
0.0
 10
1339.632768825975
 20
797.0978508942778
 30
0.0
 10
1341.919660436863
 20
799.0048758042505
 30
0.0
 10
1344.51956810568
 20
800.9057934421594
 30
0.0
 10
1346.764507283155
 20
802.4663165379127
 30
0.0
 10
1348.46812382222
 20
803.5358720986959
 30
0.0
 10
1352.455977252474
 20
806.1294816712134
 30
0.0
 10
1357.682608208538
 20
809.0429290523777
 30
0.0
 10
1361.658534454662
 20
811.9520460724555
 30
0.0
 10
1363.100771383019
 20
813.2355454877902
 30
0.0
  0
SPLINE
  5
61
330
1F
100
AcDbEntity
  8
Linee visibili 2D
100
AcDbSpline
210
0.0
220
0.0
230
1.0
 70
    12
 71
     2
 72
     6
 73
     3
 74
     0
 42
0.0000000001
 43
0.0000000001
 40
0.0
 40
0.0
 40
0.0
 40
3.567416107864098
 40
3.567416107864098
 40
3.567416107864098
 10
1363.100771383019
 20
813.2355454877902
 30
0.0
 41
1.0
 10
1364.440004900208
 20
814.4195909301801
 30
0.0
 41
0.9967382847120479
 10
1365.571308101357
 20
815.8036657440092
 30
0.0
 41
1.0
  0
SPLINE
  5
62
330
1F
100
AcDbEntity
  8
Linee visibili 2D
100
AcDbSpline
210
0.0
220
0.0
230
1.0
 70
    12
 71
     2
 72
     6
 73
     3
 74
     0
 42
0.0000000001
 43
0.0000000001
 40
0.0
 40
0.0
 40
0.0
 40
3.724413520217727
 40
3.724413520217727
 40
3.724413520217727
 10
1365.571308101357
 20
815.8036657440092
 30
0.0
 41
1.0
 10
1366.774097525721
 20
817.2472591316196
 30
0.0
 41
0.9866429064434958
 10
1367.449018020275
 20
819.0008687216209
 30
0.0
 41
1.0
  0
SPLINE
  5
63
330
1F
100
AcDbEntity
  8
Linee visibili 2D
100
AcDbSpline
210
0.0
220
0.0
230
1.0
 70
    24
 71
     2
 72
     6
 73
     3
 74
     0
 42
0.0000000001
 43
0.0000000001
 40
0.0
 40
0.0
 40
0.0
 40
1.31766466438099
 40
1.31766466438099
 40
1.31766466438099
 10
1367.449018020275
 20
819.0008687216209
 30
0.0
 10
1367.626038201999
 20
819.6354740298261
 30
0.0
 10
1367.803058383723
 20
820.270079338031
 30
0.0
  0
SPLINE
  5
64
330
1F
100
AcDbEntity
  8
Linee visibili 2D
100
AcDbSpline
210
0.0
220
0.0
230
1.0
 70
    24
 71
     2
 72
     6
 73
     3
 74
     0
 42
0.0000000001
 43
0.0000000001
 40
0.0
 40
0.0
 40
0.0
 40
0.1517708666779552
 40
0.1517708666779552
 40
0.1517708666779552
 10
1367.803058383723
 20
820.270079338031
 30
0.0
 10
1367.816924867252
 20
820.3446871099293
 30
0.0
 10
1367.83079135078
 20
820.4192948818272
 30
0.0
  0
SPLINE
  5
65
330
1F
100
AcDbEntity
  8
Linee visibili 2D
100
AcDbSpline
210
0.0
220
0.0
230
1.0
 70
     8
 71
     3
 72
    12
 73
     8
 74
     0
 42
0.0000000001
 43
0.0000000001
 40
0.0
 40
0.0
 40
0.0
 40
0.0
 40
2.514600118659366
 40
5.342341487294132
 40
10.69821406733479
 40
16.43380094584782
 40
25.20343342855482
 40
25.20343342855482
 40
25.20343342855482
 40
25.20343342855482
 10
1367.83079135078
 20
820.4192948818272
 30
0.0
 10
1367.95779320486
 20
821.2512577767352
 30
0.0
 10
1367.965357118676
 20
823.0420630404436
 30
0.0
 10
1367.079737600741
 20
826.5288370851537
 30
0.0
 10
1364.086794797238
 20
830.3352482346426
 30
0.0
 10
1357.639389645705
 20
832.5295396219424
 30
0.0
 10
1352.872340665025
 20
832.8947618967269
 30
0.0
 10
1349.930933562893
 20
833.0594700004267
 30
0.0
  0
SPLINE
  5
66
330
1F
100
AcDbEntity
  8
Linee visibili 2D
100
AcDbSpline
210
0.0
220
0.0
230
1.0
 70
    12
 71
     2
 72
     6
 73
     3
 74
     0
 42
0.0000000001
 43
0.0000000001
 40
0.0
 40
0.0
 40
0.0
 40
3.354860721316564
 40
3.354860721316564
 40
3.354860721316564
 10
1349.930933562893
 20
833.0594700004267
 30
0.0
 41
1.0
 10
1348.255953556179
 20
833.1565023302861
 30
0.0
 41
0.9996800962862099
 10
1346.578209746706
 20
833.1687091193712
 30
0.0
 41
1.0
  0
SPLINE
  5
67
330
1F
100
AcDbEntity
  8
Linee visibili 2D
100
AcDbSpline
210
0.0
220
0.0
230
1.0
 70
    24
 71
     2
 72
     6
 73
     3
 74
     0
 42
0.0000000001
 43
0.0000000001
 40
0.0
 40
0.0
 40
0.0
 40
4.745780102954982
 40
4.745780102954982
 40
4.745780102954982
 10
1343.504012139016
 20
833.1835495817291
 30
0.0
 10
1341.13115193914
 20
833.1954520286588
 30
0.0
 10
1338.758291739263
 20
833.2073544755884
 30
0.0
  0
SPLINE
  5
68
330
1F
100
AcDbEntity
  8
Linee visibili 2D
100
AcDbSpline
210
0.0
220
0.0
230
1.0
 70
    12
 71
     2
 72
    12
 73
     9
 74
     0
 42
0.0000000001
 43
0.0000000001
 40
0.0
 40
0.0
 40
0.0
 40
76.87819680901124
 40
76.87819680901124
 40
153.7563936180225
 40
153.7563936180225
 40
230.6345904270338
 40
230.6345904270338
 40
307.5127872360452
 40
307.5127872360452
 40
307.5127872360452
 10
1423.758291759316
 20
796.2832751951102
 30
0.0
 41
1.0
 10
1456.473376082824
 20
767.0220142202762
 30
0.0
 41
0.823657116090597
 10
1440.811779647169
 20
726.0194224336796
 30
0.0
 41
1.0
 10
1425.150183211513
 20
685.016830647083
 30
0.0
 41
0.8236571160905953
 10
1381.258291749289
 20
685.016830647083
 30
0.0
 41
1.0
 10
1337.366400287065
 20
685.016830647083
 30
0.0
 41
0.8236571160905945
 10
1321.70480385141
 20
726.0194224336796
 30
0.0
 41
1.0
 10
1306.043207415754
 20
767.0220142202763
 30
0.0
 41
0.8236571160905945
 10
1338.758291739263
 20
796.2832751951102
 30
0.0
 41
1.0
  0
SPLINE
  5
69
330
1F
100
AcDbEntity
  8
Linee visibili 2D
100
AcDbSpline
210
0.0
220
0.0
230
1.0
 70
     8
 71
     3
 72
    13
 73
     9
 74
     0
 42
0.0000000001
 43
0.0000000001
 40
0.0
 40
0.0
 40
0.0
 40
0.0
 40
2.78053616327088
 40
5.682488425978812
 40
14.66015234383722
 40
20.84269109660258
 40
26.20034000532899
 40
29.7140568649385
 40
29.7140568649385
 40
29.7140568649385
 40
29.7140568649385
 10
1399.415812115559
 20
813.2355454877902
 30
0.0
 10
1400.109053345461
 20
812.6213082393737
 30
0.0
 10
1401.570027470709
 20
811.4105825600011
 30
0.0
 10
1405.604929554357
 20
808.648987894705
 30
0.0
 10
1410.828267797831
 20
805.6484148716229
 30
0.0
 10
1416.582061663432
 20
801.9477728324531
 30
0.0
 10
1420.630371050722
 20
798.9783528381185
 30
0.0
 10
1422.901270348709
 20
797.0827181998779
 30
0.0
 10
1423.758291759316
 20
796.2832751951102
 30
0.0
  0
SPLINE
  5
6A
330
1F
100
AcDbEntity
  8
Linee visibili 2D
100
AcDbSpline
210
0.0
220
0.0
230
1.0
 70
    12
 71
     2
 72
     6
 73
     3
 74
     0
 42
0.0000000001
 43
0.0000000001
 40
0.0
 40
0.0
 40
0.0
 40
3.567328163026405
 40
3.567328163026405
 40
3.567328163026405
 10
1396.945275397222
 20
815.8036657440092
 30
0.0
 41
1.0
 10
1398.077767953633
 20
814.4207350922725
 30
0.0
 41
0.9968121310720006
 10
1399.415812115559
 20
813.2355454877902
 30
0.0
 41
1.0
  0
SPLINE
  5
6B
330
1F
100
AcDbEntity
  8
Linee visibili 2D
100
AcDbSpline
210
0.0
220
0.0
230
1.0
 70
    12
 71
     2
 72
     6
 73
     3
 74
     0
 42
0.0000000001
 43
0.0000000001
 40
0.0
 40
0.0
 40
0.0
 40
3.724475494658453
 40
3.724475494658453
 40
3.724475494658453
 10
1395.067565478303
 20
819.0008687216209
 30
0.0
 41
1.0
 10
1395.741986309697
 20
817.2469656806002
 30
0.0
 41
0.9865932985093406
 10
1396.945275397222
 20
815.8036657440092
 30
0.0
 41
1.0
  0
SPLINE
  5
6C
330
1F
100
AcDbEntity
  8
Linee visibili 2D
100
AcDbSpline
210
0.0
220
0.0
230
1.0
 70
    12
 71
     2
 72
     6
 73
     3
 74
     0
 42
0.0000000001
 43
0.0000000001
 40
0.0
 40
0.0
 40
0.0
 40
1.319062204275447
 40
1.319062204275447
 40
1.319062204275447
 10
1394.713525114856
 20
820.270079338031
 30
0.0
 41
1.0
 10
1394.839832242746
 20
819.6213278607205
 30
0.0
 41
0.9968221885504046
 10
1395.067565478303
 20
819.0008687216209
 30
0.0
 41
1.0
  0
SPLINE
  5
6D
330
1F
100
AcDbEntity
  8
Linee visibili 2D
100
AcDbSpline
210
0.0
220
0.0
230
1.0
 70
    12
 71
     2
 72
     6
 73
     3
 74
     0
 42
0.0000000001
 43
0.0000000001
 40
0.0
 40
0.0
 40
0.0
 40
0.1517730770383754
 40
0.1517730770383754
 40
0.1517730770383754
 10
1394.685792147798
 20
820.4192948818272
 30
0.0
 41
1.0
 10
1394.69896119033
 20
820.3445574846391
 30
0.0
 41
0.9999563093660896
 10
1394.713525114856
 20
820.270079338031
 30
0.0
 41
1.0
  0
SPLINE
  5
6E
330
1F
100
AcDbEntity
  8
Linee visibili 2D
100
AcDbSpline
210
0.0
220
0.0
230
1.0
 70
     8
 71
     3
 72
    13
 73
     9
 74
     0
 42
0.0000000001
 43
0.0000000001
 40
0.0
 40
0.0
 40
0.0
 40
0.0
 40
5.052038482394429
 40
8.769575591708102
 40
14.50296885712909
 40
19.88152118935498
 40
22.5840793701196
 40
25.20237981343155
 40
25.20237981343155
 40
25.20237981343155
 40
25.20237981343155
 10
1412.585649935686
 20
833.0594700004267
 30
0.0
 10
1410.919264888228
 20
832.9725996409457
 30
0.0
 10
1407.958303690957
 20
832.7544549026093
 30
0.0
 10
1403.250553840245
 20
831.976183051557
 30
0.0
 10
1398.416931621791
 20
830.3278558945738
 30
0.0
 10
1395.460105285207
 20
826.5503524523126
 30
0.0
 10
1394.551667466233
 20
823.0692347697077
 30
0.0
 10
1394.547920017678
 20
821.2853620588028
 30
0.0
 10
1394.685792147798
 20
820.4192948818272
 30
0.0
  0
SPLINE
  5
6F
330
1F
100
AcDbEntity
  8
Linee visibili 2D
100
AcDbSpline
210
0.0
220
0.0
230
1.0
 70
    12
 71
     2
 72
     6
 73
     3
 74
     0
 42
0.0000000001
 43
0.0000000001
 40
0.0
 40
0.0
 40
0.0
 40
3.354860382942926
 40
3.354860382942926
 40
3.354860382942926
 10
1415.938373751872
 20
833.1687091193712
 30
0.0
 41
1.0
 10
1414.260630596308
 20
833.156482260769
 30
0.0
 41
0.9996803988232576
 10
1412.585649935686
 20
833.0594700004267
 30
0.0
 41
1.0
  0
SPLINE
  5
70
330
1F
100
AcDbEntity
  8
Linee visibili 2D
100
AcDbSpline
210
0.0
220
0.0
230
1.0
 70
    12
 71
     2
 72
     6
 73
     3
 74
     0
 42
0.0000000001
 43
0.0000000001
 40
0.0
 40
0.0
 40
0.0
 40
4.745780103149805
 40
4.745780103149805
 40
4.745780103149805
 10
1423.758291759309
 20
833.207354475591
 30
0.0
 41
1.0
 10
1421.385431749347
 20
833.1954141681094
 30
0.0
 41
0.9999999998727084
 10
1419.012571359562
 20
833.1835495817651
 30
0.0
 41
1.0
  0
SPLINE
  5
71
330
1F
100
AcDbEntity
  8
Linee visibili 2D
100
AcDbSpline
210
0.0
220
0.0
230
1.0
 70
    24
 71
     2
 72
     6
 73
     3
 74
     0
 42
0.0000000001
 43
0.0000000001
 40
0.0
 40
0.0
 40
0.0
 40
8.520643672324354
 40
8.520643672324354
 40
8.520643672324354
 10
1437.048665822982
 20
562.8413373070741
 30
0.0
 10
1437.048665822982
 20
558.581015470912
 30
0.0
 10
1437.048665822982
 20
554.3206936347497
 30
0.0
  0
SPLINE
  5
72
330
1F
100
AcDbEntity
  8
Linee visibili 2D
100
AcDbSpline
210
0.0
220
0.0
230
1.0
 70
    24
 71
     2
 72
     6
 73
     3
 74
     0
 42
0.0000000001
 43
0.0000000001
 40
0.0
 40
0.0
 40
0.0
 40
8.520643672324354
 40
8.520643672324354
 40
8.520643672324354
 10
1325.467917675597
 20
554.3206936347497
 30
0.0
 10
1325.467917675597
 20
558.581015470912
 30
0.0
 10
1325.467917675597
 20
562.8413373070741
 30
0.0
  0
SPLINE
  5
73
330
1F
100
AcDbEntity
  8
Linee visibili 2D
100
AcDbSpline
210
0.0
220
0.0
230
1.0
 70
    24
 71
     2
 72
     6
 73
     3
 74
     0
 42
0.0000000001
 43
0.0000000001
 40
0.0
 40
0.0
 40
0.0
 40
0.0091791451691024
 40
0.0091791451691024
 40
0.0091791451691024
 10
1360.262458126882
 20
554.3162929813694
 30
0.0
 10
1360.25786855432
 20
554.3162925269407
 30
0.0
 10
1360.253278981758
 20
554.316292072512
 30
0.0
  0
SPLINE
  5
74
330
1F
100
AcDbEntity
  8
Linee visibili 2D
100
AcDbSpline
210
0.0
220
0.0
230
1.0
 70
    12
 71
     2
 72
     6
 73
     3
 74
     0
 42
0.0000000001
 43
0.0000000001
 40
0.0
 40
0.0
 40
0.0
 40
8.975780133894135
 40
8.975780133894135
 40
8.975780133894135
 10
1382.924089924847
 20
554.325404580777
 30
0.0
 41
1.0
 10
1387.411979555395
 20
554.3234138776285
 30
0.0
 41
0.9999999982918749
 10
1391.899869387987
 20
554.3219477971295
 30
0.0
 41
1.0
  0
SPLINE
  5
75
330
1F
100
AcDbEntity
  8
Linee visibili 2D
100
AcDbSpline
210
0.0
220
0.0
230
1.0
 70
    12
 71
     2
 72
     6
 73
     3
 74
     0
 42
0.0000000001
 43
0.0000000001
 40
0.0
 40
0.0
 40
0.0
 40
12.31021214386293
 40
12.31021214386293
 40
12.31021214386293
 10
1370.61389429089
 20
554.3466608228844
 30
0.0
 41
1.0
 10
1376.768996845182
 20
554.3400800205922
 30
0.0
 41
0.9999999999193212
 10
1382.924099564674
 20
554.3336555907445
 30
0.0
 41
1.0
  0
SPLINE
  5
76
330
1F
100
AcDbEntity
  8
Linee visibili 2D
100
AcDbSpline
210
0.0
220
0.0
230
1.0
 70
    24
 71
     2
 72
     6
 73
     3
 74
     0
 42
0.0000000001
 43
0.0000000001
 40
0.0
 40
0.0
 40
0.0
 40
13.50147506021962
 40
13.50147506021962
 40
13.50147506021962
 10
1317.508301880645
 20
540.8212749145599
 30
0.0
 10
1317.626118495772
 20
547.570984274646
 30
0.0
 10
1317.743935110898
 20
554.3206936347319
 30
0.0
  0
SPLINE
  5
77
330
1F
100
AcDbEntity
  8
Linee visibili 2D
100
AcDbSpline
210
0.0
220
0.0
230
1.0
 70
    24
 71
     2
 72
     6
 73
     3
 74
     0
 42
0.0000000001
 43
0.0000000001
 40
0.0
 40
0.0
 40
0.0
 40
13.50096195551676
 40
13.50096195551676
 40
13.50096195551676
 10
1444.77264838768
 20
554.3206936347319
 30
0.0
 10
1444.890460525351
 20
547.5712407879232
 30
0.0
 10
1445.008272663022
 20
540.8217879411144
 30
0.0
  0
SPLINE
  5
78
330
1F
100
AcDbEntity
  8
Linee visibili 2D - Tangent
100
AcDbSpline
210
0.0
220
0.0
230
1.0
 70
    24
 71
     2
 72
     6
 73
     3
 74
     0
 42
0.0000000001
 43
0.0000000001
 40
0.0
 40
0.0
 40
0.0
 40
2.905270215805046
 40
2.905270215805046
 40
2.905270215805046
 10
1381.258291749289
 20
437.225880781822
 30
0.0
 10
1381.258291749289
 20
435.7732456739195
 30
0.0
 10
1381.258291749289
 20
434.3206105660169
 30
0.0
  0
SPLINE
  5
79
330
1F
100
AcDbEntity
  8
Linee visibili 2D - Tangent
100
AcDbSpline
210
0.0
220
0.0
230
1.0
 70
    24
 71
     2
 72
     6
 73
     3
 74
     0
 42
0.0000000001
 43
0.0000000001
 40
0.0
 40
0.0
 40
0.0
 40
2.954963443054793
 40
2.954963443054793
 40
2.954963443054793
 10
1381.258291749289
 20
466.2242176166484
 30
0.0
 10
1381.258291749289
 20
464.746735895121
 30
0.0
 10
1381.258291749289
 20
463.2692541735937
 30
0.0
  0
SPLINE
  5
7A
330
1F
100
AcDbEntity
  8
Linee visibili 2D
100
AcDbSpline
210
0.0
220
0.0
230
1.0
 70
    15
 71
     2
 72
    12
 73
     9
 74
     0
 42
0.0000000001
 43
0.0000000001
 40
0.0
 40
0.0
 40
0.0
 40
25.06313084256361
 40
25.06313084256361
 40
50.12626168512721
 40
50.12626168512721
 40
75.18939252769081
 40
75.18939252769081
 40
100.2525233702544
 40
100.2525233702544
 40
100.2525233702544
 10
1381.258291749289
 20
434.3206105660169
 30
0.0
 41
1.0
 10
1365.302607097597
 20
434.3206723694891
 30
0.0
 41
0.7071067811865476
 10
1365.302668901069
 20
450.276357021181
 30
0.0
 41
1.0
 10
1365.302730704542
 20
466.2320416728731
 30
0.0
 41
0.7071067811865476
 10
1381.258415356233
 20
466.2319798694011
 30
0.0
 41
1.0
 10
1397.214100007926
 20
466.231918065929
 30
0.0
 41
0.7071067811865476
 10
1397.214038204453
 20
450.2762334142369
 30
0.0
 41
1.0
 10
1397.213976400981
 20
434.3205487625448
 30
0.0
 41
0.7071067811865476
 10
1381.258291749289
 20
434.3206105660169
 30
0.0
 41
1.0
  0
SPLINE
  5
7B
330
1F
100
AcDbEntity
  8
Linee visibili 2D
100
AcDbSpline
210
0.0
220
0.0
230
1.0
 70
    13
 71
     3
 72
    41
 73
    37
 74
     0
 42
0.0000000001
 43
0.0000000001
 40
0.0
 40
0.0
 40
0.0
 40
0.0
 40
3.557374357993751
 40
3.557374357993751
 40
3.557374357993751
 40
12.83011102901813
 40
12.83011102901813
 40
12.83011102901813
 40
16.38748538693137
 40
16.38748538693137
 40
16.38748538693137
 40
59.40883315748489
 40
59.40883315748489
 40
59.40883315748489
 40
62.95954891019226
 40
64.33704540219034
 40
67.48767723221743
 40
70.26737038461146
 40
75.98289167548525
 40
87.40712505038144
 40
110.2573049666765
 40
122.5472197306505
 40
134.8376412141116
 40
159.2880109177576
 40
183.7398730365278
 40
208.313584051766
 40
231.1622438367214
 40
242.9970101951171
 40
248.7147056513407
 40
251.4673603684836
 40
254.6647295315033
 40
256.0698005312133
 40
259.6261975052863
 40
259.6261975052863
 40
259.6261975052863
 40
302.6475452758285
 40
302.6475452758285
 40
302.6475452758285
 40
302.6475452758285
 10
1388.108291749289
 20
529.1379183569076
 30
0.0
 41
1.0
 10
1388.10827071564
 20
530.4530734864273
 30
0.0
 41
0.8179773153729087
 10
1387.205173269737
 20
531.409132071634
 30
0.0
 41
0.8179773153729083
 10
1385.892152076328
 20
531.4840210615066
 30
0.0
 41
1.0
 10
1382.80458458812
 20
531.6601266546146
 30
0.0
 41
0.9989182321731044
 10
1379.711998910378
 20
531.660126654613
 30
0.0
 41
0.9989182321731041
 10
1376.62443142217
 20
531.484021061502
 30
0.0
 41
1.0
 10
1375.311410228801
 20
531.4091320715857
 30
0.0
 41
0.8179773153809852
 10
1374.408312782939
 20
530.4530734863906
 30
0.0
 41
0.8179773153809854
 10
1374.408291749289
 20
529.1379183569075
 30
0.0
 41
1.0
 10
1374.408291749289
 20
514.7980151404225
 30
0.0
 41
1.0
 10
1374.408291749289
 20
500.4581119239373
 30
0.0
 41
1.0
 10
1374.408291749289
 20
486.1182087074523
 30
0.0
 41
1.0
 10
1374.410937524018
 20
484.9393126467722
 30
0.0
 41
1.0
 10
1373.677575613196
 20
483.2848039393921
 30
0.0
 41
1.0
 10
1371.297294827797
 20
481.9412148392208
 30
0.0
 41
1.0
 10
1368.899383285627
 20
481.4225952017449
 30
0.0
 41
1.0
 10
1365.423683681916
 20
479.635889084352
 30
0.0
 41
1.0
 10
1359.704877149526
 20
476.2722120859367
 30
0.0
 41
1.0
 10
1350.346270989992
 20
466.4219946818163
 30
0.0
 41
1.0
 10
1346.252088396141
 20
450.5740863284137
 30
0.0
 41
1.0
 10
1350.736714745576
 20
435.0511876874265
 30
0.0
 41
1.0
 10
1360.726277632476
 20
421.8047145688505
 30
0.0
 41
1.0
 10
1381.012882504187
 20
413.7734242893495
 30
0.0
 41
1.0
 10
1405.553637304462
 20
423.0195155907194
 30
0.0
 41
1.0
 10
1417.279909941664
 20
445.8119624187946
 30
0.0
 41
1.0
 10
1412.375238087693
 20
466.1921575052243
 30
0.0
 41
1.0
 10
1402.945713673459
 20
476.1094221559011
 30
0.0
 41
1.0
 10
1397.173013187021
 20
479.6700990224518
 30
0.0
 41
1.0
 10
1393.650609771546
 20
481.3526098212104
 30
0.0
 41
1.0
 10
1391.264727014536
 20
481.9518298304767
 30
0.0
 41
1.0
 10
1388.841052571033
 20
483.2653569111165
 30
0.0
 41
1.0
 10
1388.105273327771
 20
484.9398355400092
 30
0.0
 41
1.0
 10
1388.108291749289
 20
486.1182087074637
 30
0.0
 41
1.0
 10
1388.108291749289
 20
500.4581119239451
 30
0.0
 41
1.0
 10
1388.108291749289
 20
514.7980151404263
 30
0.0
 41
1.0
 10
1388.108291749289
 20
529.1379183569076
 30
0.0
 41
1.0
  0
SPLINE
  5
7C
330
1F
100
AcDbEntity
  8
Linee visibili 2D
100
AcDbSpline
210
0.0
220
0.0
230
1.0
 70
    13
 71
     2
 72
    20
 73
    17
 74
     0
 42
0.0000000001
 43
0.0000000001
 40
0.0
 40
0.0
 40
0.0
 40
10.22745674038445
 40
10.22745674038445
 40
20.45491348076891
 40
20.45491348076891
 40
30.68237022115337
 40
30.68237022115337
 40
40.90982696153782
 40
40.90982696153782
 40
51.13728370192225
 40
51.13728370192225
 40
61.36474044230668
 40
61.36474044230668
 40
71.59219718269111
 40
71.59219718269111
 40
81.81965392307553
 40
81.81965392307553
 40
81.81965392307553
 10
1381.258291749289
 20
463.2692541735937
 30
0.0
 41
1.0
 10
1386.652196211088
 20
463.269459560858
 30
0.0
 41
0.9238758895469466
 10
1390.466335250536
 20
459.4554657521376
 30
0.0
 41
1.0
 10
1394.280474289984
 20
455.6414719434171
 30
0.0
 41
0.9238758895469466
 10
1394.280474289984
 20
450.2475674777079
 30
0.0
 41
1.0
 10
1394.280474289984
 20
444.8536630119986
 30
0.0
 41
0.9238758895469466
 10
1390.466335250536
 20
441.039669203278
 30
0.0
 41
1.0
 10
1386.652196211088
 20
437.2256753945576
 30
0.0
 41
0.9238758895469466
 10
1381.258291749289
 20
437.225880781822
 30
0.0
 41
1.0
 10
1375.864387287491
 20
437.2256753945577
 30
0.0
 41
0.9238758895469471
 10
1372.050248248043
 20
441.039669203278
 30
0.0
 41
1.0
 10
1368.236109208595
 20
444.8536630119987
 30
0.0
 41
0.9238758895469471
 10
1368.236109208595
 20
450.2475674777079
 30
0.0
 41
1.0
 10
1368.236109208595
 20
455.6414719434171
 30
0.0
 41
0.9238758895469471
 10
1372.050248248043
 20
459.4554657521376
 30
0.0
 41
1.0
 10
1375.864387287491
 20
463.2694595608581
 30
0.0
 41
0.9238758895469471
 10
1381.258291749289
 20
463.2692541735937
 30
0.0
 41
1.0
  0
SPLINE
  5
7D
330
1F
100
AcDbEntity
  8
Linee visibili 2D
100
AcDbSpline
210
0.0
220
0.0
230
1.0
 70
    24
 71
     2
 72
     6
 73
     3
 74
     0
 42
0.0000000001
 43
0.0000000001
 40
0.0
 40
0.0
 40
0.0
 40
46.13994276712538
 40
46.13994276712538
 40
46.13994276712538
 10
1382.229021124152
 20
368.8219577305179
 30
0.0
 10
1382.229021124152
 20
391.8919291140806
 30
0.0
 10
1382.229021124152
 20
414.9619004976432
 30
0.0
  0
SPLINE
  5
7E
330
1F
100
AcDbEntity
  8
Linee visibili 2D
100
AcDbSpline
210
0.0
220
0.0
230
1.0
 70
    12
 71
     2
 72
     6
 73
     3
 74
     0
 42
0.0000000001
 43
0.0000000001
 40
0.0
 40
0.0
 40
0.0
 40
6.34196224085009
 40
6.34196224085009
 40
6.34196224085009
 10
1382.229021124152
 20
414.9619004976432
 30
0.0
 41
1.0
 10
1385.407513204021
 20
415.0476595923418
 30
0.0
 41
0.9959160293290143
 10
1388.518765672101
 20
415.7036127949246
 30
0.0
 41
1.0
  0
SPLINE
  5
7F
330
1F
100
AcDbEntity
  8
Linee visibili 2D
100
AcDbSpline
210
0.0
220
0.0
230
1.0
 70
    24
 71
     2
 72
     6
 73
     3
 74
     0
 42
0.0000000001
 43
0.0000000001
 40
0.0
 40
0.0
 40
0.0
 40
46.56306472784859
 40
46.56306472784859
 40
46.56306472784859
 10
1388.518765672101
 20
415.7036127949246
 30
0.0
 10
1388.518765672101
 20
392.4220804310004
 30
0.0
 10
1388.518765672101
 20
369.1405480670761
 30
0.0
  0
SPLINE
  5
80
330
1F
100
AcDbEntity
  8
Linee visibili 2D
100
AcDbSpline
210
0.0
220
0.0
230
1.0
 70
    12
 71
     2
 72
     6
 73
     3
 74
     0
 42
0.0000000001
 43
0.0000000001
 40
0.0
 40
0.0
 40
0.0
 40
6.299382733881889
 40
6.299382733881889
 40
6.299382733881889
 10
1382.229021124152
 20
368.8219577305178
 30
0.0
 41
1.0
 10
1385.380065867109
 20
368.8593934175974
 30
0.0
 41
0.9992501163038644
 10
1388.518765672101
 20
369.140548067076
 30
0.0
 41
1.0
  0
SPLINE
  5
81
330
1F
100
AcDbEntity
  8
Linee visibili 2D
100
AcDbSpline
210
0.0
220
0.0
230
1.0
 70
    24
 71
     2
 72
     6
 73
     3
 74
     0
 42
0.0000000001
 43
0.0000000001
 40
0.0
 40
0.0
 40
0.0
 40
46.56306472785454
 40
46.56306472785454
 40
46.56306472785454
 10
1373.997817826428
 20
415.703612794935
 30
0.0
 10
1373.997817826428
 20
392.4220804310078
 30
0.0
 10
1373.997817826428
 20
369.1405480670805
 30
0.0
  0
SPLINE
  5
82
330
1F
100
AcDbEntity
  8
Linee visibili 2D
100
AcDbSpline
210
0.0
220
0.0
230
1.0
 70
    12
 71
     2
 72
     6
 73
     3
 74
     0
 42
0.0000000001
 43
0.0000000001
 40
0.0
 40
0.0
 40
0.0
 40
6.341962240851206
 40
6.341962240851206
 40
6.341962240851206
 10
1373.997817826428
 20
415.703612794935
 30
0.0
 41
1.0
 10
1377.109070294508
 20
415.0476595923477
 30
0.0
 41
0.9959160293290127
 10
1380.287562374377
 20
414.9619004976446
 30
0.0
 41
1.0
  0
SPLINE
  5
83
330
1F
100
AcDbEntity
  8
Linee visibili 2D
100
AcDbSpline
210
0.0
220
0.0
230
1.0
 70
    24
 71
     2
 72
     6
 73
     3
 74
     0
 42
0.0000000001
 43
0.0000000001
 40
0.0
 40
0.0
 40
0.0
 40
46.13994276712614
 40
46.13994276712614
 40
46.13994276712614
 10
1380.287562374377
 20
368.8219577305186
 30
0.0
 10
1380.287562374377
 20
391.8919291140816
 30
0.0
 10
1380.287562374377
 20
414.9619004976446
 30
0.0
  0
SPLINE
  5
84
330
1F
100
AcDbEntity
  8
Linee visibili 2D
100
AcDbSpline
210
0.0
220
0.0
230
1.0
 70
    12
 71
     2
 72
     6
 73
     3
 74
     0
 42
0.0000000001
 43
0.0000000001
 40
0.0
 40
0.0
 40
0.0
 40
6.29938273388212
 40
6.29938273388212
 40
6.29938273388212
 10
1373.997817826428
 20
369.1405480670805
 30
0.0
 41
1.0
 10
1377.13651763142
 20
368.8593934176006
 30
0.0
 41
0.9992501163038733
 10
1380.287562374377
 20
368.8219577305186
 30
0.0
 41
1.0
  0
SPLINE
  5
85
330
1F
100
AcDbEntity
  8
Linee visibili 2D
100
AcDbSpline
210
0.0
220
0.0
230
1.0
 70
    24
 71
     2
 72
     6
 73
     3
 74
     0
 42
0.0000000001
 43
0.0000000001
 40
0.0
 40
0.0
 40
0.0
 40
48.14027326928396
 40
48.14027326928396
 40
48.14027326928396
 10
1366.066852439785
 20
418.3862690679346
 30
0.0
 10
1366.066852439785
 20
394.3161324332926
 30
0.0
 10
1366.066852439785
 20
370.2459957986506
 30
0.0
  0
SPLINE
  5
86
330
1F
100
AcDbEntity
  8
Linee visibili 2D
100
AcDbSpline
210
0.0
220
0.0
230
1.0
 70
    12
 71
     2
 72
     6
 73
     3
 74
     0
 42
0.0000000001
 43
0.0000000001
 40
0.0
 40
0.0
 40
0.0
 40
6.706067150528398
 40
6.706067150528398
 40
6.706067150528398
 10
1366.066852439785
 20
418.3862690679346
 30
0.0
 41
1.0
 10
1369.101546722793
 20
416.9362979885452
 30
0.0
 41
0.995427644911243
 10
1372.356596987734
 20
416.0898741614396
 30
0.0
 41
1.0
  0
SPLINE
  5
87
330
1F
100
AcDbEntity
  8
Linee visibili 2D
100
AcDbSpline
210
0.0
220
0.0
230
1.0
 70
    24
 71
     2
 72
     6
 73
     3
 74
     0
 42
0.0000000001
 43
0.0000000001
 40
0.0
 40
0.0
 40
0.0
 40
46.78560908134445
 40
46.78560908134445
 40
46.78560908134445
 10
1372.356596987734
 20
369.3042650800952
 30
0.0
 10
1372.356596987734
 20
392.6970696207675
 30
0.0
 10
1372.356596987734
 20
416.0898741614396
 30
0.0
  0
SPLINE
  5
88
330
1F
100
AcDbEntity
  8
Linee visibili 2D
100
AcDbSpline
210
0.0
220
0.0
230
1.0
 70
    12
 71
     2
 72
     6
 73
     3
 74
     0
 42
0.0000000001
 43
0.0000000001
 40
0.0
 40
0.0
 40
0.0
 40
6.36147580038518
 40
6.36147580038518
 40
6.36147580038518
 10
1366.066852439785
 20
370.2459957986506
 30
0.0
 41
1.0
 10
1369.193298892142
 20
369.6520658426902
 30
0.0
 41
0.999235228280378
 10
1372.356596987734
 20
369.3042650800952
 30
0.0
 41
1.0
  0
SPLINE
  5
89
330
1F
100
AcDbEntity
  8
Linee visibili 2D
100
AcDbSpline
210
0.0
220
0.0
230
1.0
 70
    24
 71
     2
 72
     6
 73
     3
 74
     0
 42
0.0000000001
 43
0.0000000001
 40
0.0
 40
0.0
 40
0.0
 40
62.84393380273201
 40
62.84393380273201
 40
62.84393380273201
 10
1456.367489490919
 20
418.811226379428
 30
0.0
 10
1456.367489490919
 20
450.233193280794
 30
0.0
 10
1456.367489490919
 20
481.6551601821601
 30
0.0
  0
SPLINE
  5
8A
330
1F
100
AcDbEntity
  8
Linee visibili 2D
100
AcDbSpline
210
0.0
220
0.0
230
1.0
 70
    12
 71
     2
 72
     6
 73
     3
 74
     0
 42
0.0000000001
 43
0.0000000001
 40
0.0
 40
0.0
 40
0.0
 40
64.51891421937183
 40
64.51891421937183
 40
64.51891421937183
 10
1456.367489490919
 20
418.811226379428
 30
0.0
 41
1.0
 10
1469.51288322588
 20
450.233193280794
 30
0.0
 41
0.9225244983000994
 10
1456.367489490919
 20
481.6551601821601
 30
0.0
 41
1.0
  0
SPLINE
  5
8B
330
1F
100
AcDbEntity
  8
Linee visibili 2D
100
AcDbSpline
210
0.0
220
0.0
230
1.0
 70
    24
 71
     2
 72
     6
 73
     3
 74
     0
 42
0.0000000001
 43
0.0000000001
 40
0.0
 40
0.0
 40
0.0
 40
46.75123329607839
 40
46.75123329607839
 40
46.75123329607839
 10
1389.928586106648
 20
369.2791471490624
 30
0.0
 10
1389.928586106648
 20
392.6547637971016
 30
0.0
 10
1389.928586106648
 20
416.0303804451408
 30
0.0
  0
SPLINE
  5
8C
330
1F
100
AcDbEntity
  8
Linee visibili 2D
100
AcDbSpline
210
0.0
220
0.0
230
1.0
 70
    12
 71
     2
 72
     6
 73
     3
 74
     0
 42
0.0000000001
 43
0.0000000001
 40
0.0
 40
0.0
 40
0.0
 40
6.689053479525316
 40
6.689053479525316
 40
6.689053479525316
 10
1389.928586106648
 20
416.0303804451408
 30
0.0
 41
1.0
 10
1393.180965462483
 20
416.8526550678218
 30
0.0
 41
0.9954511014738825
 10
1396.218330654597
 20
418.2769161812061
 30
0.0
 41
1.0
  0
SPLINE
  5
8D
330
1F
100
AcDbEntity
  8
Linee visibili 2D
100
AcDbSpline
210
0.0
220
0.0
230
1.0
 70
    24
 71
     2
 72
     6
 73
     3
 74
     0
 42
0.0000000001
 43
0.0000000001
 40
0.0
 40
0.0
 40
0.0
 40
48.07452212979285
 40
48.07452212979285
 40
48.07452212979285
 10
1396.218330654597
 20
418.2769161812061
 30
0.0
 10
1396.218330654597
 20
394.2396551163097
 30
0.0
 10
1396.218330654597
 20
370.2023940514133
 30
0.0
  0
SPLINE
  5
8E
330
1F
100
AcDbEntity
  8
Linee visibili 2D
100
AcDbSpline
210
0.0
220
0.0
230
1.0
 70
    12
 71
     2
 72
     6
 73
     3
 74
     0
 42
0.0000000001
 43
0.0000000001
 40
0.0
 40
0.0
 40
0.0
 40
6.358763028281895
 40
6.358763028281895
 40
6.358763028281895
 10
1389.928586106648
 20
369.2791471490624
 30
0.0
 41
1.0
 10
1393.091514820844
 20
369.6177586560319
 30
0.0
 41
0.9992358817969957
 10
1396.218330654597
 20
370.2023940514133
 30
0.0
 41
1.0
  0
SPLINE
  5
8F
330
1F
100
AcDbEntity
  8
Linee visibili 2D
100
AcDbSpline
210
0.0
220
0.0
230
1.0
 70
    24
 71
     2
 72
     6
 73
     3
 74
     0
 42
0.0000000001
 43
0.0000000001
 40
0.0
 40
0.0
 40
0.0
 40
48.68722831755724
 40
48.68722831755724
 40
48.68722831755724
 10
1398.211067169925
 20
370.6006936661312
 30
0.0
 10
1398.211067169925
 20
394.9443078249099
 30
0.0
 10
1398.211067169925
 20
419.2879219836885
 30
0.0
  0
SPLINE
  5
90
330
1F
100
AcDbEntity
  8
Linee visibili 2D
100
AcDbSpline
210
0.0
220
0.0
230
1.0
 70
    12
 71
     2
 72
     6
 73
     3
 74
     0
 42
0.0000000001
 43
0.0000000001
 40
0.0
 40
0.0
 40
0.0
 40
7.689958272372473
 40
7.689958272372473
 40
7.689958272372473
 10
1398.211067169925
 20
419.2879219836885
 30
0.0
 41
1.0
 10
1401.598610463974
 20
421.1394976693674
 30
0.0
 41
0.9939641811317033
 10
1404.500811717874
 20
423.685280450895
 30
0.0
 41
1.0
  0
SPLINE
  5
91
330
1F
100
AcDbEntity
  8
Linee visibili 2D
100
AcDbSpline
210
0.0
220
0.0
230
1.0
 70
    24
 71
     2
 72
     6
 73
     3
 74
     0
 42
0.0000000001
 43
0.0000000001
 40
0.0
 40
0.0
 40
0.0
 40
51.48103599585235
 40
51.48103599585235
 40
51.48103599585235
 10
1404.500811717874
 20
423.685280450895
 30
0.0
 10
1404.500811717874
 20
397.9447624529689
 30
0.0
 10
1404.500811717874
 20
372.2042444550427
 30
0.0
  0
SPLINE
  5
92
330
1F
100
AcDbEntity
  8
Linee visibili 2D
100
AcDbSpline
210
0.0
220
0.0
230
1.0
 70
    12
 71
     2
 72
     6
 73
     3
 74
     0
 42
0.0000000001
 43
0.0000000001
 40
0.0
 40
0.0
 40
0.0
 40
6.49266123075904
 40
6.49266123075904
 40
6.49266123075904
 10
1398.211067169925
 20
370.6006936661312
 30
0.0
 41
1.0
 10
1401.387963591173
 20
371.276858005973
 30
0.0
 41
0.9992032896610028
 10
1404.500811717874
 20
372.2042444550427
 30
0.0
 41
1.0
  0
SPLINE
  5
93
330
1F
100
AcDbEntity
  8
Linee visibili 2D
100
AcDbSpline
210
0.0
220
0.0
230
1.0
 70
    24
 71
     2
 72
     6
 73
     3
 74
     0
 42
0.0000000001
 43
0.0000000001
 40
0.0
 40
0.0
 40
0.0
 40
52.74597787926552
 40
52.74597787926552
 40
52.74597787926552
 10
1406.493548233201
 20
372.8257426088275
 30
0.0
 10
1406.493548233201
 20
399.1987315484603
 30
0.0
 10
1406.493548233201
 20
425.571720488093
 30
0.0
  0
SPLINE
  5
94
330
1F
100
AcDbEntity
  8
Linee visibili 2D
100
AcDbSpline
210
0.0
220
0.0
230
1.0
 70
    12
 71
     2
 72
     6
 73
     3
 74
     0
 42
0.0000000001
 43
0.0000000001
 40
0.0
 40
0.0
 40
0.0
 40
10.87154898986064
 40
10.87154898986064
 40
10.87154898986064
 10
1406.493548233201
 20
425.571720488093
 30
0.0
 41
1.0
 10
1410.334678388699
 20
429.4811922481168
 30
0.0
 41
0.9877453044295656
 10
1412.783292781151
 20
434.38451131493
 30
0.0
 41
1.0
  0
SPLINE
  5
95
330
1F
100
AcDbEntity
  8
Linee visibili 2D
100
AcDbSpline
210
0.0
220
0.0
230
1.0
 70
    24
 71
     2
 72
     6
 73
     3
 74
     0
 42
0.0000000001
 43
0.0000000001
 40
0.0
 40
0.0
 40
0.0
 40
59.21732831364206
 40
59.21732831364206
 40
59.21732831364206
 10
1412.783292781151
 20
434.38451131493
 30
0.0
 10
1412.783292781151
 20
404.775847158109
 30
0.0
 10
1412.783292781151
 20
375.1671830012881
 30
0.0
  0
SPLINE
  5
96
330
1F
100
AcDbEntity
  8
Linee visibili 2D
100
AcDbSpline
210
0.0
220
0.0
230
1.0
 70
    12
 71
     2
 72
     6
 73
     3
 74
     0
 42
0.0000000001
 43
0.0000000001
 40
0.0
 40
0.0
 40
0.0
 40
6.713331816142653
 40
6.713331816142653
 40
6.713331816142653
 10
1406.493548233201
 20
372.8257426088275
 30
0.0
 41
1.0
 10
1409.686775902504
 20
373.8665670856943
 30
0.0
 41
0.9991480807963062
 10
1412.783292781151
 20
375.1671830012881
 30
0.0
 41
1.0
  0
SPLINE
  5
97
330
1F
100
AcDbEntity
  8
Linee visibili 2D
100
AcDbSpline
210
0.0
220
0.0
230
1.0
 70
    24
 71
     2
 72
     6
 73
     3
 74
     0
 42
0.0000000001
 43
0.0000000001
 40
0.0
 40
0.0
 40
0.0
 40
139.7350824017938
 40
139.7350824017938
 40
139.7350824017938
 10
1423.058510359755
 20
380.3656520798972
 30
0.0
 10
1423.058510359755
 20
450.233193280794
 30
0.0
 10
1423.058510359755
 20
520.1007344816909
 30
0.0
  0
SPLINE
  5
98
330
1F
100
AcDbEntity
  8
Linee visibili 2D
100
AcDbSpline
210
0.0
220
0.0
230
1.0
 70
    12
 71
     2
 72
     6
 73
     3
 74
     0
 42
0.0000000001
 43
0.0000000001
 40
0.0
 40
0.0
 40
0.0
 40
7.5495573444527
 40
7.5495573444527
 40
7.5495573444527
 10
1429.348254907704
 20
515.9301264874821
 30
0.0
 41
1.0
 10
1426.300289762084
 20
518.1615773013262
 30
0.0
 41
0.9989219473507652
 10
1423.058510359755
 20
520.1007344816909
 30
0.0
 41
1.0
  0
SPLINE
  5
99
330
1F
100
AcDbEntity
  8
Linee visibili 2D
100
AcDbSpline
210
0.0
220
0.0
230
1.0
 70
    24
 71
     2
 72
     6
 73
     3
 74
     0
 42
0.0000000001
 43
0.0000000001
 40
0.0
 40
0.0
 40
0.0
 40
131.3938664133763
 40
131.3938664133763
 40
131.3938664133763
 10
1429.348254907704
 20
515.9301264874821
 30
0.0
 10
1429.348254907704
 20
450.233193280794
 30
0.0
 10
1429.348254907704
 20
384.5362600741059
 30
0.0
  0
SPLINE
  5
9A
330
1F
100
AcDbEntity
  8
Linee visibili 2D
100
AcDbSpline
210
0.0
220
0.0
230
1.0
 70
    12
 71
     2
 72
     6
 73
     3
 74
     0
 42
0.0000000001
 43
0.0000000001
 40
0.0
 40
0.0
 40
0.0
 40
7.549557344452688
 40
7.549557344452688
 40
7.549557344452688
 10
1423.058510359755
 20
380.3656520798972
 30
0.0
 41
1.0
 10
1426.300289762084
 20
382.3048092602618
 30
0.0
 41
0.9989219473507649
 10
1429.348254907704
 20
384.5362600741059
 30
0.0
 41
1.0
  0
SPLINE
  5
9B
330
1F
100
AcDbEntity
  8
Linee visibili 2D
100
AcDbSpline
210
0.0
220
0.0
230
1.0
 70
    24
 71
     2
 72
     6
 73
     3
 74
     0
 42
0.0000000001
 43
0.0000000001
 40
0.0
 40
0.0
 40
0.0
 40
128.3815373444554
 40
128.3815373444554
 40
128.3815373444554
 10
1431.340991423032
 20
386.0424246085664
 30
0.0
 10
1431.340991423032
 20
450.233193280794
 30
0.0
 10
1431.340991423032
 20
514.4239619530217
 30
0.0
  0
SPLINE
  5
9C
330
1F
100
AcDbEntity
  8
Linee visibili 2D
100
AcDbSpline
210
0.0
220
0.0
230
1.0
 70
    12
 71
     2
 72
     6
 73
     3
 74
     0
 42
0.0000000001
 43
0.0000000001
 40
0.0
 40
0.0
 40
0.0
 40
8.323865714848041
 40
8.323865714848041
 40
8.323865714848041
 10
1437.630735970981
 20
508.9773770083256
 30
0.0
 41
1.0
 10
1434.625468925138
 20
511.8618863223131
 30
0.0
 41
0.9986886160799047
 10
1431.340991423032
 20
514.4239619530217
 30
0.0
 41
1.0
  0
SPLINE
  5
9D
330
1F
100
AcDbEntity
  8
Linee visibili 2D
100
AcDbSpline
210
0.0
220
0.0
230
1.0
 70
    24
 71
     2
 72
     6
 73
     3
 74
     0
 42
0.0000000001
 43
0.0000000001
 40
0.0
 40
0.0
 40
0.0
 40
117.4883674550631
 40
117.4883674550631
 40
117.4883674550631
 10
1437.630735970981
 20
508.9773770083256
 30
0.0
 10
1437.630735970981
 20
450.233193280794
 30
0.0
 10
1437.630735970981
 20
391.4890095532625
 30
0.0
  0
SPLINE
  5
9E
330
1F
100
AcDbEntity
  8
Linee visibili 2D
100
AcDbSpline
210
0.0
220
0.0
230
1.0
 70
    12
 71
     2
 72
     6
 73
     3
 74
     0
 42
0.0000000001
 43
0.0000000001
 40
0.0
 40
0.0
 40
0.0
 40
8.323865714848047
 40
8.323865714848047
 40
8.323865714848047
 10
1431.340991423032
 20
386.0424246085664
 30
0.0
 41
1.0
 10
1434.625468925138
 20
388.6045002392751
 30
0.0
 41
0.9986886160799052
 10
1437.630735970981
 20
391.4890095532625
 30
0.0
 41
1.0
  0
SPLINE
  5
9F
330
1F
100
AcDbEntity
  8
Linee visibili 2D
100
AcDbSpline
210
0.0
220
0.0
230
1.0
 70
    24
 71
     2
 72
     6
 73
     3
 74
     0
 42
0.0000000001
 43
0.0000000001
 40
0.0
 40
0.0
 40
0.0
 40
113.5295074749608
 40
113.5295074749608
 40
113.5295074749608
 10
1439.623472486309
 20
393.4684395433137
 30
0.0
 10
1439.623472486309
 20
450.233193280794
 30
0.0
 10
1439.623472486309
 20
506.9979470182744
 30
0.0
  0
SPLINE
  5
A0
330
1F
100
AcDbEntity
  8
Linee visibili 2D
100
AcDbSpline
210
0.0
220
0.0
230
1.0
 70
    12
 71
     2
 72
     6
 73
     3
 74
     0
 42
0.0000000001
 43
0.0000000001
 40
0.0
 40
0.0
 40
0.0
 40
9.628466975830173
 40
9.628466975830173
 40
9.628466975830173
 10
1445.913217034258
 20
499.7152327065983
 30
0.0
 41
1.0
 10
1442.98447564033
 20
503.5432521378234
 30
0.0
 41
0.9982431631155197
 10
1439.623472486309
 20
506.9979470182744
 30
0.0
 41
1.0
  0
SPLINE
  5
A1
330
1F
100
AcDbEntity
  8
Linee visibili 2D
100
AcDbSpline
210
0.0
220
0.0
230
1.0
 70
    24
 71
     2
 72
     6
 73
     3
 74
     0
 42
0.0000000001
 43
0.0000000001
 40
0.0
 40
0.0
 40
0.0
 40
98.96407885160863
 40
98.96407885160863
 40
98.96407885160863
 10
1445.913217034258
 20
499.7152327065983
 30
0.0
 10
1445.913217034258
 20
450.233193280794
 30
0.0
 10
1445.913217034258
 20
400.7511538549897
 30
0.0
  0
SPLINE
  5
A2
330
1F
100
AcDbEntity
  8
Linee visibili 2D
100
AcDbSpline
210
0.0
220
0.0
230
1.0
 70
    12
 71
     2
 72
     6
 73
     3
 74
     0
 42
0.0000000001
 43
0.0000000001
 40
0.0
 40
0.0
 40
0.0
 40
9.628466975830122
 40
9.628466975830122
 40
9.628466975830122
 10
1439.623472486309
 20
393.4684395433137
 30
0.0
 41
1.0
 10
1442.984475640329
 20
396.9231344237648
 30
0.0
 41
0.9982431631155218
 10
1445.913217034258
 20
400.7511538549897
 30
0.0
 41
1.0
  0
SPLINE
  5
A3
330
1F
100
AcDbEntity
  8
Linee visibili 2D
100
AcDbSpline
210
0.0
220
0.0
230
1.0
 70
    24
 71
     2
 72
     6
 73
     3
 74
     0
 42
0.0000000001
 43
0.0000000001
 40
0.0
 40
0.0
 40
0.0
 40
93.52691090579345
 40
93.52691090579345
 40
93.52691090579345
 10
1447.905953549586
 20
403.4697378278973
 30
0.0
 10
1447.905953549586
 20
450.233193280794
 30
0.0
 10
1447.905953549586
 20
496.9966487336908
 30
0.0
  0
SPLINE
  5
A4
330
1F
100
AcDbEntity
  8
Linee visibili 2D
100
AcDbSpline
210
0.0
220
0.0
230
1.0
 70
    12
 71
     2
 72
     6
 73
     3
 74
     0
 42
0.0000000001
 43
0.0000000001
 40
0.0
 40
0.0
 40
0.0
 40
12.32475629332887
 40
12.32475629332887
 40
12.32475629332887
 10
1454.195698097535
 20
486.4114511787724
 30
0.0
 41
1.0
 10
1451.45390306797
 20
491.9435592225701
 30
0.0
 41
0.9971124840058829
 10
1447.905953549586
 20
496.9966487336908
 30
0.0
 41
1.0
  0
SPLINE
  5
A5
330
1F
100
AcDbEntity
  8
Linee visibili 2D
100
AcDbSpline
210
0.0
220
0.0
230
1.0
 70
    24
 71
     2
 72
     6
 73
     3
 74
     0
 42
0.0000000001
 43
0.0000000001
 40
0.0
 40
0.0
 40
0.0
 40
72.35651579595671
 40
72.35651579595671
 40
72.35651579595671
 10
1454.195698097535
 20
486.4114511787724
 30
0.0
 10
1454.195698097535
 20
450.233193280794
 30
0.0
 10
1454.195698097535
 20
414.0549353828157
 30
0.0
  0
SPLINE
  5
A6
330
1F
100
AcDbEntity
  8
Linee visibili 2D
100
AcDbSpline
210
0.0
220
0.0
230
1.0
 70
    12
 71
     2
 72
     6
 73
     3
 74
     0
 42
0.0000000001
 43
0.0000000001
 40
0.0
 40
0.0
 40
0.0
 40
12.32475629332894
 40
12.32475629332894
 40
12.32475629332894
 10
1447.905953549586
 20
403.4697378278973
 30
0.0
 41
1.0
 10
1451.45390306797
 20
408.5228273390179
 30
0.0
 41
0.9971124840058832
 10
1454.195698097535
 20
414.0549353828157
 30
0.0
 41
1.0
  0
SPLINE
  5
A7
330
1F
100
AcDbEntity
  8
Linee visibili 2D
100
AcDbSpline
210
0.0
220
0.0
230
1.0
 70
    12
 71
     2
 72
     6
 73
     3
 74
     0
 42
0.0000000001
 43
0.0000000001
 40
0.0
 40
0.0
 40
0.0
 40
33.41919222730967
 40
33.41919222730967
 40
33.41919222730967
 10
1306.14909400761
 20
481.6551601820417
 30
0.0
 41
1.0
 10
1299.608120531146
 20
466.0200051783741
 30
0.0
 41
0.9790131933308114
 10
1299.849528740292
 20
449.0734973350136
 30
0.0
 41
1.0
  0
SPLINE
  5
A8
330
1F
100
AcDbEntity
  8
Linee visibili 2D
100
AcDbSpline
210
0.0
220
0.0
230
1.0
 70
    24
 71
     2
 72
     6
 73
     3
 74
     0
 42
0.0000000001
 43
0.0000000001
 40
0.0
 40
0.0
 40
0.0
 40
62.84393380249522
 40
62.84393380249522
 40
62.84393380249522
 10
1306.14909400761
 20
418.8112263795464
 30
0.0
 10
1306.14909400761
 20
450.233193280794
 30
0.0
 10
1306.14909400761
 20
481.6551601820417
 30
0.0
  0
SPLINE
  5
A9
330
1F
100
AcDbEntity
  8
Linee visibili 2D
100
AcDbSpline
210
0.0
220
0.0
230
1.0
 70
    12
 71
     2
 72
     6
 73
     3
 74
     0
 42
0.0000000001
 43
0.0000000001
 40
0.0
 40
0.0
 40
0.0
 40
31.09972195841474
 40
31.09972195841474
 40
31.09972195841474
 10
1299.849528740292
 20
449.0734973350136
 30
0.0
 41
1.0
 10
1300.073752641147
 20
433.3333610255913
 30
0.0
 41
0.9818167307520441
 10
1306.14909400761
 20
418.8112263795464
 30
0.0
 41
1.0
  0
SPLINE
  5
AA
330
1F
100
AcDbEntity
  8
Linee visibili 2D
100
AcDbSpline
210
0.0
220
0.0
230
1.0
 70
    24
 71
     2
 72
     6
 73
     3
 74
     0
 42
0.0000000001
 43
0.0000000001
 40
0.0
 40
0.0
 40
0.0
 40
51.481035995881
 40
51.481035995881
 40
51.481035995881
 10
1358.015771780655
 20
423.6852804509385
 30
0.0
 10
1358.015771780655
 20
397.944762452998
 30
0.0
 10
1358.015771780655
 20
372.2042444550575
 30
0.0
  0
SPLINE
  5
AB
330
1F
100
AcDbEntity
  8
Linee visibili 2D
100
AcDbSpline
210
0.0
220
0.0
230
1.0
 70
    12
 71
     2
 72
     6
 73
     3
 74
     0
 42
0.0000000001
 43
0.0000000001
 40
0.0
 40
0.0
 40
0.0
 40
7.689958272381803
 40
7.689958272381803
 40
7.689958272381803
 10
1358.015771780655
 20
423.6852804509385
 30
0.0
 41
1.0
 10
1360.917973034554
 20
421.1394976694022
 30
0.0
 41
0.9939641811316876
 10
1364.305516328604
 20
419.2879219837156
 30
0.0
 41
1.0
  0
SPLINE
  5
AC
330
1F
100
AcDbEntity
  8
Linee visibili 2D
100
AcDbSpline
210
0.0
220
0.0
230
1.0
 70
    24
 71
     2
 72
     6
 73
     3
 74
     0
 42
0.0000000001
 43
0.0000000001
 40
0.0
 40
0.0
 40
0.0
 40
48.68722831757378
 40
48.68722831757378
 40
48.68722831757378
 10
1364.305516328604
 20
370.6006936661418
 30
0.0
 10
1364.305516328604
 20
394.9443078249288
 30
0.0
 10
1364.305516328604
 20
419.2879219837156
 30
0.0
  0
SPLINE
  5
AD
330
1F
100
AcDbEntity
  8
Linee visibili 2D
100
AcDbSpline
210
0.0
220
0.0
230
1.0
 70
    12
 71
     2
 72
     6
 73
     3
 74
     0
 42
0.0000000001
 43
0.0000000001
 40
0.0
 40
0.0
 40
0.0
 40
6.49266123076001
 40
6.49266123076001
 40
6.49266123076001
 10
1358.015771780655
 20
372.2042444550575
 30
0.0
 41
1.0
 10
1361.128619907356
 20
371.2768580059857
 30
0.0
 41
0.9992032896610027
 10
1364.305516328604
 20
370.6006936661418
 30
0.0
 41
1.0
  0
SPLINE
  5
AE
330
1F
100
AcDbEntity
  8
Linee visibili 2D
100
AcDbSpline
210
0.0
220
0.0
230
1.0
 70
    24
 71
     2
 72
     6
 73
     3
 74
     0
 42
0.0000000001
 43
0.0000000001
 40
0.0
 40
0.0
 40
0.0
 40
59.21732831371977
 40
59.21732831371977
 40
59.21732831371977
 10
1349.733290717378
 20
434.3845113150286
 30
0.0
 10
1349.733290717378
 20
404.7758471581686
 30
0.0
 10
1349.733290717378
 20
375.1671830013088
 30
0.0
  0
SPLINE
  5
AF
330
1F
100
AcDbEntity
  8
Linee visibili 2D
100
AcDbSpline
210
0.0
220
0.0
230
1.0
 70
    12
 71
     2
 72
     6
 73
     3
 74
     0
 42
0.0000000001
 43
0.0000000001
 40
0.0
 40
0.0
 40
0.0
 40
10.87154898990009
 40
10.87154898990009
 40
10.87154898990009
 10
1349.733290717378
 20
434.3845113150286
 30
0.0
 41
1.0
 10
1352.181905109824
 20
429.4811922481896
 30
0.0
 41
0.9877453044294762
 10
1356.023035265328
 20
425.5717204881436
 30
0.0
 41
1.0
  0
SPLINE
  5
B0
330
1F
100
AcDbEntity
  8
Linee visibili 2D
100
AcDbSpline
210
0.0
220
0.0
230
1.0
 70
    24
 71
     2
 72
     6
 73
     3
 74
     0
 42
0.0000000001
 43
0.0000000001
 40
0.0
 40
0.0
 40
0.0
 40
52.74597787930003
 40
52.74597787930003
 40
52.74597787930003
 10
1356.023035265328
 20
372.8257426088437
 30
0.0
 10
1356.023035265328
 20
399.1987315484937
 30
0.0
 10
1356.023035265328
 20
425.5717204881436
 30
0.0
  0
SPLINE
  5
B1
330
1F
100
AcDbEntity
  8
Linee visibili 2D
100
AcDbSpline
210
0.0
220
0.0
230
1.0
 70
    12
 71
     2
 72
     6
 73
     3
 74
     0
 42
0.0000000001
 43
0.0000000001
 40
0.0
 40
0.0
 40
0.0
 40
6.713331816144322
 40
6.713331816144322
 40
6.713331816144322
 10
1349.733290717378
 20
375.1671830013088
 30
0.0
 41
1.0
 10
1352.829807596025
 20
373.8665670857127
 30
0.0
 41
0.9991480807963066
 10
1356.023035265328
 20
372.8257426088436
 30
0.0
 41
1.0
  0
SPLINE
  5
B2
330
1F
100
AcDbEntity
  8
Linee visibili 2D
100
AcDbSpline
210
0.0
220
0.0
230
1.0
 70
    12
 71
     2
 72
     6
 73
     3
 74
     0
 42
0.0000000001
 43
0.0000000001
 40
0.0
 40
0.0
 40
0.0
 40
7.549557344456324
 40
7.549557344456324
 40
7.549557344456324
 10
1333.168328590825
 20
384.5362600741422
 30
0.0
 41
1.0
 10
1336.216293736445
 20
382.3048092602947
 30
0.0
 41
0.9989219473507647
 10
1339.458073138774
 20
380.3656520799267
 30
0.0
 41
1.0
  0
SPLINE
  5
B3
330
1F
100
AcDbEntity
  8
Linee visibili 2D
100
AcDbSpline
210
0.0
220
0.0
230
1.0
 70
    24
 71
     2
 72
     6
 73
     3
 74
     0
 42
0.0000000001
 43
0.0000000001
 40
0.0
 40
0.0
 40
0.0
 40
131.3938664133037
 40
131.3938664133037
 40
131.3938664133037
 10
1333.168328590825
 20
515.9301264874459
 30
0.0
 10
1333.168328590825
 20
450.233193280794
 30
0.0
 10
1333.168328590825
 20
384.5362600741422
 30
0.0
  0
SPLINE
  5
B4
330
1F
100
AcDbEntity
  8
Linee visibili 2D
100
AcDbSpline
210
0.0
220
0.0
230
1.0
 70
    12
 71
     2
 72
     6
 73
     3
 74
     0
 42
0.0000000001
 43
0.0000000001
 40
0.0
 40
0.0
 40
0.0
 40
7.549557344456385
 40
7.549557344456385
 40
7.549557344456385
 10
1339.458073138774
 20
520.1007344816614
 30
0.0
 41
1.0
 10
1336.216293736445
 20
518.1615773012935
 30
0.0
 41
0.9989219473507649
 10
1333.168328590825
 20
515.9301264874459
 30
0.0
 41
1.0
  0
SPLINE
  5
B5
330
1F
100
AcDbEntity
  8
Linee visibili 2D
100
AcDbSpline
210
0.0
220
0.0
230
1.0
 70
    24
 71
     2
 72
     6
 73
     3
 74
     0
 42
0.0000000001
 43
0.0000000001
 40
0.0
 40
0.0
 40
0.0
 40
139.7350824017346
 40
139.7350824017346
 40
139.7350824017346
 10
1339.458073138774
 20
380.3656520799268
 30
0.0
 10
1339.458073138774
 20
450.233193280794
 30
0.0
 10
1339.458073138774
 20
520.1007344816613
 30
0.0
  0
SPLINE
  5
B6
330
1F
100
AcDbEntity
  8
Linee visibili 2D
100
AcDbSpline
210
0.0
220
0.0
230
1.0
 70
    12
 71
     2
 72
     6
 73
     3
 74
     0
 42
0.0000000001
 43
0.0000000001
 40
0.0
 40
0.0
 40
0.0
 40
8.323865714853877
 40
8.323865714853877
 40
8.323865714853877
 10
1324.885847527548
 20
391.4890095533101
 30
0.0
 41
1.0
 10
1327.891114573391
 20
388.604500239318
 30
0.0
 41
0.9986886160799027
 10
1331.175592075497
 20
386.042424608605
 30
0.0
 41
1.0
  0
SPLINE
  5
B7
330
1F
100
AcDbEntity
  8
Linee visibili 2D
100
AcDbSpline
210
0.0
220
0.0
230
1.0
 70
    24
 71
     2
 72
     6
 73
     3
 74
     0
 42
0.0000000001
 43
0.0000000001
 40
0.0
 40
0.0
 40
0.0
 40
117.488367454968
 40
117.488367454968
 40
117.488367454968
 10
1324.885847527548
 20
508.977377008278
 30
0.0
 10
1324.885847527548
 20
450.233193280794
 30
0.0
 10
1324.885847527548
 20
391.4890095533101
 30
0.0
  0
SPLINE
  5
B8
330
1F
100
AcDbEntity
  8
Linee visibili 2D
100
AcDbSpline
210
0.0
220
0.0
230
1.0
 70
    12
 71
     2
 72
     6
 73
     3
 74
     0
 42
0.0000000001
 43
0.0000000001
 40
0.0
 40
0.0
 40
0.0
 40
8.323865714853843
 40
8.323865714853843
 40
8.323865714853843
 10
1331.175592075497
 20
514.4239619529831
 30
0.0
 41
1.0
 10
1327.891114573391
 20
511.86188632227
 30
0.0
 41
0.9986886160799036
 10
1324.885847527548
 20
508.977377008278
 30
0.0
 41
1.0
  0
SPLINE
  5
B9
330
1F
100
AcDbEntity
  8
Linee visibili 2D
100
AcDbSpline
210
0.0
220
0.0
230
1.0
 70
    24
 71
     2
 72
     6
 73
     3
 74
     0
 42
0.0000000001
 43
0.0000000001
 40
0.0
 40
0.0
 40
0.0
 40
128.3815373443781
 40
128.3815373443781
 40
128.3815373443781
 10
1331.175592075497
 20
386.042424608605
 30
0.0
 10
1331.175592075497
 20
450.233193280794
 30
0.0
 10
1331.175592075497
 20
514.4239619529831
 30
0.0
  0
SPLINE
  5
BA
330
1F
100
AcDbEntity
  8
Linee visibili 2D
100
AcDbSpline
210
0.0
220
0.0
230
1.0
 70
    12
 71
     2
 72
     6
 73
     3
 74
     0
 42
0.0000000001
 43
0.0000000001
 40
0.0
 40
0.0
 40
0.0
 40
9.628466975840623
 40
9.628466975840623
 40
9.628466975840623
 10
1316.603366464271
 20
400.7511538550544
 30
0.0
 41
1.0
 10
1319.532107858199
 20
396.9231344238226
 30
0.0
 41
0.9982431631155195
 10
1322.89311101222
 20
393.4684395433647
 30
0.0
 41
1.0
  0
SPLINE
  5
BB
330
1F
100
AcDbEntity
  8
Linee visibili 2D
100
AcDbSpline
210
0.0
220
0.0
230
1.0
 70
    24
 71
     2
 72
     6
 73
     3
 74
     0
 42
0.0000000001
 43
0.0000000001
 40
0.0
 40
0.0
 40
0.0
 40
98.96407885147917
 40
98.96407885147917
 40
98.96407885147917
 10
1316.603366464271
 20
499.7152327065336
 30
0.0
 10
1316.603366464271
 20
450.233193280794
 30
0.0
 10
1316.603366464271
 20
400.7511538550544
 30
0.0
  0
SPLINE
  5
BC
330
1F
100
AcDbEntity
  8
Linee visibili 2D
100
AcDbSpline
210
0.0
220
0.0
230
1.0
 70
    12
 71
     2
 72
     6
 73
     3
 74
     0
 42
0.0000000001
 43
0.0000000001
 40
0.0
 40
0.0
 40
0.0
 40
9.628466975840657
 40
9.628466975840657
 40
9.628466975840657
 10
1322.89311101222
 20
506.9979470182235
 30
0.0
 41
1.0
 10
1319.532107858199
 20
503.5432521377658
 30
0.0
 41
0.9982431631155165
 10
1316.603366464271
 20
499.7152327065336
 30
0.0
 41
1.0
  0
SPLINE
  5
BD
330
1F
100
AcDbEntity
  8
Linee visibili 2D
100
AcDbSpline
210
0.0
220
0.0
230
1.0
 70
    24
 71
     2
 72
     6
 73
     3
 74
     0
 42
0.0000000001
 43
0.0000000001
 40
0.0
 40
0.0
 40
0.0
 40
113.5295074748589
 40
113.5295074748589
 40
113.5295074748589
 10
1322.89311101222
 20
393.4684395433647
 30
0.0
 10
1322.89311101222
 20
450.233193280794
 30
0.0
 10
1322.89311101222
 20
506.9979470182235
 30
0.0
  0
SPLINE
  5
BE
330
1F
100
AcDbEntity
  8
Linee visibili 2D
100
AcDbSpline
210
0.0
220
0.0
230
1.0
 70
    12
 71
     2
 72
     6
 73
     3
 74
     0
 42
0.0000000001
 43
0.0000000001
 40
0.0
 40
0.0
 40
0.0
 40
12.32475629335417
 40
12.32475629335417
 40
12.32475629335417
 10
1308.320885400994
 20
414.0549353829156
 30
0.0
 41
1.0
 10
1311.062680430557
 20
408.5228273391026
 30
0.0
 41
0.9971124840058704
 10
1314.610629948943
 20
403.4697378279679
 30
0.0
 41
1.0
  0
SPLINE
  5
BF
330
1F
100
AcDbEntity
  8
Linee visibili 2D
100
AcDbSpline
210
0.0
220
0.0
230
1.0
 70
    24
 71
     2
 72
     6
 73
     3
 74
     0
 42
0.0000000001
 43
0.0000000001
 40
0.0
 40
0.0
 40
0.0
 40
72.35651579575705
 40
72.35651579575705
 40
72.35651579575705
 10
1308.320885400994
 20
486.4114511786725
 30
0.0
 10
1308.320885400994
 20
450.233193280794
 30
0.0
 10
1308.320885400994
 20
414.0549353829156
 30
0.0
  0
SPLINE
  5
C0
330
1F
100
AcDbEntity
  8
Linee visibili 2D
100
AcDbSpline
210
0.0
220
0.0
230
1.0
 70
    12
 71
     2
 72
     6
 73
     3
 74
     0
 42
0.0000000001
 43
0.0000000001
 40
0.0
 40
0.0
 40
0.0
 40
12.32475629335407
 40
12.32475629335407
 40
12.32475629335407
 10
1314.610629948943
 20
496.9966487336201
 30
0.0
 41
1.0
 10
1311.062680430557
 20
491.9435592224854
 30
0.0
 41
0.9971124840058733
 10
1308.320885400994
 20
486.4114511786725
 30
0.0
 41
1.0
  0
SPLINE
  5
C1
330
1F
100
AcDbEntity
  8
Linee visibili 2D
100
AcDbSpline
210
0.0
220
0.0
230
1.0
 70
    24
 71
     2
 72
     6
 73
     3
 74
     0
 42
0.0000000001
 43
0.0000000001
 40
0.0
 40
0.0
 40
0.0
 40
93.52691090565224
 40
93.52691090565224
 40
93.52691090565224
 10
1314.610629948943
 20
403.4697378279679
 30
0.0
 10
1314.610629948943
 20
450.233193280794
 30
0.0
 10
1314.610629948943
 20
496.9966487336201
 30
0.0
  0
SPLINE
  5
C2
330
1F
100
AcDbEntity
  8
Linee visibili 2D
100
AcDbSpline
210
0.0
220
0.0
230
1.0
 70
    24
 71
     2
 72
     6
 73
     3
 74
     0
 42
0.0000000001
 43
0.0000000001
 40
0.0
 40
0.0
 40
0.0
 40
38.84608505651099
 40
38.84608505651099
 40
38.84608505651099
 10
1373.997817826428
 20
523.6088588231641
 30
0.0
 10
1373.997817826428
 20
504.1858162949086
 30
0.0
 10
1373.997817826428
 20
484.7627737666531
 30
0.0
  0
SPLINE
  5
C3
330
1F
100
AcDbEntity
  8
Linee visibili 2D - Tangent
100
AcDbSpline
210
0.0
220
0.0
230
1.0
 70
    24
 71
     2
 72
     6
 73
     3
 74
     0
 42
0.0000000001
 43
0.0000000001
 40
0.0
 40
0.0
 40
0.0
 40
1.641220838693641
 40
1.641220838693641
 40
1.641220838693641
 10
1372.356596987734
 20
523.6088588231639
 30
0.0
 10
1373.177207407081
 20
523.608858823164
 30
0.0
 10
1373.997817826428
 20
523.6088588231641
 30
0.0
  0
SPLINE
  5
C4
330
1F
100
AcDbEntity
  8
Linee visibili 2D
100
AcDbSpline
210
0.0
220
0.0
230
1.0
 70
    24
 71
     2
 72
     6
 73
     3
 74
     0
 42
0.0000000001
 43
0.0000000001
 40
0.0
 40
0.0
 40
0.0
 40
39.23234642301546
 40
39.23234642301546
 40
39.23234642301546
 10
1372.356596987734
 20
484.3765124001484
 30
0.0
 10
1372.356596987734
 20
503.9926856116561
 30
0.0
 10
1372.356596987734
 20
523.6088588231639
 30
0.0
  0
SPLINE
  5
C5
330
1F
100
AcDbEntity
  8
Linee visibili 2D
100
AcDbSpline
210
0.0
220
0.0
230
1.0
 70
    12
 71
     2
 72
     6
 73
     3
 74
     0
 42
0.0000000001
 43
0.0000000001
 40
0.0
 40
0.0
 40
0.0
 40
6.706067150528406
 40
6.706067150528406
 40
6.706067150528406
 10
1372.356596987734
 20
484.3765124001484
 30
0.0
 41
1.0
 10
1369.101546722793
 20
483.5300885730428
 30
0.0
 41
0.9954276449112448
 10
1366.066852439785
 20
482.0801174936535
 30
0.0
 41
1.0
  0
SPLINE
  5
C6
330
1F
100
AcDbEntity
  8
Linee visibili 2D
100
AcDbSpline
210
0.0
220
0.0
230
1.0
 70
    24
 71
     2
 72
     6
 73
     3
 74
     0
 42
0.0000000001
 43
0.0000000001
 40
0.0
 40
0.0
 40
0.0
 40
41.52874132950978
 40
41.52874132950978
 40
41.52874132950978
 10
1366.066852439785
 20
523.6088588231633
 30
0.0
 10
1366.066852439785
 20
502.8444881584085
 30
0.0
 10
1366.066852439785
 20
482.0801174936535
 30
0.0
  0
SPLINE
  5
C7
330
1F
100
AcDbEntity
  8
Linee visibili 2D - Tangent
100
AcDbSpline
210
0.0
220
0.0
230
1.0
 70
    24
 71
     2
 72
     6
 73
     3
 74
     0
 42
0.0000000001
 43
0.0000000001
 40
0.0
 40
0.0
 40
0.0
 40
1.761336111180639
 40
1.761336111180639
 40
1.761336111180639
 10
1364.305516328604
 20
523.6088588231632
 30
0.0
 10
1365.186184384195
 20
523.6088588231632
 30
0.0
 10
1366.066852439785
 20
523.6088588231633
 30
0.0
  0
SPLINE
  5
C8
330
1F
100
AcDbEntity
  8
Linee visibili 2D
100
AcDbSpline
210
0.0
220
0.0
230
1.0
 70
    24
 71
     2
 72
     6
 73
     3
 74
     0
 42
0.0000000001
 43
0.0000000001
 40
0.0
 40
0.0
 40
0.0
 40
42.43039424529064
 40
42.43039424529064
 40
42.43039424529064
 10
1364.305516328604
 20
481.1784645778725
 30
0.0
 10
1364.305516328604
 20
502.3936617005179
 30
0.0
 10
1364.305516328604
 20
523.6088588231632
 30
0.0
  0
SPLINE
  5
C9
330
1F
100
AcDbEntity
  8
Linee visibili 2D
100
AcDbSpline
210
0.0
220
0.0
230
1.0
 70
    12
 71
     2
 72
     6
 73
     3
 74
     0
 42
0.0000000001
 43
0.0000000001
 40
0.0
 40
0.0
 40
0.0
 40
7.689958272381802
 40
7.689958272381802
 40
7.689958272381802
 10
1364.305516328604
 20
481.1784645778725
 30
0.0
 41
1.0
 10
1360.917973034554
 20
479.3268888921859
 30
0.0
 41
0.9939641811316873
 10
1358.015771780655
 20
476.7811061106497
 30
0.0
 41
1.0
  0
SPLINE
  5
CA
330
1F
100
AcDbEntity
  8
Linee visibili 2D
100
AcDbSpline
210
0.0
220
0.0
230
1.0
 70
    24
 71
     2
 72
     6
 73
     3
 74
     0
 42
0.0000000001
 43
0.0000000001
 40
0.0
 40
0.0
 40
0.0
 40
46.82775271251296
 40
46.82775271251296
 40
46.82775271251296
 10
1358.015771780655
 20
523.6088588231626
 30
0.0
 10
1358.015771780655
 20
500.1949824669061
 30
0.0
 10
1358.015771780655
 20
476.7811061106497
 30
0.0
  0
SPLINE
  5
CB
330
1F
100
AcDbEntity
  8
Linee visibili 2D - Tangent
100
AcDbSpline
210
0.0
220
0.0
230
1.0
 70
    24
 71
     2
 72
     6
 73
     3
 74
     0
 42
0.0000000001
 43
0.0000000001
 40
0.0
 40
0.0
 40
0.0
 40
1.992736515327635
 40
1.992736515327635
 40
1.992736515327635
 10
1356.023035265328
 20
523.6088588231624
 30
0.0
 10
1357.019403522991
 20
523.6088588231625
 30
0.0
 10
1358.015771780655
 20
523.6088588231626
 30
0.0
  0
SPLINE
  5
CC
330
1F
100
AcDbEntity
  8
Linee visibili 2D
100
AcDbSpline
210
0.0
220
0.0
230
1.0
 70
    24
 71
     2
 72
     6
 73
     3
 74
     0
 42
0.0000000001
 43
0.0000000001
 40
0.0
 40
0.0
 40
0.0
 40
48.71419274971796
 40
48.71419274971796
 40
48.71419274971796
 10
1356.023035265328
 20
474.8946660734445
 30
0.0
 10
1356.023035265328
 20
499.2517624483034
 30
0.0
 10
1356.023035265328
 20
523.6088588231624
 30
0.0
  0
SPLINE
  5
CD
330
1F
100
AcDbEntity
  8
Linee visibili 2D
100
AcDbSpline
210
0.0
220
0.0
230
1.0
 70
    12
 71
     2
 72
     6
 73
     3
 74
     0
 42
0.0000000001
 43
0.0000000001
 40
0.0
 40
0.0
 40
0.0
 40
10.87154898990015
 40
10.87154898990015
 40
10.87154898990015
 10
1356.023035265328
 20
474.8946660734445
 30
0.0
 41
1.0
 10
1352.181905109824
 20
470.9851943133986
 30
0.0
 41
0.9877453044294755
 10
1349.733290717378
 20
466.0818752465595
 30
0.0
 41
1.0
  0
SPLINE
  5
CE
330
1F
100
AcDbEntity
  8
Linee visibili 2D
100
AcDbSpline
210
0.0
220
0.0
230
1.0
 70
    24
 71
     2
 72
     6
 73
     3
 74
     0
 42
0.0000000001
 43
0.0000000001
 40
0.0
 40
0.0
 40
0.0
 40
57.52698357660236
 40
57.52698357660236
 40
57.52698357660236
 10
1349.733290717378
 20
523.6088588231618
 30
0.0
 10
1349.733290717378
 20
494.8453670348607
 30
0.0
 10
1349.733290717378
 20
466.0818752465595
 30
0.0
  0
SPLINE
  5
CF
330
1F
100
AcDbEntity
  8
Linee visibili 2D - Tangent
100
AcDbSpline
210
0.0
220
0.0
230
1.0
 70
    24
 71
     2
 72
     6
 73
     3
 74
     0
 42
0.0000000001
 43
0.0000000001
 40
0.0
 40
0.0
 40
0.0
 40
1.992736515327635
 40
1.992736515327635
 40
1.992736515327635
 10
1347.740554202051
 20
523.6088588231616
 30
0.0
 10
1348.736922459714
 20
523.6088588231617
 30
0.0
 10
1349.733290717378
 20
523.6088588231618
 30
0.0
  0
SPLINE
  5
D0
330
1F
100
AcDbEntity
  8
Linee visibili 2D
100
AcDbSpline
210
0.0
220
0.0
230
1.0
 70
    24
 71
     2
 72
     6
 73
     3
 74
     0
 42
0.0000000001
 43
0.0000000001
 40
0.0
 40
0.0
 40
0.0
 40
62.34989210789155
 40
62.34989210789155
 40
62.34989210789155
 10
1347.740554202051
 20
461.2589667152701
 30
0.0
 10
1347.740554202051
 20
492.4339127692158
 30
0.0
 10
1347.740554202051
 20
523.6088588231616
 30
0.0
  0
SPLINE
  5
D1
330
1F
100
AcDbEntity
  8
Linee visibili 2D
100
AcDbSpline
210
0.0
220
0.0
230
1.0
 70
    12
 71
     2
 72
     6
 73
     3
 74
     0
 42
0.0000000001
 43
0.0000000001
 40
0.0
 40
0.0
 40
0.0
 40
22.42716520410082
 40
22.42716520410082
 40
22.42716520410082
 10
1347.740554202051
 20
461.2589667152701
 30
0.0
 41
1.0
 10
1344.113589126881
 20
450.233193280794
 30
0.0
 41
0.9499241041683339
 10
1347.740554202051
 20
439.207419846318
 30
0.0
 41
1.0
  0
SPLINE
  5
D2
330
1F
100
AcDbEntity
  8
Linee visibili 2D
100
AcDbSpline
210
0.0
220
0.0
230
1.0
 70
    24
 71
     2
 72
     6
 73
     3
 74
     0
 42
0.0000000001
 43
0.0000000001
 40
0.0
 40
0.0
 40
0.0
 40
63.17188730396099
 40
63.17188730396099
 40
63.17188730396099
 10
1347.740554202051
 20
376.035532542357
 30
0.0
 10
1347.740554202051
 20
407.6214761943375
 30
0.0
 10
1347.740554202051
 20
439.207419846318
 30
0.0
  0
SPLINE
  5
D3
330
1F
100
AcDbEntity
  8
Linee visibili 2D
100
AcDbSpline
210
0.0
220
0.0
230
1.0
 70
    12
 71
     2
 72
     6
 73
     3
 74
     0
 42
0.0000000001
 43
0.0000000001
 40
0.0
 40
0.0
 40
0.0
 40
7.048268427962021
 40
7.048268427962021
 40
7.048268427962021
 10
1341.450809654102
 20
379.2113941020696
 30
0.0
 41
1.0
 10
1344.526808876006
 20
377.4870613111013
 30
0.0
 41
0.9990607238195014
 10
1347.740554202051
 20
376.035532542357
 30
0.0
 41
1.0
  0
SPLINE
  5
D4
330
1F
100
AcDbEntity
  8
Linee visibili 2D
100
AcDbSpline
210
0.0
220
0.0
230
1.0
 70
    24
 71
     2
 72
     6
 73
     3
 74
     0
 42
0.0000000001
 43
0.0000000001
 40
0.0
 40
0.0
 40
0.0
 40
142.043598357449
 40
142.043598357449
 40
142.043598357449
 10
1341.450809654102
 20
521.2549924595186
 30
0.0
 10
1341.450809654102
 20
450.233193280794
 30
0.0
 10
1341.450809654102
 20
379.2113941020696
 30
0.0
  0
SPLINE
  5
D5
330
1F
100
AcDbEntity
  8
Linee visibili 2D
100
AcDbSpline
210
0.0
220
0.0
230
1.0
 70
    12
 71
     2
 72
     6
 73
     3
 74
     0
 42
0.0000000001
 43
0.0000000001
 40
0.0
 40
0.0
 40
0.0
 40
5.102820046396097
 40
5.102820046396097
 40
5.102820046396097
 10
1345.977352898761
 20
523.6088496197123
 30
0.0
 41
1.0
 10
1343.677159980815
 20
522.5029218820134
 30
0.0
 41
0.9995082965641255
 10
1341.450809654102
 20
521.2549924595186
 30
0.0
 41
1.0
  0
SPLINE
  5
D6
330
1F
100
AcDbEntity
  8
Linee visibili 2D - Tangent
100
AcDbSpline
210
0.0
220
0.0
230
1.0
 70
    24
 71
     2
 72
     6
 73
     3
 74
     0
 42
0.0000000001
 43
0.0000000001
 40
0.0
 40
0.0
 40
0.0
 40
7.219239814499019
 40
7.219239814499019
 40
7.219239814499019
 10
1338.758132225174
 20
523.6088588231608
 30
0.0
 10
1342.367752132423
 20
523.6088588231612
 30
0.0
 10
1345.977372039673
 20
523.6088588231615
 30
0.0
  0
SPLINE
  5
D7
330
1F
100
AcDbEntity
  8
Linee visibili 2D
100
AcDbSpline
210
0.0
220
0.0
230
1.0
 70
    12
 71
     2
 72
    12
 73
     9
 74
     0
 42
0.0000000001
 43
0.0000000001
 40
0.0
 40
0.0
 40
0.0
 40
110.8849365445861
 40
110.8849365445861
 40
221.7713589686904
 40
221.7713589686904
 40
332.6577813927878
 40
332.6577813927878
 40
443.542717937379
 40
443.542717937379
 40
443.542717937379
 10
1423.758451273356
 20
523.6088588231686
 30
0.0
 41
1.0
 10
1479.987117926314
 20
491.0268030350133
 30
0.0
 41
0.7935879978499539
 10
1463.116708483718
 20
428.2681972650381
 30
0.0
 41
1.0
 10
1446.244934595999
 20
365.5098751474335
 30
0.0
 41
0.7936016491957446
 10
1381.258291749265
 20
365.510679123792
 30
0.0
 41
1.0
 10
1316.271648902532
 20
365.5098751474189
 30
0.0
 41
0.7936016491956803
 10
1299.399875014813
 20
428.268197265023
 30
0.0
 41
1.0
 10
1282.529465572219
 20
491.0268030349993
 30
0.0
 41
0.7935879978499997
 10
1338.758132225174
 20
523.6088588231608
 30
0.0
 41
1.0
  0
SPLINE
  5
D8
330
1F
100
AcDbEntity
  8
Linee visibili 2D - Tangent
100
AcDbSpline
210
0.0
220
0.0
230
1.0
 70
    24
 71
     2
 72
     6
 73
     3
 74
     0
 42
0.0000000001
 43
0.0000000001
 40
0.0
 40
0.0
 40
0.0
 40
7.219239814463605
 40
7.219239814463605
 40
7.219239814463605
 10
1416.539211458892
 20
523.6088588231679
 30
0.0
 10
1420.148831366124
 20
523.6088588231683
 30
0.0
 10
1423.758451273356
 20
523.6088588231686
 30
0.0
  0
SPLINE
  5
D9
330
1F
100
AcDbEntity
  8
Linee visibili 2D
100
AcDbSpline
210
0.0
220
0.0
230
1.0
 70
    12
 71
     2
 72
     6
 73
     3
 74
     0
 42
0.0000000001
 43
0.0000000001
 40
0.0
 40
0.0
 40
0.0
 40
5.102820046354206
 40
5.102820046354206
 40
5.102820046354206
 10
1421.065773844428
 20
521.2549924595463
 30
0.0
 41
1.0
 10
1418.839423517732
 20
522.5029218820293
 30
0.0
 41
0.9995082965641339
 10
1416.539230599804
 20
523.6088496197188
 30
0.0
 41
1.0
  0
SPLINE
  5
DA
330
1F
100
AcDbEntity
  8
Linee visibili 2D
100
AcDbSpline
210
0.0
220
0.0
230
1.0
 70
    24
 71
     2
 72
     6
 73
     3
 74
     0
 42
0.0000000001
 43
0.0000000001
 40
0.0
 40
0.0
 40
0.0
 40
142.0435983575044
 40
142.0435983575044
 40
142.0435983575044
 10
1421.065773844428
 20
521.2549924595463
 30
0.0
 10
1421.065773844428
 20
450.233193280794
 30
0.0
 10
1421.065773844428
 20
379.2113941020419
 30
0.0
  0
SPLINE
  5
DB
330
1F
100
AcDbEntity
  8
Linee visibili 2D
100
AcDbSpline
210
0.0
220
0.0
230
1.0
 70
    12
 71
     2
 72
     6
 73
     3
 74
     0
 42
0.0000000001
 43
0.0000000001
 40
0.0
 40
0.0
 40
0.0
 40
7.048268427959612
 40
7.048268427959612
 40
7.048268427959612
 10
1414.776029296479
 20
376.0355325423347
 30
0.0
 41
1.0
 10
1417.989774622523
 20
377.4870613110763
 30
0.0
 41
0.9990607238195027
 10
1421.065773844428
 20
379.2113941020419
 30
0.0
 41
1.0
  0
SPLINE
  5
DC
330
1F
100
AcDbEntity
  8
Linee visibili 2D
100
AcDbSpline
210
0.0
220
0.0
230
1.0
 70
    24
 71
     2
 72
     6
 73
     3
 74
     0
 42
0.0000000001
 43
0.0000000001
 40
0.0
 40
0.0
 40
0.0
 40
63.17188730383278
 40
63.17188730383278
 40
63.17188730383278
 10
1414.776029296479
 20
376.0355325423347
 30
0.0
 10
1414.776029296479
 20
407.621476194251
 30
0.0
 10
1414.776029296479
 20
439.2074198461674
 30
0.0
  0
SPLINE
  5
DD
330
1F
100
AcDbEntity
  8
Linee visibili 2D
100
AcDbSpline
210
0.0
220
0.0
230
1.0
 70
    12
 71
     2
 72
     6
 73
     3
 74
     0
 42
0.0000000001
 43
0.0000000001
 40
0.0
 40
0.0
 40
0.0
 40
22.42716520441781
 40
22.42716520441781
 40
22.42716520441781
 10
1414.776029296479
 20
439.2074198461674
 30
0.0
 41
1.0
 10
1418.402994371752
 20
450.233193280794
 30
0.0
 41
0.9499241041669309
 10
1414.776029296479
 20
461.2589667154207
 30
0.0
 41
1.0
  0
SPLINE
  5
DE
330
1F
100
AcDbEntity
  8
Linee visibili 2D
100
AcDbSpline
210
0.0
220
0.0
230
1.0
 70
    24
 71
     2
 72
     6
 73
     3
 74
     0
 42
0.0000000001
 43
0.0000000001
 40
0.0
 40
0.0
 40
0.0
 40
62.34989210774717
 40
62.34989210774717
 40
62.34989210774717
 10
1414.776029296479
 20
461.2589667154207
 30
0.0
 10
1414.776029296479
 20
492.4339127692943
 30
0.0
 10
1414.776029296479
 20
523.6088588231678
 30
0.0
  0
SPLINE
  5
DF
330
1F
100
AcDbEntity
  8
Linee visibili 2D - Tangent
100
AcDbSpline
210
0.0
220
0.0
230
1.0
 70
    24
 71
     2
 72
     6
 73
     3
 74
     0
 42
0.0000000001
 43
0.0000000001
 40
0.0
 40
0.0
 40
0.0
 40
1.992736515327692
 40
1.992736515327692
 40
1.992736515327692
 10
1412.783292781151
 20
523.6088588231677
 30
0.0
 10
1413.779661038815
 20
523.6088588231678
 30
0.0
 10
1414.776029296479
 20
523.6088588231678
 30
0.0
  0
SPLINE
  5
E0
330
1F
100
AcDbEntity
  8
Linee visibili 2D
100
AcDbSpline
210
0.0
220
0.0
230
1.0
 70
    24
 71
     2
 72
     6
 73
     3
 74
     0
 42
0.0000000001
 43
0.0000000001
 40
0.0
 40
0.0
 40
0.0
 40
57.52698357650965
 40
57.52698357650965
 40
57.52698357650965
 10
1412.783292781151
 20
523.6088588231677
 30
0.0
 10
1412.783292781151
 20
494.8453670349128
 30
0.0
 10
1412.783292781151
 20
466.081875246658
 30
0.0
  0
SPLINE
  5
E1
330
1F
100
AcDbEntity
  8
Linee visibili 2D
100
AcDbSpline
210
0.0
220
0.0
230
1.0
 70
    12
 71
     2
 72
     6
 73
     3
 74
     0
 42
0.0000000001
 43
0.0000000001
 40
0.0
 40
0.0
 40
0.0
 40
10.87154898986065
 40
10.87154898986065
 40
10.87154898986065
 10
1412.783292781151
 20
466.081875246658
 30
0.0
 41
1.0
 10
1410.334678388699
 20
470.9851943134713
 30
0.0
 41
0.9877453044295656
 10
1406.493548233201
 20
474.8946660734951
 30
0.0
 41
1.0
  0
SPLINE
  5
E2
330
1F
100
AcDbEntity
  8
Linee visibili 2D
100
AcDbSpline
210
0.0
220
0.0
230
1.0
 70
    24
 71
     2
 72
     6
 73
     3
 74
     0
 42
0.0000000001
 43
0.0000000001
 40
0.0
 40
0.0
 40
0.0
 40
48.71419274967198
 40
48.71419274967198
 40
48.71419274967198
 10
1406.493548233201
 20
474.8946660734951
 30
0.0
 10
1406.493548233201
 20
499.2517624483311
 30
0.0
 10
1406.493548233201
 20
523.6088588231671
 30
0.0
  0
SPLINE
  5
E3
330
1F
100
AcDbEntity
  8
Linee visibili 2D - Tangent
100
AcDbSpline
210
0.0
220
0.0
230
1.0
 70
    24
 71
     2
 72
     6
 73
     3
 74
     0
 42
0.0000000001
 43
0.0000000001
 40
0.0
 40
0.0
 40
0.0
 40
1.992736515327635
 40
1.992736515327635
 40
1.992736515327635
 10
1404.500811717874
 20
523.6088588231669
 30
0.0
 10
1405.497179975538
 20
523.608858823167
 30
0.0
 10
1406.493548233201
 20
523.6088588231671
 30
0.0
  0
SPLINE
  5
E4
330
1F
100
AcDbEntity
  8
Linee visibili 2D
100
AcDbSpline
210
0.0
220
0.0
230
1.0
 70
    24
 71
     2
 72
     6
 73
     3
 74
     0
 42
0.0000000001
 43
0.0000000001
 40
0.0
 40
0.0
 40
0.0
 40
46.82775271247385
 40
46.82775271247385
 40
46.82775271247385
 10
1404.500811717874
 20
523.6088588231669
 30
0.0
 10
1404.500811717874
 20
500.1949824669299
 30
0.0
 10
1404.500811717874
 20
476.781106110693
 30
0.0
  0
SPLINE
  5
E5
330
1F
100
AcDbEntity
  8
Linee visibili 2D
100
AcDbSpline
210
0.0
220
0.0
230
1.0
 70
    12
 71
     2
 72
     6
 73
     3
 74
     0
 42
0.0000000001
 43
0.0000000001
 40
0.0
 40
0.0
 40
0.0
 40
7.689958272372484
 40
7.689958272372484
 40
7.689958272372484
 10
1404.500811717874
 20
476.781106110693
 30
0.0
 41
1.0
 10
1401.598610463974
 20
479.3268888922206
 30
0.0
 41
0.9939641811317059
 10
1398.211067169925
 20
481.1784645778997
 30
0.0
 41
1.0
  0
SPLINE
  5
E6
330
1F
100
AcDbEntity
  8
Linee visibili 2D
100
AcDbSpline
210
0.0
220
0.0
230
1.0
 70
    24
 71
     2
 72
     6
 73
     3
 74
     0
 42
0.0000000001
 43
0.0000000001
 40
0.0
 40
0.0
 40
0.0
 40
42.43039424526663
 40
42.43039424526663
 40
42.43039424526663
 10
1398.211067169925
 20
481.1784645778997
 30
0.0
 10
1398.211067169925
 20
502.393661700533
 30
0.0
 10
1398.211067169925
 20
523.6088588231663
 30
0.0
  0
SPLINE
  5
E7
330
1F
100
AcDbEntity
  8
Linee visibili 2D - Tangent
100
AcDbSpline
210
0.0
220
0.0
230
1.0
 70
    24
 71
     2
 72
     6
 73
     3
 74
     0
 42
0.0000000001
 43
0.0000000001
 40
0.0
 40
0.0
 40
0.0
 40
1.992736515327578
 40
1.992736515327578
 40
1.992736515327578
 10
1396.218330654597
 20
523.6088588231662
 30
0.0
 10
1397.214698912261
 20
523.6088588231662
 30
0.0
 10
1398.211067169925
 20
523.6088588231663
 30
0.0
  0
SPLINE
  5
E8
330
1F
100
AcDbEntity
  8
Linee visibili 2D
100
AcDbSpline
210
0.0
220
0.0
230
1.0
 70
    24
 71
     2
 72
     6
 73
     3
 74
     0
 42
0.0000000001
 43
0.0000000001
 40
0.0
 40
0.0
 40
0.0
 40
41.41938844278413
 40
41.41938844278413
 40
41.41938844278413
 10
1396.218330654597
 20
523.6088588231662
 30
0.0
 10
1396.218330654597
 20
502.8991646017741
 30
0.0
 10
1396.218330654597
 20
482.189470380382
 30
0.0
  0
SPLINE
  5
E9
330
1F
100
AcDbEntity
  8
Linee visibili 2D
100
AcDbSpline
210
0.0
220
0.0
230
1.0
 70
    12
 71
     2
 72
     6
 73
     3
 74
     0
 42
0.0000000001
 43
0.0000000001
 40
0.0
 40
0.0
 40
0.0
 40
6.689053479525327
 40
6.689053479525327
 40
6.689053479525327
 10
1396.218330654597
 20
482.189470380382
 30
0.0
 41
1.0
 10
1393.180965462483
 20
483.6137314937662
 30
0.0
 41
0.995451101473883
 10
1389.928586106648
 20
484.4360061164473
 30
0.0
 41
1.0
  0
SPLINE
  5
EA
330
1F
100
AcDbEntity
  8
Linee visibili 2D
100
AcDbSpline
210
0.0
220
0.0
230
1.0
 70
    24
 71
     2
 72
     6
 73
     3
 74
     0
 42
0.0000000001
 43
0.0000000001
 40
0.0
 40
0.0
 40
0.0
 40
39.17285270671826
 40
39.17285270671826
 40
39.17285270671826
 10
1389.928586106648
 20
484.4360061164472
 30
0.0
 10
1389.928586106648
 20
504.0224324698064
 30
0.0
 10
1389.928586106648
 20
523.6088588231655
 30
0.0
  0
SPLINE
  5
EB
330
1F
100
AcDbEntity
  8
Linee visibili 2D - Tangent
100
AcDbSpline
210
0.0
220
0.0
230
1.0
 70
    24
 71
     2
 72
     6
 73
     3
 74
     0
 42
0.0000000001
 43
0.0000000001
 40
0.0
 40
0.0
 40
0.0
 40
1.409820434546702
 40
1.409820434546702
 40
1.409820434546702
 10
1388.518765672101
 20
523.6088588231655
 30
0.0
 10
1389.223675889375
 20
523.6088588231655
 30
0.0
 10
1389.928586106648
 20
523.6088588231655
 30
0.0
  0
SPLINE
  5
EC
330
1F
100
AcDbEntity
  8
Linee visibili 2D
100
AcDbSpline
210
0.0
220
0.0
230
1.0
 70
    24
 71
     2
 72
     6
 73
     3
 74
     0
 42
0.0000000001
 43
0.0000000001
 40
0.0
 40
0.0
 40
0.0
 40
38.84608505650192
 40
38.84608505650192
 40
38.84608505650192
 10
1388.518765672101
 20
523.6088588231655
 30
0.0
 10
1388.518765672101
 20
504.1858162949145
 30
0.0
 10
1388.518765672101
 20
484.7627737666635
 30
0.0
  0
SPLINE
  5
ED
330
1F
100
AcDbEntity
  8
Linee visibili 2D
100
AcDbSpline
210
0.0
220
0.0
230
1.0
 70
    24
 71
     2
 72
     6
 73
     3
 74
     0
 42
0.0000000001
 43
0.0000000001
 40
0.0
 40
0.0
 40
0.0
 40
0.4491327845867659
 40
0.4491327845867659
 40
0.4491327845867659
 10
1388.518765672101
 20
484.3136409820767
 30
0.0
 10
1388.518765672101
 20
484.5382073743701
 30
0.0
 10
1388.518765672101
 20
484.7627737666635
 30
0.0
  0
SPLINE
  5
EE
330
1F
100
AcDbEntity
  8
Linee visibili 2D
100
AcDbSpline
210
0.0
220
0.0
230
1.0
 70
    12
 71
     2
 72
     6
 73
     3
 74
     0
 42
0.0000000001
 43
0.0000000001
 40
0.0
 40
0.0
 40
0.0
 40
0.9425213780302389
 40
0.9425213780302389
 40
0.9425213780302389
 10
1391.173228980079
 20
482.1485087998155
 30
0.0
 41
1.0
 10
1390.723206703826
 20
482.2884965517618
 30
0.0
 41
0.9998987595702164
 10
1390.269383231331
 20
482.4156219844342
 30
0.0
 41
1.0
  0
SPLINE
  5
EF
330
1F
100
AcDbEntity
  8
Linee visibili 2D
100
AcDbSpline
210
0.0
220
0.0
230
1.0
 70
    24
 71
     2
 72
     6
 73
     3
 74
     0
 42
0.0000000001
 43
0.0000000001
 40
0.0
 40
0.0
 40
0.0
 40
0.4452430594925545
 40
0.4452430594925545
 40
0.4452430594925545
 10
1373.997817826428
 20
484.7627737666531
 30
0.0
 10
1373.997817826428
 20
484.5401522369068
 30
0.0
 10
1373.997817826428
 20
484.3175307071605
 30
0.0
  0
SPLINE
  5
F0
330
1F
100
AcDbEntity
  8
Linee visibili 2D
100
AcDbSpline
210
0.0
220
0.0
230
1.0
 70
    12
 71
     2
 72
     6
 73
     3
 74
     0
 42
0.0000000001
 43
0.0000000001
 40
0.0
 40
0.0
 40
0.0
 40
0.2003177656889453
 40
0.2003177656889453
 40
0.2003177656889453
 10
1388.518765672101
 20
484.7627737666635
 30
0.0
 41
1.0
 10
1388.420749896221
 20
484.7833835255901
 30
0.0
 41
0.9999960621583278
 10
1388.322619987785
 20
484.8034428265484
 30
0.0
 41
1.0
  0
SPLINE
  5
F1
330
1F
100
AcDbEntity
  8
Linee visibili 2D
100
AcDbSpline
210
0.0
220
0.0
230
1.0
 70
    24
 71
     2
 72
     6
 73
     3
 74
     0
 42
0.0000000001
 43
0.0000000001
 40
0.0
 40
0.0
 40
0.0
 40
0.1824764187064147
 40
0.1824764187064147
 40
0.1824764187064147
 10
1388.518765672101
 20
484.7627737666635
 30
0.0
 10
1388.427527462748
 20
484.7627737666632
 30
0.0
 10
1388.336289253395
 20
484.7627737666629
 30
0.0
  0
SPLINE
  5
F2
330
1F
100
AcDbEntity
  8
Linee visibili 2D
100
AcDbSpline
210
0.0
220
0.0
230
1.0
 70
    28
 71
     2
 72
     8
 73
     5
 74
     0
 42
0.0000000001
 43
0.0000000001
 40
-117.7599540817251
 40
-117.7599540817251
 40
-117.7599540817251
 40
-87.63531466546984
 40
-87.63531466546984
 40
0.0
 40
0.0
 40
0.0
 10
1437.043443013493
 20
562.841337307074
 30
0.0
 41
0.8678548172931494
 10
1437.249767611042
 20
562.841337307074
 30
0.0
 41
0.8993179560328757
 10
1429.832489595158
 20
562.8413373070741
 30
0.0
 41
1.0
 10
1402.38958262609
 20
562.841337307074
 30
0.0
 41
0.7071067811865476
 10
1353.815384780221
 20
562.8413373070741
 30
0.0
 41
1.0
  0
SPLINE
  5
F3
330
1F
100
AcDbEntity
  8
Linee visibili 2D
100
AcDbSpline
210
0.0
220
0.0
230
1.0
 70
    24
 71
     2
 72
     6
 73
     3
 74
     0
 42
0.0000000001
 43
0.0000000001
 40
0.0
 40
0.0
 40
0.0
 40
28.34224429513552
 40
28.34224429513552
 40
28.34224429513552
 10
1353.815384780221
 20
562.8413373070741
 30
0.0
 10
1339.644262632653
 20
562.8413373070741
 30
0.0
 10
1325.473140485085
 20
562.8413373070741
 30
0.0
  0
SPLINE
  5
F4
330
1F
100
AcDbEntity
  8
Linee visibili 2D
100
AcDbSpline
210
0.0
220
0.0
230
1.0
 70
    12
 71
     2
 72
     6
 73
     3
 74
     0
 42
0.0000000001
 43
0.0000000001
 40
0.0
 40
0.0
 40
0.0
 40
0.1992168857242808
 40
0.1992168857242808
 40
0.1992168857242808
 10
1374.192883751427
 20
484.8032280809311
 30
0.0
 41
1.0
 10
1374.095294921852
 20
484.7832703082318
 30
0.0
 41
0.999996185745209
 10
1373.997817826428
 20
484.7627737666531
 30
0.0
 41
1.0
  0
SPLINE
  5
F5
330
1F
100
AcDbEntity
  8
Linee visibili 2D
100
AcDbSpline
210
0.0
220
0.0
230
1.0
 70
    24
 71
     2
 72
     6
 73
     3
 74
     0
 42
0.0000000001
 43
0.0000000001
 40
0.0
 40
0.0
 40
0.0
 40
0.1814050459103669
 40
0.1814050459103669
 40
0.1814050459103669
 10
1374.179222872339
 20
484.7627737666531
 30
0.0
 10
1374.088520349383
 20
484.7627737666531
 30
0.0
 10
1373.997817826428
 20
484.7627737666531
 30
0.0
  0
SPLINE
  5
F6
330
1F
100
AcDbEntity
  8
Linee visibili 2D
100
AcDbSpline
210
0.0
220
0.0
230
1.0
 70
    12
 71
     2
 72
     6
 73
     3
 74
     0
 42
0.0000000001
 43
0.0000000001
 40
0.0
 40
0.0
 40
0.0
 40
1.945425669582613
 40
1.945425669582613
 40
1.945425669582613
 10
1414.776029296479
 20
524.4308540192535
 30
0.0
 41
1.0
 10
1415.662712041284
 20
524.0307780549111
 30
0.0
 41
0.9999232707673337
 10
1416.539211458892
 20
523.6088588231679
 30
0.0
 41
1.0
  0
SPLINE
  5
F7
330
1F
100
AcDbEntity
  8
Linee visibili 2D
100
AcDbSpline
210
0.0
220
0.0
230
1.0
 70
    24
 71
     2
 72
     6
 73
     3
 74
     0
 42
0.0000000001
 43
0.0000000001
 40
0.0
 40
0.0
 40
0.0
 40
0.8219951960855951
 40
0.8219951960855951
 40
0.8219951960855951
 10
1414.776029296479
 20
524.4308540192535
 30
0.0
 10
1414.776029296479
 20
524.0198564212107
 30
0.0
 10
1414.776029296479
 20
523.6088588231678
 30
0.0
  0
SPLINE
  5
F8
330
1F
100
AcDbEntity
  8
Linee visibili 2D
100
AcDbSpline
210
0.0
220
0.0
230
1.0
 70
    24
 71
     2
 72
     6
 73
     3
 74
     0
 42
0.0000000001
 43
0.0000000001
 40
0.0
 40
0.0
 40
0.0
 40
1.690344737132392
 40
1.690344737132392
 40
1.690344737132392
 10
1412.783292781151
 20
523.6088588231677
 30
0.0
 10
1412.783292781151
 20
524.4540311917339
 30
0.0
 10
1412.783292781151
 20
525.2992035603001
 30
0.0
  0
SPLINE
  5
F9
330
1F
100
AcDbEntity
  8
Linee visibili 2D
100
AcDbSpline
210
0.0
220
0.0
230
1.0
 70
    12
 71
     2
 72
     6
 73
     3
 74
     0
 42
0.0000000001
 43
0.0000000001
 40
0.0
 40
0.0
 40
0.0
 40
6.713331813911556
 40
6.713331813911556
 40
6.713331813911556
 10
1406.493548233201
 20
527.6406439527606
 30
0.0
 41
1.0
 10
1409.686775874183
 20
526.599819399817
 30
0.0
 41
0.9991480817929295
 10
1412.783292781151
 20
525.2992035603001
 30
0.0
 41
1.0
  0
SPLINE
  5
FA
330
1F
100
AcDbEntity
  8
Linee visibili 2D
100
AcDbSpline
210
0.0
220
0.0
230
1.0
 70
    24
 71
     2
 72
     6
 73
     3
 74
     0
 42
0.0000000001
 43
0.0000000001
 40
0.0
 40
0.0
 40
0.0
 40
4.031785129593544
 40
4.031785129593544
 40
4.031785129593544
 10
1406.493548233201
 20
527.6406439527606
 30
0.0
 10
1406.493548233201
 20
525.6247513879639
 30
0.0
 10
1406.493548233201
 20
523.6088588231671
 30
0.0
  0
SPLINE
  5
FB
330
1F
100
AcDbEntity
  8
Linee visibili 2D
100
AcDbSpline
210
0.0
220
0.0
230
1.0
 70
    24
 71
     2
 72
     6
 73
     3
 74
     0
 42
0.0000000001
 43
0.0000000001
 40
0.0
 40
0.0
 40
0.0
 40
4.621436984159288
 40
4.621436984159288
 40
4.621436984159288
 10
1404.500811717874
 20
523.6088588231669
 30
0.0
 10
1404.500811717874
 20
525.9195773152465
 30
0.0
 10
1404.500811717874
 20
528.2302958073262
 30
0.0
  0
SPLINE
  5
FC
330
1F
100
AcDbEntity
  8
Linee visibili 2D
100
AcDbSpline
210
0.0
220
0.0
230
1.0
 70
    12
 71
     2
 72
     6
 73
     3
 74
     0
 42
0.0000000001
 43
0.0000000001
 40
0.0
 40
0.0
 40
0.0
 40
6.492661247621628
 40
6.492661247621628
 40
6.492661247621628
 10
1398.211067169925
 20
529.8656928954569
 30
0.0
 41
1.0
 10
1401.387963747894
 20
529.1895291703346
 30
0.0
 41
0.999203281872367
 10
1404.500811717874
 20
528.2621421065454
 30
0.0
 41
1.0
  0
SPLINE
  5
FD
330
1F
100
AcDbEntity
  8
Linee visibili 2D
100
AcDbSpline
210
0.0
220
0.0
230
1.0
 70
    24
 71
     2
 72
     6
 73
     3
 74
     0
 42
0.0000000001
 43
0.0000000001
 40
0.0
 40
0.0
 40
0.0
 40
6.256834072290558
 40
6.256834072290558
 40
6.256834072290558
 10
1398.211067169925
 20
529.8656928954569
 30
0.0
 10
1398.211067169925
 20
526.7372758593117
 30
0.0
 10
1398.211067169925
 20
523.6088588231663
 30
0.0
  0
SPLINE
  5
FE
330
1F
100
AcDbEntity
  8
Linee visibili 2D
100
AcDbSpline
210
0.0
220
0.0
230
1.0
 70
    24
 71
     2
 72
     6
 73
     3
 74
     0
 42
0.0000000001
 43
0.0000000001
 40
0.0
 40
0.0
 40
0.0
 40
6.655133687008714
 40
6.655133687008714
 40
6.655133687008714
 10
1396.218330654597
 20
523.6088588231662
 30
0.0
 10
1396.218330654597
 20
526.9364256666705
 30
0.0
 10
1396.218330654597
 20
530.2639925101748
 30
0.0
  0
SPLINE
  5
FF
330
1F
100
AcDbEntity
  8
Linee visibili 2D
100
AcDbSpline
210
0.0
220
0.0
230
1.0
 70
    12
 71
     2
 72
     6
 73
     3
 74
     0
 42
0.0000000001
 43
0.0000000001
 40
0.0
 40
0.0
 40
0.0
 40
6.358763063328312
 40
6.358763063328312
 40
6.358763063328312
 10
1389.928586106648
 20
531.1872394125257
 30
0.0
 41
1.0
 10
1393.091515016356
 20
530.8486292375116
 30
0.0
 41
0.9992358652683462
 10
1396.218330654597
 20
530.2639925101748
 30
0.0
 41
1.0
  0
SPLINE
  5
100
330
1F
100
AcDbEntity
  8
Linee visibili 2D
100
AcDbSpline
210
0.0
220
0.0
230
1.0
 70
    24
 71
     2
 72
     6
 73
     3
 74
     0
 42
0.0000000001
 43
0.0000000001
 40
0.0
 40
0.0
 40
0.0
 40
7.578380589360108
 40
7.578380589360108
 40
7.578380589360108
 10
1389.928586106648
 20
531.1872394125257
 30
0.0
 10
1389.928586106648
 20
527.3980491178456
 30
0.0
 10
1389.928586106648
 20
523.6088588231655
 30
0.0
  0
SPLINE
  5
101
330
1F
100
AcDbEntity
  8
Linee visibili 2D
100
AcDbSpline
210
0.0
220
0.0
230
1.0
 70
    24
 71
     2
 72
     6
 73
     3
 74
     0
 42
0.0000000001
 43
0.0000000001
 40
0.0
 40
0.0
 40
0.0
 40
7.716979671346621
 40
7.716979671346621
 40
7.716979671346621
 10
1388.518765672101
 20
523.6088588231655
 30
0.0
 10
1388.518765672101
 20
527.4673486588388
 30
0.0
 10
1388.518765672101
 20
531.325838494512
 30
0.0
  0
SPLINE
  5
102
330
1F
100
AcDbEntity
  8
Linee visibili 2D
100
AcDbSpline
210
0.0
220
0.0
230
1.0
 70
    12
 71
     2
 72
     6
 73
     3
 74
     0
 42
0.0000000001
 43
0.0000000001
 40
0.0
 40
0.0
 40
0.0
 40
2.631630815236446
 40
2.631630815236446
 40
2.631630815236446
 10
1385.894288350887
 20
531.5181842420009
 30
0.0
 41
1.0
 10
1387.208081067815
 20
531.4432158171405
 30
0.0
 41
0.9998694691139187
 10
1388.518765672101
 20
531.3258384945121
 30
0.0
 41
1.0
  0
SPLINE
  5
103
330
1F
100
AcDbEntity
  8
Linee visibili 2D
100
AcDbSpline
210
0.0
220
0.0
230
1.0
 70
    12
 71
     2
 72
     6
 73
     3
 74
     0
 42
0.0000000001
 43
0.0000000001
 40
0.0
 40
0.0
 40
0.0
 40
2.631650002147151
 40
2.631650002147151
 40
2.631650002147151
 10
1373.997817826428
 20
531.3258384945076
 30
0.0
 41
1.0
 10
1375.308511988401
 20
531.4432166733869
 30
0.0
 41
0.999869467205055
 10
1376.622314303405
 20
531.5181853348077
 30
0.0
 41
1.0
  0
SPLINE
  5
104
330
1F
100
AcDbEntity
  8
Linee visibili 2D
100
AcDbSpline
210
0.0
220
0.0
230
1.0
 70
    24
 71
     2
 72
     6
 73
     3
 74
     0
 42
0.0000000001
 43
0.0000000001
 40
0.0
 40
0.0
 40
0.0
 40
7.716979671343551
 40
7.716979671343551
 40
7.716979671343551
 10
1373.997817826428
 20
523.6088588231641
 30
0.0
 10
1373.997817826428
 20
527.4673486588359
 30
0.0
 10
1373.997817826428
 20
531.3258384945076
 30
0.0
  0
SPLINE
  5
105
330
1F
100
AcDbEntity
  8
Linee visibili 2D
100
AcDbSpline
210
0.0
220
0.0
230
1.0
 70
    24
 71
     2
 72
     6
 73
     3
 74
     0
 42
0.0000000001
 43
0.0000000001
 40
0.0
 40
0.0
 40
0.0
 40
7.553262658329003
 40
7.553262658329003
 40
7.553262658329003
 10
1372.356596987734
 20
531.1621214814929
 30
0.0
 10
1372.356596987734
 20
527.3854901523284
 30
0.0
 10
1372.356596987734
 20
523.6088588231639
 30
0.0
  0
SPLINE
  5
106
330
1F
100
AcDbEntity
  8
Linee visibili 2D
100
AcDbSpline
210
0.0
220
0.0
230
1.0
 70
    12
 71
     2
 72
     6
 73
     3
 74
     0
 42
0.0000000001
 43
0.0000000001
 40
0.0
 40
0.0
 40
0.0
 40
6.361475832089392
 40
6.361475832089392
 40
6.361475832089392
 10
1366.066852439785
 20
530.2203907629375
 30
0.0
 41
1.0
 10
1369.193298711887
 20
530.8143219228045
 30
0.0
 41
0.9992352133343683
 10
1372.356596987734
 20
531.1621214814929
 30
0.0
 41
1.0
  0
SPLINE
  5
107
330
1F
100
AcDbEntity
  8
Linee visibili 2D
100
AcDbSpline
210
0.0
220
0.0
230
1.0
 70
    24
 71
     2
 72
     6
 73
     3
 74
     0
 42
0.0000000001
 43
0.0000000001
 40
0.0
 40
0.0
 40
0.0
 40
6.611531939774181
 40
6.611531939774181
 40
6.611531939774181
 10
1366.066852439785
 20
523.6088588231633
 30
0.0
 10
1366.066852439785
 20
526.9146247930505
 30
0.0
 10
1366.066852439785
 20
530.2203907629375
 30
0.0
  0
SPLINE
  5
108
330
1F
100
AcDbEntity
  8
Linee visibili 2D
100
AcDbSpline
210
0.0
220
0.0
230
1.0
 70
    24
 71
     2
 72
     6
 73
     3
 74
     0
 42
0.0000000001
 43
0.0000000001
 40
0.0
 40
0.0
 40
0.0
 40
6.25683407228314
 40
6.25683407228314
 40
6.25683407228314
 10
1364.305516328604
 20
529.8656928954463
 30
0.0
 10
1364.305516328604
 20
526.7372758593048
 30
0.0
 10
1364.305516328604
 20
523.6088588231632
 30
0.0
  0
SPLINE
  5
109
330
1F
100
AcDbEntity
  8
Linee visibili 2D
100
AcDbSpline
210
0.0
220
0.0
230
1.0
 70
    12
 71
     2
 72
     6
 73
     3
 74
     0
 42
0.0000000001
 43
0.0000000001
 40
0.0
 40
0.0
 40
0.0
 40
6.492661247622996
 40
6.492661247622996
 40
6.492661247622996
 10
1358.015771780655
 20
528.2621421065306
 30
0.0
 41
1.0
 10
1361.128619750631
 20
529.1895291703357
 30
0.0
 41
0.9992032818721895
 10
1364.305516328604
 20
529.8656928954463
 30
0.0
 41
1.0
  0
SPLINE
  5
10A
330
1F
100
AcDbEntity
  8
Linee visibili 2D
100
AcDbSpline
210
0.0
220
0.0
230
1.0
 70
    24
 71
     2
 72
     6
 73
     3
 74
     0
 42
0.0000000001
 43
0.0000000001
 40
0.0
 40
0.0
 40
0.0
 40
4.617948298958395
 40
4.617948298958395
 40
4.617948298958395
 10
1358.015771780655
 20
523.6088588231626
 30
0.0
 10
1358.015771780655
 20
525.9178329726418
 30
0.0
 10
1358.015771780655
 20
528.226807122121
 30
0.0
  0
SPLINE
  5
10B
330
1F
100
AcDbEntity
  8
Linee visibili 2D
100
AcDbSpline
210
0.0
220
0.0
230
1.0
 70
    24
 71
     2
 72
     6
 73
     3
 74
     0
 42
0.0000000001
 43
0.0000000001
 40
0.0
 40
0.0
 40
0.0
 40
4.031785129582061
 40
4.031785129582061
 40
4.031785129582061
 10
1356.023035265328
 20
527.6406439527445
 30
0.0
 10
1356.023035265328
 20
525.6247513879534
 30
0.0
 10
1356.023035265328
 20
523.6088588231624
 30
0.0
  0
SPLINE
  5
10C
330
1F
100
AcDbEntity
  8
Linee visibili 2D
100
AcDbSpline
210
0.0
220
0.0
230
1.0
 70
    12
 71
     2
 72
     6
 73
     3
 74
     0
 42
0.0000000001
 43
0.0000000001
 40
0.0
 40
0.0
 40
0.0
 40
6.713331813913156
 40
6.713331813913156
 40
6.713331813913156
 10
1349.733290717378
 20
525.2992035602793
 30
0.0
 41
1.0
 10
1352.829807624347
 20
526.5998193997961
 30
0.0
 41
0.9991480817929609
 10
1356.023035265328
 20
527.6406439527445
 30
0.0
 41
1.0
  0
SPLINE
  5
10D
330
1F
100
AcDbEntity
  8
Linee visibili 2D
100
AcDbSpline
210
0.0
220
0.0
230
1.0
 70
    24
 71
     2
 72
     6
 73
     3
 74
     0
 42
0.0000000001
 43
0.0000000001
 40
0.0
 40
0.0
 40
0.0
 40
1.690344737117442
 40
1.690344737117442
 40
1.690344737117442
 10
1349.733290717378
 20
523.6088588231618
 30
0.0
 10
1349.733290717378
 20
524.4540311917205
 30
0.0
 10
1349.733290717378
 20
525.2992035602793
 30
0.0
  0
SPLINE
  5
10E
330
1F
100
AcDbEntity
  8
Linee visibili 2D
100
AcDbSpline
210
0.0
220
0.0
230
1.0
 70
    24
 71
     2
 72
     6
 73
     3
 74
     0
 42
0.0000000001
 43
0.0000000001
 40
0.0
 40
0.0
 40
0.0
 40
0.8219951960694231
 40
0.8219951960694231
 40
0.8219951960694231
 10
1347.740554202051
 20
524.4308540192311
 30
0.0
 10
1347.740554202051
 20
524.0198564211964
 30
0.0
 10
1347.740554202051
 20
523.6088588231616
 30
0.0
  0
SPLINE
  5
10F
330
1F
100
AcDbEntity
  8
Linee visibili 2D
100
AcDbSpline
210
0.0
220
0.0
230
1.0
 70
    12
 71
     2
 72
     6
 73
     3
 74
     0
 42
0.0000000001
 43
0.0000000001
 40
0.0
 40
0.0
 40
0.0
 40
1.945425670278351
 40
1.945425670278351
 40
1.945425670278351
 10
1345.977372039673
 20
523.6088588231615
 30
0.0
 41
1.0
 10
1346.853871419645
 20
524.0307781355871
 30
0.0
 41
0.9999232696336884
 10
1347.740554202051
 20
524.4308540192311
 30
0.0
 41
1.0
  0
SPLINE
  5
110
330
1F
100
AcDbEntity
  8
Linee visibili 2D
100
AcDbSpline
210
0.0
220
0.0
230
1.0
 70
    12
 71
     2
 72
    12
 73
     9
 74
     0
 42
0.0000000001
 43
0.0000000001
 40
0.0
 40
0.0
 40
0.0
 40
111.2615333845109
 40
111.2615333845109
 40
222.5245532195249
 40
222.5245532195249
 40
333.7875730545389
 40
333.7875730545389
 40
445.0491064390553
 40
445.0491064390553
 40
445.0491064390553
 10
1338.758291739263
 20
523.7633563846377
 30
0.0
 41
1.0
 10
1282.273847087567
 20
491.154295369598
 30
0.0
 41
0.7933433620464257
 10
1299.154596495371
 20
428.1552188103023
 30
0.0
 41
1.0
 10
1316.036718370866
 20
365.1564283807663
 30
0.0
 41
0.7933569927136754
 10
1381.25829174924
 20
365.1572364906532
 30
0.0
 41
1.0
 10
1446.479865127614
 20
365.1564283807309
 30
0.0
 41
0.7933569927136746
 10
1463.361987003143
 20
428.1552188102579
 30
0.0
 41
1.0
 10
1480.242736410978
 20
491.1542953695435
 30
0.0
 41
0.7933433620465042
 10
1423.758291759309
 20
523.7633563846261
 30
0.0
 41
1.0
  0
SPLINE
  5
111
330
1F
100
AcDbEntity
  8
Linee visibili 2D
100
AcDbSpline
210
0.0
220
0.0
230
1.0
 70
    12
 71
     2
 72
     6
 73
     3
 74
     0
 42
0.0000000001
 43
0.0000000001
 40
0.0
 40
0.0
 40
0.0
 40
8.900848217339854
 40
8.900848217339854
 40
8.900848217339854
 10
1346.32153692038
 20
528.2997651841562
 30
0.0
 41
1.0
 10
1342.596497778235
 20
525.8629508207178
 30
0.0
 41
0.9997083051968004
 10
1338.758132225174
 20
523.6088588231608
 30
0.0
 41
1.0
  0
SPLINE
  5
112
330
1F
100
AcDbEntity
  8
Linee visibili 2D
100
AcDbSpline
210
0.0
220
0.0
230
1.0
 70
     8
 71
     3
 72
    16
 73
    12
 74
     0
 42
0.0000000001
 43
0.0000000001
 40
0.0
 40
0.0
 40
0.0
 40
0.0
 40
0.9605784026763977
 40
1.632822404487066
 40
2.634458771406792
 40
3.153567194652916
 40
3.972007419536129
 40
8.830375502958544
 40
14.57336088806257
 40
25.03009393276062
 40
37.99712667502356
 40
37.99712667502356
 40
37.99712667502356
 40
37.99712667502356
 10
1369.843553991896
 20
554.3206936347586
 30
0.0
 10
1370.145012231099
 20
554.3020108276088
 30
0.0
 10
1370.755173129051
 20
554.3321155337475
 30
0.0
 10
1371.397577431243
 20
553.6482226639369
 30
0.0
 10
1371.236017960813
 20
552.8454810711679
 30
0.0
 10
1371.02731101254
 20
552.122949776749
 30
0.0
 10
1370.168106276139
 20
550.2302976807633
 30
0.0
 10
1368.097936188347
 20
547.0303164368386
 30
0.0
 10
1363.620742966305
 20
541.6075347152643
 30
0.0
 10
1356.476757914352
 20
534.9707275516689
 30
0.0
 10
1349.947568477815
 20
530.6427626440162
 30
0.0
 10
1346.32153692038
 20
528.2997651841562
 30
0.0
  0
SPLINE
  5
113
330
1F
100
AcDbEntity
  8
Linee visibili 2D
100
AcDbSpline
210
0.0
220
0.0
230
1.0
 70
    12
 71
     2
 72
     6
 73
     3
 74
     0
 42
0.0000000001
 43
0.0000000001
 40
0.0
 40
0.0
 40
0.0
 40
9.581252467544377
 40
9.581252467544377
 40
9.581252467544377
 10
1360.262456231348
 20
554.3232017496984
 30
0.0
 41
1.0
 10
1365.053017442406
 20
554.3690517706415
 30
0.0
 41
0.9999516624109448
 10
1369.843553991896
 20
554.3206936347585
 30
0.0
 41
1.0
  0
SPLINE
  5
114
330
1F
100
AcDbEntity
  8
Linee visibili 2D
100
AcDbSpline
210
0.0
220
0.0
230
1.0
 70
    12
 71
     2
 72
     6
 73
     3
 74
     0
 42
0.0000000001
 43
0.0000000001
 40
0.0
 40
0.0
 40
0.0
 40
21.49498426394958
 40
21.49498426394958
 40
21.49498426394958
 10
1338.758291740286
 20
554.3206936347486
 30
0.0
 41
1.0
 10
1349.505783430418
 20
554.3243455602634
 30
0.0
 41
0.9999999750722778
 10
1360.253275679736
 20
554.3231980141566
 30
0.0
 41
1.0
  0
SPLINE
  5
115
330
1F
100
AcDbEntity
  8
Linee visibili 2D
100
AcDbSpline
210
0.0
220
0.0
230
1.0
 70
    24
 71
     2
 72
     6
 73
     3
 74
     0
 42
0.0000000001
 43
0.0000000001
 40
0.0
 40
0.0
 40
0.0
 40
23.84283399210403
 40
23.84283399210403
 40
23.84283399210403
 10
1338.758291739263
 20
540.8206936302587
 30
0.0
 10
1350.679708735315
 20
540.8206936302585
 30
0.0
 10
1362.601125731367
 20
540.8206936302585
 30
0.0
  0
SPLINE
  5
116
330
1F
100
AcDbEntity
  8
Linee visibili 2D
100
AcDbSpline
210
0.0
220
0.0
230
1.0
 70
    24
 71
     2
 72
     6
 73
     3
 74
     0
 42
0.0000000001
 43
0.0000000001
 40
0.0
 40
0.0
 40
0.0
 40
4.371051870521482
 40
4.371051870521482
 40
4.371051870521482
 10
1342.54793558852
 20
525.9415882250489
 30
0.0
 10
1340.653113663891
 20
524.8524723048433
 30
0.0
 10
1338.758291739263
 20
523.7633563846377
 30
0.0
  0
SPLINE
  5
117
330
1F
100
AcDbEntity
  8
Linee visibili 2D
100
AcDbSpline
210
0.0
220
0.0
230
1.0
 70
    12
 71
     2
 72
     6
 73
     3
 74
     0
 42
0.0000000001
 43
0.0000000001
 40
0.0
 40
0.0
 40
0.0
 40
0.1544976438890896
 40
0.1544976438890896
 40
0.1544976438890896
 10
1338.758132225174
 20
523.6088588231608
 30
0.0
 41
1.0
 10
1338.758208085261
 20
523.6861076079228
 30
0.0
 41
0.9999999987275575
 10
1338.758291739263
 20
523.7633563846377
 30
0.0
 41
1.0
  0
SPLINE
  5
118
330
1F
100
AcDbEntity
  8
Linee visibili 2D - Tangent
100
AcDbSpline
210
0.0
220
0.0
230
1.0
 70
    24
 71
     2
 72
     6
 73
     3
 74
     0
 42
0.0000000001
 43
0.0000000001
 40
0.0
 40
0.0
 40
0.0
 40
13.50000000449108
 40
13.50000000449108
 40
13.50000000449108
 10
1338.758291739263
 20
540.8206936302587
 30
0.0
 10
1338.758291739774
 20
547.5706936325042
 30
0.0
 10
1338.758291740286
 20
554.3206936347497
 30
0.0
  0
SPLINE
  5
119
330
1F
100
AcDbEntity
  8
Linee visibili 2D
100
AcDbSpline
210
0.0
220
0.0
230
1.0
 70
    28
 71
     2
 72
     6
 73
     3
 74
     0
 42
0.0000000001
 43
0.0000000001
 40
252.2565832795684
 40
252.2565832795684
 40
252.2565832795684
 40
307.5127872360452
 40
307.5127872360452
 40
307.5127872360452
 10
1317.541603635954
 20
540.8206936302587
 30
0.0
 41
0.9287051231069396
 10
1316.579800645648
 20
540.8206936302587
 30
0.0
 41
0.8732535521901148
 10
1338.758291739263
 20
540.8206936302587
 30
0.0
 41
1.0
  0
SPLINE
  5
11A
330
1F
100
AcDbEntity
  8
Linee visibili 2D
100
AcDbSpline
210
0.0
220
0.0
230
1.0
 70
    24
 71
     2
 72
     6
 73
     3
 74
     0
 42
0.0000000001
 43
0.0000000001
 40
0.0
 40
0.0
 40
0.0
 40
21.18728787677298
 40
21.18728787677298
 40
21.18728787677298
 10
1423.758291759316
 20
540.8206936302587
 30
0.0
 10
1434.351935697702
 20
540.8206936302587
 30
0.0
 10
1444.945579636089
 20
540.8206936302587
 30
0.0
  0
SPLINE
  5
11B
330
1F
100
AcDbEntity
  8
Linee visibili 2D
100
AcDbSpline
210
0.0
220
0.0
230
1.0
 70
    12
 71
     2
 72
     6
 73
     3
 74
     0
 42
0.0000000001
 43
0.0000000001
 40
0.0
 40
0.0
 40
0.0
 40
8.900848216943193
 40
8.900848216943193
 40
8.900848216943193
 10
1423.758451273356
 20
523.6088588231686
 30
0.0
 41
1.0
 10
1419.920085731815
 20
525.8629508392561
 30
0.0
 41
0.9997083053150984
 10
1416.195046578199
 20
528.2997651841562
 30
0.0
 41
1.0
  0
SPLINE
  5
11C
330
1F
100
AcDbEntity
  8
Linee visibili 2D
100
AcDbSpline
210
0.0
220
0.0
230
1.0
 70
     8
 71
     3
 72
    17
 73
    13
 74
     0
 42
0.0000000001
 43
0.0000000001
 40
0.0
 40
0.0
 40
0.0
 40
0.0
 40
7.173234034738401
 40
12.96703385668002
 40
23.4173792575166
 40
29.16497870189127
 40
34.01454876742627
 40
34.83408596614
 40
35.34567166210691
 40
36.33313657974416
 40
37.00546552675231
 40
37.9908156442922
 40
37.9908156442922
 40
37.9908156442922
 40
37.9908156442922
 10
1416.195046578199
 20
528.2997651841562
 30
0.0
 10
1414.182398277044
 20
529.5923236574744
 30
0.0
 10
1410.575531500835
 20
531.9713008512586
 30
0.0
 10
1404.281037862022
 20
536.5997932981397
 30
0.0
 10
1398.898533315281
 20
541.605824279456
 30
0.0
 10
1394.423819734538
 20
547.0261405153862
 30
0.0
 10
1392.352287411907
 20
550.224873779348
 30
0.0
 10
1391.495275597689
 20
552.1116376627165
 30
0.0
 10
1391.286761677319
 20
552.8314267420889
 30
0.0
 10
1391.127086792441
 20
553.6148466950827
 30
0.0
 10
1391.735619363891
 20
554.3343326765644
 30
0.0
 10
1392.366784765393
 20
554.300842196548
 30
0.0
 10
1392.673029506682
 20
554.3206936347586
 30
0.0
  0
SPLINE
  5
11D
330
1F
100
AcDbEntity
  8
Linee visibili 2D
100
AcDbSpline
210
0.0
220
0.0
230
1.0
 70
    24
 71
     2
 72
     6
 73
     3
 74
     0
 42
0.0000000001
 43
0.0000000001
 40
0.0
 40
0.0
 40
0.0
 40
31.08526225161069
 40
31.08526225161069
 40
31.08526225161069
 10
1392.673029506682
 20
554.3206936347586
 30
0.0
 10
1408.215660632488
 20
554.3206936347542
 30
0.0
 10
1423.758291758293
 20
554.3206936347497
 30
0.0
  0
SPLINE
  5
11E
330
1F
100
AcDbEntity
  8
Linee visibili 2D - Tangent
100
AcDbSpline
210
0.0
220
0.0
230
1.0
 70
    24
 71
     2
 72
     6
 73
     3
 74
     0
 42
0.0000000001
 43
0.0000000001
 40
0.0
 40
0.0
 40
0.0
 40
13.50000000449108
 40
13.50000000449108
 40
13.50000000449108
 10
1423.758291758293
 20
554.3206936347497
 30
0.0
 10
1423.758291758804
 20
547.5706936325042
 30
0.0
 10
1423.758291759316
 20
540.8206936302587
 30
0.0
  0
SPLINE
  5
11F
330
1F
100
AcDbEntity
  8
Linee visibili 2D
100
AcDbSpline
210
0.0
220
0.0
230
1.0
 70
    24
 71
     2
 72
     6
 73
     3
 74
     0
 42
0.0000000001
 43
0.0000000001
 40
0.0
 40
0.0
 40
0.0
 40
23.84337870370718
 40
23.84337870370718
 40
23.84337870370718
 10
1399.914913055609
 20
540.8206936302585
 30
0.0
 10
1411.836602407462
 20
540.8206936302585
 30
0.0
 10
1423.758291759316
 20
540.8206936302587
 30
0.0
  0
SPLINE
  5
120
330
1F
100
AcDbEntity
  8
Linee visibili 2D
100
AcDbSpline
210
0.0
220
0.0
230
1.0
 70
    12
 71
     2
 72
     6
 73
     3
 74
     0
 42
0.0000000001
 43
0.0000000001
 40
0.0
 40
0.0
 40
0.0
 40
4.371069727233417
 40
4.371069727233417
 40
4.371069727233417
 10
1423.758291759309
 20
523.7633563846265
 30
0.0
 41
1.0
 10
1421.865199826762
 20
524.8554972780344
 30
0.0
 41
0.9999990333995276
 10
1419.969078200749
 20
525.9423696603736
 30
0.0
 41
1.0
  0
SPLINE
  5
121
330
1F
100
AcDbEntity
  8
Linee visibili 2D
100
AcDbSpline
210
0.0
220
0.0
230
1.0
 70
    12
 71
     2
 72
     6
 73
     3
 74
     0
 42
0.0000000001
 43
0.0000000001
 40
0.0
 40
0.0
 40
0.0
 40
0.1544976438697476
 40
0.1544976438697476
 40
0.1544976438697476
 10
1423.758451273356
 20
523.6088588231686
 30
0.0
 41
1.0
 10
1423.758375413289
 20
523.6861076079208
 30
0.0
 41
0.9999999987275582
 10
1423.758291759309
 20
523.7633563846262
 30
0.0
 41
1.0
  0
SPLINE
  5
122
330
1F
100
AcDbEntity
  8
Linee visibili 2D
100
AcDbSpline
210
0.0
220
0.0
230
1.0
 70
    28
 71
     2
 72
     6
 73
     3
 74
     0
 42
0.0000000001
 43
0.0000000001
 40
0.0
 40
0.0
 40
0.0
 40
20.97671406498176
 40
20.97671406498176
 40
20.97671406498176
 10
1444.735005823275
 20
554.3212989906532
 30
0.0
 41
1.0
 10
1434.246648790784
 20
554.3212989906684
 30
0.0
 41
1.0
 10
1423.758291758293
 20
554.3212989906835
 30
0.0
 41
1.0
  0
SPLINE
  5
123
330
1F
100
AcDbEntity
  8
Linee visibili 2D
100
AcDbSpline
210
0.0
220
0.0
230
1.0
 70
    24
 71
     2
 72
     6
 73
     3
 74
     0
 42
0.0000000001
 43
0.0000000001
 40
0.0
 40
0.0
 40
0.0
 40
20.95794713769249
 40
20.95794713769249
 40
20.95794713769249
 10
1338.758291740286
 20
554.3206936347497
 30
0.0
 10
1328.279318171439
 20
554.3206936347446
 30
0.0
 10
1317.800344602593
 20
554.3206936347394
 30
0.0
  0
ENDSEC
  0
SECTION
  2
OBJECTS
  0
DICTIONARY
  5
C
330
0
100
AcDbDictionary
281
     1
  3
ACAD_CIP_PREVIOUS_PRODUCT_INFO
350
167
  3
ACAD_COLOR
350
14A
  3
ACAD_DETAILVIEWSTYLE
350
162
  3
ACAD_GROUP
350
D
  3
ACAD_LAYOUT
350
1A
  3
ACAD_MATERIAL
350
127
  3
ACAD_MLEADERSTYLE
350
125
  3
ACAD_MLINESTYLE
350
17
  3
ACAD_PLOTSETTINGS
350
19
  3
ACAD_PLOTSTYLENAME
350
E
  3
ACAD_SCALELIST
350
14C
  3
ACAD_SECTIONVIEWSTYLE
350
15F
  3
ACAD_TABLESTYLE
350
124
  3
ACAD_VISUALSTYLE
350
2A
  3
ACDB_RECOMPOSE_DATA
350
184
  3
AcDbVariableDictionary
350
177
  0
DICTIONARY
  5
171
330
2
100
AcDbDictionary
280
     1
281
     1
  3
ACAD_LAYERSTATES
360
172
  0
DICTIONARY
  5
168
330
10
100
AcDbDictionary
280
     1
281
     1
  3
ADSK_XREC_LAYER_RECONCILED
360
169
  0
DICTIONARY
  5
16A
330
3B
100
AcDbDictionary
280
     1
281
     1
  3
ADSK_XREC_LAYER_RECONCILED
360
16B
  0
DICTIONARY
  5
16C
330
4B
100
AcDbDictionary
280
     1
281
     1
  3
ADSK_XREC_LAYER_RECONCILED
360
16D
  0
XRECORD
  5
167
102
{ACAD_REACTORS
330
C
102
}
330
C
100
AcDbXrecord
280
     1
300
ACDMAC
300
2013
300

  0
DICTIONARY
  5
14A
102
{ACAD_REACTORS
330
C
102
}
330
C
100
AcDbDictionary
281
     1
  0
DICTIONARY
  5
162
102
{ACAD_REACTORS
330
C
102
}
330
C
100
AcDbDictionary
281
     1
  3
Imperial24
350
163
  0
DICTIONARY
  5
D
102
{ACAD_REACTORS
330
C
102
}
330
C
100
AcDbDictionary
281
     1
  0
DICTIONARY
  5
1A
102
{ACAD_REACTORS
330
C
102
}
330
C
100
AcDbDictionary
281
     1
  3
Layout1
350
1E
  3
Layout2
350
26
  3
Model
350
22
  0
DICTIONARY
  5
127
102
{ACAD_REACTORS
330
C
102
}
330
C
100
AcDbDictionary
281
     1
  3
ByBlock
350
130
  3
ByLayer
350
128
  3
Global
350
138
  0
DICTIONARY
  5
125
102
{ACAD_REACTORS
330
C
102
}
330
C
100
AcDbDictionary
281
     1
  3
Standard
350
15E
  0
DICTIONARY
  5
17
102
{ACAD_REACTORS
330
C
102
}
330
C
100
AcDbDictionary
281
     1
  3
Standard
350
18
  0
DICTIONARY
  5
19
102
{ACAD_REACTORS
330
C
102
}
330
C
100
AcDbDictionary
281
     1
  0
ACDBDICTIONARYWDFLT
  5
E
102
{ACAD_REACTORS
330
C
102
}
330
C
100
AcDbDictionary
281
     1
  3
Normal
350
F
100
AcDbDictionaryWithDefault
340
F
  0
DICTIONARY
  5
14C
102
{ACAD_REACTORS
330
C
102
}
330
C
100
AcDbDictionary
281
     1
  3
A0
350
14D
  3
A1
350
14E
  3
A2
350
14F
  3
A3
350
150
  3
A4
350
151
  3
A5
350
152
  3
A6
350
153
  3
A7
350
154
  3
A8
350
155
  3
A9
350
156
  3
B0
350
157
  3
B1
350
158
  3
B2
350
159
  3
B3
350
15A
  3
B4
350
15B
  3
B5
350
15C
  3
B6
350
15D
  0
DICTIONARY
  5
15F
102
{ACAD_REACTORS
330
C
102
}
330
C
100
AcDbDictionary
281
     1
  3
Imperial24
350
161
  0
DICTIONARY
  5
124
102
{ACAD_REACTORS
330
C
102
}
330
C
100
AcDbDictionary
281
     1
  3
Standard
350
14B
  0
DICTIONARY
  5
2A
102
{ACAD_REACTORS
330
C
102
}
330
C
100
AcDbDictionary
281
     1
  3
2dWireframe
350
2F
  3
3D Hidden
350
31
  3
3dWireframe
350
30
  3
Basic
350
32
  3
Brighten
350
36
  3
ColorChange
350
3A
  3
Conceptual
350
34
  3
Dim
350
35
  3
EdgeColorOff
350
149
  3
Facepattern
350
39
  3
Flat
350
2B
  3
FlatWithEdges
350
2C
  3
Gouraud
350
2D
  3
GouraudWithEdges
350
2E
  3
Hidden
350
141
  3
JitterOff
350
147
  3
Linepattern
350
38
  3
OverhangOff
350
148
  3
Realistic
350
33
  3
Shaded
350
146
  3
Shaded with edges
350
145
  3
Shades of Gray
350
142
  3
Sketchy
350
143
  3
Thicken
350
37
  3
Wireframe
350
140
  3
X-Ray
350
144
  0
XRECORD
  5
184
102
{ACAD_REACTORS
330
C
102
}
330
C
100
AcDbXrecord
280
     1
 90
        1
330
14B
  0
DICTIONARY
  5
177
102
{ACAD_REACTORS
330
C
102
}
330
C
100
AcDbDictionary
281
     1
  3
CANNOSCALE
350
17D
  3
CMLEADERSTYLE
350
179
  3
CTABLESTYLE
350
178
  3
CVIEWDETAILSTYLE
350
17A
  3
CVIEWSECTIONSTYLE
350
17B
  3
LAYEREVAL
350
17F
  3
LAYERNOTIFY
350
180
  3
LIGHTINGUNITS
350
17E
  3
MSLTSCALE
350
17C
  0
DICTIONARY
  5
172
102
{ACAD_REACTORS
330
171
102
}
330
171
100
AcDbDictionary
281
     1
  0
XRECORD
  5
169
102
{ACAD_REACTORS
330
168
102
}
330
168
100
AcDbXrecord
280
     1
290
     1
  0
XRECORD
  5
16B
102
{ACAD_REACTORS
330
16A
102
}
330
16A
100
AcDbXrecord
280
     1
290
     1
  0
XRECORD
  5
16D
102
{ACAD_REACTORS
330
16C
102
}
330
16C
100
AcDbXrecord
280
     1
290
     1
  0
ACDBDETAILVIEWSTYLE
  5
163
102
{ACAD_REACTORS
330
162
102
}
330
162
100
AcDbModelDocViewStyle
 70
     0
  3
Imperial24
290
     1
100
AcDbDetailViewStyle
 70
     0
 71
     0
 90
        3
 71
     1
340
11
 62
   256
 40
0.24
340
0
 62
   256
 40
0.24
300

 40
0.36
280
     3
 71
     2
340
16
 90
       25
 62
   256
 71
     3
340
11
 62
   256
 40
0.24
 90
        1
 40
0.75
 90
        1
300
%<\AcVar ViewType \f "%tc1">% %<\AcVar ViewDetailId>%\PSCALE %<\AcVar ViewScale \f "%sn">%
 71
     4
340
16
 90
       25
 62
   256
340
16
 90
       25
 62
   256
280
     0
  0
LAYOUT
  5
1E
102
{ACAD_REACTORS
330
1A
102
}
330
1A
100
AcDbPlotSettings
  1

  2
none_device
  4

  6

 40
0.0
 41
0.0
 42
0.0
 43
0.0
 44
0.0
 45
0.0
 46
0.0
 47
0.0
 48
0.0
 49
0.0
140
0.0
141
0.0
142
1.0
143
1.0
 70
   688
 72
     0
 73
     0
 74
     5
  7

 75
    16
147
1.0
 76
     0
 77
     2
 78
   300
148
0.0
149
0.0
100
AcDbLayout
  1
Layout1
 70
     1
 71
     1
 10
0.0
 20
0.0
 11
12.0
 21
9.0
 12
0.0
 22
0.0
 32
0.0
 14
1.000000000000000E+20
 24
1.000000000000000E+20
 34
1.000000000000000E+20
 15
-1.000000000000000E+20
 25
-1.000000000000000E+20
 35
-1.000000000000000E+20
146
0.0
 13
0.0
 23
0.0
 33
0.0
 16
1.0
 26
0.0
 36
0.0
 17
0.0
 27
1.0
 37
0.0
 76
     0
330
1B
  0
LAYOUT
  5
26
102
{ACAD_REACTORS
330
1A
102
}
330
1A
100
AcDbPlotSettings
  1

  2
none_device
  4

  6

 40
0.0
 41
0.0
 42
0.0
 43
0.0
 44
0.0
 45
0.0
 46
0.0
 47
0.0
 48
0.0
 49
0.0
140
0.0
141
0.0
142
1.0
143
1.0
 70
   688
 72
     0
 73
     0
 74
     5
  7

 75
    16
147
1.0
 76
     0
 77
     2
 78
   300
148
0.0
149
0.0
100
AcDbLayout
  1
Layout2
 70
     1
 71
     2
 10
0.0
 20
0.0
 11
0.0
 21
0.0
 12
0.0
 22
0.0
 32
0.0
 14
0.0
 24
0.0
 34
0.0
 15
0.0
 25
0.0
 35
0.0
146
0.0
 13
0.0
 23
0.0
 33
0.0
 16
1.0
 26
0.0
 36
0.0
 17
0.0
 27
1.0
 37
0.0
 76
     0
330
23
  0
LAYOUT
  5
22
102
{ACAD_REACTORS
330
1A
102
}
330
1A
100
AcDbPlotSettings
  1

  2
none_device
  4

  6

 40
0.0
 41
0.0
 42
0.0
 43
0.0
 44
0.0
 45
0.0
 46
0.0
 47
0.0
 48
0.0
 49
0.0
140
0.0
141
0.0
142
1.0
143
1.0
 70
  1712
 72
     0
 73
     0
 74
     0
  7

 75
     0
147
1.0
 76
     0
 77
     2
 78
   300
148
0.0
149
0.0
100
AcDbLayout
  1
Model
 70
     1
 71
     0
 10
0.0
 20
0.0
 11
12.0
 21
9.0
 12
0.0
 22
0.0
 32
0.0
 14
1296.258292715426
 24
365.1572364906532
 34
0.0
 15
1786.144671750825
 25
848.0908391936296
 35
0.0
146
0.0
 13
0.0
 23
0.0
 33
0.0
 16
1.0
 26
0.0
 36
0.0
 17
0.0
 27
1.0
 37
0.0
 76
     0
330
1F
331
29
  0
MATERIAL
  5
130
102
{ACAD_XDICTIONARY
360
131
102
}
102
{ACAD_REACTORS
330
127
102
}
330
127
100
AcDbMaterial
  1
ByBlock
 72
     0
 43
0.0008202099737533
 43
0.0
 43
0.0
 43
0.0
 43
0.0
 43
0.0008202099737533
 43
0.0
 43
0.0
 43
0.0
 43
0.0
 43
1.0
 43
0.0
 43
0.0
 43
0.0
 43
0.0
 43
1.0
 77
     0
 47
0.0008202099737533
 47
0.0
 47
0.0
 47
0.0
 47
0.0
 47
0.0008202099737533
 47
0.0
 47
0.0
 47
0.0
 47
0.0
 47
1.0
 47
0.0
 47
0.0
 47
0.0
 47
0.0
 47
1.0
171
     0
 49
0.0008202099737533
 49
0.0
 49
0.0
 49
0.0
 49
0.0
 49
0.0008202099737533
 49
0.0
 49
0.0
 49
0.0
 49
0.0
 49
1.0
 49
0.0
 49
0.0
 49
0.0
 49
0.0
 49
1.0
175
     0
142
0.0008202099737533
142
0.0
142
0.0
142
0.0
142
0.0
142
0.0008202099737533
142
0.0
142
0.0
142
0.0
142
0.0
142
1.0
142
0.0
142
0.0
142
0.0
142
0.0
142
1.0
179
     0
144
0.0008202099737533
144
0.0
144
0.0
144
0.0
144
0.0
144
0.0008202099737533
144
0.0
144
0.0
144
0.0
144
0.0
144
1.0
144
0.0
144
0.0
144
0.0
144
0.0
144
1.0
147
0.0008202099737533
147
0.0
147
0.0
147
0.0
147
0.0
147
0.0008202099737533
147
0.0
147
0.0
147
0.0
147
0.0
147
1.0
147
0.0
147
0.0
147
0.0
147
0.0
147
1.0
  0
MATERIAL
  5
128
102
{ACAD_XDICTIONARY
360
129
102
}
102
{ACAD_REACTORS
330
127
102
}
330
127
100
AcDbMaterial
  1
ByLayer
 72
     0
 43
0.0008202099737533
 43
0.0
 43
0.0
 43
0.0
 43
0.0
 43
0.0008202099737533
 43
0.0
 43
0.0
 43
0.0
 43
0.0
 43
1.0
 43
0.0
 43
0.0
 43
0.0
 43
0.0
 43
1.0
 77
     0
 47
0.0008202099737533
 47
0.0
 47
0.0
 47
0.0
 47
0.0
 47
0.0008202099737533
 47
0.0
 47
0.0
 47
0.0
 47
0.0
 47
1.0
 47
0.0
 47
0.0
 47
0.0
 47
0.0
 47
1.0
171
     0
 49
0.0008202099737533
 49
0.0
 49
0.0
 49
0.0
 49
0.0
 49
0.0008202099737533
 49
0.0
 49
0.0
 49
0.0
 49
0.0
 49
1.0
 49
0.0
 49
0.0
 49
0.0
 49
0.0
 49
1.0
175
     0
142
0.0008202099737533
142
0.0
142
0.0
142
0.0
142
0.0
142
0.0008202099737533
142
0.0
142
0.0
142
0.0
142
0.0
142
1.0
142
0.0
142
0.0
142
0.0
142
0.0
142
1.0
179
     0
144
0.0008202099737533
144
0.0
144
0.0
144
0.0
144
0.0
144
0.0008202099737533
144
0.0
144
0.0
144
0.0
144
0.0
144
1.0
144
0.0
144
0.0
144
0.0
144
0.0
144
1.0
147
0.0008202099737533
147
0.0
147
0.0
147
0.0
147
0.0
147
0.0008202099737533
147
0.0
147
0.0
147
0.0
147
0.0
147
1.0
147
0.0
147
0.0
147
0.0
147
0.0
147
1.0
  0
MATERIAL
  5
138
102
{ACAD_XDICTIONARY
360
139
102
}
102
{ACAD_REACTORS
330
127
102
}
330
127
100
AcDbMaterial
  1
Global
 72
     0
 43
0.0008202099737533
 43
0.0
 43
0.0
 43
0.0
 43
0.0
 43
0.0008202099737533
 43
0.0
 43
0.0
 43
0.0
 43
0.0
 43
1.0
 43
0.0
 43
0.0
 43
0.0
 43
0.0
 43
1.0
 77
     0
 47
0.0008202099737533
 47
0.0
 47
0.0
 47
0.0
 47
0.0
 47
0.0008202099737533
 47
0.0
 47
0.0
 47
0.0
 47
0.0
 47
1.0
 47
0.0
 47
0.0
 47
0.0
 47
0.0
 47
1.0
171
     0
 49
0.0008202099737533
 49
0.0
 49
0.0
 49
0.0
 49
0.0
 49
0.0008202099737533
 49
0.0
 49
0.0
 49
0.0
 49
0.0
 49
1.0
 49
0.0
 49
0.0
 49
0.0
 49
0.0
 49
1.0
175
     0
142
0.0008202099737533
142
0.0
142
0.0
142
0.0
142
0.0
142
0.0008202099737533
142
0.0
142
0.0
142
0.0
142
0.0
142
1.0
142
0.0
142
0.0
142
0.0
142
0.0
142
1.0
179
     0
144
0.0008202099737533
144
0.0
144
0.0
144
0.0
144
0.0
144
0.0008202099737533
144
0.0
144
0.0
144
0.0
144
0.0
144
1.0
144
0.0
144
0.0
144
0.0
144
0.0
144
1.0
147
0.0008202099737533
147
0.0
147
0.0
147
0.0
147
0.0
147
0.0008202099737533
147
0.0
147
0.0
147
0.0
147
0.0
147
1.0
147
0.0
147
0.0
147
0.0
147
0.0
147
1.0
  0
MLEADERSTYLE
  5
15E
102
{ACAD_REACTORS
330
125
102
}
330
125
100
AcDbMLeaderStyle
179
     2
170
     2
171
     1
172
     0
 90
        2
 40
0.0
 41
0.0
173
     1
 91
-1056964608
340
14
 92
       -2
290
     1
 42
0.09
291
     1
 43
0.36
  3
Standard
 44
0.18
300

342
11
174
     1
178
     6
175
     1
176
     0
 93
-1056964608
 45
0.18
292
     0
297
     0
 46
0.18
 94
-1056964608
 47
1.0
 49
1.0
140
1.0
293
     1
141
0.0
294
     1
177
     0
142
1.0
295
     1
296
     0
143
0.125
271
     0
272
     9
273
     9
298
     1
  0
MLINESTYLE
  5
18
102
{ACAD_REACTORS
330
17
102
}
330
17
100
AcDbMlineStyle
  2
STANDARD
 70
     0
  3

 62
   256
 51
90.0
 52
90.0
 71
     2
 49
0.5
 62
   256
  6
BYLAYER
 49
-0.5
 62
   256
  6
BYLAYER
  0
ACDBPLACEHOLDER
  5
F
102
{ACAD_REACTORS
330
E
102
}
330
E
  0
SCALE
  5
14D
102
{ACAD_REACTORS
330
14C
102
}
330
14C
100
AcDbScale
 70
     0
300
1:1
140
1.0
141
1.0
290
     1
  0
SCALE
  5
14E
102
{ACAD_REACTORS
330
14C
102
}
330
14C
100
AcDbScale
 70
     0
300
1/128" = 1'-0"
140
0.0078125
141
12.0
290
     0
  0
SCALE
  5
14F
102
{ACAD_REACTORS
330
14C
102
}
330
14C
100
AcDbScale
 70
     0
300
1/64" = 1'-0"
140
0.015625
141
12.0
290
     0
  0
SCALE
  5
150
102
{ACAD_REACTORS
330
14C
102
}
330
14C
100
AcDbScale
 70
     0
300
1/32" = 1'-0"
140
0.03125
141
12.0
290
     0
  0
SCALE
  5
151
102
{ACAD_REACTORS
330
14C
102
}
330
14C
100
AcDbScale
 70
     0
300
1/16" = 1'-0"
140
0.0625
141
12.0
290
     0
  0
SCALE
  5
152
102
{ACAD_REACTORS
330
14C
102
}
330
14C
100
AcDbScale
 70
     0
300
3/32" = 1'-0"
140
0.09375
141
12.0
290
     0
  0
SCALE
  5
153
102
{ACAD_REACTORS
330
14C
102
}
330
14C
100
AcDbScale
 70
     0
300
1/8" = 1'-0"
140
0.125
141
12.0
290
     0
  0
SCALE
  5
154
102
{ACAD_REACTORS
330
14C
102
}
330
14C
100
AcDbScale
 70
     0
300
3/16" = 1'-0"
140
0.1875
141
12.0
290
     0
  0
SCALE
  5
155
102
{ACAD_REACTORS
330
14C
102
}
330
14C
100
AcDbScale
 70
     0
300
1/4" = 1'-0"
140
0.25
141
12.0
290
     0
  0
SCALE
  5
156
102
{ACAD_REACTORS
330
14C
102
}
330
14C
100
AcDbScale
 70
     0
300
3/8" = 1'-0"
140
0.375
141
12.0
290
     0
  0
SCALE
  5
157
102
{ACAD_REACTORS
330
14C
102
}
330
14C
100
AcDbScale
 70
     0
300
1/2" = 1'-0"
140
0.5
141
12.0
290
     0
  0
SCALE
  5
158
102
{ACAD_REACTORS
330
14C
102
}
330
14C
100
AcDbScale
 70
     0
300
3/4" = 1'-0"
140
0.75
141
12.0
290
     0
  0
SCALE
  5
159
102
{ACAD_REACTORS
330
14C
102
}
330
14C
100
AcDbScale
 70
     0
300
1" = 1'-0"
140
1.0
141
12.0
290
     0
  0
SCALE
  5
15A
102
{ACAD_REACTORS
330
14C
102
}
330
14C
100
AcDbScale
 70
     0
300
1-1/2" = 1'-0"
140
1.5
141
12.0
290
     0
  0
SCALE
  5
15B
102
{ACAD_REACTORS
330
14C
102
}
330
14C
100
AcDbScale
 70
     0
300
3" = 1'-0"
140
3.0
141
12.0
290
     0
  0
SCALE
  5
15C
102
{ACAD_REACTORS
330
14C
102
}
330
14C
100
AcDbScale
 70
     0
300
6" = 1'-0"
140
6.0
141
12.0
290
     0
  0
SCALE
  5
15D
102
{ACAD_REACTORS
330
14C
102
}
330
14C
100
AcDbScale
 70
     0
300
1'-0" = 1'-0"
140
12.0
141
12.0
290
     0
  0
ACDBSECTIONVIEWSTYLE
  5
161
102
{ACAD_REACTORS
330
15F
102
}
330
15F
100
AcDbModelDocViewStyle
 70
     0
  3
Imperial24
290
     1
100
AcDbSectionViewStyle
 70
     0
 71
     0
 90
       78
 71
     1
340
11
 62
   256
 40
0.24
340
0
340
0
 62
   256
 40
0.24
300
I, O, Q, S, X, Z
 40
0.48
 90
        3
 40
0.18
 90
        1
 71
     2
340
160
 90
       25
 62
   256
340
16
 90
       50
 62
   256
 40
0.24
 40
0.0
 40
0.24
 71
     3
340
11
 62
   256
 40
0.24
 90
        1
 40
0.75
 90
        1
300
%<\AcVar ViewType \f "%tc1">% %<\AcVar ViewSectionStartId>%-%<\AcVar ViewSectionEndId>%\PSCALE %<\AcVar ViewScale \f "%sn">%
 71
     4
 62
   256
 62
   257
300
ANSI31
 40
1.0
 90
        0
290
     0
290
     0
 90
        6
 40
0.0
 40
1.570796326794896
 40
0.2617993877991494
 40
1.308996938995747
 40
-0.2617993877991494
 40
1.832595714594046
  0
TABLESTYLE
  5
14B
102
{ACAD_XDICTIONARY
360
182
102
}
102
{ACAD_REACTORS
330
124
102
}
330
124
100
AcDbTableStyle
280
     0
  3
Standard
 70
     0
 71
     0
 40
0.06
 41
0.06
280
     0
281
     0
  7
Standard
140
0.18
170
     2
 62
     0
 63
     7
283
     0
 90
      512
 91
        0
  1

274
    -2
284
     1
 64
     0
275
    -2
285
     1
 65
     0
276
    -2
286
     1
 66
     0
277
    -2
287
     1
 67
     0
278
    -2
288
     1
 68
     0
279
    -2
289
     1
 69
     0
  7
Standard
140
0.25
170
     5
 62
     0
 63
     7
283
     0
 90
      512
 91
        0
  1

274
    -2
284
     1
 64
     0
275
    -2
285
     1
 65
     0
276
    -2
286
     1
 66
     0
277
    -2
287
     1
 67
     0
278
    -2
288
     1
 68
     0
279
    -2
289
     1
 69
     0
  7
Standard
140
0.18
170
     5
 62
     0
 63
     7
283
     0
 90
      512
 91
        0
  1

274
    -2
284
     1
 64
     0
275
    -2
285
     1
 65
     0
276
    -2
286
     1
 66
     0
277
    -2
287
     1
 67
     0
278
    -2
288
     1
 68
     0
279
    -2
289
     1
 69
     0
  0
VISUALSTYLE
  5
2F
102
{ACAD_REACTORS
330
2A
102
}
330
2A
100
AcDbVisualStyle
  2
2dWireframe
 70
     4
177
     3
291
     0
 70
    58
 90
        0
176
     1
 90
        2
176
     1
 90
        0
176
     1
 90
        0
176
     1
 40
0.6
176
     1
 40
30.0
176
     1
 62
     7
420
 16777215
176
     1
 90
        1
176
     1
 90
        4
176
     1
 62
     7
176
     1
 62
   257
176
     1
 90
        1
176
     1
 90
        1
176
     1
 40
1.0
176
     1
 90
        0
176
     1
 62
   257
176
     1
 40
1.0
176
     1
 90
        1
176
     1
 90
        6
176
     1
 90
        2
176
     1
 62
     7
176
     1
 90
        5
176
     1
 90
        0
176
     1
 90
        0
176
     1
290
     0
176
     1
 90
        1
176
     1
 40
0.0
176
     1
 90
        0
176
     1
290
     1
176
     1
290
     1
176
     1
290
     0
176
     1
290
     0
176
     1
290
     0
176
     1
290
     0
176
     1
290
     0
176
     1
290
     0
176
     1
290
     0
176
     1
 90
       50
176
     1
 40
0.0
176
     1
 40
1.0
176
     1
 90
        0
176
     1
 62
    18
420
        0
176
     1
 90
       50
176
     1
 90
        3
176
     1
 62
     5
420
      255
176
     1
290
     0
176
     1
 90
       50
176
     1
 90
       50
176
     1
 90
       50
176
     1
290
     0
176
     1
 90
       50
176
     1
 62
   256
176
     0
 40
1.0
176
     0
 90
        2
176
     1
  1
strokes_ogs.tif
176
     1
290
     0
176
     1
 40
1.0
176
     1
 40
1.0
176
     1
  0
VISUALSTYLE
  5
31
102
{ACAD_REACTORS
330
2A
102
}
330
2A
100
AcDbVisualStyle
  2
3D Hidden
 70
     6
177
     3
291
     0
 70
    58
 90
        1
176
     1
 90
        2
176
     1
 90
        2
176
     1
 90
        0
176
     1
 40
0.6
176
     1
 40
30.0
176
     1
 62
     7
420
 16777215
176
     1
 90
        2
176
     1
 90
        2
176
     1
 62
     7
176
     1
 62
   257
176
     1
 90
        2
176
     1
 90
        1
176
     1
 40
40.0
176
     1
 90
        0
176
     1
 62
   257
176
     1
 40
1.0
176
     1
 90
        1
176
     1
 90
        6
176
     1
 90
        2
176
     1
 62
     7
176
     1
 90
        3
176
     1
 90
        0
176
     1
 90
        0
176
     1
290
     0
176
     1
 90
        1
176
     1
 40
0.0
176
     1
 90
        0
176
     1
290
     0
176
     1
290
     1
176
     1
290
     1
176
     1
290
     0
176
     1
290
     0
176
     1
290
     0
176
     1
290
     0
176
     1
290
     0
176
     1
290
     0
176
     1
 90
       50
176
     1
 40
0.0
176
     1
 40
1.0
176
     1
 90
        0
176
     1
 62
    18
420
        0
176
     1
 90
       50
176
     1
 90
        3
176
     1
 62
     5
420
      255
176
     1
290
     0
176
     1
 90
       50
176
     1
 90
       50
176
     1
 90
       50
176
     1
290
     0
176
     1
 90
       50
176
     1
 62
   256
176
     0
 40
1.0
176
     0
 90
        2
176
     1
  1
strokes_ogs.tif
176
     1
290
     0
176
     1
 40
1.0
176
     1
 40
1.0
176
     1
  0
VISUALSTYLE
  5
30
102
{ACAD_REACTORS
330
2A
102
}
330
2A
100
AcDbVisualStyle
  2
3dWireframe
 70
     5
177
     3
291
     0
 70
    58
 90
        0
176
     1
 90
        2
176
     1
 90
        0
176
     1
 90
        0
176
     1
 40
0.6
176
     1
 40
30.0
176
     1
 62
     7
420
 16777215
176
     1
 90
        1
176
     1
 90
        4
176
     1
 62
     7
176
     1
 62
   257
176
     1
 90
        1
176
     1
 90
        1
176
     1
 40
1.0
176
     1
 90
        0
176
     1
 62
   257
176
     1
 40
1.0
176
     1
 90
        1
176
     1
 90
        6
176
     1
 90
        2
176
     1
 62
     7
176
     1
 90
        5
176
     1
 90
        0
176
     1
 90
        0
176
     1
290
     0
176
     1
 90
        1
176
     1
 40
0.0
176
     1
 90
        0
176
     1
290
     0
176
     1
290
     1
176
     1
290
     1
176
     1
290
     0
176
     1
290
     0
176
     1
290
     0
176
     1
290
     0
176
     1
290
     0
176
     1
290
     0
176
     1
 90
       50
176
     1
 40
0.0
176
     1
 40
1.0
176
     1
 90
        0
176
     1
 62
    18
420
        0
176
     1
 90
       50
176
     1
 90
        3
176
     1
 62
     5
420
      255
176
     1
290
     0
176
     1
 90
       50
176
     1
 90
       50
176
     1
 90
       50
176
     1
290
     0
176
     1
 90
       50
176
     1
 62
   256
176
     0
 40
1.0
176
     0
 90
        2
176
     1
  1
strokes_ogs.tif
176
     1
290
     0
176
     1
 40
1.0
176
     1
 40
1.0
176
     1
  0
VISUALSTYLE
  5
32
102
{ACAD_REACTORS
330
2A
102
}
330
2A
100
AcDbVisualStyle
  2
Basic
 70
     7
177
     3
291
     1
 70
    58
 90
        1
176
     1
 90
        0
176
     1
 90
        1
176
     1
 90
        0
176
     1
 40
0.6
176
     1
 40
30.0
176
     1
 62
     7
420
 16777215
176
     1
 90
        0
176
     1
 90
        4
176
     1
 62
     7
176
     1
 62
   257
176
     1
 90
        1
176
     1
 90
        1
176
     1
 40
1.0
176
     1
 90
        8
176
     1
 62
     7
176
     1
 40
1.0
176
     1
 90
        1
176
     1
 90
        6
176
     1
 90
        2
176
     1
 62
     7
176
     1
 90
        5
176
     1
 90
        0
176
     1
 90
        0
176
     1
290
     0
176
     1
 90
        1
176
     1
 40
0.0
176
     1
 90
        0
176
     1
290
     0
176
     1
290
     1
176
     1
290
     1
176
     1
290
     0
176
     1
290
     0
176
     1
290
     0
176
     1
290
     0
176
     1
290
     0
176
     1
290
     0
176
     1
 90
       50
176
     1
 40
0.0
176
     1
 40
1.0
176
     1
 90
        0
176
     1
 62
    18
420
        0
176
     1
 90
       50
176
     1
 90
        3
176
     1
 62
     5
420
      255
176
     1
290
     0
176
     1
 90
       50
176
     1
 90
       50
176
     1
 90
       50
176
     1
290
     0
176
     1
 90
       50
176
     1
 62
   256
176
     0
 40
1.0
176
     0
 90
        2
176
     1
  1
strokes_ogs.tif
176
     1
290
     0
176
     1
 40
1.0
176
     1
 40
1.0
176
     1
  0
VISUALSTYLE
  5
36
102
{ACAD_REACTORS
330
2A
102
}
330
2A
100
AcDbVisualStyle
  2
Brighten
 70
    12
177
     3
291
     1
 70
    58
 90
        2
176
     1
 90
        2
176
     1
 90
        0
176
     1
 90
        0
176
     1
 40
0.6
176
     1
 40
30.0
176
     1
 62
     7
420
 16777215
176
     1
 90
        1
176
     1
 90
        4
176
     1
 62
     7
176
     1
 62
   257
176
     1
 90
        1
176
     1
 90
        1
176
     1
 40
1.0
176
     1
 90
        8
176
     1
 62
     7
176
     1
 40
1.0
176
     1
 90
        1
176
     1
 90
        6
176
     1
 90
        2
176
     1
 62
     7
176
     1
 90
        5
176
     1
 90
        0
176
     1
 90
        0
176
     1
290
     0
176
     1
 90
        1
176
     1
 40
50.0
176
     1
 90
        0
176
     1
290
     0
176
     1
290
     1
176
     1
290
     1
176
     1
290
     0
176
     1
290
     0
176
     1
290
     0
176
     1
290
     0
176
     1
290
     0
176
     1
290
     0
176
     1
 90
       50
176
     1
 40
0.0
176
     1
 40
1.0
176
     1
 90
        0
176
     1
 62
    18
420
        0
176
     1
 90
       50
176
     1
 90
        3
176
     1
 62
     5
420
      255
176
     1
290
     0
176
     1
 90
       50
176
     1
 90
       50
176
     1
 90
       50
176
     1
290
     0
176
     1
 90
       50
176
     1
 62
   256
176
     0
 40
1.0
176
     0
 90
        2
176
     1
  1
strokes_ogs.tif
176
     1
290
     0
176
     1
 40
1.0
176
     1
 40
1.0
176
     1
  0
VISUALSTYLE
  5
3A
102
{ACAD_REACTORS
330
2A
102
}
330
2A
100
AcDbVisualStyle
  2
ColorChange
 70
    16
177
     3
291
     1
 70
    58
 90
        2
176
     1
 90
        2
176
     1
 90
        3
176
     1
 90
        0
176
     1
 40
0.6
176
     1
 40
30.0
176
     1
 62
     8
420
  8421504
176
     1
 90
        1
176
     1
 90
        4
176
     1
 62
     7
176
     1
 62
   257
176
     1
 90
        1
176
     1
 90
        1
176
     1
 40
1.0
176
     1
 90
        8
176
     1
 62
     8
420
  8421504
176
     1
 40
1.0
176
     1
 90
        1
176
     1
 90
        6
176
     1
 90
        2
176
     1
 62
     7
176
     1
 90
        5
176
     1
 90
        0
176
     1
 90
        0
176
     1
290
     0
176
     1
 90
        1
176
     1
 40
0.0
176
     1
 90
        0
176
     1
290
     0
176
     1
290
     1
176
     1
290
     1
176
     1
290
     0
176
     1
290
     0
176
     1
290
     0
176
     1
290
     0
176
     1
290
     0
176
     1
290
     0
176
     1
 90
       50
176
     1
 40
0.0
176
     1
 40
1.0
176
     1
 90
        0
176
     1
 62
    18
420
        0
176
     1
 90
       50
176
     1
 90
        3
176
     1
 62
     5
420
      255
176
     1
290
     0
176
     1
 90
       50
176
     1
 90
       50
176
     1
 90
       50
176
     1
290
     0
176
     1
 90
       50
176
     1
 62
   256
176
     0
 40
1.0
176
     0
 90
        2
176
     1
  1
strokes_ogs.tif
176
     1
290
     0
176
     1
 40
1.0
176
     1
 40
1.0
176
     1
  0
VISUALSTYLE
  5
34
102
{ACAD_REACTORS
330
2A
102
}
330
2A
100
AcDbVisualStyle
  2
Conceptual
 70
     9
177
     3
291
     0
 70
    58
 90
        3
176
     1
 90
        2
176
     1
 90
        0
176
     1
 90
        0
176
     1
 40
0.6
176
     1
 40
30.0
176
     1
 62
     7
420
 16777215
176
     1
 90
        2
176
     1
 90
        2
176
     1
 62
     7
176
     1
 62
   257
176
     1
 90
        1
176
     1
 90
        1
176
     1
 40
40.0
176
     1
 90
        8
176
     1
 62
     7
176
     1
 40
1.0
176
     1
 90
        1
176
     1
 90
        6
176
     1
 90
        2
176
     1
 62
     7
176
     1
 90
        3
176
     1
 90
        0
176
     1
 90
        0
176
     1
290
     0
176
     1
 90
        1
176
     1
 40
0.0
176
     1
 90
        0
176
     1
290
     0
176
     1
290
     1
176
     1
290
     1
176
     1
290
     0
176
     1
290
     0
176
     1
290
     0
176
     1
290
     0
176
     1
290
     0
176
     1
290
     0
176
     1
 90
       50
176
     1
 40
0.0
176
     1
 40
1.0
176
     1
 90
        0
176
     1
 62
    18
420
        0
176
     1
 90
       50
176
     1
 90
        3
176
     1
 62
     5
420
      255
176
     1
290
     0
176
     1
 90
       50
176
     1
 90
       50
176
     1
 90
       50
176
     1
290
     0
176
     1
 90
       50
176
     1
 62
   256
176
     0
 40
1.0
176
     0
 90
        2
176
     1
  1
strokes_ogs.tif
176
     1
290
     0
176
     1
 40
1.0
176
     1
 40
1.0
176
     1
  0
VISUALSTYLE
  5
35
102
{ACAD_REACTORS
330
2A
102
}
330
2A
100
AcDbVisualStyle
  2
Dim
 70
    11
177
     3
291
     1
 70
    58
 90
        2
176
     1
 90
        2
176
     1
 90
        0
176
     1
 90
        0
176
     1
 40
0.6
176
     1
 40
30.0
176
     1
 62
     7
420
 16777215
176
     1
 90
        1
176
     1
 90
        4
176
     1
 62
     7
176
     1
 62
   257
176
     1
 90
        1
176
     1
 90
        1
176
     1
 40
1.0
176
     1
 90
        8
176
     1
 62
     7
176
     1
 40
1.0
176
     1
 90
        1
176
     1
 90
        6
176
     1
 90
        2
176
     1
 62
     7
176
     1
 90
        5
176
     1
 90
        0
176
     1
 90
        0
176
     1
290
     0
176
     1
 90
        1
176
     1
 40
-50.0
176
     1
 90
        0
176
     1
290
     0
176
     1
290
     1
176
     1
290
     1
176
     1
290
     0
176
     1
290
     0
176
     1
290
     0
176
     1
290
     0
176
     1
290
     0
176
     1
290
     0
176
     1
 90
       50
176
     1
 40
0.0
176
     1
 40
1.0
176
     1
 90
        0
176
     1
 62
    18
420
        0
176
     1
 90
       50
176
     1
 90
        3
176
     1
 62
     5
420
      255
176
     1
290
     0
176
     1
 90
       50
176
     1
 90
       50
176
     1
 90
       50
176
     1
290
     0
176
     1
 90
       50
176
     1
 62
   256
176
     0
 40
1.0
176
     0
 90
        2
176
     1
  1
strokes_ogs.tif
176
     1
290
     0
176
     1
 40
1.0
176
     1
 40
1.0
176
     1
  0
VISUALSTYLE
  5
149
102
{ACAD_REACTORS
330
2A
102
}
330
2A
100
AcDbVisualStyle
  2
EdgeColorOff
 70
    22
177
     3
291
     1
 70
    58
 90
        2
176
     0
 90
        2
176
     0
 90
        0
176
     0
 90
        0
176
     0
 40
0.6
176
     0
 40
30.0
176
     0
 62
     7
420
 16777215
176
     0
 90
        1
176
     0
 90
        4
176
     0
 62
     7
176
     0
 62
   257
176
     0
 90
        1
176
     0
 90
        1
176
     0
 40
1.0
176
     0
 90
        8
176
     2
 62
     7
176
     0
 40
1.0
176
     0
 90
        1
176
     0
 90
        6
176
     0
 90
        2
176
     0
 62
     7
176
     0
 90
        5
176
     0
 90
        0
176
     0
 90
        0
176
     0
290
     0
176
     0
 90
        1
176
     0
 40
0.0
176
     0
 90
        0
176
     0
290
     0
176
     0
290
     1
176
     0
290
     1
176
     0
290
     0
176
     0
290
     0
176
     0
290
     0
176
     0
290
     0
176
     0
290
     0
176
     0
290
     0
176
     0
 90
       50
176
     0
 40
0.0
176
     0
 40
1.0
176
     0
 90
        0
176
     0
 62
    18
420
        0
176
     0
 90
       50
176
     0
 90
        3
176
     0
 62
     5
420
      255
176
     0
290
     0
176
     0
 90
       50
176
     0
 90
       50
176
     0
 90
       50
176
     0
290
     0
176
     0
 90
       50
176
     0
 62
   256
176
     0
 40
1.0
176
     0
 90
        2
176
     0
  1
strokes_ogs.tif
176
     0
290
     0
176
     0
 40
1.0
176
     0
 40
1.0
176
     0
  0
VISUALSTYLE
  5
39
102
{ACAD_REACTORS
330
2A
102
}
330
2A
100
AcDbVisualStyle
  2
Facepattern
 70
    15
177
     3
291
     1
 70
    58
 90
        2
176
     1
 90
        2
176
     1
 90
        0
176
     1
 90
        0
176
     1
 40
0.6
176
     1
 40
30.0
176
     1
 62
     7
420
 16777215
176
     1
 90
        1
176
     1
 90
        4
176
     1
 62
     7
176
     1
 62
   257
176
     1
 90
        1
176
     1
 90
        1
176
     1
 40
1.0
176
     1
 90
        8
176
     1
 62
     7
176
     1
 40
1.0
176
     1
 90
        1
176
     1
 90
        6
176
     1
 90
        2
176
     1
 62
     7
176
     1
 90
        5
176
     1
 90
        0
176
     1
 90
        0
176
     1
290
     0
176
     1
 90
        1
176
     1
 40
0.0
176
     1
 90
        0
176
     1
290
     0
176
     1
290
     1
176
     1
290
     1
176
     1
290
     0
176
     1
290
     0
176
     1
290
     0
176
     1
290
     0
176
     1
290
     0
176
     1
290
     0
176
     1
 90
       50
176
     1
 40
0.0
176
     1
 40
1.0
176
     1
 90
        0
176
     1
 62
    18
420
        0
176
     1
 90
       50
176
     1
 90
        3
176
     1
 62
     5
420
      255
176
     1
290
     0
176
     1
 90
       50
176
     1
 90
       50
176
     1
 90
       50
176
     1
290
     0
176
     1
 90
       50
176
     1
 62
   256
176
     0
 40
1.0
176
     0
 90
        2
176
     1
  1
strokes_ogs.tif
176
     1
290
     0
176
     1
 40
1.0
176
     1
 40
1.0
176
     1
  0
VISUALSTYLE
  5
2B
102
{ACAD_REACTORS
330
2A
102
}
330
2A
100
AcDbVisualStyle
  2
Flat
 70
     0
177
     3
291
     1
 70
    58
 90
        2
176
     1
 90
        1
176
     1
 90
        1
176
     1
 90
        2
176
     1
 40
0.6
176
     1
 40
30.0
176
     1
 62
     7
420
 16777215
176
     1
 90
        0
176
     1
 90
        4
176
     1
 62
     7
176
     1
 62
   257
176
     1
 90
        1
176
     1
 90
        1
176
     1
 40
1.0
176
     1
 90
        8
176
     1
 62
     7
176
     1
 40
1.0
176
     1
 90
        1
176
     1
 90
        6
176
     1
 90
        2
176
     1
 62
     7
176
     1
 90
        5
176
     1
 90
        0
176
     1
 90
        0
176
     1
290
     0
176
     1
 90
       13
176
     1
 40
0.0
176
     1
 90
        0
176
     1
290
     0
176
     1
290
     1
176
     1
290
     1
176
     1
290
     0
176
     1
290
     0
176
     1
290
     0
176
     1
290
     0
176
     1
290
     0
176
     1
290
     0
176
     1
 90
       50
176
     1
 40
0.0
176
     1
 40
1.0
176
     1
 90
        0
176
     1
 62
    18
420
        0
176
     1
 90
       50
176
     1
 90
        3
176
     1
 62
     5
420
      255
176
     1
290
     0
176
     1
 90
       50
176
     1
 90
       50
176
     1
 90
       50
176
     1
290
     0
176
     1
 90
       50
176
     1
 62
   256
176
     0
 40
1.0
176
     0
 90
        2
176
     1
  1
strokes_ogs.tif
176
     1
290
     0
176
     1
 40
1.0
176
     1
 40
1.0
176
     1
  0
VISUALSTYLE
  5
2C
102
{ACAD_REACTORS
330
2A
102
}
330
2A
100
AcDbVisualStyle
  2
FlatWithEdges
 70
     1
177
     3
291
     1
 70
    58
 90
        2
176
     1
 90
        1
176
     1
 90
        1
176
     1
 90
        2
176
     1
 40
0.6
176
     1
 40
30.0
176
     1
 62
     7
420
 16777215
176
     1
 90
        1
176
     1
 90
        4
176
     1
 62
     7
176
     1
 62
   257
176
     1
 90
        1
176
     1
 90
        1
176
     1
 40
1.0
176
     1
 90
        0
176
     1
 62
   257
176
     1
 40
1.0
176
     1
 90
        1
176
     1
 90
        6
176
     1
 90
        2
176
     1
 62
     7
176
     1
 90
        5
176
     1
 90
        0
176
     1
 90
        0
176
     1
290
     0
176
     1
 90
       13
176
     1
 40
0.0
176
     1
 90
        0
176
     1
290
     0
176
     1
290
     1
176
     1
290
     1
176
     1
290
     0
176
     1
290
     0
176
     1
290
     0
176
     1
290
     0
176
     1
290
     0
176
     1
290
     0
176
     1
 90
       50
176
     1
 40
0.0
176
     1
 40
1.0
176
     1
 90
        0
176
     1
 62
    18
420
        0
176
     1
 90
       50
176
     1
 90
        3
176
     1
 62
     5
420
      255
176
     1
290
     0
176
     1
 90
       50
176
     1
 90
       50
176
     1
 90
       50
176
     1
290
     0
176
     1
 90
       50
176
     1
 62
   256
176
     0
 40
1.0
176
     0
 90
        2
176
     1
  1
strokes_ogs.tif
176
     1
290
     0
176
     1
 40
1.0
176
     1
 40
1.0
176
     1
  0
VISUALSTYLE
  5
2D
102
{ACAD_REACTORS
330
2A
102
}
330
2A
100
AcDbVisualStyle
  2
Gouraud
 70
     2
177
     3
291
     1
 70
    58
 90
        2
176
     1
 90
        2
176
     1
 90
        1
176
     1
 90
        2
176
     1
 40
0.6
176
     1
 40
30.0
176
     1
 62
     7
420
 16777215
176
     1
 90
        0
176
     1
 90
        4
176
     1
 62
     7
176
     1
 62
   257
176
     1
 90
        1
176
     1
 90
        1
176
     1
 40
1.0
176
     1
 90
        0
176
     1
 62
     7
176
     1
 40
1.0
176
     1
 90
        1
176
     1
 90
        6
176
     1
 90
        2
176
     1
 62
     7
176
     1
 90
        5
176
     1
 90
        0
176
     1
 90
        0
176
     1
290
     0
176
     1
 90
       13
176
     1
 40
0.0
176
     1
 90
        0
176
     1
290
     0
176
     1
290
     1
176
     1
290
     1
176
     1
290
     0
176
     1
290
     0
176
     1
290
     0
176
     1
290
     0
176
     1
290
     0
176
     1
290
     0
176
     1
 90
       50
176
     1
 40
0.0
176
     1
 40
1.0
176
     1
 90
        0
176
     1
 62
    18
420
        0
176
     1
 90
       50
176
     1
 90
        3
176
     1
 62
     5
420
      255
176
     1
290
     0
176
     1
 90
       50
176
     1
 90
       50
176
     1
 90
       50
176
     1
290
     0
176
     1
 90
       50
176
     1
 62
   256
176
     0
 40
1.0
176
     0
 90
        2
176
     1
  1
strokes_ogs.tif
176
     1
290
     0
176
     1
 40
1.0
176
     1
 40
1.0
176
     1
  0
VISUALSTYLE
  5
2E
102
{ACAD_REACTORS
330
2A
102
}
330
2A
100
AcDbVisualStyle
  2
GouraudWithEdges
 70
     3
177
     3
291
     1
 70
    58
 90
        2
176
     1
 90
        2
176
     1
 90
        1
176
     1
 90
        2
176
     1
 40
0.6
176
     1
 40
30.0
176
     1
 62
     7
420
 16777215
176
     1
 90
        1
176
     1
 90
        4
176
     1
 62
     7
176
     1
 62
   257
176
     1
 90
        1
176
     1
 90
        1
176
     1
 40
1.0
176
     1
 90
        0
176
     1
 62
   257
176
     1
 40
1.0
176
     1
 90
        1
176
     1
 90
        6
176
     1
 90
        2
176
     1
 62
     7
176
     1
 90
        5
176
     1
 90
        0
176
     1
 90
        0
176
     1
290
     0
176
     1
 90
       13
176
     1
 40
0.0
176
     1
 90
        0
176
     1
290
     0
176
     1
290
     1
176
     1
290
     1
176
     1
290
     0
176
     1
290
     0
176
     1
290
     0
176
     1
290
     0
176
     1
290
     0
176
     1
290
     0
176
     1
 90
       50
176
     1
 40
0.0
176
     1
 40
1.0
176
     1
 90
        0
176
     1
 62
    18
420
        0
176
     1
 90
       50
176
     1
 90
        3
176
     1
 62
     5
420
      255
176
     1
290
     0
176
     1
 90
       50
176
     1
 90
       50
176
     1
 90
       50
176
     1
290
     0
176
     1
 90
       50
176
     1
 62
   256
176
     0
 40
1.0
176
     0
 90
        2
176
     1
  1
strokes_ogs.tif
176
     1
290
     0
176
     1
 40
1.0
176
     1
 40
1.0
176
     1
  0
VISUALSTYLE
  5
141
102
{ACAD_REACTORS
330
2A
102
}
330
2A
100
AcDbVisualStyle
  2
Hidden
 70
     6
177
     3
291
     0
 70
    58
 90
        1
176
     1
 90
        2
176
     1
 90
        2
176
     1
 90
        0
176
     1
 40
0.6
176
     1
 40
30.0
176
     1
 62
     7
420
 16777215
176
     1
 90
        2
176
     1
 90
        2
176
     1
 62
     7
176
     1
 62
   257
176
     1
 90
        2
176
     1
 90
        1
176
     1
 40
40.0
176
     1
 90
        0
176
     1
 62
   257
176
     1
 40
1.0
176
     1
 90
        1
176
     1
 90
        6
176
     1
 90
        2
176
     1
 62
     7
176
     1
 90
        3
176
     1
 90
        0
176
     1
 90
        0
176
     1
290
     0
176
     1
 90
        1
176
     1
 40
0.0
176
     1
 90
        0
176
     1
290
     0
176
     1
290
     1
176
     1
290
     1
176
     1
290
     0
176
     1
290
     0
176
     1
290
     0
176
     1
290
     0
176
     1
290
     0
176
     1
290
     0
176
     1
 90
       50
176
     1
 40
0.0
176
     1
 40
1.0
176
     1
 90
        0
176
     1
 62
    18
420
        0
176
     1
 90
       50
176
     1
 90
        3
176
     1
 62
     5
420
      255
176
     1
290
     0
176
     1
 90
       50
176
     1
 90
       50
176
     1
 90
       50
176
     1
290
     0
176
     1
 90
       50
176
     1
 62
   256
176
     0
 40
1.0
176
     0
 90
        2
176
     1
  1
strokes_ogs.tif
176
     1
290
     0
176
     1
 40
1.0
176
     1
 40
1.0
176
     1
  0
VISUALSTYLE
  5
147
102
{ACAD_REACTORS
330
2A
102
}
330
2A
100
AcDbVisualStyle
  2
JitterOff
 70
    20
177
     3
291
     1
 70
    58
 90
        2
176
     0
 90
        2
176
     0
 90
        0
176
     0
 90
        0
176
     0
 40
0.6
176
     0
 40
30.0
176
     0
 62
     7
420
 16777215
176
     0
 90
        1
176
     0
 90
        4
176
     0
 62
     7
176
     0
 62
   257
176
     0
 90
        1
176
     0
 90
        1
176
     0
 40
1.0
176
     0
 90
       10
176
     2
 62
     7
176
     0
 40
1.0
176
     0
 90
        1
176
     0
 90
        6
176
     0
 90
        2
176
     0
 62
     7
176
     0
 90
        5
176
     0
 90
        0
176
     0
 90
        0
176
     0
290
     0
176
     0
 90
        1
176
     0
 40
0.0
176
     0
 90
        0
176
     0
290
     0
176
     0
290
     1
176
     0
290
     1
176
     0
290
     0
176
     0
290
     0
176
     0
290
     0
176
     0
290
     0
176
     0
290
     0
176
     0
290
     0
176
     0
 90
       50
176
     0
 40
0.0
176
     0
 40
1.0
176
     0
 90
        0
176
     0
 62
    18
420
        0
176
     0
 90
       50
176
     0
 90
        3
176
     0
 62
     5
420
      255
176
     0
290
     0
176
     0
 90
       50
176
     0
 90
       50
176
     0
 90
       50
176
     0
290
     0
176
     0
 90
       50
176
     0
 62
   256
176
     0
 40
1.0
176
     0
 90
        2
176
     0
  1
strokes_ogs.tif
176
     0
290
     0
176
     0
 40
1.0
176
     0
 40
1.0
176
     0
  0
VISUALSTYLE
  5
38
102
{ACAD_REACTORS
330
2A
102
}
330
2A
100
AcDbVisualStyle
  2
Linepattern
 70
    14
177
     3
291
     1
 70
    58
 90
        2
176
     1
 90
        2
176
     1
 90
        0
176
     1
 90
        0
176
     1
 40
0.6
176
     1
 40
30.0
176
     1
 62
     7
420
 16777215
176
     1
 90
        1
176
     1
 90
        4
176
     1
 62
     7
176
     1
 62
   257
176
     1
 90
        7
176
     1
 90
        7
176
     1
 40
1.0
176
     1
 90
        8
176
     1
 62
     7
176
     1
 40
1.0
176
     1
 90
        1
176
     1
 90
        6
176
     1
 90
        2
176
     1
 62
     7
176
     1
 90
        5
176
     1
 90
        0
176
     1
 90
        0
176
     1
290
     0
176
     1
 90
        1
176
     1
 40
0.0
176
     1
 90
        0
176
     1
290
     0
176
     1
290
     1
176
     1
290
     1
176
     1
290
     0
176
     1
290
     0
176
     1
290
     0
176
     1
290
     0
176
     1
290
     0
176
     1
290
     0
176
     1
 90
       50
176
     1
 40
0.0
176
     1
 40
1.0
176
     1
 90
        0
176
     1
 62
    18
420
        0
176
     1
 90
       50
176
     1
 90
        3
176
     1
 62
     5
420
      255
176
     1
290
     0
176
     1
 90
       50
176
     1
 90
       50
176
     1
 90
       50
176
     1
290
     0
176
     1
 90
       50
176
     1
 62
   256
176
     0
 40
1.0
176
     0
 90
        2
176
     1
  1
strokes_ogs.tif
176
     1
290
     0
176
     1
 40
1.0
176
     1
 40
1.0
176
     1
  0
VISUALSTYLE
  5
148
102
{ACAD_REACTORS
330
2A
102
}
330
2A
100
AcDbVisualStyle
  2
OverhangOff
 70
    21
177
     3
291
     1
 70
    58
 90
        2
176
     0
 90
        2
176
     0
 90
        0
176
     0
 90
        0
176
     0
 40
0.6
176
     0
 40
30.0
176
     0
 62
     7
420
 16777215
176
     0
 90
        1
176
     0
 90
        4
176
     0
 62
     7
176
     0
 62
   257
176
     0
 90
        1
176
     0
 90
        1
176
     0
 40
1.0
176
     0
 90
        9
176
     2
 62
     7
176
     0
 40
1.0
176
     0
 90
        1
176
     0
 90
        6
176
     0
 90
        2
176
     0
 62
     7
176
     0
 90
        5
176
     0
 90
        0
176
     0
 90
        0
176
     0
290
     0
176
     0
 90
        1
176
     0
 40
0.0
176
     0
 90
        0
176
     0
290
     0
176
     0
290
     1
176
     0
290
     1
176
     0
290
     0
176
     0
290
     0
176
     0
290
     0
176
     0
290
     0
176
     0
290
     0
176
     0
290
     0
176
     0
 90
       50
176
     0
 40
0.0
176
     0
 40
1.0
176
     0
 90
        0
176
     0
 62
    18
420
        0
176
     0
 90
       50
176
     0
 90
        3
176
     0
 62
     5
420
      255
176
     0
290
     0
176
     0
 90
       50
176
     0
 90
       50
176
     0
 90
       50
176
     0
290
     0
176
     0
 90
       50
176
     0
 62
   256
176
     0
 40
1.0
176
     0
 90
        2
176
     0
  1
strokes_ogs.tif
176
     0
290
     0
176
     0
 40
1.0
176
     0
 40
1.0
176
     0
  0
VISUALSTYLE
  5
33
102
{ACAD_REACTORS
330
2A
102
}
330
2A
100
AcDbVisualStyle
  2
Realistic
 70
     8
177
     3
291
     0
 70
    58
 90
        2
176
     1
 90
        2
176
     1
 90
        0
176
     1
 90
        0
176
     1
 40
0.6
176
     1
 40
30.0
176
     1
 62
     7
420
 16777215
176
     1
 90
        1
176
     1
 90
        0
176
     1
 62
     7
176
     1
 62
   257
176
     1
 90
        1
176
     1
 90
        1
176
     1
 40
1.0
176
     1
 90
        8
176
     1
 62
     8
420
  7895160
176
     1
 40
1.0
176
     1
 90
        1
176
     1
 90
        6
176
     1
 90
        2
176
     1
 62
     7
176
     1
 90
        5
176
     1
 90
        0
176
     1
 90
        0
176
     1
290
     0
176
     1
 90
       13
176
     1
 40
0.0
176
     1
 90
        0
176
     1
290
     0
176
     1
290
     1
176
     1
290
     1
176
     1
290
     0
176
     1
290
     0
176
     1
290
     0
176
     1
290
     0
176
     1
290
     0
176
     1
290
     0
176
     1
 90
       50
176
     1
 40
0.0
176
     1
 40
1.0
176
     1
 90
        0
176
     1
 62
    18
420
        0
176
     1
 90
       50
176
     1
 90
        3
176
     1
 62
     5
420
      255
176
     1
290
     0
176
     1
 90
       50
176
     1
 90
       50
176
     1
 90
       50
176
     1
290
     0
176
     1
 90
       50
176
     1
 62
   256
176
     0
 40
1.0
176
     0
 90
        2
176
     1
  1
strokes_ogs.tif
176
     1
290
     0
176
     1
 40
1.0
176
     1
 40
1.0
176
     1
  0
VISUALSTYLE
  5
146
102
{ACAD_REACTORS
330
2A
102
}
330
2A
100
AcDbVisualStyle
  2
Shaded
 70
    27
177
     3
291
     0
 70
    58
 90
        2
176
     1
 90
        2
176
     1
 90
        1
176
     1
 90
        2
176
     1
 40
0.6
176
     1
 40
30.0
176
     1
 62
     7
420
 16777215
176
     1
 90
        0
176
     1
 90
        4
176
     1
 62
     7
176
     1
 62
   257
176
     1
 90
        1
176
     1
 90
        1
176
     1
 40
1.0
176
     1
 90
        8
176
     1
 62
   257
176
     1
 40
1.0
176
     1
 90
        1
176
     1
 90
        6
176
     1
 90
        2
176
     1
 62
     8
420
  7895160
176
     1
 90
        3
176
     1
 90
        0
176
     1
 90
        0
176
     1
290
     0
176
     1
 90
        5
176
     1
 40
0.0
176
     1
 90
        0
176
     1
290
     0
176
     1
290
     1
176
     1
290
     1
176
     1
290
     0
176
     1
290
     0
176
     1
290
     0
176
     1
290
     0
176
     1
290
     0
176
     1
290
     0
176
     1
 90
       50
176
     1
 40
0.0
176
     1
 40
1.0
176
     1
 90
        0
176
     1
 62
    18
420
        0
176
     1
 90
       50
176
     1
 90
        3
176
     1
 62
     5
420
      255
176
     1
290
     0
176
     1
 90
       50
176
     1
 90
       50
176
     1
 90
       50
176
     1
290
     0
176
     1
 90
       50
176
     1
 62
   256
176
     0
 40
1.0
176
     0
 90
        2
176
     1
  1
strokes_ogs.tif
176
     1
290
     0
176
     1
 40
1.0
176
     1
 40
1.0
176
     1
  0
VISUALSTYLE
  5
145
102
{ACAD_REACTORS
330
2A
102
}
330
2A
100
AcDbVisualStyle
  2
Shaded with edges
 70
    26
177
     3
291
     0
 70
    58
 90
        2
176
     1
 90
        2
176
     1
 90
        1
176
     1
 90
        2
176
     1
 40
0.6
176
     1
 40
30.0
176
     1
 62
     7
420
 16777215
176
     1
 90
        1
176
     1
 90
       10
176
     1
 62
     7
176
     1
 62
   257
176
     1
 90
        2
176
     1
 90
        1
176
     1
 40
1.0
176
     1
 90
        8
176
     1
 62
   257
176
     1
 40
1.0
176
     1
 90
        1
176
     1
 90
        6
176
     1
 90
        2
176
     1
 62
     7
176
     1
 90
        3
176
     1
 90
        0
176
     1
 90
        0
176
     1
290
     0
176
     1
 90
        5
176
     1
 40
0.0
176
     1
 90
        0
176
     1
290
     0
176
     1
290
     1
176
     1
290
     1
176
     1
290
     0
176
     1
290
     0
176
     1
290
     0
176
     1
290
     0
176
     1
290
     0
176
     1
290
     0
176
     1
 90
       50
176
     1
 40
0.0
176
     1
 40
1.0
176
     1
 90
        0
176
     1
 62
    18
420
        0
176
     1
 90
       50
176
     1
 90
        3
176
     1
 62
     5
420
      255
176
     1
290
     0
176
     1
 90
       50
176
     1
 90
       50
176
     1
 90
       50
176
     1
290
     0
176
     1
 90
       50
176
     1
 62
   256
176
     0
 40
1.0
176
     0
 90
        2
176
     1
  1
strokes_ogs.tif
176
     1
290
     0
176
     1
 40
1.0
176
     1
 40
1.0
176
     1
  0
VISUALSTYLE
  5
142
102
{ACAD_REACTORS
330
2A
102
}
330
2A
100
AcDbVisualStyle
  2
Shades of Gray
 70
    23
177
     3
291
     0
 70
    58
 90
        2
176
     1
 90
        2
176
     1
 90
        3
176
     1
 90
        0
176
     1
 40
0.6
176
     1
 40
30.0
176
     1
 62
     7
420
 16777215
176
     1
 90
        2
176
     1
 90
        2
176
     1
 62
     7
176
     1
 62
     7
176
     1
 90
        1
176
     1
 90
        1
176
     1
 40
40.0
176
     1
 90
        8
176
     1
 62
     7
176
     1
 40
1.0
176
     1
 90
        1
176
     1
 90
        6
176
     1
 90
        2
176
     1
 62
     7
176
     1
 90
        3
176
     1
 90
        0
176
     1
 90
        0
176
     1
290
     0
176
     1
 90
        1
176
     1
 40
0.0
176
     1
 90
        0
176
     1
290
     0
176
     1
290
     1
176
     1
290
     1
176
     1
290
     0
176
     1
290
     0
176
     1
290
     0
176
     1
290
     0
176
     1
290
     0
176
     1
290
     0
176
     1
 90
       50
176
     1
 40
0.0
176
     1
 40
1.0
176
     1
 90
        0
176
     1
 62
    18
420
        0
176
     1
 90
       50
176
     1
 90
        3
176
     1
 62
     5
420
      255
176
     1
290
     0
176
     1
 90
       50
176
     1
 90
       50
176
     1
 90
       50
176
     1
290
     0
176
     1
 90
       50
176
     1
 62
   256
176
     0
 40
1.0
176
     0
 90
        2
176
     1
  1
strokes_ogs.tif
176
     1
290
     0
176
     1
 40
1.0
176
     1
 40
1.0
176
     1
  0
VISUALSTYLE
  5
143
102
{ACAD_REACTORS
330
2A
102
}
330
2A
100
AcDbVisualStyle
  2
Sketchy
 70
    24
177
     3
291
     0
 70
    58
 90
        1
176
     1
 90
        2
176
     1
 90
        2
176
     1
 90
        0
176
     1
 40
0.6
176
     1
 40
30.0
176
     1
 62
     7
420
 16777215
176
     1
 90
        2
176
     1
 90
        2
176
     1
 62
     7
176
     1
 62
     7
176
     1
 90
        1
176
     1
 90
        1
176
     1
 40
40.0
176
     1
 90
       11
176
     1
 62
     7
176
     1
 40
1.0
176
     1
 90
        1
176
     1
 90
        6
176
     1
 90
        2
176
     1
 62
     7
176
     1
 90
        6
176
     1
 90
        0
176
     1
 90
        0
176
     1
290
     0
176
     1
 90
        1
176
     1
 40
0.0
176
     1
 90
        0
176
     1
290
     0
176
     1
290
     1
176
     1
290
     1
176
     1
290
     0
176
     1
290
     0
176
     1
290
     0
176
     1
290
     0
176
     1
290
     0
176
     1
290
     0
176
     1
 90
       50
176
     1
 40
0.0
176
     1
 40
1.0
176
     1
 90
        0
176
     1
 62
    18
420
        0
176
     1
 90
       50
176
     1
 90
        3
176
     1
 62
     5
420
      255
176
     1
290
     0
176
     1
 90
       50
176
     1
 90
       50
176
     1
 90
       50
176
     1
290
     0
176
     1
 90
       50
176
     1
 62
   256
176
     0
 40
1.0
176
     0
 90
        2
176
     1
  1
strokes_ogs.tif
176
     1
290
     0
176
     1
 40
1.0
176
     1
 40
1.0
176
     1
  0
VISUALSTYLE
  5
37
102
{ACAD_REACTORS
330
2A
102
}
330
2A
100
AcDbVisualStyle
  2
Thicken
 70
    13
177
     3
291
     1
 70
    58
 90
        2
176
     1
 90
        2
176
     1
 90
        0
176
     1
 90
        0
176
     1
 40
0.6
176
     1
 40
30.0
176
     1
 62
     7
420
 16777215
176
     1
 90
        1
176
     1
 90
        4
176
     1
 62
     7
176
     1
 62
   257
176
     1
 90
        1
176
     1
 90
        1
176
     1
 40
1.0
176
     1
 90
       12
176
     1
 62
     7
176
     1
 40
1.0
176
     1
 90
        1
176
     1
 90
        6
176
     1
 90
        2
176
     1
 62
     7
176
     1
 90
        5
176
     1
 90
        0
176
     1
 90
        0
176
     1
290
     0
176
     1
 90
        1
176
     1
 40
0.0
176
     1
 90
        0
176
     1
290
     0
176
     1
290
     1
176
     1
290
     1
176
     1
290
     0
176
     1
290
     0
176
     1
290
     0
176
     1
290
     0
176
     1
290
     0
176
     1
290
     0
176
     1
 90
       50
176
     1
 40
0.0
176
     1
 40
1.0
176
     1
 90
        0
176
     1
 62
    18
420
        0
176
     1
 90
       50
176
     1
 90
        3
176
     1
 62
     5
420
      255
176
     1
290
     0
176
     1
 90
       50
176
     1
 90
       50
176
     1
 90
       50
176
     1
290
     0
176
     1
 90
       50
176
     1
 62
   256
176
     0
 40
1.0
176
     0
 90
        2
176
     1
  1
strokes_ogs.tif
176
     1
290
     0
176
     1
 40
1.0
176
     1
 40
1.0
176
     1
  0
VISUALSTYLE
  5
140
102
{ACAD_REACTORS
330
2A
102
}
330
2A
100
AcDbVisualStyle
  2
Wireframe
 70
     5
177
     3
291
     0
 70
    58
 90
        0
176
     1
 90
        2
176
     1
 90
        0
176
     1
 90
        0
176
     1
 40
0.6
176
     1
 40
30.0
176
     1
 62
     7
420
 16777215
176
     1
 90
        1
176
     1
 90
        4
176
     1
 62
     7
176
     1
 62
   257
176
     1
 90
        1
176
     1
 90
        1
176
     1
 40
1.0
176
     1
 90
        0
176
     1
 62
   257
176
     1
 40
1.0
176
     1
 90
        1
176
     1
 90
        6
176
     1
 90
        2
176
     1
 62
     7
176
     1
 90
        3
176
     1
 90
        0
176
     1
 90
        0
176
     1
290
     0
176
     1
 90
        1
176
     1
 40
0.0
176
     1
 90
        0
176
     1
290
     0
176
     1
290
     1
176
     1
290
     1
176
     1
290
     0
176
     1
290
     0
176
     1
290
     0
176
     1
290
     0
176
     1
290
     0
176
     1
290
     0
176
     1
 90
       50
176
     1
 40
0.0
176
     1
 40
1.0
176
     1
 90
        0
176
     1
 62
    18
420
        0
176
     1
 90
       50
176
     1
 90
        3
176
     1
 62
     5
420
      255
176
     1
290
     0
176
     1
 90
       50
176
     1
 90
       50
176
     1
 90
       50
176
     1
290
     0
176
     1
 90
       50
176
     1
 62
   256
176
     0
 40
1.0
176
     0
 90
        2
176
     1
  1
strokes_ogs.tif
176
     1
290
     0
176
     1
 40
1.0
176
     1
 40
1.0
176
     1
  0
VISUALSTYLE
  5
144
102
{ACAD_REACTORS
330
2A
102
}
330
2A
100
AcDbVisualStyle
  2
X-Ray
 70
    25
177
     3
291
     0
 70
    58
 90
        2
176
     1
 90
        2
176
     1
 90
        1
176
     1
 90
        1
176
     1
 40
0.5
176
     1
 40
30.0
176
     1
 62
     7
420
 16777215
176
     1
 90
        1
176
     1
 90
        0
176
     1
 62
     7
176
     1
 62
   257
176
     1
 90
        1
176
     1
 90
        1
176
     1
 40
1.0
176
     1
 90
        8
176
     1
 62
     7
176
     1
 40
1.0
176
     1
 90
        1
176
     1
 90
        6
176
     1
 90
        2
176
     1
 62
     7
176
     1
 90
        3
176
     1
 90
        0
176
     1
 90
        0
176
     1
290
     0
176
     1
 90
       13
176
     1
 40
0.0
176
     1
 90
        0
176
     1
290
     0
176
     1
290
     1
176
     1
290
     1
176
     1
290
     0
176
     1
290
     0
176
     1
290
     0
176
     1
290
     0
176
     1
290
     0
176
     1
290
     0
176
     1
 90
       50
176
     1
 40
0.0
176
     1
 40
1.0
176
     1
 90
        0
176
     1
 62
    18
420
        0
176
     1
 90
       50
176
     1
 90
        3
176
     1
 62
     5
420
      255
176
     1
290
     0
176
     1
 90
       50
176
     1
 90
       50
176
     1
 90
       50
176
     1
290
     0
176
     1
 90
       50
176
     1
 62
   256
176
     0
 40
1.0
176
     0
 90
        2
176
     1
  1
strokes_ogs.tif
176
     1
290
     0
176
     1
 40
1.0
176
     1
 40
1.0
176
     1
  0
DICTIONARYVAR
  5
17D
102
{ACAD_REACTORS
330
177
102
}
330
177
100
DictionaryVariables
280
     0
  1
1:1
  0
DICTIONARYVAR
  5
179
102
{ACAD_REACTORS
330
177
102
}
330
177
100
DictionaryVariables
280
     0
  1
STANDARD
  0
DICTIONARYVAR
  5
178
102
{ACAD_REACTORS
330
177
102
}
330
177
100
DictionaryVariables
280
     0
  1
STANDARD
  0
DICTIONARYVAR
  5
17A
102
{ACAD_REACTORS
330
177
102
}
330
177
100
DictionaryVariables
280
     0
  1
Imperial24
  0
DICTIONARYVAR
  5
17B
102
{ACAD_REACTORS
330
177
102
}
330
177
100
DictionaryVariables
280
     0
  1
Imperial24
  0
DICTIONARYVAR
  5
17F
102
{ACAD_REACTORS
330
177
102
}
330
177
100
DictionaryVariables
280
     0
  1
1
  0
DICTIONARYVAR
  5
180
102
{ACAD_REACTORS
330
177
102
}
330
177
100
DictionaryVariables
280
     0
  1
15
  0
DICTIONARYVAR
  5
17E
102
{ACAD_REACTORS
330
177
102
}
330
177
100
DictionaryVariables
280
     0
  1
0
  0
DICTIONARYVAR
  5
17C
102
{ACAD_REACTORS
330
177
102
}
330
177
100
DictionaryVariables
280
     0
  1
0
  0
DICTIONARY
  5
131
330
130
100
AcDbDictionary
280
     1
281
     1
  3
BUMPTILE
360
133
  3
DIFFUSETILE
360
132
  3
OPACITYTILE
360
136
  3
REFLECTIONTILE
360
135
  3
REFRACTIONTILE
360
137
  3
SPECULARTILE
360
134
  0
DICTIONARY
  5
129
330
128
100
AcDbDictionary
280
     1
281
     1
  3
BUMPTILE
360
12B
  3
DIFFUSETILE
360
12A
  3
OPACITYTILE
360
12E
  3
REFLECTIONTILE
360
12D
  3
REFRACTIONTILE
360
12F
  3
SPECULARTILE
360
12C
  0
DICTIONARY
  5
139
330
138
100
AcDbDictionary
280
     1
281
     1
  3
BUMPTILE
360
13B
  3
DIFFUSETILE
360
13A
  3
OPACITYTILE
360
13E
  3
REFLECTIONTILE
360
13D
  3
REFRACTIONTILE
360
13F
  3
SPECULARTILE
360
13C
  0
DICTIONARY
  5
182
330
14B
100
AcDbDictionary
280
     1
281
     1
  3
ACAD_ROUNDTRIP_2008_TABLESTYLE_CELLSTYLEMAP
360
183
  0
XRECORD
  5
133
102
{ACAD_REACTORS
330
131
102
}
330
131
100
AcDbXrecord
280
     1
270
     1
271
     1
  0
XRECORD
  5
132
102
{ACAD_REACTORS
330
131
102
}
330
131
100
AcDbXrecord
280
     1
270
     1
271
     1
  0
XRECORD
  5
136
102
{ACAD_REACTORS
330
131
102
}
330
131
100
AcDbXrecord
280
     1
270
     1
271
     1
  0
XRECORD
  5
135
102
{ACAD_REACTORS
330
131
102
}
330
131
100
AcDbXrecord
280
     1
270
     1
271
     1
  0
XRECORD
  5
137
102
{ACAD_REACTORS
330
131
102
}
330
131
100
AcDbXrecord
280
     1
270
     1
271
     1
  0
XRECORD
  5
134
102
{ACAD_REACTORS
330
131
102
}
330
131
100
AcDbXrecord
280
     1
270
     1
271
     1
  0
XRECORD
  5
12B
102
{ACAD_REACTORS
330
129
102
}
330
129
100
AcDbXrecord
280
     1
270
     1
271
     1
  0
XRECORD
  5
12A
102
{ACAD_REACTORS
330
129
102
}
330
129
100
AcDbXrecord
280
     1
270
     1
271
     1
  0
XRECORD
  5
12E
102
{ACAD_REACTORS
330
129
102
}
330
129
100
AcDbXrecord
280
     1
270
     1
271
     1
  0
XRECORD
  5
12D
102
{ACAD_REACTORS
330
129
102
}
330
129
100
AcDbXrecord
280
     1
270
     1
271
     1
  0
XRECORD
  5
12F
102
{ACAD_REACTORS
330
129
102
}
330
129
100
AcDbXrecord
280
     1
270
     1
271
     1
  0
XRECORD
  5
12C
102
{ACAD_REACTORS
330
129
102
}
330
129
100
AcDbXrecord
280
     1
270
     1
271
     1
  0
XRECORD
  5
13B
102
{ACAD_REACTORS
330
139
102
}
330
139
100
AcDbXrecord
280
     1
270
     1
271
     1
  0
XRECORD
  5
13A
102
{ACAD_REACTORS
330
139
102
}
330
139
100
AcDbXrecord
280
     1
270
     1
271
     1
  0
XRECORD
  5
13E
102
{ACAD_REACTORS
330
139
102
}
330
139
100
AcDbXrecord
280
     1
270
     1
271
     1
  0
XRECORD
  5
13D
102
{ACAD_REACTORS
330
139
102
}
330
139
100
AcDbXrecord
280
     1
270
     1
271
     1
  0
XRECORD
  5
13F
102
{ACAD_REACTORS
330
139
102
}
330
139
100
AcDbXrecord
280
     1
270
     1
271
     1
  0
XRECORD
  5
13C
102
{ACAD_REACTORS
330
139
102
}
330
139
100
AcDbXrecord
280
     1
270
     1
271
     1
  0
CELLSTYLEMAP
  5
183
102
{ACAD_REACTORS
330
182
102
}
330
182
100
AcDbCellStyleMap
 90
        3
300
CELLSTYLE
  1
TABLEFORMAT_BEGIN
 90
        5
170
     1
 91
        0
 92
    32768
 62
   257
 93
        1
300
CONTENTFORMAT
  1
CONTENTFORMAT_BEGIN
 90
        0
 91
        0
 92
      512
 93
        0
300

 40
0.0
140
1.0
 94
        5
 62
     0
340
11
144
0.25
309
CONTENTFORMAT_END
171
     0
 94
        0
309
TABLEFORMAT_END
  1
CELLSTYLE_BEGIN
 90
        1
 91
        1
300
_TITLE
309
CELLSTYLE_END
300
CELLSTYLE
  1
TABLEFORMAT_BEGIN
 90
        5
170
     1
 91
        0
 92
        0
 62
   257
 93
        1
300
CONTENTFORMAT
  1
CONTENTFORMAT_BEGIN
 90
        0
 91
        0
 92
      512
 93
        0
300

 40
0.0
140
1.0
 94
        5
 62
     0
340
11
144
0.18
309
CONTENTFORMAT_END
171
     0
 94
        0
309
TABLEFORMAT_END
  1
CELLSTYLE_BEGIN
 90
        2
 91
        1
300
_HEADER
309
CELLSTYLE_END
300
CELLSTYLE
  1
TABLEFORMAT_BEGIN
 90
        5
170
     1
 91
        0
 92
        0
 62
   257
 93
        1
300
CONTENTFORMAT
  1
CONTENTFORMAT_BEGIN
 90
        0
 91
        0
 92
      512
 93
        0
300

 40
0.0
140
1.0
 94
        2
 62
     0
340
11
144
0.18
309
CONTENTFORMAT_END
171
     0
 94
        0
309
TABLEFORMAT_END
  1
CELLSTYLE_BEGIN
 90
        3
 91
        2
300
_DATA
309
CELLSTYLE_END
  0
ENDSEC
  0
SECTION
  2
ACDSDATA
 70
     2
 71
     2
  0
ACDSSCHEMA
 90
        0
  1
AcDb_Thumbnail_Schema
  2
AcDbDs::ID
280
    10
 91
        8
  2
Thumbnail_Data
280
    15
 91
        0
101
ACDSRECORD
 95
        0
 90
        1
  2
AcDbDs::TreatedAsObjectData
280
     1
291
     1
101
ACDSRECORD
 95
        0
 90
        2
  2
AcDbDs::Legacy
280
     1
291
     1
101
ACDSRECORD
  1
AcDbDs::ID
 90
        3
  2
AcDs:Indexable
280
     1
291
     1
101
ACDSRECORD
  1
AcDbDs::ID
 90
        4
  2
AcDbDs::HandleAttribute
280
     7
282
     1
  0
ACDSSCHEMA
 90
        1
  1
AcDbDs::TreatedAsObjectDataSchema
  2
AcDbDs::TreatedAsObjectData
280
     1
 91
        0
  0
ACDSSCHEMA
 90
        2
  1
AcDbDs::LegacySchema
  2
AcDbDs::Legacy
280
     1
 91
        0
  0
ACDSSCHEMA
 90
        3
  1
AcDbDs::IndexedPropertySchema
  2
AcDs:Indexable
280
     1
 91
        0
  0
ACDSSCHEMA
 90
        4
  1
AcDbDs::HandleAttributeSchema
  2
AcDbDs::HandleAttribute
280
     7
 91
        1
284
     1
  0
ACDSRECORD
 90
        0
  2
AcDbDs::ID
280
    10
320
22
  2
Thumbnail_Data
280
    15
 94
     1607
310
89504E470D0A1A0A0000000D49484452000001000000009A0803000000712666C500000300504C54452128300000000000000000000000000000000000000000000000000000000000000000330000660000990000CC0000FF0033000033330033660033990033CC0033FF0066000066330066660066990066CC0066FF0099
310
000099330099660099990099CC0099FF00CC0000CC3300CC6600CC9900CCCC00CCFF00FF0000FF3300FF6600FF9900FFCC00FFFF3300003300333300663300993300CC3300FF3333003333333333663333993333CC3333FF3366003366333366663366993366CC3366FF3399003399333399663399993399CC3399FF33CC00
310
33CC3333CC6633CC9933CCCC33CCFF33FF0033FF3333FF6633FF9933FFCC33FFFF6600006600336600666600996600CC6600FF6633006633336633666633996633CC6633FF6666006666336666666666996666CC6666FF6699006699336699666699996699CC6699FF66CC0066CC3366CC6666CC9966CCCC66CCFF66FF0066
310
FF3366FF6666FF9966FFCC66FFFF9900009900339900669900999900CC9900FF9933009933339933669933999933CC9933FF9966009966339966669966999966CC9966FF9999009999339999669999999999CC9999FF99CC0099CC3399CC6699CC9999CCCC99CCFF99FF0099FF3399FF6699FF9999FFCC99FFFFCC0000CC00
310
33CC0066CC0099CC00CCCC00FFCC3300CC3333CC3366CC3399CC33CCCC33FFCC6600CC6633CC6666CC6699CC66CCCC66FFCC9900CC9933CC9966CC9999CC99CCCC99FFCCCC00CCCC33CCCC66CCCC99CCCCCCCCCCFFCCFF00CCFF33CCFF66CCFF99CCFFCCCCFFFFFF0000FF0033FF0066FF0099FF00CCFF00FFFF3300FF3333
310
FF3366FF3399FF33CCFF33FFFF6600FF6633FF6666FF6699FF66CCFF66FFFF9900FF9933FF9966FF9999FF99CCFF99FFFFCC00FFCC33FFCC66FFCC99FFCCCCFFCCFFFFFF00FFFF33FFFF66FFFF99FFFFCCFFFFFF0000000D0D0D1A1A1A2828283535354343435050505D5D5D6B6B6B787878868686939393A1A1A1AEAEAEBB
310
BBBBC9C9C9D6D6D6E4E4E4F1F1F1FFFFFF000000000000000000000000000000000000000000000000000000000000544354A80000030249444154789CED9CDB9683200C45F9FFFFCDFBAC7A0D10145064929CFD30755A2FC93628526D08C03BD4C5171B1992AE10DBF88596649AB76346C0B62BDD0AA0E475C4361E31F818
310
40D944F5865F4AB026C861E96F794FCEAF0312277BD7F4BF739529576EC77A20E0D93AA6F05653D5DA0258D0CFC2572A80EFF76735A052409AF213051A0508F1F6A7A05080186E5F0EDB3154958052B9773503D2570117B176A441DBE9B43F9EAFB90CB53D0F7515701369CF05AD2901CD996813701BA87B01ADA928135013
310
67E360A82A0155614240EB2AF508A88CB22919088000088080D665A601012FCFB7CD0B018D8BCC03025E9DED9819025A9799867B01EE2F8620C0BD809A38DD0F89D9168051617C31721D6A7B1EFA045CC5DA91864201E5607BB2D028A0146D57122A0588B742747EC5AFF10E911FDE6F920A21ECB7483EBF5552A9809537EE
310
6D51768B0C00000000000000000000000000000000000000000000D8E5E51F13D5C7FB0F4CA862C00FCAEA82D85F3695BEE14EC0F94E66C4188980E2845D01A5A6EEE620C0A1E23F3E489F179813C534D62AE715EFA4EE37B6E724C2F6B4CBFEE4C4ECB0BE62C97CC97EDDF7FB1B5EDAC15AF5B90027C77F3A767E26203830
310
B0665E16108C2B88AABF24C0B281A8FA6501A66B809C0BA05A01460DEC8DFC5680D52E518300935D226AA9008302A8AD09D833102577DF04CCD5C0D903E4491E17C5F931C09C80AC02880B20EB15408200FEB1D0046C191004C49F67BD44EB02D2F484E3832903B70284EB040F02F828906901949F0596B7A37130D302925E
310
DE913F7BE155E24640E0AF7E0504DE23840087021C3701BF074166C0C96950EC07F8E9085D7485CF09A702D81C898019718EE3E67238581F0F1004F014A51121F30292D39FF926200D8A063E1C187F662DFFE2B078D4226C0BD8B3AF116030FFD257639E04B4350183B454804901E2A94E1260357FB1BB2B0B981DE8286A05
310
CC8E7320E9A0472EC076FEC7C8404980F9FC7FB9DE54C0EC0887B377FEE5AB82D9D17D8270F1EBA2FA1967C6D125A127681F113E5E67473401F2B9EF1DF2070ACCAE28029C8B930000000049454E44AE426082
  0
ENDSEC
  0
EOF
