  0
SECTION
  2
HEADER
  9
$ACADVER
  1
AC1021
  9
$ACADMAINTVER
 70
    25
  9
$DWGCODEPAGE
  3
ANSI_1252
  9
$LASTSAVEDBY
  1
noseda_d
  9
$INSBASE
 10
0.0
 20
0.0
 30
0.0
  9
$EXTMIN
 10
437.43325968928
 20
1617.177505517946
 30
0.0
  9
$EXTMAX
 10
1569.45861496998
 20
3254.702825832555
 30
0.0
  9
$LIMMIN
 10
0.0
 20
0.0
  9
$LIMMAX
 10
12.0
 20
9.0
  9
$ORTHOMODE
 70
     0
  9
$REGENMODE
 70
     1
  9
$FILLMODE
 70
     1
  9
$QTEXTMODE
 70
     0
  9
$MIRRTEXT
 70
     1
  9
$LTSCALE
 40
1.0
  9
$ATTMODE
 70
     1
  9
$TEXTSIZE
 40
0.2
  9
$TRACEWID
 40
0.05
  9
$TEXTSTYLE
  7
Standard
  9
$CLAYER
  8
0
  9
$CELTYPE
  6
ByLayer
  9
$CECOLOR
 62
   256
  9
$CELTSCALE
 40
1.0
  9
$DISPSILH
 70
     0
  9
$DIMSCALE
 40
1.0
  9
$DIMASZ
 40
0.18
  9
$DIMEXO
 40
0.0625
  9
$DIMDLI
 40
0.38
  9
$DIMRND
 40
0.0
  9
$DIMDLE
 40
0.0
  9
$DIMEXE
 40
0.18
  9
$DIMTP
 40
0.0
  9
$DIMTM
 40
0.0
  9
$DIMTXT
 40
0.18
  9
$DIMCEN
 40
0.09
  9
$DIMTSZ
 40
0.0
  9
$DIMTOL
 70
     0
  9
$DIMLIM
 70
     0
  9
$DIMTIH
 70
     1
  9
$DIMTOH
 70
     1
  9
$DIMSE1
 70
     0
  9
$DIMSE2
 70
     0
  9
$DIMTAD
 70
     0
  9
$DIMZIN
 70
     0
  9
$DIMBLK
  1

  9
$DIMASO
 70
     1
  9
$DIMSHO
 70
     1
  9
$DIMPOST
  1

  9
$DIMAPOST
  1

  9
$DIMALT
 70
     0
  9
$DIMALTD
 70
     2
  9
$DIMALTF
 40
25.4
  9
$DIMLFAC
 40
1.0
  9
$DIMTOFL
 70
     0
  9
$DIMTVP
 40
0.0
  9
$DIMTIX
 70
     0
  9
$DIMSOXD
 70
     0
  9
$DIMSAH
 70
     0
  9
$DIMBLK1
  1

  9
$DIMBLK2
  1

  9
$DIMSTYLE
  2
STANDARD_ACAD
  9
$DIMCLRD
 70
     0
  9
$DIMCLRE
 70
     0
  9
$DIMCLRT
 70
     0
  9
$DIMTFAC
 40
1.0
  9
$DIMGAP
 40
0.09
  9
$DIMJUST
 70
     0
  9
$DIMSD1
 70
     0
  9
$DIMSD2
 70
     0
  9
$DIMTOLJ
 70
     1
  9
$DIMTZIN
 70
     0
  9
$DIMALTZ
 70
     0
  9
$DIMALTTZ
 70
     0
  9
$DIMUPT
 70
     0
  9
$DIMDEC
 70
     4
  9
$DIMTDEC
 70
     4
  9
$DIMALTU
 70
     2
  9
$DIMALTTD
 70
     2
  9
$DIMTXSTY
  7
Standard
  9
$DIMAUNIT
 70
     0
  9
$DIMADEC
 70
     0
  9
$DIMALTRND
 40
0.0
  9
$DIMAZIN
 70
     0
  9
$DIMDSEP
 70
    46
  9
$DIMATFIT
 70
     3
  9
$DIMFRAC
 70
     0
  9
$DIMLDRBLK
  1

  9
$DIMLUNIT
 70
     2
  9
$DIMLWD
 70
    -2
  9
$DIMLWE
 70
    -2
  9
$DIMTMOVE
 70
     2
  9
$DIMFXL
 40
1.0
  9
$DIMFXLON
 70
     0
  9
$DIMJOGANG
 40
0.7853981633974483
  9
$DIMTFILL
 70
     0
  9
$DIMTFILLCLR
 70
     0
  9
$DIMARCSYM
 70
     0
  9
$DIMLTYPE
  6

  9
$DIMLTEX1
  6

  9
$DIMLTEX2
  6

  9
$LUNITS
 70
     2
  9
$LUPREC
 70
     3
  9
$SKETCHINC
 40
0.1
  9
$FILLETRAD
 40
0.0
  9
$AUNITS
 70
     0
  9
$AUPREC
 70
     0
  9
$MENU
  1
.
  9
$ELEVATION
 40
0.0
  9
$PELEVATION
 40
0.0
  9
$THICKNESS
 40
0.0
  9
$LIMCHECK
 70
     0
  9
$CHAMFERA
 40
0.0
  9
$CHAMFERB
 40
0.0
  9
$CHAMFERC
 40
0.0
  9
$CHAMFERD
 40
0.0
  9
$SKPOLY
 70
     0
  9
$TDCREATE
 40
2460003.719588936
  9
$TDUCREATE
 40
2460003.677922269
  9
$TDUPDATE
 40
2460003.719602315
  9
$TDUUPDATE
 40
2460003.677935648
  9
$TDINDWG
 40
0.0000000116
  9
$TDUSRTIMER
 40
0.0000000116
  9
$USRTIMER
 70
     1
  9
$ANGBASE
 50
0.0
  9
$ANGDIR
 70
     0
  9
$PDMODE
 70
     0
  9
$PDSIZE
 40
0.0
  9
$PLINEWID
 40
0.0
  9
$SPLFRAME
 70
     0
  9
$SPLINETYPE
 70
     6
  9
$SPLINESEGS
 70
     8
  9
$HANDSEED
  5
1B7
  9
$SURFTAB1
 70
     6
  9
$SURFTAB2
 70
     6
  9
$SURFTYPE
 70
     6
  9
$SURFU
 70
     6
  9
$SURFV
 70
     6
  9
$UCSBASE
  2

  9
$UCSNAME
  2

  9
$UCSORG
 10
0.0
 20
0.0
 30
0.0
  9
$UCSXDIR
 10
1.0
 20
0.0
 30
0.0
  9
$UCSYDIR
 10
0.0
 20
1.0
 30
0.0
  9
$UCSORTHOREF
  2

  9
$UCSORTHOVIEW
 70
     0
  9
$UCSORGTOP
 10
0.0
 20
0.0
 30
0.0
  9
$UCSORGBOTTOM
 10
0.0
 20
0.0
 30
0.0
  9
$UCSORGLEFT
 10
0.0
 20
0.0
 30
0.0
  9
$UCSORGRIGHT
 10
0.0
 20
0.0
 30
0.0
  9
$UCSORGFRONT
 10
0.0
 20
0.0
 30
0.0
  9
$UCSORGBACK
 10
0.0
 20
0.0
 30
0.0
  9
$PUCSBASE
  2

  9
$PUCSNAME
  2

  9
$PUCSORG
 10
0.0
 20
0.0
 30
0.0
  9
$PUCSXDIR
 10
1.0
 20
0.0
 30
0.0
  9
$PUCSYDIR
 10
0.0
 20
1.0
 30
0.0
  9
$PUCSORTHOREF
  2

  9
$PUCSORTHOVIEW
 70
     0
  9
$PUCSORGTOP
 10
0.0
 20
0.0
 30
0.0
  9
$PUCSORGBOTTOM
 10
0.0
 20
0.0
 30
0.0
  9
$PUCSORGLEFT
 10
0.0
 20
0.0
 30
0.0
  9
$PUCSORGRIGHT
 10
0.0
 20
0.0
 30
0.0
  9
$PUCSORGFRONT
 10
0.0
 20
0.0
 30
0.0
  9
$PUCSORGBACK
 10
0.0
 20
0.0
 30
0.0
  9
$USERI1
 70
     0
  9
$USERI2
 70
     0
  9
$USERI3
 70
     0
  9
$USERI4
 70
     0
  9
$USERI5
 70
     0
  9
$USERR1
 40
0.0
  9
$USERR2
 40
0.0
  9
$USERR3
 40
0.0
  9
$USERR4
 40
0.0
  9
$USERR5
 40
0.0
  9
$WORLDVIEW
 70
     1
  9
$SHADEDGE
 70
     3
  9
$SHADEDIF
 70
    70
  9
$TILEMODE
 70
     1
  9
$MAXACTVP
 70
    64
  9
$PINSBASE
 10
0.0
 20
0.0
 30
0.0
  9
$PLIMCHECK
 70
     0
  9
$PEXTMIN
 10
1.000000000000000E+20
 20
1.000000000000000E+20
 30
1.000000000000000E+20
  9
$PEXTMAX
 10
-1.000000000000000E+20
 20
-1.000000000000000E+20
 30
-1.000000000000000E+20
  9
$PLIMMIN
 10
0.0
 20
0.0
  9
$PLIMMAX
 10
12.0
 20
9.0
  9
$UNITMODE
 70
     0
  9
$VISRETAIN
 70
     1
  9
$PLINEGEN
 70
     0
  9
$PSLTSCALE
 70
     1
  9
$TREEDEPTH
 70
  3020
  9
$CMLSTYLE
  2
Standard
  9
$CMLJUST
 70
     0
  9
$CMLSCALE
 40
1.0
  9
$PROXYGRAPHICS
 70
     1
  9
$MEASUREMENT
 70
     1
  9
$CELWEIGHT
370
    -1
  9
$ENDCAPS
280
     0
  9
$JOINSTYLE
280
     0
  9
$LWDISPLAY
290
     0
  9
$INSUNITS
 70
     4
  9
$HYPERLINKBASE
  1

  9
$STYLESHEET
  1

  9
$XEDIT
290
     1
  9
$CEPSNTYPE
380
     0
  9
$PSTYLEMODE
290
     1
  9
$FINGERPRINTGUID
  2
{f7e06b99-7af1-f14b-8852-68c206daef11}
  9
$VERSIONGUID
  2
{FAEB1C32-E019-11D5-929B-00C0DF256EC4}
  9
$EXTNAMES
290
     1
  9
$PSVPSCALE
 40
0.0
  9
$OLESTARTUP
290
     0
  9
$SORTENTS
280
   127
  9
$INDEXCTL
280
     0
  9
$HIDETEXT
280
     1
  9
$XCLIPFRAME
290
     0
  9
$HALOGAP
280
     0
  9
$OBSCOLOR
 70
   257
  9
$OBSLTYPE
280
     0
  9
$INTERSECTIONDISPLAY
280
     0
  9
$INTERSECTIONCOLOR
 70
   257
  9
$DIMASSOC
280
     2
  9
$PROJECTNAME
  1

  9
$CAMERADISPLAY
290
     0
  9
$LENSLENGTH
 40
50.0
  9
$CAMERAHEIGHT
 40
0.0
  9
$STEPSPERSEC
 40
2.0
  9
$STEPSIZE
 40
6.0
  9
$3DDWFPREC
 40
2.0
  9
$PSOLWIDTH
 40
0.25
  9
$PSOLHEIGHT
 40
4.0
  9
$LOFTANG1
 40
1.570796326794897
  9
$LOFTANG2
 40
1.570796326794897
  9
$LOFTMAG1
 40
0.0
  9
$LOFTMAG2
 40
0.0
  9
$LOFTPARAM
 70
     7
  9
$LOFTNORMALS
280
     1
  9
$LATITUDE
 40
37.795
  9
$LONGITUDE
 40
-122.394
  9
$NORTHDIRECTION
 40
0.0
  9
$TIMEZONE
 70
 -8000
  9
$LIGHTGLYPHDISPLAY
280
     1
  9
$TILEMODELIGHTSYNCH
280
     1
  9
$CMATERIAL
347
44
  9
$SOLIDHIST
280
     0
  9
$SHOWHIST
280
     1
  9
$DWFFRAME
280
     2
  9
$DGNFRAME
280
     2
  9
$REALWORLDSCALE
290
     1
  9
$INTERFERECOLOR
 62
   256
  9
$CSHADOW
280
     0
  9
$SHADOWPLANELOCATION
 40
0.0
  0
ENDSEC
  0
SECTION
  2
CLASSES
  0
CLASS
  1
ACDBDICTIONARYWDFLT
  2
AcDbDictionaryWithDefault
  3
ObjectDBX Classes
 90
        0
 91
        3
280
     0
281
     0
  0
CLASS
  1
VISUALSTYLE
  2
AcDbVisualStyle
  3
ObjectDBX Classes
 90
     4095
 91
        3
280
     0
281
     0
  0
CLASS
  1
MATERIAL
  2
AcDbMaterial
  3
ObjectDBX Classes
 90
     1153
 91
        3
280
     0
281
     0
  0
CLASS
  1
SCALE
  2
AcDbScale
  3
ObjectDBX Classes
 90
     1153
 91
        3
280
     0
281
     0
  0
CLASS
  1
TABLESTYLE
  2
AcDbTableStyle
  3
ObjectDBX Classes
 90
     4095
 91
        3
280
     0
281
     0
  0
CLASS
  1
MLEADERSTYLE
  2
AcDbMLeaderStyle
  3
ACDB_MLEADERSTYLE_CLASS
 90
     4095
 91
        3
280
     0
281
     0
  0
CLASS
  1
SUN
  2
AcDbSun
  3
SCENEOE
 90
     1153
 91
        3
280
     0
281
     0
  0
CLASS
  1
DICTIONARYVAR
  2
AcDbDictionaryVar
  3
ObjectDBX Classes
 90
        0
 91
        3
280
     0
281
     0
  0
CLASS
  1
CELLSTYLEMAP
  2
AcDbCellStyleMap
  3
ObjectDBX Classes
 90
     1152
 91
        3
280
     0
281
     0
  0
ENDSEC
  0
SECTION
  2
TABLES
  0
TABLE
  2
VPORT
  5
8
330
0
100
AcDbSymbolTable
 70
     1
  0
VPORT
  5
29
330
8
100
AcDbSymbolTableRecord
100
AcDbViewportTableRecord
  2
*Active
 70
     0
 10
0.0
 20
0.0
 11
1.0
 21
1.0
 12
10.42990654205607
 22
4.5
 13
0.0
 23
0.0
 14
0.5
 24
0.5
 15
0.5
 25
0.5
 16
0.0
 26
0.0
 36
1.0
 17
0.0
 27
0.0
 37
0.0
 40
9.0
 41
1.972972972850329
 42
50.0
 43
0.0
 44
0.0
 50
0.0
 51
0.0
 71
     0
 72
   100
 73
     1
 74
     3
 75
     0
 76
     0
 77
     0
 78
     0
281
     0
 65
     1
110
0.0
120
0.0
130
0.0
111
1.0
121
0.0
131
0.0
112
0.0
122
1.0
132
0.0
 79
     0
146
0.0
348
2F
 60
     3
 61
     5
292
     1
282
     1
141
0.0
142
0.0
 63
   250
361
5D
  0
ENDTAB
  0
TABLE
  2
LTYPE
  5
5
330
0
100
AcDbSymbolTable
 70
     1
  0
LTYPE
  5
14
330
5
100
AcDbSymbolTableRecord
100
AcDbLinetypeTableRecord
  2
ByBlock
 70
     0
  3

 72
    65
 73
     0
 40
0.0
  0
LTYPE
  5
15
330
5
100
AcDbSymbolTableRecord
100
AcDbLinetypeTableRecord
  2
ByLayer
 70
     0
  3

 72
    65
 73
     0
 40
0.0
  0
LTYPE
  5
16
330
5
100
AcDbSymbolTableRecord
100
AcDbLinetypeTableRecord
  2
Continuous
 70
     0
  3
Solid line
 72
    65
 73
     0
 40
0.0
  0
ENDTAB
  0
TABLE
  2
LAYER
  5
2
330
0
100
AcDbSymbolTable
 70
     2
  0
LAYER
  5
10
330
2
100
AcDbSymbolTableRecord
100
AcDbLayerTableRecord
  2
0
 70
     0
 62
     7
  6
Continuous
370
    -3
390
F
347
46
  0
LAYER
  5
5F
330
2
100
AcDbSymbolTableRecord
100
AcDbLayerTableRecord
  2
Make2D$Visibile$Curve
 70
     0
 62
    18
420
        0
  6
Continuous
370
    -3
390
F
347
46
  0
ENDTAB
  0
TABLE
  2
STYLE
  5
3
330
0
100
AcDbSymbolTable
 70
     1
  0
STYLE
  5
11
330
3
100
AcDbSymbolTableRecord
100
AcDbTextStyleTableRecord
  2
Standard
 70
     0
 40
0.0
 41
1.0
 50
0.0
 71
     0
 42
0.2
  3
txt
  4

  0
ENDTAB
  0
TABLE
  2
VIEW
  5
6
330
0
100
AcDbSymbolTable
 70
     0
  0
ENDTAB
  0
TABLE
  2
UCS
  5
7
330
0
100
AcDbSymbolTable
 70
     0
  0
ENDTAB
  0
TABLE
  2
APPID
  5
9
330
0
100
AcDbSymbolTable
 70
     3
  0
APPID
  5
12
330
9
100
AcDbSymbolTableRecord
100
AcDbRegAppTableRecord
  2
ACAD
 70
     0
  0
APPID
  5
5E
330
9
100
AcDbSymbolTableRecord
100
AcDbRegAppTableRecord
  2
Rhino
 70
     0
  0
APPID
  5
1AF
330
9
100
AcDbSymbolTableRecord
100
AcDbRegAppTableRecord
  2
ACAD_MLEADERVER
 70
     0
  0
ENDTAB
  0
TABLE
  2
DIMSTYLE
  5
A
330
0
100
AcDbSymbolTable
 70
     1
100
AcDbDimStyleTable
  0
DIMSTYLE
105
27
330
A
100
AcDbSymbolTableRecord
100
AcDbDimStyleTableRecord
  2
STANDARD_ACAD
 70
     0
178
     0
340
11
  0
ENDTAB
  0
TABLE
  2
BLOCK_RECORD
  5
1
330
0
100
AcDbSymbolTable
 70
     1
  0
BLOCK_RECORD
  5
1F
330
1
100
AcDbSymbolTableRecord
100
AcDbBlockTableRecord
  2
*Model_Space
340
22
 70
     0
280
     1
281
     0
  0
BLOCK_RECORD
  5
1B
330
1
100
AcDbSymbolTableRecord
100
AcDbBlockTableRecord
  2
*Paper_Space
340
1E
 70
     0
280
     1
281
     0
  0
BLOCK_RECORD
  5
23
330
1
100
AcDbSymbolTableRecord
100
AcDbBlockTableRecord
  2
*Paper_Space0
340
26
 70
     0
280
     1
281
     0
  0
ENDTAB
  0
ENDSEC
  0
SECTION
  2
BLOCKS
  0
BLOCK
  5
20
330
1F
100
AcDbEntity
  8
0
100
AcDbBlockBegin
  2
*Model_Space
 70
     0
 10
0.0
 20
0.0
 30
0.0
  3
*Model_Space
  1

  0
ENDBLK
  5
21
330
1F
100
AcDbEntity
  8
0
100
AcDbBlockEnd
  0
BLOCK
  5
1C
330
1B
100
AcDbEntity
 67
     1
  8
0
100
AcDbBlockBegin
  2
*Paper_Space
 70
     0
 10
0.0
 20
0.0
 30
0.0
  3
*Paper_Space
  1

  0
ENDBLK
  5
1D
330
1B
100
AcDbEntity
 67
     1
  8
0
100
AcDbBlockEnd
  0
BLOCK
  5
24
330
23
100
AcDbEntity
  8
0
100
AcDbBlockBegin
  2
*Paper_Space0
 70
     0
 10
0.0
 20
0.0
 30
0.0
  3
*Paper_Space0
  1

  0
ENDBLK
  5
25
330
23
100
AcDbEntity
  8
0
100
AcDbBlockEnd
  0
ENDSEC
  0
SECTION
  2
ENTITIES
  0
SPLINE
  5
60
330
1F
100
AcDbEntity
  8
Make2D$Visibile$Curve
370
    -3
100
AcDbSpline
210
0.0
220
0.0
230
1.0
 70
    28
 71
     2
 72
     6
 73
     3
 74
     0
 42
0.0000000001
 43
0.0000000001
 40
-606.1290073062997
 40
-606.1290073062997
 40
-606.1290073062997
 40
-45.04126523288268
 40
-45.04126523288268
 40
-45.04126523288268
 10
1125.597579170895
 20
3186.405490326781
 30
0.0
 41
0.9764771540701551
 10
1125.597579170892
 20
3186.40549032678
 30
0.0
 41
0.7588221467195428
 10
862.8586664394976
 20
3186.405490326779
 30
0.0
 41
0.9642861832708591
  0
SPLINE
  5
61
330
1F
100
AcDbEntity
  8
Make2D$Visibile$Curve
370
    -3
100
AcDbSpline
210
0.0
220
0.0
230
1.0
 70
    28
 71
     2
 72
     6
 73
     3
 74
     0
 42
0.0000000001
 43
0.0000000001
 40
-2494.975245990775
 40
-2494.975245990775
 40
-2494.975245990775
 40
-1933.887498466209
 40
-1933.887498466209
 40
-1933.887498466209
 10
712.0078569564408
 20
3186.40549032678
 30
0.0
 41
0.9642861872612065
 10
449.2689402076656
 20
3186.405490326779
 30
0.0
 41
0.7588221446050121
 10
449.268940207663
 20
3186.40549032678
 30
0.0
 41
0.9764771540722224
  0
SPLINE
  5
62
330
1F
100
AcDbEntity
  8
Make2D$Visibile$Curve
370
    -3
100
AcDbSpline
210
0.0
220
0.0
230
1.0
 70
    28
 71
     2
 72
     6
 73
     3
 74
     0
 42
0.0000000001
 43
0.0000000001
 40
-606.1290073062997
 40
-606.1290073062997
 40
-606.1290073062997
 40
-45.04125978176823
 40
-45.04125978176823
 40
-45.04125978176823
 10
449.2689402076654
 20
3171.405490326779
 30
0.0
 41
0.9764771540701551
 10
449.2689402076668
 20
3171.405490326779
 30
0.0
 41
0.7588221446049673
 10
712.0078569564411
 20
3171.405490326778
 30
0.0
 41
0.9642861872631332
  0
SPLINE
  5
63
330
1F
100
AcDbEntity
  8
Make2D$Visibile$Curve
370
    -3
100
AcDbSpline
210
0.0
220
0.0
230
1.0
 70
    28
 71
     2
 72
     6
 73
     3
 74
     0
 42
0.0000000001
 43
0.0000000001
 40
-2494.975242446217
 40
-2494.975242446217
 40
-2494.975242446217
 40
-1933.887498466209
 40
-1933.887498466209
 40
-1933.887498466209
 10
862.8586650343973
 20
3171.405490326779
 30
0.0
 41
0.964286184665252
 10
1125.597579170893
 20
3171.40549032678
 30
0.0
 41
0.7588221459800034
 10
1125.597579170897
 20
3171.40549032678
 30
0.0
 41
0.9764771540722224
  0
SPLINE
  5
64
330
1F
100
AcDbEntity
  8
Make2D$Visibile$Curve
370
    -3
100
AcDbSpline
210
0.0
220
0.0
230
1.0
 70
    28
 71
     2
 72
     6
 73
     3
 74
     0
 42
0.0000000001
 43
0.0000000001
 40
-1296.523796893882
 40
-1296.523796893882
 40
-1296.523796893882
 40
-699.0
 40
-699.0
 40
-699.0
 10
861.522675514821
 20
3194.905490326779
 30
0.0
 41
0.9273050275747525
 10
1136.93325968928
 20
3194.90549032678
 30
0.0
 41
0.7496270841346429
 10
1136.93325968928
 20
3194.90549032678
 30
0.0
 41
1.0
  0
SPLINE
  5
65
330
1F
100
AcDbEntity
  8
Make2D$Visibile$Curve
370
    -3
100
AcDbSpline
210
0.0
220
0.0
230
1.0
 70
    28
 71
     2
 72
     6
 73
     3
 74
     0
 42
0.0000000001
 43
0.0000000001
 40
-1296.523799654534
 40
-1296.523799654534
 40
-1296.523799654534
 40
-699.0
 40
-699.0
 40
-699.0
 10
713.3438459209996
 20
3162.905490326778
 30
0.0
 41
0.9273050292165514
 10
437.9332596892784
 20
3162.905490326778
 30
0.0
 41
0.7496270829778814
 10
437.93325968928
 20
3162.905490326779
 30
0.0
 41
1.0
  0
SPLINE
  5
66
330
1F
100
AcDbEntity
  8
Make2D$Visibile$Curve
370
    -3
100
AcDbSpline
210
0.0
220
0.0
230
1.0
 70
    12
 71
     2
 72
     6
 73
     3
 74
     0
 42
0.0000000001
 43
0.0000000001
 40
0.0
 40
0.0
 40
0.0
 40
1.0
 40
1.0
 40
1.0
 10
1136.93325968928
 20
3194.90549032678
 30
0.0
 41
1.0
 10
1137.43325968928
 20
3194.90549032678
 30
0.0
 41
0.707106781186548
 10
1137.43325968928
 20
3194.40549032678
 30
0.0
 41
1.0
  0
SPLINE
  5
67
330
1F
100
AcDbEntity
  8
Make2D$Visibile$Curve
370
    -3
100
AcDbSpline
210
0.0
220
0.0
230
1.0
 70
    28
 71
     2
 72
     6
 73
     3
 74
     0
 42
0.0000000001
 43
0.0000000001
 40
16.43560289456834
 40
16.43560289456834
 40
16.43560289456834
 40
17.65960000000219
 40
17.65960000000219
 40
17.65960000000219
 10
437.43325968928
 20
3193.181493221346
 30
0.0
 41
1.0
 10
437.43325968928
 20
3193.793491774062
 30
0.0
 41
1.0
 10
437.43325968928
 20
3194.40549032678
 30
0.0
 41
1.0
  0
SPLINE
  5
68
330
1F
100
AcDbEntity
  8
Make2D$Visibile$Curve
370
    -3
100
AcDbSpline
210
0.0
220
0.0
230
1.0
 70
    28
 71
     2
 72
     6
 73
     3
 74
     0
 42
0.0000000001
 43
0.0000000001
 40
-698.9999999999999
 40
-698.9999999999999
 40
-698.9999999999999
 40
-101.4761973270817
 40
-101.4761973270817
 40
-101.4761973270817
 10
437.9332596892801
 20
3194.90549032678
 30
0.0
 41
1.0
 10
437.93325968928
 20
3194.905490326779
 30
0.0
 41
0.7496270817131256
 10
713.3438481703287
 20
3194.90549032678
 30
0.0
 41
0.9273050310116275
  0
SPLINE
  5
69
330
1F
100
AcDbEntity
  8
Make2D$Visibile$Curve
370
    -3
100
AcDbSpline
210
0.0
220
0.0
230
1.0
 70
    12
 71
     2
 72
     6
 73
     3
 74
     0
 42
0.0000000001
 43
0.0000000001
 40
0.0
 40
0.0
 40
0.0
 40
1.0
 40
1.0
 40
1.0
 10
437.43325968928
 20
3194.40549032678
 30
0.0
 41
1.0
 10
437.43325968928
 20
3194.905490326779
 30
0.0
 41
0.707106781186548
 10
437.93325968928
 20
3194.90549032678
 30
0.0
 41
1.0
  0
SPLINE
  5
6A
330
1F
100
AcDbEntity
  8
Make2D$Visibile$Curve
370
    -3
100
AcDbSpline
210
0.0
220
0.0
230
1.0
 70
    12
 71
     2
 72
     8
 73
     5
 74
     0
 42
0.0000000001
 43
0.0000000001
 40
0.0
 40
0.0
 40
0.0
 40
1.656854249492371
 40
1.656854249492371
 40
2.364893159114414
 40
2.364893159114414
 40
2.364893159114414
 10
1137.43325968928
 20
3193.181493221346
 30
0.0
 41
1.0
 10
1137.43325968928
 20
3192.3530660966
 30
0.0
 41
0.853553390593274
 10
1136.847473251653
 20
3191.767279658973
 30
0.0
 41
0.853553390593274
 10
1136.597143694485
 20
3191.516950101803
 30
0.0
 41
0.853553390593274
 10
1136.276095272275
 20
3191.36776000501
 30
0.0
 41
0.8802973040603583
  0
SPLINE
  5
6B
330
1F
100
AcDbEntity
  8
Make2D$Visibile$Curve
370
    -3
100
AcDbSpline
210
0.0
220
0.0
230
1.0
 70
    12
 71
     2
 72
     8
 73
     5
 74
     0
 42
0.0000000001
 43
0.0000000001
 40
0.0
 40
0.0
 40
0.0
 40
1.656854249492371
 40
1.656854249492371
 40
2.364893159114313
 40
2.364893159114313
 40
2.364893159114313
 10
437.43325968928
 20
3193.181493221345
 30
0.0
 41
1.0
 10
437.4332596892801
 20
3192.353066096599
 30
0.0
 41
0.853553390593274
 10
438.019046126907
 20
3191.767279658972
 30
0.0
 41
0.853553390593274
 10
438.2693756840758
 20
3191.516950101803
 30
0.0
 41
0.853553390593274
 10
438.5904241062855
 20
3191.367760005009
 30
0.0
 41
0.8802973040603507
  0
SPLINE
  5
6C
330
1F
100
AcDbEntity
  8
Make2D$Visibile$Curve
370
    -3
100
AcDbSpline
210
0.0
220
0.0
230
1.0
 70
    28
 71
     2
 72
     6
 73
     3
 74
     0
 42
0.0000000001
 43
0.0000000001
 40
0.0
 40
0.0
 40
0.0
 40
11.77517840573819
 40
11.77517840573819
 40
11.77517840573819
 10
449.2689402076678
 20
3186.40549032678
 30
0.0
 41
1.0
 10
443.9296821569766
 20
3188.886625165894
 30
0.0
 41
1.0
 10
438.5904241062854
 20
3191.367760005009
 30
0.0
 41
1.0
  0
SPLINE
  5
6D
330
1F
100
AcDbEntity
  8
Make2D$Visibile$Curve
370
    -3
100
AcDbSpline
210
0.0
220
0.0
230
1.0
 70
    28
 71
     2
 72
     6
 73
     3
 74
     0
 42
0.0000000001
 43
0.0000000001
 40
0.0
 40
0.0
 40
0.0
 40
11.77517840573819
 40
11.77517840573819
 40
11.77517840573819
 10
1136.276095272275
 20
3191.36776000501
 30
0.0
 41
1.0
 10
1130.936837221584
 20
3188.886625165895
 30
0.0
 41
1.0
 10
1125.597579170892
 20
3186.40549032678
 30
0.0
 41
1.0
  0
SPLINE
  5
6E
330
1F
100
AcDbEntity
  8
Make2D$Visibile$Curve
370
    -3
100
AcDbSpline
210
0.0
220
0.0
230
1.0
 70
    28
 71
     2
 72
     6
 73
     3
 74
     0
 42
0.0000000001
 43
0.0000000001
 40
2.159600000002002
 40
2.159600000002002
 40
2.159600000002002
 40
3.383597105435848
 40
3.383597105435848
 40
3.383597105435848
 10
1137.43325968928
 20
3194.40549032678
 30
0.0
 41
1.0
 10
1137.43325968928
 20
3193.793491774063
 30
0.0
 41
1.0
 10
1137.43325968928
 20
3193.181493221347
 30
0.0
 41
1.0
  0
SPLINE
  5
6F
330
1F
100
AcDbEntity
  8
Make2D$Visibile$Curve
370
    -3
100
AcDbSpline
210
0.0
220
0.0
230
1.0
 70
    28
 71
     2
 72
     6
 73
     3
 74
     0
 42
0.0000000001
 43
0.0000000001
 40
-18.31881597092854
 40
-18.31881597092854
 40
-18.31881597092854
 40
-17.97437405088914
 40
-17.97437405088914
 40
-17.97437405088914
 10
789.9808981131442
 20
3173.90549032678
 30
0.0
 41
0.9347583784630186
 10
789.8524000717509
 20
3173.90549032678
 30
0.0
 41
0.9311810590782641
 10
789.7245475367712
 20
3173.90549032678
 30
0.0
 41
0.927761331170539
  0
SPLINE
  5
70
330
1F
100
AcDbEntity
  8
Make2D$Visibile$Curve
370
    -3
100
AcDbSpline
210
0.0
220
0.0
230
1.0
 70
    28
 71
     2
 72
     6
 73
     3
 74
     0
 42
0.0000000001
 43
0.0000000001
 40
-13.85860081270261
 40
-13.85860081270261
 40
-13.85860081270261
 40
0.0
 40
0.0
 40
0.0
 10
782.43325968929
 20
3178.90549032678
 30
0.0
 41
0.8570664789641691
 10
786.0361301936786
 20
3178.90549032678
 30
0.0
 41
0.8308712416548663
 10
791.9332596892799
 20
3178.90549032678
 30
0.0
 41
1.0
  0
SPLINE
  5
71
330
1F
100
AcDbEntity
  8
Make2D$Visibile$Curve
370
    -3
100
AcDbSpline
210
0.0
220
0.0
230
1.0
 70
    12
 71
     2
 72
     6
 73
     3
 74
     0
 42
0.0000000001
 43
0.0000000001
 40
0.0
 40
0.0
 40
0.0
 40
1.0
 40
1.0
 40
1.0
 10
437.93325968928
 20
3162.905490326779
 30
0.0
 41
1.0
 10
437.43325968928
 20
3162.905490326779
 30
0.0
 41
0.707106781186548
 10
437.43325968928
 20
3163.405490326779
 30
0.0
 41
1.0
  0
SPLINE
  5
72
330
1F
100
AcDbEntity
  8
Make2D$Visibile$Curve
370
    -3
100
AcDbSpline
210
0.0
220
0.0
230
1.0
 70
    28
 71
     2
 72
     6
 73
     3
 74
     0
 42
0.0000000001
 43
0.0000000001
 40
16.43560289456834
 40
16.43560289456834
 40
16.43560289456834
 40
17.65960000000219
 40
17.65960000000219
 40
17.65960000000219
 10
1137.43325968928
 20
3164.629487432214
 30
0.0
 41
1.0
 10
1137.43325968928
 20
3164.017488879497
 30
0.0
 41
1.0
 10
1137.43325968928
 20
3163.40549032678
 30
0.0
 41
1.0
  0
SPLINE
  5
73
330
1F
100
AcDbEntity
  8
Make2D$Visibile$Curve
370
    -3
100
AcDbSpline
210
0.0
220
0.0
230
1.0
 70
    28
 71
     2
 72
     6
 73
     3
 74
     0
 42
0.0000000001
 43
0.0000000001
 40
-698.9999999999999
 40
-698.9999999999999
 40
-698.9999999999999
 40
-101.4762016530659
 40
-101.4762016530659
 40
-101.4762016530659
 10
1136.93325968928
 20
3162.90549032678
 30
0.0
 41
1.0
 10
1136.933259689279
 20
3162.90549032678
 30
0.0
 41
0.7496270835257886
 10
861.5226744319916
 20
3162.905490326779
 30
0.0
 41
0.9273050284389033
  0
SPLINE
  5
74
330
1F
100
AcDbEntity
  8
Make2D$Visibile$Curve
370
    -3
100
AcDbSpline
210
0.0
220
0.0
230
1.0
 70
    12
 71
     2
 72
     6
 73
     3
 74
     0
 42
0.0000000001
 43
0.0000000001
 40
0.0
 40
0.0
 40
0.0
 40
1.0
 40
1.0
 40
1.0
 10
1137.43325968928
 20
3163.40549032678
 30
0.0
 41
1.0
 10
1137.43325968928
 20
3162.90549032678
 30
0.0
 41
0.707106781186548
 10
1136.93325968928
 20
3162.90549032678
 30
0.0
 41
1.0
  0
SPLINE
  5
75
330
1F
100
AcDbEntity
  8
Make2D$Visibile$Curve
370
    -3
100
AcDbSpline
210
0.0
220
0.0
230
1.0
 70
    12
 71
     2
 72
     8
 73
     5
 74
     0
 42
0.0000000001
 43
0.0000000001
 40
0.0
 40
0.0
 40
0.0
 40
1.656854249492371
 40
1.656854249492371
 40
2.364893159114414
 40
2.364893159114414
 40
2.364893159114414
 10
437.43325968928
 20
3164.629487432214
 30
0.0
 41
1.0
 10
437.4332596892801
 20
3165.45791455696
 30
0.0
 41
0.853553390593274
 10
438.019046126907
 20
3166.043700994587
 30
0.0
 41
0.853553390593274
 10
438.2693756840758
 20
3166.294030551756
 30
0.0
 41
0.853553390593274
 10
438.5904241062856
 20
3166.44322064855
 30
0.0
 41
0.8802973040603583
  0
SPLINE
  5
76
330
1F
100
AcDbEntity
  8
Make2D$Visibile$Curve
370
    -3
100
AcDbSpline
210
0.0
220
0.0
230
1.0
 70
    12
 71
     2
 72
     8
 73
     5
 74
     0
 42
0.0000000001
 43
0.0000000001
 40
0.0
 40
0.0
 40
0.0
 40
1.656854249492371
 40
1.656854249492371
 40
2.364893159114313
 40
2.364893159114313
 40
2.364893159114313
 10
1137.43325968928
 20
3164.629487432215
 30
0.0
 41
1.0
 10
1137.43325968928
 20
3165.457914556961
 30
0.0
 41
0.853553390593274
 10
1136.847473251653
 20
3166.043700994588
 30
0.0
 41
0.853553390593274
 10
1136.597143694485
 20
3166.294030551757
 30
0.0
 41
0.853553390593274
 10
1136.276095272275
 20
3166.44322064855
 30
0.0
 41
0.8802973040603507
  0
SPLINE
  5
77
330
1F
100
AcDbEntity
  8
Make2D$Visibile$Curve
370
    -3
100
AcDbSpline
210
0.0
220
0.0
230
1.0
 70
    28
 71
     2
 72
     6
 73
     3
 74
     0
 42
0.0000000001
 43
0.0000000001
 40
0.0
 40
0.0
 40
0.0
 40
11.77517840573819
 40
11.77517840573819
 40
11.77517840573819
 10
1125.597579170892
 20
3171.40549032678
 30
0.0
 41
1.0
 10
1130.936837221584
 20
3168.924355487665
 30
0.0
 41
1.0
 10
1136.276095272275
 20
3166.44322064855
 30
0.0
 41
1.0
  0
SPLINE
  5
78
330
1F
100
AcDbEntity
  8
Make2D$Visibile$Curve
370
    -3
100
AcDbSpline
210
0.0
220
0.0
230
1.0
 70
    28
 71
     2
 72
     6
 73
     3
 74
     0
 42
0.0000000001
 43
0.0000000001
 40
0.0
 40
0.0
 40
0.0
 40
11.77517840573819
 40
11.77517840573819
 40
11.77517840573819
 10
438.5904241062854
 20
3166.443220648549
 30
0.0
 41
1.0
 10
443.9296821569766
 20
3168.924355487664
 30
0.0
 41
1.0
 10
449.2689402076678
 20
3171.405490326779
 30
0.0
 41
1.0
  0
SPLINE
  5
79
330
1F
100
AcDbEntity
  8
Make2D$Visibile$Curve
370
    -3
100
AcDbSpline
210
0.0
220
0.0
230
1.0
 70
    28
 71
     2
 72
     6
 73
     3
 74
     0
 42
0.0000000001
 43
0.0000000001
 40
2.159600000002002
 40
2.159600000002002
 40
2.159600000002002
 40
3.383597105435848
 40
3.383597105435848
 40
3.383597105435848
 10
437.43325968928
 20
3163.405490326779
 30
0.0
 41
1.0
 10
437.43325968928
 20
3164.017488879496
 30
0.0
 41
1.0
 10
437.43325968928
 20
3164.629487432213
 30
0.0
 41
1.0
  0
SPLINE
  5
7A
330
1F
100
AcDbEntity
  8
Make2D$Visibile$Curve
370
    -3
100
AcDbSpline
210
0.0
220
0.0
230
1.0
 70
    24
 71
     2
 72
     6
 73
     3
 74
     0
 42
0.0000000001
 43
0.0000000001
 40
0.0
 40
0.0
 40
0.0
 40
0.5000000000101066
 40
0.5000000000101066
 40
0.5000000000101066
 10
791.9332596892799
 20
3178.90549032678
 30
0.0
 10
792.183259689285
 20
3178.90549032678
 30
0.0
 10
792.43325968929
 20
3178.90549032678
 30
0.0
  0
SPLINE
  5
7B
330
1F
100
AcDbEntity
  8
Make2D$Visibile$Curve
370
    -3
100
AcDbSpline
210
0.0
220
0.0
230
1.0
 70
     8
 71
     3
 72
     8
 73
     4
 74
     0
 42
0.0000000001
 43
0.0000000001
 40
0.1194996963613968
 40
0.1194996963613968
 40
0.1194996963613968
 40
0.1194996963613968
 40
0.1347238944490272
 40
0.1347238944490272
 40
0.1347238944490272
 40
0.1347238944490272
 10
824.1890186063374
 20
3245.185237782637
 30
0.0
 10
824.1888559856707
 20
3245.185344689215
 30
0.0
 10
824.1887804281562
 20
3245.185394069518
 30
0.0
 10
824.1887805714192
 20
3245.185394282311
 30
0.0
  0
SPLINE
  5
7C
330
1F
100
AcDbEntity
  8
Make2D$Visibile$Curve
370
    -3
100
AcDbSpline
210
0.0
220
0.0
230
1.0
 70
     8
 71
     3
 72
    12
 73
     8
 74
     0
 42
0.0000000001
 43
0.0000000001
 40
0.0
 40
0.0
 40
0.0
 40
0.0
 40
0.0327783384003871
 40
0.0327783384003871
 40
0.0673844119544318
 40
0.0673844119544318
 40
0.1194996963613968
 40
0.1194996963613968
 40
0.1194996963613968
 40
0.1194996963613968
 10
824.2228381901946
 20
3245.158185184803
 30
0.0
 10
824.2163550474777
 20
3245.16424726265
 30
0.0
 10
824.2106641231398
 20
3245.169033255964
 30
0.0
 10
824.2009159093896
 20
3245.176822262686
 30
0.0
 10
824.197419114665
 20
3245.179370543772
 30
0.0
 10
824.1912196069736
 20
3245.183813560048
 30
0.0
 10
824.1895752873693
 20
3245.184871821379
 30
0.0
 10
824.1890186063374
 20
3245.185237782637
 30
0.0
  0
SPLINE
  5
7D
330
1F
100
AcDbEntity
  8
Make2D$Visibile$Curve
370
    -3
100
AcDbSpline
210
0.0
220
0.0
230
1.0
 70
     8
 71
     3
 72
    12
 73
     8
 74
     0
 42
0.0000000001
 43
0.0000000001
 40
0.5096226126499777
 40
0.5096226126499777
 40
0.5096226126499777
 40
0.5096226126499777
 40
0.5617378970567621
 40
0.5617378970567621
 40
0.5963439705829179
 40
0.5963439705829179
 40
0.629122309055953
 40
0.629122309055953
 40
0.629122309055953
 40
0.629122309055953
 10
826.4553252814669
 20
3243.876785013685
 30
0.0
 10
826.4547300092032
 20
3243.877084132972
 30
0.0
 10
826.4529913682024
 20
3243.877979024857
 30
0.0
 10
826.4460438493894
 20
3243.881126447872
 30
0.0
 10
826.4420885758708
 20
3243.882880620391
 30
0.0
 10
826.4304689912951
 20
3243.887428317783
 30
0.0
 10
826.4234787373155
 20
3243.889963806181
 30
0.0
 10
826.4149872525186
 20
3243.892547333551
 30
0.0
  0
SPLINE
  5
7E
330
1F
100
AcDbEntity
  8
Make2D$Visibile$Curve
370
    -3
100
AcDbSpline
210
0.0
220
0.0
230
1.0
 70
     8
 71
     3
 72
     8
 73
     4
 74
     0
 42
0.0000000001
 43
0.0000000001
 40
0.4943984145515815
 40
0.4943984145515815
 40
0.4943984145515815
 40
0.4943984145515815
 40
0.5096226126499777
 40
0.5096226126499777
 40
0.5096226126499777
 40
0.5096226126499777
 10
826.4555798316192
 20
3243.876657119235
 30
0.0
 10
826.4555797189665
 20
3243.876656888769
 30
0.0
 10
826.4554991756127
 20
3243.876697633345
 30
0.0
 10
826.4553252814669
 20
3243.876785013685
 30
0.0
  0
SPLINE
  5
7F
330
1F
100
AcDbEntity
  8
Make2D$Visibile$Curve
370
    -3
100
AcDbSpline
210
0.0
220
0.0
230
1.0
 70
     8
 71
     3
 72
     8
 73
     4
 74
     0
 42
0.0000000001
 43
0.0000000001
 40
0.1194996963264778
 40
0.1194996963264778
 40
0.1194996963264778
 40
0.1194996963264778
 40
0.1347238943853781
 40
0.1347238943853781
 40
0.1347238943853781
 40
0.1347238943853781
 10
826.4553252814673
 20
3113.934195639876
 30
0.0
 10
826.455499175612
 20
3113.934283020215
 30
0.0
 10
826.4555797189655
 20
3113.934323764791
 30
0.0
 10
826.455579831618
 20
3113.934323534325
 30
0.0
  0
SPLINE
  5
80
330
1F
100
AcDbEntity
  8
Make2D$Visibile$Curve
370
    -3
100
AcDbSpline
210
0.0
220
0.0
230
1.0
 70
     8
 71
     3
 72
    12
 73
     8
 74
     0
 42
0.0000000001
 43
0.0000000001
 40
0.0
 40
0.0
 40
0.0
 40
0.0
 40
0.0327783383380517
 40
0.0327783383380517
 40
0.0673844119191485
 40
0.0673844119191485
 40
0.1194996963264778
 40
0.1194996963264778
 40
0.1194996963264778
 40
0.1194996963264778
 10
826.4149872526191
 20
3113.91843332004
 30
0.0
 10
826.4234787373736
 20
3113.921016847401
 30
0.0
 10
826.4304689913206
 20
3113.923552335787
 30
0.0
 10
826.4420885758809
 20
3113.928100033173
 30
0.0
 10
826.446043849402
 20
3113.929854205694
 30
0.0
 10
826.4529913682087
 20
3113.933001628707
 30
0.0
 10
826.4547300092056
 20
3113.93389652059
 30
0.0
 10
826.4553252814673
 20
3113.934195639876
 30
0.0
  0
SPLINE
  5
81
330
1F
100
AcDbEntity
  8
Make2D$Visibile$Curve
370
    -3
100
AcDbSpline
210
0.0
220
0.0
230
1.0
 70
     8
 71
     3
 72
    12
 73
     8
 74
     0
 42
0.0000000001
 43
0.0000000001
 40
0.5096226126471213
 40
0.5096226126471213
 40
0.5096226126471213
 40
0.5096226126471213
 40
0.5617378970483798
 40
0.5617378970483798
 40
0.5963439706157808
 40
0.5963439706157808
 40
0.6245473433384362
 40
0.6245473433384362
 40
0.6245473433384362
 40
0.6245473433384362
 10
711.6554351750867
 20
3180.213943095733
 30
0.0
 10
711.6554737663178
 20
3180.213278015189
 30
0.0
 10
711.6555680877123
 20
3180.211324861973
 30
0.0
 10
711.6563160988302
 20
3180.203734422688
 30
0.0
 10
711.6567745776249
 20
3180.199431969078
 30
0.0
 10
711.658518894468
 20
3180.187932847374
 30
0.0
 10
711.6595901542271
 20
3180.181791820277
 30
0.0
 10
711.6611532560019
 20
3180.174670878942
 30
0.0
  0
SPLINE
  5
82
330
1F
100
AcDbEntity
  8
Make2D$Visibile$Curve
370
    -3
100
AcDbSpline
210
0.0
220
0.0
230
1.0
 70
     8
 71
     3
 72
     8
 73
     4
 74
     0
 42
0.0000000001
 43
0.0000000001
 40
0.4943984145783241
 40
0.4943984145783241
 40
0.4943984145783241
 40
0.4943984145783241
 40
0.5096226126471213
 40
0.5096226126471213
 40
0.5096226126471213
 40
0.5096226126471213
 10
711.6554186598535
 20
3180.214227489855
 30
0.0
 10
711.6554189157691
 20
3180.214227507528
 30
0.0
 10
711.6554239016082
 20
3180.21413738265
 30
0.0
 10
711.6554351750868
 20
3180.213943095733
 30
0.0
  0
SPLINE
  5
83
330
1F
100
AcDbEntity
  8
Make2D$Visibile$Curve
370
    -3
100
AcDbSpline
210
0.0
220
0.0
230
1.0
 70
     8
 71
     3
 72
    12
 73
     8
 74
     0
 42
0.0000000001
 43
0.0000000001
 40
0.509622612656151
 40
0.509622612656151
 40
0.509622612656151
 40
0.509622612656151
 40
0.5617378970617193
 40
0.5617378970617193
 40
0.5963439706353962
 40
0.5963439706353962
 40
0.6291223089890687
 40
0.6291223089890687
 40
0.6291223089890687
 40
0.6291223089890687
 10
824.1890186063379
 20
3112.625742870923
 30
0.0
 10
824.1895752873693
 20
3112.626108832182
 30
0.0
 10
824.1912196069729
 20
3112.627167093512
 30
0.0
 10
824.1974191146614
 20
3112.631610109786
 30
0.0
 10
824.2009159093869
 20
3112.634158390873
 30
0.0
 10
824.2106641231309
 20
3112.64194739759
 30
0.0
 10
824.216355047457
 20
3112.646733390893
 30
0.0
 10
824.2228381901625
 20
3112.652795468728
 30
0.0
  0
SPLINE
  5
84
330
1F
100
AcDbEntity
  8
Make2D$Visibile$Curve
370
    -3
100
AcDbSpline
210
0.0
220
0.0
230
1.0
 70
     8
 71
     3
 72
     8
 73
     4
 74
     0
 42
0.0000000001
 43
0.0000000001
 40
0.4943984145812692
 40
0.4943984145812692
 40
0.4943984145812692
 40
0.4943984145812692
 40
0.509622612656151
 40
0.509622612656151
 40
0.509622612656151
 40
0.509622612656151
 10
824.18878057142
 20
3112.625586371251
 30
0.0
 10
824.1887804281569
 20
3112.625586584044
 30
0.0
 10
824.1888559856714
 20
3112.625635964346
 30
0.0
 10
824.1890186063379
 20
3112.625742870923
 30
0.0
  0
SPLINE
  5
85
330
1F
100
AcDbEntity
  8
Make2D$Visibile$Curve
370
    -3
100
AcDbSpline
210
0.0
220
0.0
230
1.0
 70
     8
 71
     3
 72
     8
 73
     4
 74
     0
 42
0.0000000001
 43
0.0000000001
 40
0.1194996963377334
 40
0.1194996963377334
 40
0.1194996963377334
 40
0.1194996963377334
 40
0.1347238944158471
 40
0.1347238944158471
 40
0.1347238944158471
 40
0.1347238944158471
 10
711.6554351750867
 20
3177.597037557828
 30
0.0
 10
711.6554239016082
 20
3177.596843270911
 30
0.0
 10
711.6554189157691
 20
3177.596753146033
 30
0.0
 10
711.6554186598535
 20
3177.596753163705
 30
0.0
  0
SPLINE
  5
86
330
1F
100
AcDbEntity
  8
Make2D$Visibile$Curve
370
    -3
100
AcDbSpline
210
0.0
220
0.0
230
1.0
 70
     8
 71
     3
 72
    12
 73
     8
 74
     0
 42
0.0000000001
 43
0.0000000001
 40
0.0
 40
0.0
 40
0.0
 40
0.0
 40
0.0327783383660181
 40
0.0327783383660181
 40
0.0673844119287699
 40
0.0673844119287699
 40
0.1194996963377334
 40
0.1194996963377334
 40
0.1194996963377334
 40
0.1194996963377334
 10
711.661953620117
 20
3177.639852475493
 30
0.0
 10
711.6599452780627
 20
3177.631206870289
 30
0.0
 10
711.6586459484403
 20
3177.623885388588
 30
0.0
 10
711.6567745776247
 20
3177.611548684481
 30
0.0
 10
711.6563160988303
 20
3177.607246230874
 30
0.0
 10
711.655568087712
 20
3177.599655791586
 30
0.0
 10
711.6554737663178
 20
3177.597702638372
 30
0.0
 10
711.6554351750868
 20
3177.597037557828
 30
0.0
  0
SPLINE
  5
87
330
1F
100
AcDbEntity
  8
Make2D$Visibile$Curve
370
    -3
100
AcDbSpline
210
0.0
220
0.0
230
1.0
 70
    12
 71
     2
 72
     8
 73
     5
 74
     0
 42
0.0000000001
 43
0.0000000001
 40
-0.4973748572316453
 40
-0.4973748572316453
 40
-0.4973748572316453
 40
-0.2499273525679238
 40
-0.2499273525679238
 40
0.0
 40
0.0
 40
0.0
 10
826.507881319055
 20
2822.377505517992
 30
0.0
 41
0.998487965216621
 10
826.5079159456457
 20
2822.50112698525
 30
0.0
 41
0.9238060427492172
 10
826.4630254653064
 20
2822.588873855421
 30
0.0
 41
1.0
 10
826.4176475972891
 20
2822.677573416296
 30
0.0
 41
0.9230424487681138
 10
826.3532270558583
 20
2822.677505517993
 30
0.0
 41
1.0
  0
SPLINE
  5
88
330
1F
100
AcDbEntity
  8
Make2D$Visibile$Curve
370
    -3
100
AcDbSpline
210
0.0
220
0.0
230
1.0
 70
     8
 71
     3
 72
    11
 73
     7
 74
     0
 42
0.0000000001
 43
0.0000000001
 40
-0.404354009112292
 40
-0.404354009112292
 40
-0.404354009112292
 40
-0.404354009112292
 40
-0.3434257293264003
 40
-0.3434257293264003
 40
-0.3434257293264003
 40
-0.0812486229353224
 40
-0.0812486229353224
 40
-0.0812486229353224
 40
-0.0812486229353224
 10
826.2010628438312
 20
2822.620668159251
 30
0.0
 10
826.1998014455946
 20
2822.626850928609
 30
0.0
 10
826.1985239343362
 20
2822.632413213421
 30
0.0
 10
826.1972352392343
 20
2822.637427360284
 30
0.0
 10
826.1917164118795
 20
2822.658900407578
 30
0.0
 10
826.1859664410695
 20
2822.670933489172
 30
0.0
 10
826.1801554083787
 20
2822.675434565257
 30
0.0
  0
SPLINE
  5
89
330
1F
100
AcDbEntity
  8
Make2D$Visibile$Curve
370
    -3
100
AcDbSpline
210
0.0
220
0.0
230
1.0
 70
     8
 71
     3
 72
    14
 73
    10
 74
     0
 42
0.0000000001
 43
0.0000000001
 40
0.0
 40
0.0
 40
0.0
 40
0.0
 40
0.0984595701448807
 40
0.0984595701448807
 40
0.0984595701448807
 40
0.1973100374450996
 40
0.1973100374450996
 40
0.1973100374450996
 40
0.2970071849123577
 40
0.2970071849123577
 40
0.2970071849123577
 40
0.2970071849123577
 10
826.2010628438312
 20
2822.620668159251
 30
0.0
 10
826.193744206121
 20
2822.605949971007
 30
0.0
 10
826.1893040146775
 20
2822.586722533718
 30
0.0
 10
826.1863953226936
 20
2822.563775678102
 30
0.0
 10
826.1834798012724
 20
2822.540774944624
 30
0.0
 10
826.1820207719411
 20
2822.513335724892
 30
0.0
 10
826.1811703389865
 20
2822.483695705446
 30
0.0
 10
826.1803140493648
 20
2822.453851564411
 30
0.0
 10
826.1800346970117
 20
2822.420769315396
 30
0.0
 10
826.1799789387038
 20
2822.387975367003
 30
0.0
  0
SPLINE
  5
8A
330
1F
100
AcDbEntity
  8
Make2D$Visibile$Curve
370
    -3
100
AcDbSpline
210
0.0
220
0.0
230
1.0
 70
     8
 71
     3
 72
    11
 73
     7
 74
     0
 42
0.0000000001
 43
0.0000000001
 40
0.0
 40
0.0
 40
0.0
 40
0.0
 40
0.3670532547964095
 40
0.3670532547964095
 40
0.3670532547964095
 40
0.7460665857515896
 40
0.7460665857515896
 40
0.7460665857515896
 40
0.7460665857515896
 10
826.1799817087976
 20
2822.386003374588
 30
0.0
 10
826.1781617144422
 20
2822.263701594794
 30
0.0
 10
826.1763815349326
 20
2822.141398638527
 30
0.0
 10
826.1746428596373
 20
2822.019094512554
 30
0.0
 10
826.1728475312998
 20
2821.892805225677
 30
0.0
 10
826.1710964515897
 20
2821.766514670853
 30
0.0
 10
826.1693917467824
 20
2821.640222855414
 30
0.0
  0
SPLINE
  5
8B
330
1F
100
AcDbEntity
  8
Make2D$Visibile$Curve
370
    -3
100
AcDbSpline
210
0.0
220
0.0
230
1.0
 70
     8
 71
     3
 72
    14
 73
    10
 74
     0
 42
0.0000000001
 43
0.0000000001
 40
0.0
 40
0.0
 40
0.0
 40
0.0
 40
0.1869683373633505
 40
0.1869683373633505
 40
0.1869683373633505
 40
0.3534057633147945
 40
0.3534057633147945
 40
0.3534057633147945
 40
0.4923401124306338
 40
0.4923401124306338
 40
0.4923401124306338
 40
0.4923401124306338
 10
826.1693917467824
 20
2821.640222855414
 30
0.0
 10
826.168219112926
 20
2821.578092666377
 30
0.0
 10
826.1621902686636
 20
2821.515860685226
 30
0.0
 10
826.1514490225775
 20
2821.455038144593
 30
0.0
 10
826.1418818898476
 20
2821.400864046492
 30
0.0
 10
826.1285172928975
 20
2821.347437177634
 30
0.0
 10
826.1116093241851
 20
2821.295787522226
 30
0.0
 10
826.0974861161684
 20
2821.252644620808
 30
0.0
 10
826.0808258397174
 20
2821.210526865562
 30
0.0
 10
826.0618499735513
 20
2821.170001021776
 30
0.0
  0
SPLINE
  5
8C
330
1F
100
AcDbEntity
  8
Make2D$Visibile$Curve
370
    -3
100
AcDbSpline
210
0.0
220
0.0
230
1.0
 70
    12
 71
     2
 72
     6
 73
     3
 74
     0
 42
0.0000000001
 43
0.0000000001
 40
0.0
 40
0.0
 40
0.0
 40
0.002618043884047
 40
0.002618043884047
 40
0.002618043884047
 10
825.3530416613428
 20
2820.378178138634
 30
0.0
 41
1.0
 10
825.3530416614159
 20
2820.376869116692
 30
0.0
 41
0.9999904804777979
 10
825.3530359453073
 20
2820.375560144594
 30
0.0
 41
1.0
  0
SPLINE
  5
8D
330
1F
100
AcDbEntity
  8
Make2D$Visibile$Curve
370
    -3
100
AcDbSpline
210
0.0
220
0.0
230
1.0
 70
    12
 71
     2
 72
     6
 73
     3
 74
     0
 42
0.0000000001
 43
0.0000000001
 40
0.0
 40
0.0
 40
0.0
 40
0.0687463774187601
 40
0.0687463774187601
 40
0.0687463774187601
 10
825.2811936164935
 20
2820.634173708186
 30
0.0
 41
1.0
 10
825.2514333752167
 20
2820.634173742041
 30
0.0
 41
0.9999998966399001
 10
825.22165750569
 20
2820.634173717589
 30
0.0
 41
1.0
  0
SPLINE
  5
8E
330
1F
100
AcDbEntity
  8
Make2D$Visibile$Curve
370
    -3
100
AcDbSpline
210
0.0
220
0.0
230
1.0
 70
    28
 71
     2
 72
     6
 73
     3
 74
     0
 42
0.0000000001
 43
0.0000000001
 40
40.40674588659487
 40
40.40674588659487
 40
40.40674588659487
 40
40.47291406490967
 40
40.47291406490967
 40
40.47291406490967
 10
825.2933925387795
 20
2820.378178138634
 30
0.0
 41
1.0
 10
825.3232249254658
 20
2820.378178138634
 30
0.0
 41
0.9999998967341653
 10
825.3530416613428
 20
2820.378178138634
 30
0.0
 41
1.0
  0
SPLINE
  5
8F
330
1F
100
AcDbEntity
  8
Make2D$Visibile$Curve
370
    -3
100
AcDbSpline
210
0.0
220
0.0
230
1.0
 70
    12
 71
     2
 72
     6
 73
     3
 74
     0
 42
0.0000000001
 43
0.0000000001
 40
-0.0026180438840463
 40
-0.0026180438840463
 40
-0.0026180438840463
 40
0.0
 40
0.0
 40
0.0
 10
825.2933925387795
 20
2820.378178138634
 30
0.0
 41
1.0
 10
825.2933925388521
 20
2820.376869116692
 30
0.0
 41
0.9999904804779646
 10
825.2933868317355
 20
2820.375560144594
 30
0.0
 41
1.0
  0
SPLINE
  5
90
330
1F
100
AcDbEntity
  8
Make2D$Visibile$Curve
370
    -3
100
AcDbSpline
210
0.0
220
0.0
230
1.0
 70
    12
 71
     2
 72
     6
 73
     3
 74
     0
 42
0.0000000001
 43
0.0000000001
 40
0.0
 40
0.0
 40
0.0
 40
0.1362091510645093
 40
0.1362091510645093
 40
0.1362091510645093
 10
823.9984205476114
 20
2822.677505517992
 30
0.0
 41
1.0
 10
824.0565169156223
 20
2822.677505517992
 30
0.0
 41
0.9659335708269531
 10
824.1090800027106
 20
2822.64893257387
 30
0.0
 41
0.9796816447368983
  0
SPLINE
  5
91
330
1F
100
AcDbEntity
  8
Make2D$Visibile$Curve
370
    -3
100
AcDbSpline
210
0.0
220
0.0
230
1.0
 70
     8
 71
     3
 72
    17
 73
    13
 74
     0
 42
0.0000000001
 43
0.0000000001
 40
0.0
 40
0.0
 40
0.0
 40
0.0
 40
0.0067017915165714
 40
0.0067017915165714
 40
0.0067017915165714
 40
0.0995821297273748
 40
0.0995821297273748
 40
0.0995821297273748
 40
0.1984325970276763
 40
0.1984325970276763
 40
0.1984325970276763
 40
0.2968921671725272
 40
0.2968921671725272
 40
0.2968921671725272
 40
0.2968921671725272
 10
824.2969563900118
 20
2822.387975367003
 30
0.0
 10
824.2968741176561
 20
2822.390207233726
 30
0.0
 10
824.2967655274138
 20
2822.39243806166
 30
0.0
 10
824.296630680112
 20
2822.394666668102
 30
0.0
 10
824.2947817631707
 20
2822.425223513878
 30
0.0
 10
824.2878046044601
 20
2822.45584675885
 30
0.0
 10
824.2763866503836
 20
2822.483695705446
 30
0.0
 10
824.2642343637718
 20
2822.513335724892
 30
0.0
 10
824.2466762044594
 20
2822.540774944624
 30
0.0
 10
824.2253736922656
 20
2822.563775678102
 30
0.0
 10
824.2041210799515
 20
2822.586722533718
 30
0.0
 10
824.1785462329402
 20
2822.605949971007
 30
0.0
 10
824.1505847596381
 20
2822.620668159251
 30
0.0
  0
SPLINE
  5
92
330
1F
100
AcDbEntity
  8
Make2D$Visibile$Curve
370
    -3
100
AcDbSpline
210
0.0
220
0.0
230
1.0
 70
    12
 71
     2
 72
     6
 73
     3
 74
     0
 42
0.0000000001
 43
0.0000000001
 40
0.4973748572314641
 40
0.4973748572314641
 40
0.4973748572314641
 40
0.4998547051356289
 40
0.4998547051356289
 40
0.4998547051356289
 10
711.64818010604
 20
2822.377505517992
 30
0.0
 41
0.9984879652166402
 10
711.648180728273
 20
2822.376360141117
 30
0.0
 41
0.9992364060189064
 10
711.6481900996148
 20
2822.375214802424
 30
0.0
 41
1.0
  0
SPLINE
  5
93
330
1F
100
AcDbEntity
  8
Make2D$Visibile$Curve
370
    -3
100
AcDbSpline
210
0.0
220
0.0
230
1.0
 70
     8
 71
     3
 72
    11
 73
     7
 74
     0
 42
0.0000000001
 43
0.0000000001
 40
0.0
 40
0.0
 40
0.0
 40
0.0
 40
0.1459156895851999
 40
0.1459156895851999
 40
0.1459156895851999
 40
0.7461787815495392
 40
0.7461787815495392
 40
0.7461787815495392
 40
0.7461787815495392
 10
711.6542311332203
 20
2821.629518211629
 30
0.0
 10
711.6538370661982
 20
2821.678125341555
 30
0.0
 10
711.6534430561169
 20
2821.726732471945
 30
0.0
 10
711.6530491029732
 20
2821.775339602801
 30
0.0
 10
711.6514284716848
 20
2821.975297994809
 30
0.0
 10
711.6498088039607
 20
2822.175256394689
 30
0.0
 10
711.6481900996148
 20
2822.375214802424
 30
0.0
  0
SPLINE
  5
94
330
1F
100
AcDbEntity
  8
Make2D$Visibile$Curve
370
    -3
100
AcDbSpline
210
0.0
220
0.0
230
1.0
 70
    12
 71
     2
 72
     8
 73
     5
 74
     0
 42
0.0000000001
 43
0.0000000001
 40
-0.4998547051356289
 40
-0.4998547051356289
 40
-0.4998547051356289
 40
-0.2499273525678298
 40
-0.2499273525678298
 40
-0.0024798479041594
 40
-0.0024798479041594
 40
-0.0024798479041594
 10
711.9481314594927
 20
2822.677505517992
 30
0.0
 41
1.0
 10
711.8231880651565
 20
2822.677573416295
 30
0.0
 41
0.9230424487683551
 10
711.7351778632571
 20
2822.588873855421
 30
0.0
 41
1.0
 10
711.6481129478998
 20
2822.50112698525
 30
0.0
 41
0.923806042749447
 10
711.6481801060398
 20
2822.377505517992
 30
0.0
 41
0.9984879652166434
  0
SPLINE
  5
95
330
1F
100
AcDbEntity
  8
Make2D$Visibile$Curve
370
    -3
100
AcDbSpline
210
0.0
220
0.0
230
1.0
 70
     8
 71
     3
 72
    23
 73
    19
 74
     0
 42
0.0000000001
 43
0.0000000001
 40
0.0
 40
0.0
 40
0.0
 40
0.0
 40
0.1340951110333509
 40
0.1340951110333509
 40
0.1340951110333509
 40
0.2236312197819063
 40
0.2236312197819063
 40
0.2236312197819063
 40
0.2483695178308516
 40
0.2483695178308516
 40
0.2483695178308516
 40
0.3160751947721349
 40
0.3160751947721349
 40
0.3160751947721349
 40
0.3439924279494916
 40
0.3439924279494916
 40
0.3439924279494916
 40
0.3507034255419093
 40
0.3507034255419093
 40
0.3507034255419093
 40
0.3507034255419093
 10
824.2169368014559
 20
2822.620668159251
 30
0.0
 10
824.2591129958435
 20
2822.607141410155
 30
0.0
 10
824.3006391106445
 20
2822.588789632899
 30
0.0
 10
824.3371890851417
 20
2822.563775678102
 30
0.0
 10
824.3615999747976
 20
2822.547069431414
 30
0.0
 10
824.384211659102
 20
2822.527010168317
 30
0.0
 10
824.4025072985462
 20
2822.503811915036
 30
0.0
 10
824.4075967625266
 20
2822.497358646494
 30
0.0
 10
824.4123730350523
 20
2822.490642644574
 30
0.0
 10
824.4167686508538
 20
2822.483695705446
 30
0.0
 10
824.4287041551961
 20
2822.464832541357
 30
0.0
 10
824.4379624193172
 20
2822.443857944906
 30
0.0
 10
824.4432713340093
 20
2822.422139507651
 30
0.0
 10
824.445475656661
 20
2822.413121761845
 30
0.0
 10
824.447029997512
 20
2822.40391484037
 30
0.0
 10
824.4478867999818
 20
2822.394666668102
 30
0.0
 10
824.4480931227224
 20
2822.392439657427
 30
0.0
 10
824.4482594516967
 20
2822.390208489374
 30
0.0
 10
824.4483854777769
 20
2822.387975367003
 30
0.0
  0
SPLINE
  5
96
330
1F
100
AcDbEntity
  8
Make2D$Visibile$Curve
370
    -3
100
AcDbSpline
210
0.0
220
0.0
230
1.0
 70
     8
 71
     3
 72
    23
 73
    19
 74
     0
 42
0.0000000001
 43
0.0000000001
 40
0.0
 40
0.0
 40
0.0
 40
0.0
 40
0.006710997592418
 40
0.006710997592418
 40
0.006710997592418
 40
0.0849524014627833
 40
0.0849524014627833
 40
0.0849524014627833
 40
0.1025145612275096
 40
0.1025145612275096
 40
0.1025145612275096
 40
0.1981148362600086
 40
0.1981148362600086
 40
0.1981148362600086
 40
0.2169270368880127
 40
0.2169270368880127
 40
0.2169270368880127
 40
0.3510221479213191
 40
0.3510221479213191
 40
0.3510221479213191
 40
0.3510221479213191
 10
825.8540376767907
 20
2822.387975367003
 30
0.0
 10
825.8540846415187
 20
2822.390208489374
 30
0.0
 10
825.854146638917
 20
2822.392439657427
 30
0.0
 10
825.8542235914156
 20
2822.394666668102
 30
0.0
 10
825.8551093302326
 20
2822.420300011168
 30
0.0
 10
825.858071991632
 20
2822.44580603836
 30
0.0
 10
825.8627128213928
 20
2822.468537725616
 30
0.0
 10
825.8637675140799
 20
2822.473703815637
 30
0.0
 10
825.8649111525217
 20
2822.478762109305
 30
0.0
 10
825.86613765358
 20
2822.483695705446
 30
0.0
 10
825.8727492304624
 20
2822.510290749912
 30
0.0
 10
825.8819194284793
 20
2822.533559537688
 30
0.0
 10
825.892825968939
 20
2822.552750612259
 30
0.0
 10
825.8949937957273
 20
2822.556565105562
 30
0.0
 10
825.8972371123723
 20
2822.560239385982
 30
0.0
 10
825.899551373587
 20
2822.563775678102
 30
0.0
 10
825.91592129537
 20
2822.588789632899
 30
0.0
 10
825.9360701490153
 20
2822.607141410155
 30
0.0
 10
825.9590223724324
 20
2822.620668159251
 30
0.0
  0
SPLINE
  5
97
330
1F
100
AcDbEntity
  8
Make2D$Visibile$Curve
370
    -3
100
AcDbSpline
210
0.0
220
0.0
230
1.0
 70
     8
 71
     3
 72
    14
 73
    10
 74
     0
 42
0.0000000001
 43
0.0000000001
 40
0.0
 40
0.0
 40
0.0
 40
0.0
 40
0.0608307166708356
 40
0.0608307166708356
 40
0.0608307166708356
 40
0.3990391833861138
 40
0.3990391833861138
 40
0.3990391833861138
 40
0.403991393578934
 40
0.403991393578934
 40
0.403991393578934
 40
0.403991393578934
 10
825.9590223724324
 20
2822.620668159251
 30
0.0
 10
825.9695143082655
 20
2822.626851515912
 30
0.0
 10
825.9801165126831
 20
2822.632413731963
 30
0.0
 10
825.990786551281
 20
2822.637427360284
 30
0.0
 10
826.0498259135477
 20
2822.665168723732
 30
0.0
 10
826.1112764240291
 20
2822.677137835697
 30
0.0
 10
826.1720551586839
 20
2822.677497576676
 30
0.0
 10
826.1729496630844
 20
2822.677502871124
 30
0.0
 10
826.1738441395865
 20
2822.677505517992
 30
0.0
 10
826.1747386317629
 20
2822.677505517992
 30
0.0
  0
SPLINE
  5
98
330
1F
100
AcDbEntity
  8
Make2D$Visibile$Curve
370
    -3
100
AcDbSpline
210
0.0
220
0.0
230
1.0
 70
     8
 71
     3
 72
    11
 73
     7
 74
     0
 42
0.0000000001
 43
0.0000000001
 40
0.8033458815216507
 40
0.8033458815216507
 40
0.8033458815216507
 40
0.8033458815216507
 40
0.9880137157304101
 40
0.9880137157304101
 40
0.9880137157304101
 40
1.0
 40
1.0
 40
1.0
 40
1.0
 10
826.1801554083787
 20
2822.675434565257
 30
0.0
 10
826.1784643337598
 20
2822.676744428053
 30
0.0
 10
826.176768087968
 20
2822.67741642473
 30
0.0
 10
826.1750708626587
 20
2822.677497576918
 30
0.0
 10
826.1749601386776
 20
2822.677502871143
 30
0.0
 10
826.1748493755372
 20
2822.677505517992
 30
0.0
 10
826.1747386317629
 20
2822.677505517992
 30
0.0
  0
SPLINE
  5
99
330
1F
100
AcDbEntity
  8
Make2D$Visibile$Curve
370
    -3
100
AcDbSpline
210
0.0
220
0.0
230
1.0
 70
     8
 71
     3
 72
     8
 73
     4
 74
     0
 42
0.0000000001
 43
0.0000000001
 40
-1.0
 40
-1.0
 40
-1.0
 40
-1.0
 40
0.0
 40
0.0
 40
0.0
 40
0.0
 10
826.1799789387038
 20
2822.387975367003
 30
0.0
 10
826.179977821153
 20
2822.387318085533
 30
0.0
 10
826.1799787445276
 20
2822.386660746189
 30
0.0
 10
826.1799817087976
 20
2822.386003374588
 30
0.0
  0
SPLINE
  5
9A
330
1F
100
AcDbEntity
  8
Make2D$Visibile$Curve
370
    -3
100
AcDbSpline
210
0.0
220
0.0
230
1.0
 70
     8
 71
     3
 72
     8
 73
     4
 74
     0
 42
0.0000000001
 43
0.0000000001
 40
0.0
 40
0.0
 40
0.0
 40
0.0
 40
1.0
 40
1.0
 40
1.0
 40
1.0
 10
825.8540434727053
 20
2822.384031382175
 30
0.0
 10
825.8540374750779
 20
2822.385346124731
 30
0.0
 10
825.8540355430814
 20
2822.386660803283
 30
0.0
 10
825.8540376767907
 20
2822.387975367003
 30
0.0
  0
SPLINE
  5
9B
330
1F
100
AcDbEntity
  8
Make2D$Visibile$Curve
370
    -3
100
AcDbSpline
210
0.0
220
0.0
230
1.0
 70
     8
 71
     3
 72
    11
 73
     7
 74
     0
 42
0.0000000001
 43
0.0000000001
 40
0.0
 40
0.0
 40
0.0
 40
0.0
 40
0.5080218673497127
 40
0.5080218673497127
 40
0.5080218673497127
 40
1.0
 40
1.0
 40
1.0
 40
1.0
 10
825.8584611059512
 20
2821.637839689539
 30
0.0
 10
825.8575362440456
 20
2821.764202958311
 30
0.0
 10
825.8567039168083
 20
2821.890564961757
 30
0.0
 10
825.8559599008504
 20
2822.016925500919
 30
0.0
 10
825.8552393814846
 20
2822.139295477708
 30
0.0
 10
825.8546016907753
 20
2822.261664158721
 30
0.0
 10
825.8540434727053
 20
2822.384031382175
 30
0.0
  0
SPLINE
  5
9C
330
1F
100
AcDbEntity
  8
Make2D$Visibile$Curve
370
    -3
100
AcDbSpline
210
0.0
220
0.0
230
1.0
 70
     8
 71
     3
 72
    14
 73
    10
 74
     0
 42
0.0000000001
 43
0.0000000001
 40
-0.3666361167716984
 40
-0.3666361167716984
 40
-0.3666361167716984
 40
-0.3666361167716984
 40
-0.2629275304987286
 40
-0.2629275304987286
 40
-0.2629275304987286
 40
-0.1389435164865999
 40
-0.1389435164865999
 40
-0.1389435164865999
 40
0.0
 40
0.0
 40
0.0
 40
0.0
 10
825.7874186655438
 20
2821.286542638857
 30
0.0
 10
825.8008172439557
 20
2821.317011885699
 30
0.0
 10
825.8124476802869
 20
2821.348643933102
 30
0.0
 10
825.8221552121638
 20
2821.381009695768
 30
0.0
 10
825.8337531350854
 20
2821.419678187972
 30
0.0
 10
825.8426697506145
 20
2821.459624850646
 30
0.0
 10
825.8487368120227
 20
2821.500078610817
 30
0.0
 10
825.8555321947391
 20
2821.545388648772
 30
0.0
 10
825.8587989399309
 20
2821.591681656886
 30
0.0
 10
825.8584611059512
 20
2821.637839689539
 30
0.0
  0
SPLINE
  5
9D
330
1F
100
AcDbEntity
  8
Make2D$Visibile$Curve
370
    -3
100
AcDbSpline
210
0.0
220
0.0
230
1.0
 70
    12
 71
     2
 72
     6
 73
     3
 74
     0
 42
0.0000000001
 43
0.0000000001
 40
0.0
 40
0.0
 40
0.0
 40
0.3441818063494997
 40
0.3441818063494997
 40
0.3441818063494997
 10
825.7874186655438
 20
2821.286542638857
 30
0.0
 41
1.0
 10
825.9196539983996
 20
2821.205652121995
 30
0.0
 41
0.8674169932571777
 10
826.0618499735513
 20
2821.170001021776
 30
0.0
 41
1.0
  0
SPLINE
  5
9E
330
1F
100
AcDbEntity
  8
Make2D$Visibile$Curve
370
    -3
100
AcDbSpline
210
0.0
220
0.0
230
1.0
 70
    12
 71
     2
 72
     6
 73
     3
 74
     0
 42
0.0000000001
 43
0.0000000001
 40
0.0
 40
0.0
 40
0.0
 40
0.3228943912818372
 40
0.3228943912818372
 40
0.3228943912818372
 10
825.2094370195073
 20
2820.879699462108
 30
0.0
 41
1.0
 10
825.2122564496865
 20
2820.718350615736
 30
0.0
 41
0.8805829013347921
 10
825.2811936164934
 20
2820.634173708186
 30
0.0
 41
1.0
  0
SPLINE
  5
9F
330
1F
100
AcDbEntity
  8
Make2D$Visibile$Curve
370
    -3
100
AcDbSpline
210
0.0
220
0.0
230
1.0
 70
    12
 71
     2
 72
     6
 73
     3
 74
     0
 42
0.0000000001
 43
0.0000000001
 40
-0.0686160398913775
 40
-0.0686160398913775
 40
-0.0686160398913775
 40
0.0
 40
0.0
 40
0.0
 10
825.1500137913908
 20
2820.87969949642
 30
0.0
 41
1.0
 10
825.1797332008459
 20
2820.87969949642
 30
0.0
 41
0.9999998967439001
 10
825.2094370195073
 20
2820.879699462108
 30
0.0
 41
1.0
  0
SPLINE
  5
A0
330
1F
100
AcDbEntity
  8
Make2D$Visibile$Curve
370
    -3
100
AcDbSpline
210
0.0
220
0.0
230
1.0
 70
    12
 71
     2
 72
     6
 73
     3
 74
     0
 42
0.0000000001
 43
0.0000000001
 40
-0.322894392421368
 40
-0.322894392421368
 40
-0.322894392421368
 40
0.0
 40
0.0
 40
0.0
 10
825.1500137913908
 20
2820.87969949642
 30
0.0
 41
1.0
 10
825.1528287865153
 20
2820.718350649479
 30
0.0
 41
0.8805829426774934
 10
825.22165750569
 20
2820.634173717589
 30
0.0
 41
1.0
  0
SPLINE
  5
A1
330
1F
100
AcDbEntity
  8
Make2D$Visibile$Curve
370
    -3
100
AcDbSpline
210
0.0
220
0.0
230
1.0
 70
     8
 71
     3
 72
     8
 73
     4
 74
     0
 42
0.0000000001
 43
0.0000000001
 40
-1.0
 40
-1.0
 40
-1.0
 40
-1.0
 40
0.0
 40
0.0
 40
0.0
 40
0.0
 10
824.4483854777769
 20
2822.387975367003
 30
0.0
 10
824.44843383332
 20
2822.386660803283
 30
0.0
 10
824.4484780763529
 20
2822.385346124731
 30
0.0
 10
824.448518205181
 20
2822.384031382175
 30
0.0
  0
SPLINE
  5
A2
330
1F
100
AcDbEntity
  8
Make2D$Visibile$Curve
370
    -3
100
AcDbSpline
210
0.0
220
0.0
230
1.0
 70
     8
 71
     3
 72
     8
 73
     4
 74
     0
 42
0.0000000001
 43
0.0000000001
 40
0.0
 40
0.0
 40
0.0
 40
0.0
 40
1.0
 40
1.0
 40
1.0
 40
1.0
 10
824.2970228831764
 20
2822.386003374589
 30
0.0
 10
824.2970027837755
 20
2822.386660746189
 30
0.0
 10
824.2969806190995
 20
2822.387318085533
 30
0.0
 10
824.2969563900118
 20
2822.387975367003
 30
0.0
  0
SPLINE
  5
A3
330
1F
100
AcDbEntity
  8
Make2D$Visibile$Curve
370
    -3
100
AcDbSpline
210
0.0
220
0.0
230
1.0
 70
    12
 71
     2
 72
     6
 73
     3
 74
     0
 42
0.0000000001
 43
0.0000000001
 40
-1.0
 40
-1.0
 40
-1.0
 40
-0.9161859482881776
 40
-0.9161859482881776
 40
-0.9161859482881776
 10
824.2970228831764
 20
2822.386003374589
 30
0.0
 41
1.0
 10
824.2957556749236
 20
2822.385649288526
 30
0.0
 41
0.9865299765269072
 10
824.2957653487783
 20
2822.385332895145
 30
0.0
 41
0.9753179075416809
  0
SPLINE
  5
A4
330
1F
100
AcDbEntity
  8
Make2D$Visibile$Curve
370
    -3
100
AcDbSpline
210
0.0
220
0.0
230
1.0
 70
    12
 71
     2
 72
     6
 73
     3
 74
     0
 42
0.0000000001
 43
0.0000000001
 40
-0.0688768706680824
 40
-0.0688768706680824
 40
-0.0688768706680824
 40
0.0
 40
0.0
 40
0.0
 10
825.2933868317355
 20
2820.375560144594
 30
0.0
 41
1.0
 10
825.3232192139975
 20
2820.375560177986
 30
0.0
 41
0.999999896731772
 10
825.3530359453073
 20
2820.375560144594
 30
0.0
 41
1.0
  0
SPLINE
  5
A5
330
1F
100
AcDbEntity
  8
Make2D$Visibile$Curve
370
    -3
100
AcDbSpline
210
0.0
220
0.0
230
1.0
 70
     8
 71
     3
 72
    11
 73
     7
 74
     0
 42
0.0000000001
 43
0.0000000001
 40
-0.6199234122991153
 40
-0.6199234122991153
 40
-0.6199234122991153
 40
-0.6199234122991153
 40
-0.4406819797118983
 40
-0.4406819797118983
 40
-0.4406819797118983
 40
0.0
 40
0.0
 40
0.0
 40
0.0
 10
711.6566341563064
 20
2821.040371595035
 30
0.0
 10
711.656632465832
 20
2821.092386592092
 30
0.0
 10
711.6565740857377
 20
2821.146546969118
 30
0.0
 10
711.6564485269046
 20
2821.202084986081
 30
0.0
 10
711.6561422575567
 20
2821.337556078189
 30
0.0
 10
711.6554102637544
 20
2821.484105051127
 30
0.0
 10
711.6542311332203
 20
2821.629518211629
 30
0.0
  0
SPLINE
  5
A6
330
1F
100
AcDbEntity
  8
Make2D$Visibile$Curve
370
    -3
100
AcDbSpline
210
0.0
220
0.0
230
1.0
 70
     8
 71
     3
 72
    17
 73
    13
 74
     0
 42
0.0000000001
 43
0.0000000001
 40
-1.388786646220338
 40
-1.388786646220338
 40
-1.388786646220338
 40
-1.388786646220338
 40
-1.323292433091261
 40
-1.323292433091261
 40
-1.323292433091261
 40
-0.8810643512475969
 40
-0.8810643512475969
 40
-0.8810643512475969
 40
-0.4401931022920893
 40
-0.4401931022920893
 40
-0.4401931022920893
 40
0.0
 40
0.0
 40
0.0
 40
0.0
 10
711.6533562859195
 20
2820.375560144594
 30
0.0
 10
711.6533662052146
 20
2820.375560144594
 30
0.0
 10
711.6533808139496
 20
2820.376105078731
 30
0.0
 10
711.6534000494717
 20
2820.377193950711
 30
0.0
 10
711.6535287515937
 20
2820.38447943712
 30
0.0
 10
711.6538827034569
 20
2820.41689398361
 30
0.0
 10
711.6543454868317
 20
2820.471831682301
 30
0.0
 10
711.6548068436674
 20
2820.526600034422
 30
0.0
 10
711.6553822297326
 20
2820.605256708428
 30
0.0
 10
711.6558396772939
 20
2820.701443042384
 30
0.0
 10
711.6562963837907
 20
2820.797473554648
 30
0.0
 10
711.6566382754646
 20
2820.913627281974
 30
0.0
 10
711.6566341563064
 20
2821.040371595035
 30
0.0
  0
SPLINE
  5
A7
330
1F
100
AcDbEntity
  8
Make2D$Visibile$Curve
370
    -3
100
AcDbSpline
210
0.0
220
0.0
230
1.0
 70
    12
 71
     2
 72
     6
 73
     3
 74
     0
 42
0.0000000001
 43
0.0000000001
 40
-0.9161859482881776
 40
-0.9161859482881776
 40
-0.9161859482881776
 40
-0.906536411267252
 40
-0.906536411267252
 40
-0.906536411267252
 10
824.2957653487783
 20
2822.385332895145
 30
0.0
 41
0.9753179075416809
 10
824.2957664768287
 20
2822.385296001098
 30
0.0
 41
0.9740270586619953
 10
824.2957850031461
 20
2822.385259641153
 30
0.0
 41
0.9727661389380253
  0
SPLINE
  5
A8
330
1F
100
AcDbEntity
  8
Make2D$Visibile$Curve
370
    -3
100
AcDbSpline
210
0.0
220
0.0
230
1.0
 70
    24
 71
     2
 72
     6
 73
     3
 74
     0
 42
0.0000000001
 43
0.0000000001
 40
-0.3569768481900593
 40
-0.3569768481900593
 40
-0.3569768481900593
 40
0.0
 40
0.0
 40
0.0
 10
826.1747386317629
 20
2822.677505517992
 30
0.0
 10
826.2639828438105
 20
2822.677505517992
 30
0.0
 10
826.3532270558579
 20
2822.677505517992
 30
0.0
  0
SPLINE
  5
A9
330
1F
100
AcDbEntity
  8
Make2D$Visibile$Curve
370
    -3
100
AcDbSpline
210
0.0
220
0.0
230
1.0
 70
    28
 71
     2
 72
     6
 73
     3
 74
     0
 42
0.0000000001
 43
0.0000000001
 40
-170.7467052778493
 40
-170.7467052778493
 40
-170.7467052778493
 40
-85.37335263892442
 40
-85.37335263892442
 40
-85.37335263892442
 10
826.3532270558579
 20
2822.677505517992
 30
0.0
 41
1.0
 10
862.9306302038009
 20
2822.677505517992
 30
0.0
 41
0.870492449897066
 10
862.9306302038009
 20
2822.677505517992
 30
0.0
 41
1.0
  0
SPLINE
  5
AA
330
1F
100
AcDbEntity
  8
Make2D$Visibile$Curve
370
    -3
100
AcDbSpline
210
0.0
220
0.0
230
1.0
 70
    28
 71
     2
 72
     6
 73
     3
 74
     0
 42
0.0000000001
 43
0.0000000001
 40
3.9794897307103
 40
3.9794897307103
 40
3.9794897307103
 40
37.67815491197242
 40
37.67815491197242
 40
37.67815491197242
 10
863.2306187807205
 20
2822.374887557343
 30
0.0
 41
1.0
 10
863.0835824817444
 20
2805.526196537667
 30
0.0
 41
1.0
 10
862.9365461827683
 20
2788.677505517992
 30
0.0
 41
1.0
  0
SPLINE
  5
AB
330
1F
100
AcDbEntity
  8
Make2D$Visibile$Curve
370
    -3
100
AcDbSpline
210
0.0
220
0.0
230
1.0
 70
    28
 71
     2
 72
     6
 73
     3
 74
     0
 42
0.0000000001
 43
0.0000000001
 40
3.979489730710292
 40
3.979489730710292
 40
3.979489730710292
 40
35.67875138476011
 40
35.67875138476011
 40
35.67875138476011
 10
711.92997319254
 20
2788.677505517992
 30
0.0
 41
1.0
 10
711.7916608264918
 20
2804.526532839641
 30
0.0
 41
1.0
 10
711.6533484604436
 20
2820.37556016129
 30
0.0
 41
1.0
  0
SPLINE
  5
AC
330
1F
100
AcDbEntity
  8
Make2D$Visibile$Curve
370
    -3
100
AcDbSpline
210
0.0
220
0.0
230
1.0
 70
    12
 71
     2
 72
     8
 73
     5
 74
     0
 42
0.0000000001
 43
0.0000000001
 40
0.0
 40
0.0
 40
0.0
 40
0.2485281374238506
 40
0.2485281374238506
 40
0.4970562748477183
 40
0.4970562748477183
 40
0.4970562748477183
 10
863.2306302038012
 20
2822.377505517992
 30
0.0
 41
1.0
 10
863.2306302038011
 20
2822.501769586705
 30
0.0
 41
0.853553390593274
 10
863.1427622381573
 20
2822.589637552349
 30
0.0
 41
0.853553390593274
 10
863.0548942725131
 20
2822.677505517992
 30
0.0
 41
0.853553390593274
 10
862.9306302038011
 20
2822.677505517992
 30
0.0
 41
1.0
  0
SPLINE
  5
AD
330
1F
100
AcDbEntity
  8
Make2D$Visibile$Curve
370
    -3
100
AcDbSpline
210
0.0
220
0.0
230
1.0
 70
    12
 71
     2
 72
     6
 73
     3
 74
     0
 42
0.0000000001
 43
0.0000000001
 40
0.0
 40
0.0
 40
0.0
 40
0.0036957464039646
 40
0.0036957464039646
 40
0.0036957464039646
 10
863.2306302038012
 20
2822.377505517992
 30
0.0
 41
1.0
 10
863.2306302038013
 20
2822.376196512746
 30
0.0
 41
0.9981959015663743
 10
863.2306187807204
 20
2822.374887557343
 30
0.0
 41
0.9964140281004101
  0
SPLINE
  5
AE
330
1F
100
AcDbEntity
  8
Make2D$Visibile$Curve
370
    -3
100
AcDbSpline
210
0.0
220
0.0
230
1.0
 70
    28
 71
     2
 72
     6
 73
     3
 74
     0
 42
0.0000000001
 43
0.0000000001
 40
-2.515353724358636
 40
-2.515353724358636
 40
-2.515353724358636
 40
0.0
 40
0.0
 40
0.0
 10
823.9984205476114
 20
2822.677505517992
 30
0.0
 41
0.999977263970574
 10
825.0971279057596
 20
2822.677505517992
 30
0.0
 41
0.9998485914083047
 10
826.1747386317629
 20
2822.677505517992
 30
0.0
 41
1.0
  0
SPLINE
  5
AF
330
1F
100
AcDbEntity
  8
Make2D$Visibile$Curve
370
    -3
100
AcDbSpline
210
0.0
220
0.0
230
1.0
 70
    28
 71
     2
 72
     6
 73
     3
 74
     0
 42
0.0000000001
 43
0.0000000001
 40
-148.2996922493547
 40
-148.2996922493547
 40
-148.2996922493547
 40
0.0
 40
0.0
 40
0.0
 10
711.9481314594927
 20
2822.677505517992
 30
0.0
 41
1.0
 10
713.2834135629769
 20
2822.677505517992
 30
0.0
 41
0.7134451232296046
 10
787.4332596876541
 20
2822.677505517992
 30
0.0
 41
1.0
  0
SPLINE
  5
B0
330
1F
100
AcDbEntity
  8
Make2D$Visibile$Curve
370
    -3
100
AcDbSpline
210
0.0
220
0.0
230
1.0
 70
    28
 71
     2
 72
     6
 73
     3
 74
     0
 42
0.0000000001
 43
0.0000000001
 40
-39.00514907876603
 40
-39.00514907876603
 40
-39.00514907876603
 40
0.0
 40
0.0
 40
0.0
 10
787.4332596876541
 20
2822.677505517992
 30
0.0
 41
1.0
 10
806.9358342270372
 20
2822.677505517992
 30
0.0
 41
0.9682171546608339
 10
823.9984205476114
 20
2822.677505517992
 30
0.0
 41
1.0
  0
SPLINE
  5
B1
330
1F
100
AcDbEntity
  8
Make2D$Visibile$Curve
370
    -3
100
AcDbSpline
210
0.0
220
0.0
230
1.0
 70
     8
 71
     3
 72
     8
 73
     4
 74
     0
 42
0.0000000001
 43
0.0000000001
 40
0.0
 40
0.0
 40
0.0
 40
0.0
 40
0.7458781702712445
 40
0.7458781702712445
 40
0.7458781702712445
 40
0.7458781702712445
 10
824.3175248413116
 20
2821.639981481302
 30
0.0
 10
824.3106249418913
 20
2821.888439437828
 30
0.0
 10
824.3033615579184
 20
2822.136891054744
 30
0.0
 10
824.2957653487779
 20
2822.385332895145
 30
0.0
  0
SPLINE
  5
B2
330
1F
100
AcDbEntity
  8
Make2D$Visibile$Curve
370
    -3
100
AcDbSpline
210
0.0
220
0.0
230
1.0
 70
    12
 71
     2
 72
    10
 73
     7
 74
     0
 42
0.0000000001
 43
0.0000000001
 40
400.8186018883442
 40
400.8186018883442
 40
400.8186018883442
 40
579.8989873223331
 40
579.8989873223331
 40
869.8484809834997
 40
869.8484809834997
 40
980.717589210677
 40
980.717589210677
 40
980.717589210677
 10
1099.285543155233
 20
2126.074180426834
 30
0.0
 41
0.8749653159346513
 10
1137.433259689304
 20
2051.205071196034
 30
0.0
 41
0.9095507464872328
 10
1137.433259689304
 20
1967.177505517995
 30
0.0
 41
1.0
 10
1137.433259689305
 20
1822.202758687411
 30
0.0
 41
0.853553390593274
 10
1034.920633104598
 20
1719.690132102702
 30
0.0
 41
0.853553390593274
 10
995.7224839788265
 20
1680.491982976931
 30
0.0
 41
0.853553390593274
 10
946.3299345981457
 20
1655.325222052064
 30
0.0
 41
0.8749653159346513
  0
SPLINE
  5
B3
330
1F
100
AcDbEntity
  8
Make2D$Visibile$Curve
370
    -3
100
AcDbSpline
210
0.0
220
0.0
230
1.0
 70
    12
 71
     2
 72
     6
 73
     3
 74
     0
 42
0.0000000001
 43
0.0000000001
 40
980.717589210677
 40
980.717589210677
 40
980.717589210677
 40
1159.797974644666
 40
1159.797974644666
 40
1159.797974644666
 10
946.3299345981457
 20
1655.325222052064
 30
0.0
 41
0.8749653159346513
 10
871.460825367346
 20
1617.177505517993
 30
0.0
 41
0.9095507464872327
 10
787.4332596893062
 20
1617.177505517993
 30
0.0
 41
1.0
  0
SPLINE
  5
B4
330
1F
100
AcDbEntity
  8
Make2D$Visibile$Curve
370
    -3
100
AcDbSpline
210
0.0
220
0.0
230
1.0
 70
    28
 71
     2
 72
     6
 73
     3
 74
     0
 42
0.0000000001
 43
0.0000000001
 40
74.3502400000003
 40
74.3502400000003
 40
74.3502400000003
 40
545.9929042853157
 40
545.9929042853157
 40
545.9929042853157
 10
797.4332596893141
 20
2788.677505517993
 30
0.0
 41
1.0
 10
797.4332596893141
 20
2552.856173375335
 30
0.0
 41
1.0
 10
797.4332596893141
 20
2317.034841232677
 30
0.0
 41
1.0
  0
SPLINE
  5
B5
330
1F
100
AcDbEntity
  8
Make2D$Visibile$Curve
370
    -3
100
AcDbSpline
210
0.0
220
0.0
230
1.0
 70
    12
 71
     2
 72
     8
 73
     5
 74
     0
 42
0.0000000001
 43
0.0000000001
 40
-1380.0
 40
-1380.0
 40
-1380.0
 40
-690.0000000000001
 40
-690.0000000000001
 40
0.0
 40
0.0
 40
0.0
 10
787.4332596893023
 20
2312.177505517993
 30
0.0
 41
1.0
 10
1132.433259689302
 20
2312.177505517994
 30
0.0
 41
0.7071067811865475
 10
1132.433259689304
 20
1967.177505517995
 30
0.0
 41
1.0
 10
1132.433259689306
 20
1622.177505517994
 30
0.0
 41
0.7071067811865475
 10
787.4332596893062
 20
1622.177505517993
 30
0.0
 41
1.0
  0
SPLINE
  5
B6
330
1F
100
AcDbEntity
  8
Make2D$Visibile$Curve
370
    -3
100
AcDbSpline
210
0.0
220
0.0
230
1.0
 70
    12
 71
     2
 72
     8
 73
     5
 74
     0
 42
0.0000000001
 43
0.0000000001
 40
-1380.0
 40
-1380.0
 40
-1380.0
 40
-689.9999999999998
 40
-689.9999999999998
 40
0.0
 40
0.0
 40
0.0
 10
787.433259689306
 20
1622.177505517993
 30
0.0
 41
1.0
 10
442.4332596893062
 20
1622.177505517991
 30
0.0
 41
0.7071067811865477
 10
442.4332596893042
 20
1967.177505517991
 30
0.0
 41
1.0
 10
442.4332596893023
 20
2312.17750551799
 30
0.0
 41
0.7071067811865477
 10
787.4332596893023
 20
2312.177505517993
 30
0.0
 41
1.0
  0
SPLINE
  5
B7
330
1F
100
AcDbEntity
  8
Make2D$Visibile$Curve
370
    -3
100
AcDbSpline
210
0.0
220
0.0
230
1.0
 70
     8
 71
     3
 72
    11
 73
     7
 74
     0
 42
0.0000000001
 43
0.0000000001
 40
0.2920769665924347
 40
0.2920769665924347
 40
0.2920769665924347
 40
0.2920769665924347
 40
0.3431606769081512
 40
0.3431606769081512
 40
0.3431606769081512
 40
0.4039913935788962
 40
0.4039913935788962
 40
0.4039913935788962
 40
0.4039913935788962
 10
824.1090800027105
 20
2822.648932573871
 30
0.0
 10
824.1256629842424
 20
2822.645447763193
 30
0.0
 10
824.1421611087794
 20
2822.641617473524
 30
0.0
 10
824.1585548726339
 20
2822.637427360284
 30
0.0
 10
824.1781706285949
 20
2822.632413731963
 30
0.0
 10
824.19765719106
 20
2822.626851515912
 30
0.0
 10
824.2169368014559
 20
2822.620668159251
 30
0.0
  0
SPLINE
  5
B8
330
1F
100
AcDbEntity
  8
Make2D$Visibile$Curve
370
    -3
100
AcDbSpline
210
0.0
220
0.0
230
1.0
 70
    28
 71
     2
 72
     8
 73
     5
 74
     0
 42
0.0000000001
 43
0.0000000001
 40
-302.0131459804569
 40
-302.0131459804569
 40
-302.0131459804569
 40
-151.0065729902284
 40
-151.0065729902284
 40
0.0
 40
0.0
 40
0.0
 10
862.9365461827683
 20
2788.677505517992
 30
0.0
 41
1.0
 10
862.9365461827683
 20
2788.677505517992
 30
0.0
 41
0.7071067811865475
 10
787.4332596876541
 20
2788.677505517992
 30
0.0
 41
1.0
 10
711.9299731925399
 20
2788.677505517992
 30
0.0
 41
0.7071067811865475
 10
711.9299731925399
 20
2788.677505517992
 30
0.0
 41
1.0
  0
SPLINE
  5
B9
330
1F
100
AcDbEntity
  8
Make2D$Visibile$Curve
370
    -3
100
AcDbSpline
210
0.0
220
0.0
230
1.0
 70
    12
 71
     2
 72
     6
 73
     3
 74
     0
 42
0.0000000001
 43
0.0000000001
 40
-0.906536411267252
 40
-0.906536411267252
 40
-0.906536411267252
 40
0.0
 40
0.0
 40
0.0
 10
824.295785003146
 20
2822.385259641153
 30
0.0
 41
0.9727661389380254
 10
824.2977693820733
 20
2822.381365078223
 30
0.0
 41
0.8543076430552664
 10
824.448518205181
 20
2822.384031382175
 30
0.0
 41
1.0
  0
SPLINE
  5
BA
330
1F
100
AcDbEntity
  8
Make2D$Visibile$Curve
370
    -3
100
AcDbSpline
210
0.0
220
0.0
230
1.0
 70
     8
 71
     3
 72
    10
 73
     6
 74
     0
 42
0.0000000001
 43
0.0000000001
 40
0.0
 40
0.0
 40
0.0
 40
0.0
 40
0.2056637494149232
 40
0.2056637494149232
 40
0.2508410700319416
 40
0.2508410700319416
 40
0.2508410700319416
 40
0.2508410700319416
 10
824.3178386816883
 20
2821.63998947112
 30
0.0
 10
824.3196285758581
 20
2821.571631581228
 30
0.0
 10
824.3273795359308
 20
2821.503660226312
 30
0.0
 10
824.3438183569829
 20
2821.422731639613
 30
0.0
 10
824.3470529036916
 20
2821.408246374138
 30
0.0
 10
824.3505569573127
 20
2821.393863799061
 30
0.0
  0
SPLINE
  5
BB
330
1F
100
AcDbEntity
  8
Make2D$Visibile$Curve
370
    -3
100
AcDbSpline
210
0.0
220
0.0
230
1.0
 70
     8
 71
     3
 72
     8
 73
     4
 74
     0
 42
0.0000000001
 43
0.0000000001
 40
0.0003032921865979
 40
0.0003032921865979
 40
0.0003032921865979
 40
0.0003032921865979
 40
0.7461769856098476
 40
0.7461769856098476
 40
0.7461769856098476
 40
0.7461769856098476
 10
824.2983170707746
 20
2822.385384347749
 30
0.0
 10
824.3048249675196
 20
2822.136921239189
 30
0.0
 10
824.3113321712294
 20
2821.888456280442
 30
0.0
 10
824.317838681676
 20
2821.639989471564
 30
0.0
  0
SPLINE
  5
BC
330
1F
100
AcDbEntity
  8
Make2D$Visibile$Curve
370
    -3
100
AcDbSpline
210
0.0
220
0.0
230
1.0
 70
    12
 71
     2
 72
    12
 73
     9
 74
     0
 42
0.0000000001
 43
0.0000000001
 40
0.0107475582904964
 40
0.0107475582904964
 40
0.0107475582904964
 40
0.1167369003977235
 40
0.1167369003977235
 40
0.241000969109652
 40
0.241000969109652
 40
0.365265037821579
 40
0.365265037821579
 40
0.479711179719909
 40
0.479711179719909
 40
0.479711179719909
 10
824.2983170694764
 20
2822.385384361394
 30
0.0
 41
0.9893784884997963
 10
824.2969212057612
 20
2822.438515849326
 30
0.0
 41
0.9240713405435291
 10
824.2773570379301
 20
2822.48793393086
 30
0.0
 41
0.8901650429449555
 10
824.2544865647894
 20
2822.545703569526
 30
0.0
 41
0.853553390593274
 10
824.2105525819675
 20
2822.589637552348
 30
0.0
 41
0.853553390593274
 10
824.1666185991454
 20
2822.63357153517
 30
0.0
 41
0.853553390593274
 10
824.1088489604799
 20
2822.656442008311
 30
0.0
 41
0.8901650429449555
 10
824.0556436185606
 20
2822.677505517992
 30
0.0
 41
0.926776695296637
 10
823.9984205476114
 20
2822.677505517992
 30
0.0
 41
1.0
  0
SPLINE
  5
BD
330
1F
100
AcDbEntity
  8
Make2D$Visibile$Curve
370
    -3
100
AcDbSpline
210
0.0
220
0.0
230
1.0
 70
     8
 71
     3
 72
     8
 73
     4
 74
     0
 42
0.0000000001
 43
0.0000000001
 40
0.0
 40
0.0
 40
0.0
 40
0.0
 40
0.2528859406735265
 40
0.2528859406735265
 40
0.2528859406735265
 40
0.2528859406735265
 10
824.351559147299
 20
2821.390631349288
 30
0.0
 10
824.3314924200781
 20
2821.471995113256
 30
0.0
 10
824.3198572449301
 20
2821.555994047519
 30
0.0
 10
824.3175248413145
 20
2821.639981481307
 30
0.0
  0
SPLINE
  5
BE
330
1F
100
AcDbEntity
  8
Make2D$Visibile$Curve
370
    -3
100
AcDbSpline
210
0.0
220
0.0
230
1.0
 70
     8
 71
     3
 72
    12
 73
     8
 74
     0
 42
0.0000000001
 43
0.0000000001
 40
0.0066177115222132
 40
0.0066177115222132
 40
0.0066177115222132
 40
0.0066177115222132
 40
0.0066197703551
 40
0.0066197703551
 40
10.1633482288872
 40
10.1633482288872
 40
20.3200766874193
 40
20.3200766874193
 40
20.3200766874193
 40
20.3200766874193
 10
787.4268274090887
 20
2317.177505458887
 30
0.0
 10
787.4268267420402
 20
2317.177505458875
 30
0.0
 10
787.4268260749918
 20
2317.177505458863
 30
0.0
 10
784.1361114904445
 20
2317.177444963481
 30
0.0
 10
780.8378948415805
 20
2317.123243636545
 30
0.0
 10
776.1411464570349
 20
2317.003185884033
 30
0.0
 10
774.7371560392188
 20
2316.947160711128
 30
0.0
 10
774.6848284132591
 20
2316.945253459395
 30
0.0
  0
SPLINE
  5
BF
330
1F
100
AcDbEntity
  8
Make2D$Visibile$Curve
370
    -3
100
AcDbSpline
210
0.0
220
0.0
230
1.0
 70
     8
 71
     3
 72
    10
 73
     6
 74
     0
 42
0.0000000001
 43
0.0000000001
 40
-20.32364620335972
 40
-20.32364620335972
 40
-20.32364620335972
 40
-20.32364620335972
 40
-10.16513572662664
 40
-10.16513572662664
 40
0.0
 40
0.0
 40
0.0
 40
0.0
 10
787.4332596893023
 20
2317.177505508611
 30
0.0
 10
790.7218224020976
 20
2317.17749592542
 30
0.0
 10
794.0051488697673
 20
2317.123806064105
 30
0.0
 10
798.7392767118589
 20
2317.002868067908
 30
0.0
 10
800.129363353537
 20
2316.947160710612
 30
0.0
 10
800.1816909653458
 20
2316.945253459395
 30
0.0
  0
SPLINE
  5
C0
330
1F
100
AcDbEntity
  8
Make2D$Visibile$Curve
370
    -3
100
AcDbSpline
210
0.0
220
0.0
230
1.0
 70
    12
 71
     2
 72
     8
 73
     5
 74
     0
 42
0.0000000001
 43
0.0000000001
 40
-1099.55742875643
 40
-1099.55742875643
 40
-1099.55742875643
 40
-549.778714378214
 40
-549.778714378214
 40
0.0000000000001563
 40
0.0000000000001563
 40
0.0000000000001563
 10
787.4332596893063
 20
1617.177505517993
 30
0.0
 41
0.9999999999999999
 10
437.4332596893062
 20
1617.177505517991
 30
0.0
 41
0.7071067811865481
 10
437.4332596893042
 20
1967.177505517991
 30
0.0
 41
1.0
 10
437.4332596893021
 20
2317.177505517991
 30
0.0
 41
0.7071067811865481
 10
787.4332596893022
 20
2317.177505517993
 30
0.0
 41
1.0
  0
SPLINE
  5
C1
330
1F
100
AcDbEntity
  8
Make2D$Visibile$Curve
370
    -3
100
AcDbSpline
210
0.0
220
0.0
230
1.0
 70
    12
 71
     2
 72
     8
 73
     5
 74
     0
 42
0.0000000001
 43
0.0000000001
 40
0.0
 40
0.0
 40
0.0
 40
289.9494936611666
 40
289.9494936611666
 40
400.8186018883442
 40
400.8186018883442
 40
400.8186018883442
 10
787.4332596893022
 20
2317.177505517993
 30
0.0
 41
1.0
 10
932.4080065198857
 20
2317.177505517994
 30
0.0
 41
0.853553390593274
 10
1034.920633104595
 20
2214.664878933286
 30
0.0
 41
0.853553390593274
 10
1074.118782230366
 20
2175.466729807515
 30
0.0
 41
0.853553390593274
 10
1099.285543155233
 20
2126.074180426834
 30
0.0
 41
0.8749653159346513
  0
SPLINE
  5
C2
330
1F
100
AcDbEntity
  8
Make2D$Visibile$Curve
370
    -3
100
AcDbSpline
210
0.0
220
0.0
230
1.0
 70
    28
 71
     2
 72
     6
 73
     3
 74
     0
 42
0.0000000001
 43
0.0000000001
 40
346.2073536907181
 40
346.2073536907181
 40
346.2073536907181
 40
817.85024
 40
817.85024
 40
817.85024
 10
777.4332596893141
 20
2317.034619208711
 30
0.0
 41
1.0
 10
777.4332596893141
 20
2552.856062363352
 30
0.0
 41
1.0
 10
777.4332596893141
 20
2788.677505517993
 30
0.0
 41
1.0
  0
SPLINE
  5
C3
330
1F
100
AcDbEntity
  8
Make2D$Visibile$Curve
370
    -3
100
AcDbSpline
210
0.0
220
0.0
230
1.0
 70
    24
 71
     2
 72
     6
 73
     3
 74
     0
 42
0.0000000001
 43
0.0000000001
 40
0.0
 40
0.0
 40
0.0
 40
1.223997105432801
 40
1.223997105432801
 40
1.223997105432801
 10
1507.9372473484
 20
1617.177505517946
 30
0.0
 10
1508.549245901116
 20
1617.177505517969
 30
0.0
 10
1509.161244453833
 20
1617.177505517992
 30
0.0
  0
SPLINE
  5
C4
330
1F
100
AcDbEntity
  8
Make2D$Visibile$Curve
370
    -3
100
AcDbSpline
210
0.0
220
0.0
230
1.0
 70
    24
 71
     2
 72
     6
 73
     3
 74
     0
 42
0.0000000001
 43
0.0000000001
 40
0.0
 40
0.0
 40
0.0
 40
2.950000075454
 40
2.950000075454
 40
2.950000075454
 10
1509.161244453831
 20
2317.177505517993
 30
0.0
 10
1507.686244416104
 20
2317.177505513301
 30
0.0
 10
1506.211244378377
 20
2317.177505508611
 30
0.0
  0
SPLINE
  5
C5
330
1F
100
AcDbEntity
  8
Make2D$Visibile$Curve
370
    -3
100
AcDbSpline
210
0.0
220
0.0
230
1.0
 70
    28
 71
     2
 72
     6
 73
     3
 74
     0
 42
0.0000000001
 43
0.0000000001
 40
-29.87200375786616
 40
-29.87200375786616
 40
-29.87200375786616
 40
0.0
 40
0.0
 40
0.0
 10
1493.661244453831
 20
2314.587565821198
 30
0.0
 41
1.0
 10
1493.661244453831
 20
2316.401223192273
 30
0.0
 41
0.9990906942012566
 10
1493.661244453832
 20
2316.945253459395
 30
0.0
 41
1.0
  0
SPLINE
  5
C6
330
1F
100
AcDbEntity
  8
Make2D$Visibile$Curve
370
    -3
100
AcDbSpline
210
0.0
220
0.0
230
1.0
 70
    28
 71
     2
 72
     8
 73
     5
 74
     0
 42
0.0000000001
 43
0.0000000001
 40
45.9503073306011
 40
45.9503073306011
 40
45.9503073306011
 40
569.6122753899255
 40
569.6122753899255
 40
1093.27424344925
 40
1093.27424344925
 40
1093.27424344925
 10
1507.937247348396
 20
2314.58756582144
 30
0.0
 41
1.0
 10
1507.937247348396
 20
2274.598663500067
 30
0.0
 41
0.7282948980902109
 10
1507.937247348398
 20
1945.888084509007
 30
0.0
 41
1.0
 10
1507.9372473484
 20
1617.177505517946
 30
0.0
 41
0.7282948980902109
 10
1507.9372473484
 20
1617.177505517946
 30
0.0
 41
1.0
  0
SPLINE
  5
C7
330
1F
100
AcDbEntity
  8
Make2D$Visibile$Curve
370
    -3
100
AcDbSpline
210
0.0
220
0.0
230
1.0
 70
    28
 71
     2
 72
     8
 73
     5
 74
     0
 42
0.0000000001
 43
0.0000000001
 40
-1398.0
 40
-1398.0
 40
-1398.0
 40
-699.0
 40
-699.0
 40
0.0
 40
0.0
 40
0.0
 10
1509.661244453831
 20
2316.677505517993
 30
0.0
 41
1.0
 10
1509.661244453832
 20
2316.677505517993
 30
0.0
 41
0.7071067811865476
 10
1509.661244453832
 20
1967.177505517992
 30
0.0
 41
1.0
 10
1509.661244453833
 20
1617.677505517992
 30
0.0
 41
0.7071067811865476
 10
1509.661244453833
 20
1617.677505517992
 30
0.0
 41
1.0
  0
SPLINE
  5
C8
330
1F
100
AcDbEntity
  8
Make2D$Visibile$Curve
370
    -3
100
AcDbSpline
210
0.0
220
0.0
230
1.0
 70
    12
 71
     2
 72
     6
 73
     3
 74
     0
 42
0.0000000001
 43
0.0000000001
 40
0.0
 40
0.0
 40
0.0
 40
0.6911869319502362
 40
0.6911869319502362
 40
0.6911869319502362
 10
1509.661244453833
 20
1617.677505517992
 30
0.0
 41
1.0
 10
1509.661244453833
 20
1617.371105123923
 30
0.0
 41
0.7975560346993231
 10
1509.388239703702
 20
1617.232002255898
 30
0.0
 41
0.8749653159346453
  0
SPLINE
  5
C9
330
1F
100
AcDbEntity
  8
Make2D$Visibile$Curve
370
    -3
100
AcDbSpline
210
0.0
220
0.0
230
1.0
 70
    28
 71
     2
 72
     6
 73
     3
 74
     0
 42
0.0000000001
 43
0.0000000001
 40
0.0
 40
0.0
 40
0.0
 40
11.7751784057382
 40
11.7751784057382
 40
11.7751784057382
 10
1506.123514132063
 20
1618.334669934998
 30
0.0
 41
1.0
 10
1503.642379292948
 20
1623.673927985689
 30
0.0
 41
1.0
 10
1501.161244453833
 20
1629.013186036381
 30
0.0
 41
1.0
  0
SPLINE
  5
CA
330
1F
100
AcDbEntity
  8
Make2D$Visibile$Curve
370
    -3
100
AcDbSpline
210
0.0
220
0.0
230
1.0
 70
    12
 71
     2
 72
     8
 73
     5
 74
     0
 42
0.0000000001
 43
0.0000000001
 40
0.0
 40
0.0
 40
0.0
 40
1.656854249492371
 40
1.656854249492371
 40
2.364893159114298
 40
2.364893159114298
 40
2.364893159114298
 10
1507.937247348398
 20
1617.177505517992
 30
0.0
 41
1.0
 10
1507.108820223652
 20
1617.177505517992
 30
0.0
 41
0.853553390593274
 10
1506.523033786025
 20
1617.763291955619
 30
0.0
 41
0.853553390593274
 10
1506.272704228856
 20
1618.013621512788
 30
0.0
 41
0.853553390593274
 10
1506.123514132063
 20
1618.334669934998
 30
0.0
 41
0.8802973040603496
  0
SPLINE
  5
CB
330
1F
100
AcDbEntity
  8
Make2D$Visibile$Curve
370
    -3
100
AcDbSpline
210
0.0
220
0.0
230
1.0
 70
    12
 71
     2
 72
     6
 73
     3
 74
     0
 42
0.0000000001
 43
0.0000000001
 40
0.0
 40
0.0
 40
0.0
 40
0.9999999999999947
 40
0.9999999999999947
 40
0.9999999999999947
 10
1509.161244453831
 20
2317.177505517993
 30
0.0
 41
1.0
 10
1509.661244453831
 20
2317.177505517993
 30
0.0
 41
0.7071067811865481
 10
1509.661244453831
 20
2316.677505517993
 30
0.0
 41
1.0
  0
SPLINE
  5
CC
330
1F
100
AcDbEntity
  8
Make2D$Visibile$Curve
370
    -3
100
AcDbSpline
210
0.0
220
0.0
230
1.0
 70
    12
 71
     2
 72
     6
 73
     3
 74
     0
 42
0.0000000001
 43
0.0000000001
 40
0.6911869319502362
 40
0.6911869319502362
 40
0.6911869319502362
 40
1.00000000000011
 40
1.00000000000011
 40
1.00000000000011
 10
1509.388239703702
 20
1617.232002255898
 30
0.0
 41
0.8749653159346451
 10
1509.281283833373
 20
1617.177505517992
 30
0.0
 41
0.9095507464872247
 10
1509.161244453833
 20
1617.177505517992
 30
0.0
 41
1.0
  0
SPLINE
  5
CD
330
1F
100
AcDbEntity
  8
Make2D$Visibile$Curve
370
    -3
100
AcDbSpline
210
0.0
220
0.0
230
1.0
 70
    12
 71
     2
 72
     6
 73
     3
 74
     0
 42
0.0000000001
 43
0.0000000001
 40
0.0
 40
0.0
 40
0.0
 40
1.000000000000279
 40
1.000000000000279
 40
1.000000000000279
 10
1477.661244453832
 20
1617.677505517992
 30
0.0
 41
1.0
 10
1477.661244453832
 20
1617.177505517992
 30
0.0
 41
0.707106781186388
 10
1478.161244453832
 20
1617.177505517992
 30
0.0
 41
1.0
  0
SPLINE
  5
CE
330
1F
100
AcDbEntity
  8
Make2D$Visibile$Curve
370
    -3
100
AcDbSpline
210
0.0
220
0.0
230
1.0
 70
    28
 71
     2
 72
     8
 73
     5
 74
     0
 42
0.0000000001
 43
0.0000000001
 40
-1398.0
 40
-1398.0
 40
-1398.0
 40
-698.9999999999998
 40
-698.9999999999998
 40
0.0
 40
0.0
 40
0.0
 10
1477.661244453832
 20
1617.677505517992
 30
0.0
 41
1.0
 10
1477.661244453833
 20
1617.677505517995
 30
0.0
 41
0.7071067811865477
 10
1477.661244453832
 20
1967.177505517995
 30
0.0
 41
1.0
 10
1477.661244453831
 20
2316.677505517994
 30
0.0
 41
0.7071067811865477
 10
1477.661244453831
 20
2316.677505517993
 30
0.0
 41
1.0
  0
SPLINE
  5
CF
330
1F
100
AcDbEntity
  8
Make2D$Visibile$Curve
370
    -3
100
AcDbSpline
210
0.0
220
0.0
230
1.0
 70
    12
 71
     2
 72
     6
 73
     3
 74
     0
 42
0.0000000001
 43
0.0000000001
 40
0.0
 40
0.0
 40
0.0
 40
1.0
 40
1.0
 40
1.0
 10
1477.661244453831
 20
2316.677505517993
 30
0.0
 41
1.0
 10
1477.661244453831
 20
2317.177505517993
 30
0.0
 41
0.7071067811865677
 10
1478.161244453831
 20
2317.177505517993
 30
0.0
 41
1.0
  0
SPLINE
  5
D0
330
1F
100
AcDbEntity
  8
Make2D$Visibile$Curve
370
    -3
100
AcDbSpline
210
0.0
220
0.0
230
1.0
 70
    28
 71
     2
 72
     6
 73
     3
 74
     0
 42
0.0000000001
 43
0.0000000001
 40
2.159600000002001
 40
2.159600000002001
 40
2.159600000002001
 40
5.109600075456001
 40
5.109600075456001
 40
5.109600075456001
 10
1478.161244453831
 20
2317.177505517993
 30
0.0
 41
1.0
 10
1479.636244491558
 20
2317.177505517993
 30
0.0
 41
1.0
 10
1481.111244529285
 20
2317.177505517993
 30
0.0
 41
1.0
  0
SPLINE
  5
D1
330
1F
100
AcDbEntity
  8
Make2D$Visibile$Curve
370
    -3
100
AcDbSpline
210
0.0
220
0.0
230
1.0
 70
    28
 71
     2
 72
     6
 73
     3
 74
     0
 42
0.0000000001
 43
0.0000000001
 40
16.43560289456937
 40
16.43560289456937
 40
16.43560289456937
 40
17.65960000000218
 40
17.65960000000218
 40
17.65960000000218
 10
1479.385241559265
 20
1617.177505517993
 30
0.0
 41
0.9999999999999999
 10
1478.773243006549
 20
1617.177505517993
 30
0.0
 41
0.9999999999999999
 10
1478.161244453832
 20
1617.177505517993
 30
0.0
 41
0.9999999999999999
  0
SPLINE
  5
D2
330
1F
100
AcDbEntity
  8
Make2D$Visibile$Curve
370
    -3
100
AcDbSpline
210
0.0
220
0.0
230
1.0
 70
    28
 71
     2
 72
     6
 73
     3
 74
     0
 42
0.0000000001
 43
0.0000000001
 40
0.0
 40
0.0
 40
0.0
 40
11.7751784057382
 40
11.7751784057382
 40
11.7751784057382
 10
1486.161244453832
 20
1629.01318603638
 30
0.0
 41
1.0
 10
1483.680109614717
 20
1623.673927985689
 30
0.0
 41
1.0
 10
1481.198974775602
 20
1618.334669934998
 30
0.0
 41
1.0
  0
SPLINE
  5
D3
330
1F
100
AcDbEntity
  8
Make2D$Visibile$Curve
370
    -3
100
AcDbSpline
210
0.0
220
0.0
230
1.0
 70
    12
 71
     2
 72
     8
 73
     5
 74
     0
 42
0.0000000001
 43
0.0000000001
 40
0.0
 40
0.0
 40
0.0
 40
1.656854249492371
 40
1.656854249492371
 40
2.364893159114298
 40
2.364893159114298
 40
2.364893159114298
 10
1479.385241559267
 20
1617.177505517992
 30
0.0
 41
1.0
 10
1480.213668684013
 20
1617.177505517992
 30
0.0
 41
0.853553390593274
 10
1480.79945512164
 20
1617.763291955619
 30
0.0
 41
0.853553390593274
 10
1481.049784678809
 20
1618.013621512788
 30
0.0
 41
0.853553390593274
 10
1481.198974775603
 20
1618.334669934998
 30
0.0
 41
0.8802973040603496
  0
SPLINE
  5
D4
330
1F
100
AcDbEntity
  8
Make2D$Visibile$Curve
370
    -3
100
AcDbSpline
210
0.0
220
0.0
230
1.0
 70
    24
 71
     2
 72
     6
 73
     3
 74
     0
 42
0.0000000001
 43
0.0000000001
 40
0.0
 40
0.0
 40
0.0
 40
15.39718279319293
 40
15.39718279319293
 40
15.39718279319293
 10
1493.661244453831
 20
2314.58756582144
 30
0.0
 10
1493.661244453831
 20
2306.888974424844
 30
0.0
 10
1493.661244453831
 20
2299.190383028247
 30
0.0
  0
SPLINE
  5
D5
330
1F
100
AcDbEntity
  8
Make2D$Visibile$Curve
370
    -3
100
AcDbSpline
210
0.0
220
0.0
230
1.0
 70
    12
 71
     2
 72
     6
 73
     3
 74
     0
 42
0.0000000001
 43
0.0000000001
 40
0.0
 40
0.0
 40
0.0
 40
3.141592653613186
 40
3.141592653613186
 40
3.141592653613186
 10
1488.16124445383
 20
1629.013186034147
 30
0.0
 41
1.0
 10
1486.161244453809
 20
1629.013186036379
 30
0.0
 41
0.7071067815773868
 10
1486.16124445383
 20
1631.0131860364
 30
0.0
 41
1.0
  0
SPLINE
  5
D6
330
1F
100
AcDbEntity
  8
Make2D$Visibile$Curve
370
    -3
100
AcDbSpline
210
0.0
220
0.0
230
1.0
 70
    12
 71
     2
 72
     6
 73
     3
 74
     0
 42
0.0000000001
 43
0.0000000001
 40
9.424777960730363
 40
9.424777960730363
 40
9.424777960730363
 40
12.5663706143592
 40
12.5663706143592
 40
12.5663706143592
 10
1501.16124445383
 20
1631.013186036414
 30
0.0
 41
1.0
 10
1501.161244454185
 20
1629.013186036058
 30
0.0
 41
0.7071067814538602
 10
1499.16124445383
 20
1629.013186034192
 30
0.0
 41
1.0
  0
SPLINE
  5
D7
330
1F
100
AcDbEntity
  8
Make2D$Visibile$Curve
370
    -3
100
AcDbSpline
210
0.0
220
0.0
230
1.0
 70
    28
 71
     2
 72
     6
 73
     3
 74
     0
 42
0.0000000001
 43
0.0000000001
 40
1.7096
 40
1.7096
 40
1.7096
 40
12.7096
 40
12.7096
 40
12.7096
 10
1499.16124445383
 20
1629.013186036379
 30
0.0
 41
1.0
 10
1493.66124445383
 20
1629.013186036379
 30
0.0
 41
1.0
 10
1488.16124445383
 20
1629.013186036379
 30
0.0
 41
1.0
  0
SPLINE
  5
D8
330
1F
100
AcDbEntity
  8
Make2D$Visibile$Curve
370
    -3
100
AcDbSpline
210
0.0
220
0.0
230
1.0
 70
    12
 71
     2
 72
     8
 73
     5
 74
     0
 42
0.0000000001
 43
0.0000000001
 40
0.0
 40
0.0
 40
0.0
 40
1.656854249492374
 40
1.656854249492374
 40
3.313708498984826
 40
3.313708498984826
 40
3.313708498984826
 10
1488.16124445383
 20
2299.190383028247
 30
0.0
 41
1.0
 10
1487.332817329084
 20
2299.190383028247
 30
0.0
 41
0.853553390593274
 10
1486.747030891457
 20
2298.60459659062
 30
0.0
 41
0.853553390593274
 10
1486.16124445383
 20
2298.018810152993
 30
0.0
 41
0.853553390593274
 10
1486.16124445383
 20
2297.190383028247
 30
0.0
 41
1.0
  0
SPLINE
  5
D9
330
1F
100
AcDbEntity
  8
Make2D$Visibile$Curve
370
    -3
100
AcDbSpline
210
0.0
220
0.0
230
1.0
 70
    24
 71
     2
 72
     6
 73
     3
 74
     0
 42
0.0000000001
 43
0.0000000001
 40
0.0
 40
0.0
 40
0.0
 40
14.27600289456542
 40
14.27600289456542
 40
14.27600289456542
 10
1493.661244453831
 20
2314.58756582144
 30
0.0
 10
1486.523243006548
 20
2314.58756582144
 30
0.0
 10
1479.385241559266
 20
2314.58756582144
 30
0.0
  0
SPLINE
  5
DA
330
1F
100
AcDbEntity
  8
Make2D$Visibile$Curve
370
    -3
100
AcDbSpline
210
0.0
220
0.0
230
1.0
 70
     8
 71
     3
 72
     8
 73
     4
 74
     0
 42
0.0000000001
 43
0.0000000001
 40
-11.85023100972684
 40
-11.85023100972684
 40
-11.85023100972684
 40
-11.85023100972684
 40
0.0
 40
0.0
 40
0.0
 40
0.0
 10
1486.161244453831
 20
2302.660525908752
 30
0.0
 10
1484.507489596592
 20
2306.247753363919
 30
0.0
 10
1482.853389420507
 20
2309.83482193393
 30
0.0
 10
1481.198974775601
 20
2313.421745813234
 30
0.0
  0
SPLINE
  5
DB
330
1F
100
AcDbEntity
  8
Make2D$Visibile$Curve
370
    -3
100
AcDbSpline
210
0.0
220
0.0
230
1.0
 70
    28
 71
     2
 72
     8
 73
     5
 74
     0
 42
0.0000000001
 43
0.0000000001
 40
0.0
 40
0.0
 40
0.0
 40
635.0041264431366
 40
635.0041264431366
 40
1240.222218958255
 40
1240.222218958255
 40
1240.222218958255
 10
1488.16124445383
 20
1629.013186034147
 30
0.0
 41
1.0
 10
1488.16124445383
 20
1629.013186034276
 30
0.0
 41
0.7290281913312819
 10
1488.16124445383
 20
1945.885257132236
 30
0.0
 41
1.0
 10
1488.16124445383
 20
2242.718643981851
 30
0.0
 41
0.7417386213118744
 10
1488.16124445383
 20
2299.190375565931
 30
0.0
 41
0.9757715521283623
  0
SPLINE
  5
DC
330
1F
100
AcDbEntity
  8
Make2D$Visibile$Curve
370
    -3
100
AcDbSpline
210
0.0
220
0.0
230
1.0
 70
    12
 71
     2
 72
     8
 73
     5
 74
     0
 42
0.0000000001
 43
0.0000000001
 40
0.0
 40
0.0
 40
0.0
 40
1.656854249492373
 40
1.656854249492373
 40
3.313708498984825
 40
3.313708498984825
 40
3.313708498984825
 10
1499.16124445383
 20
2299.190383028247
 30
0.0
 41
1.0
 10
1499.989671578576
 20
2299.190383028247
 30
0.0
 41
0.853553390593274
 10
1500.575458016203
 20
2298.60459659062
 30
0.0
 41
0.853553390593274
 10
1501.16124445383
 20
2298.018810152993
 30
0.0
 41
0.853553390593274
 10
1501.16124445383
 20
2297.190383028247
 30
0.0
 41
1.0
  0
SPLINE
  5
DD
330
1F
100
AcDbEntity
  8
Make2D$Visibile$Curve
370
    -3
100
AcDbSpline
210
0.0
220
0.0
230
1.0
 70
    24
 71
     2
 72
     6
 73
     3
 74
     0
 42
0.0000000001
 43
0.0000000001
 40
271.9161452939403
 40
271.9161452939403
 40
271.9161452939403
 40
743.5
 40
743.5
 40
743.5
 10
1503.661244453833
 20
2317.093650811933
 30
0.0
 10
1503.661244453832
 20
2552.885578164963
 30
0.0
 10
1503.66124445383
 20
2788.677505517993
 30
0.0
  0
SPLINE
  5
DE
330
1F
100
AcDbEntity
  8
Make2D$Visibile$Curve
370
    -3
100
AcDbSpline
210
0.0
220
0.0
230
1.0
 70
    24
 71
     2
 72
     6
 73
     3
 74
     0
 42
0.0000000001
 43
0.0000000001
 40
0.0
 40
0.0
 40
0.0
 40
14.27600289456542
 40
14.27600289456542
 40
14.27600289456542
 10
1493.661244453831
 20
2314.587565821198
 30
0.0
 10
1500.799245901114
 20
2314.587565821198
 30
0.0
 10
1507.937247348396
 20
2314.587565821199
 30
0.0
  0
SPLINE
  5
DF
330
1F
100
AcDbEntity
  8
Make2D$Visibile$Curve
370
    -3
100
AcDbSpline
210
0.0
220
0.0
230
1.0
 70
     8
 71
     3
 72
     8
 73
     4
 74
     0
 42
0.0000000001
 43
0.0000000001
 40
-11.85023100973403
 40
-11.85023100973403
 40
-11.85023100973403
 40
-11.85023100973403
 40
0.0
 40
0.0
 40
0.0
 40
0.0
 10
1506.123514132061
 20
2313.421745812992
 30
0.0
 10
1504.469099487155
 20
2309.834821933685
 30
0.0
 10
1502.81499931107
 20
2306.247753363672
 30
0.0
 10
1501.161244453831
 20
2302.660525908502
 30
0.0
  0
SPLINE
  5
E0
330
1F
100
AcDbEntity
  8
Make2D$Visibile$Curve
370
    -3
100
AcDbSpline
210
0.0
220
0.0
230
1.0
 70
    28
 71
     2
 72
     8
 73
     5
 74
     0
 42
0.0000000001
 43
0.0000000001
 40
29.78598647502361
 40
29.78598647502361
 40
29.78598647502361
 40
635.0041264430886
 40
635.0041264430886
 40
1270.008252886177
 40
1270.008252886177
 40
1270.008252886177
 10
1499.16124445383
 20
2299.190382297487
 30
0.0
 41
0.9757715888277404
 10
1499.161244453829
 20
2242.718675359005
 30
0.0
 41
0.7417386010625241
 10
1499.16124445383
 20
1945.885257132258
 30
0.0
 41
1.0
 10
1499.16124445383
 20
1629.013186034322
 30
0.0
 41
0.7290281913312853
 10
1499.16124445383
 20
1629.013186034192
 30
0.0
 41
1.0
  0
SPLINE
  5
E1
330
1F
100
AcDbEntity
  8
Make2D$Visibile$Curve
370
    -3
100
AcDbSpline
210
0.0
220
0.0
230
1.0
 70
    24
 71
     2
 72
     6
 73
     3
 74
     0
 42
0.0000000001
 43
0.0000000001
 40
0.0
 40
0.0
 40
0.0
 40
471.5838725980243
 40
471.5838725980243
 40
471.5838725980243
 10
1483.66124445383
 20
2788.677505517993
 30
0.0
 10
1483.661244453832
 20
2552.885569218981
 30
0.0
 10
1483.661244453833
 20
2317.093632919969
 30
0.0
  0
SPLINE
  5
E2
330
1F
100
AcDbEntity
  8
Make2D$Visibile$Curve
370
    -3
100
AcDbSpline
210
0.0
220
0.0
230
1.0
 70
    12
 71
     2
 72
     6
 73
     3
 74
     0
 42
0.0000000001
 43
0.0000000001
 40
0.0
 40
0.0
 40
0.0
 40
0.0688768706680895
 40
0.0688768706680895
 40
0.0688768706680895
 10
1559.305785111954
 20
2820.375560144594
 30
0.0
 41
1.0
 10
1559.288579450188
 20
2820.375560177986
 30
0.0
 41
0.9999998967317711
 10
1559.271346680176
 20
2820.375560144594
 30
0.0
 41
1.0
  0
SPLINE
  5
E3
330
1F
100
AcDbEntity
  8
Make2D$Visibile$Curve
370
    -3
100
AcDbSpline
210
0.0
220
0.0
230
1.0
 70
    12
 71
     2
 72
     6
 73
     3
 74
     0
 42
0.0000000001
 43
0.0000000001
 40
0.0
 40
0.0
 40
0.0
 40
0.002618043884046
 40
0.002618043884046
 40
0.002618043884046
 10
1559.271346680177
 20
2820.375560144594
 30
0.0
 41
1.0
 10
1559.271356570384
 20
2820.376869116693
 30
0.0
 41
0.9999904804781269
 10
1559.271356570258
 20
2820.378178138635
 30
0.0
 41
1.0
  0
SPLINE
  5
E4
330
1F
100
AcDbEntity
  8
Make2D$Visibile$Curve
370
    -3
100
AcDbSpline
210
0.0
220
0.0
230
1.0
 70
    28
 71
     2
 72
     6
 73
     3
 74
     0
 42
0.0000000001
 43
0.0000000001
 40
196.6542564272279
 40
196.6542564272279
 40
196.6542564272279
 40
196.7204246055428
 40
196.7204246055428
 40
196.7204246055428
 10
1559.271356570258
 20
2820.378178138635
 30
0.0
 41
1.0
 10
1559.288589342741
 20
2820.378178138635
 30
0.0
 41
0.9999998967341659
 10
1559.305795007227
 20
2820.378178138635
 30
0.0
 41
1.0
  0
SPLINE
  5
E5
330
1F
100
AcDbEntity
  8
Make2D$Visibile$Curve
370
    -3
100
AcDbSpline
210
0.0
220
0.0
230
1.0
 70
    12
 71
     2
 72
     6
 73
     3
 74
     0
 42
0.0000000001
 43
0.0000000001
 40
-0.0026180438840463
 40
-0.0026180438840463
 40
-0.0026180438840463
 40
0.0
 40
0.0
 40
0.0
 10
1559.305785111954
 20
2820.375560144594
 30
0.0
 41
1.0
 10
1559.305795007353
 20
2820.376869116693
 30
0.0
 41
0.9999904804780346
 10
1559.305795007227
 20
2820.378178138635
 30
0.0
 41
1.0
  0
SPLINE
  5
E6
330
1F
100
AcDbEntity
  8
Make2D$Visibile$Curve
370
    -3
100
AcDbSpline
210
0.0
220
0.0
230
1.0
 70
     8
 71
     3
 72
    11
 73
     7
 74
     0
 42
0.0000000001
 43
0.0000000001
 40
-0.4043540091122334
 40
-0.4043540091122334
 40
-0.4043540091122334
 40
-0.4043540091122334
 40
-0.3434257293263303
 40
-0.3434257293263303
 40
-0.3434257293263303
 40
-0.0812482936115212
 40
-0.0812482936115212
 40
-0.0812482936115212
 40
-0.0812482936115212
 10
1559.625205144284
 20
2822.620668159252
 30
0.0
 10
1559.614463801931
 20
2822.626850928609
 30
0.0
 10
1559.603605575451
 20
2822.632413213422
 30
0.0
 10
1559.592673430072
 20
2822.637427360285
 30
0.0
 10
1559.545856538581
 20
2822.658900434552
 30
0.0
 10
1559.497475509131
 20
2822.670933519402
 30
0.0
 10
1559.448987302919
 20
2822.675434582219
 30
0.0
  0
SPLINE
  5
E7
330
1F
100
AcDbEntity
  8
Make2D$Visibile$Curve
370
    -3
100
AcDbSpline
210
0.0
220
0.0
230
1.0
 70
    12
 71
     2
 72
     6
 73
     3
 74
     0
 42
0.0000000001
 43
0.0000000001
 40
0.0115774006710134
 40
0.0115774006710134
 40
0.0115774006710134
 40
1.5707963267949
 40
1.5707963267949
 40
1.5707963267949
 10
1428.668996253023
 20
2822.380639194305
 30
0.0
 41
1.0
 10
1428.672097365432
 20
2822.677505517992
 30
0.0
 41
0.7107902601010115
 10
1428.968979886032
 20
2822.677505517992
 30
0.0
 41
1.0
  0
SPLINE
  5
E8
330
1F
100
AcDbEntity
  8
Make2D$Visibile$Curve
370
    -3
100
AcDbSpline
210
0.0
220
0.0
230
1.0
 70
    28
 71
     2
 72
     6
 73
     3
 74
     0
 42
0.0000000001
 43
0.0000000001
 40
-170.7467052778501
 40
-170.7467052778501
 40
-170.7467052778501
 40
-128.7904141666047
 40
-128.7904141666047
 40
-128.7904141666047
 10
1559.713057193059
 20
2822.677505517993
 30
0.0
 41
1.0
 10
1569.15861496998
 20
2822.677505517993
 30
0.0
 41
0.9363541865785234
 10
1569.158614969979
 20
2822.677505517992
 30
0.0
 41
0.9352651825918907
  0
SPLINE
  5
E9
330
1F
100
AcDbEntity
  8
Make2D$Visibile$Curve
370
    -3
100
AcDbSpline
210
0.0
220
0.0
230
1.0
 70
     8
 71
     3
 72
     8
 73
     4
 74
     0
 42
0.0000000001
 43
0.0000000001
 40
0.0
 40
0.0
 40
0.0
 40
0.0
 40
0.1333122116464013
 40
0.1333122116464013
 40
0.1333122116464013
 40
0.1333122116464013
 10
1428.706473550577
 20
2821.640222855414
 30
0.0
 10
1428.705586681084
 20
2821.595922772163
 30
0.0
 10
1428.70322207896
 20
2821.551570938016
 30
0.0
 10
1428.699417940433
 20
2821.507715171764
 30
0.0
  0
SPLINE
  5
EA
330
1F
100
AcDbEntity
  8
Make2D$Visibile$Curve
370
    -3
100
AcDbSpline
210
0.0
220
0.0
230
1.0
 70
    12
 71
     2
 72
     6
 73
     3
 74
     0
 42
0.0000000001
 43
0.0000000001
 40
0.0
 40
0.0
 40
0.0
 40
0.002618043884047
 40
0.002618043884047
 40
0.002618043884047
 10
1428.051132337407
 20
2820.378178138634
 30
0.0
 41
1.0
 10
1428.05113233728
 20
2820.376869116692
 30
0.0
 41
0.9999904804777979
 10
1428.051142227488
 20
2820.375560144593
 30
0.0
 41
1.0
  0
SPLINE
  5
EB
330
1F
100
AcDbEntity
  8
Make2D$Visibile$Curve
370
    -3
100
AcDbSpline
210
0.0
220
0.0
230
1.0
 70
    28
 71
     2
 72
     6
 73
     3
 74
     0
 42
0.0000000001
 43
0.0000000001
 40
40.40674588659487
 40
40.40674588659487
 40
40.40674588659487
 40
40.47291406490967
 40
40.47291406490967
 40
40.47291406490967
 10
1428.016693900438
 20
2820.378178138634
 30
0.0
 41
1.0
 10
1428.033899564924
 20
2820.378178138634
 30
0.0
 41
0.9999998967341653
 10
1428.051132337407
 20
2820.378178138634
 30
0.0
 41
1.0
  0
SPLINE
  5
EC
330
1F
100
AcDbEntity
  8
Make2D$Visibile$Curve
370
    -3
100
AcDbSpline
210
0.0
220
0.0
230
1.0
 70
    12
 71
     2
 72
     6
 73
     3
 74
     0
 42
0.0000000001
 43
0.0000000001
 40
-0.0026180438840463
 40
-0.0026180438840463
 40
-0.0026180438840463
 40
0.0
 40
0.0
 40
0.0
 10
1428.016693900438
 20
2820.378178138634
 30
0.0
 41
1.0
 10
1428.016693900311
 20
2820.376869116692
 30
0.0
 41
0.9999904804779646
 10
1428.01670379571
 20
2820.375560144593
 30
0.0
 41
1.0
  0
SPLINE
  5
ED
330
1F
100
AcDbEntity
  8
Make2D$Visibile$Curve
370
    -3
100
AcDbSpline
210
0.0
220
0.0
230
1.0
 70
    12
 71
     2
 72
     6
 73
     3
 74
     0
 42
0.0000000001
 43
0.0000000001
 40
-0.0344384335558285
 40
-0.0344384335558285
 40
-0.0344384335558285
 40
0.0
 40
0.0
 40
0.0
 10
1493.661244453832
 20
2820.37556016129
 30
0.0
 41
1.0
 10
1493.678463670611
 20
2820.37556016129
 30
0.0
 41
0.9999999741829425
 10
1493.69568288561
 20
2820.375560144594
 30
0.0
 41
1.0
  0
SPLINE
  5
EE
330
1F
100
AcDbEntity
  8
Make2D$Visibile$Curve
370
    -3
100
AcDbSpline
210
0.0
220
0.0
230
1.0
 70
    12
 71
     2
 72
     6
 73
     3
 74
     0
 42
0.0000000001
 43
0.0000000001
 40
0.0
 40
0.0
 40
0.0
 40
0.1940900395600046
 40
0.1940900395600046
 40
0.1940900395600046
 10
1427.609431714606
 20
2822.677505517992
 30
0.0
 41
1.0
 10
1427.657954224496
 20
2822.677505517991
 30
0.0
 41
0.9514573394357819
 10
1427.697283763381
 20
2822.620668159251
 30
0.0
 41
1.0
  0
SPLINE
  5
EF
330
1F
100
AcDbEntity
  8
Make2D$Visibile$Curve
370
    -3
100
AcDbSpline
210
0.0
220
0.0
230
1.0
 70
     8
 71
     3
 72
    11
 73
     7
 74
     0
 42
0.0000000001
 43
0.0000000001
 40
-0.3231052846519122
 40
-0.3231052846519122
 40
-0.3231052846519122
 40
-0.3231052846519122
 40
-0.0609282797859018
 40
-0.0609282797859018
 40
-0.0609282797859018
 40
0.0
 40
0.0
 40
0.0
 40
0.0
 10
1427.873501365697
 20
2822.675434560029
 30
0.0
 10
1427.82501323952
 20
2822.670933479853
 30
0.0
 10
1427.776632292148
 20
2822.658900399263
 30
0.0
 10
1427.729815477593
 20
2822.637427360284
 30
0.0
 10
1427.718883332214
 20
2822.632413213421
 30
0.0
 10
1427.708025105733
 20
2822.626850928609
 30
0.0
 10
1427.697283763381
 20
2822.620668159251
 30
0.0
  0
SPLINE
  5
F0
330
1F
100
AcDbEntity
  8
Make2D$Visibile$Curve
370
    -3
100
AcDbSpline
210
0.0
220
0.0
230
1.0
 70
    12
 71
     2
 72
     6
 73
     3
 74
     0
 42
0.0000000001
 43
0.0000000001
 40
1.882052959715831
 40
1.882052959715831
 40
1.882052959715831
 40
1.88495559215388
 40
1.88495559215388
 40
1.88495559215388
 10
1417.863885360766
 20
2822.374887557342
 30
0.0
 41
1.0
 10
1417.863879649334
 20
2822.376196512963
 30
0.0
 41
0.9982037590436524
 10
1417.863885310927
 20
2822.377505468799
 30
0.0
 41
0.9964295498815972
  0
SPLINE
  5
F1
330
1F
100
AcDbEntity
  8
Make2D$Visibile$Curve
370
    -3
100
AcDbSpline
210
0.0
220
0.0
230
1.0
 70
    28
 71
     2
 72
     6
 73
     3
 74
     0
 42
0.0000000001
 43
0.0000000001
 40
-39.00514907876603
 40
-39.00514907876603
 40
-39.00514907876603
 40
0.0
 40
0.0
 40
0.0
 10
1418.163873937685
 20
2822.677505517992
 30
0.0
 41
1.0
 10
1418.163873937685
 20
2822.677505517992
 30
0.0
 41
0.9682171546608339
 10
1427.609431714606
 20
2822.677505517992
 30
0.0
 41
1.0
  0
SPLINE
  5
F2
330
1F
100
AcDbEntity
  8
Make2D$Visibile$Curve
370
    -3
100
AcDbSpline
210
0.0
220
0.0
230
1.0
 70
    28
 71
     2
 72
     6
 73
     3
 74
     0
 42
0.0000000001
 43
0.0000000001
 40
-2.71954153023033
 40
-2.71954153023033
 40
-2.71954153023033
 40
-0.6037378775423698
 40
-0.6037378775423698
 40
-0.6037378775423698
 10
1427.918582733702
 20
2822.677505517992
 30
0.0
 41
1.0
 10
1428.430851787276
 20
2822.677505517992
 30
0.0
 41
0.999872641828362
 10
1428.968973515307
 20
2822.677505517992
 30
0.0
 41
0.9999434530038408
  0
SPLINE
  5
F3
330
1F
100
AcDbEntity
  8
Make2D$Visibile$Curve
370
    -3
100
AcDbSpline
210
0.0
220
0.0
230
1.0
 70
     8
 71
     3
 72
    11
 73
     7
 74
     0
 42
0.0000000001
 43
0.0000000001
 40
0.8033466821892933
 40
0.8033466821892933
 40
0.8033466821892933
 40
0.8033466821892933
 40
0.9880137159481234
 40
0.9880137159481234
 40
0.9880137159481234
 40
0.9982926095838862
 40
0.9982926095838862
 40
0.9982926095838862
 40
0.9982926095838862
 10
1559.448987302919
 20
2822.675434582219
 30
0.0
 10
1559.434876778633
 20
2822.676744433855
 30
0.0
 10
1559.420757177924
 20
2822.677416425081
 30
0.0
 10
1559.406664406963
 20
2822.677497576918
 30
0.0
 10
1559.405875978548
 20
2822.677502117006
 30
0.0
 10
1559.40508752225
 20
2822.677504710213
 30
0.0
 10
1559.404299072818
 20
2822.677505356872
 30
0.0
  0
SPLINE
  5
F4
330
1F
100
AcDbEntity
  8
Make2D$Visibile$Curve
370
    -3
100
AcDbSpline
210
0.0
220
0.0
230
1.0
 70
    12
 71
     2
 72
     6
 73
     3
 74
     0
 42
0.0000000001
 43
0.0000000001
 40
0.0
 40
0.0
 40
0.0
 40
0.3886796559982967
 40
0.3886796559982967
 40
0.3886796559982967
 10
1427.637121659785
 20
2822.387975367002
 30
0.0
 41
1.0
 10
1427.830595538485
 20
2822.383581756667
 30
0.0
 41
0.8392865425083553
 10
1427.926058585811
 20
2822.387975367003
 30
0.0
 41
1.0
  0
SPLINE
  5
F5
330
1F
100
AcDbEntity
  8
Make2D$Visibile$Curve
370
    -3
100
AcDbSpline
210
0.0
220
0.0
230
1.0
 70
     8
 71
     3
 72
     8
 73
     4
 74
     0
 42
0.0000000001
 43
0.0000000001
 40
-1.0
 40
-1.0
 40
-1.0
 40
-1.0
 40
0.0
 40
0.0
 40
0.0
 40
0.0
 10
1427.926058585811
 20
2822.387975367003
 30
0.0
 10
1427.92603313152
 20
2822.386660803283
 30
0.0
 10
1427.926005356915
 20
2822.385346124731
 30
0.0
 10
1427.925975263061
 20
2822.384031382175
 30
0.0
  0
SPLINE
  5
F6
330
1F
100
AcDbEntity
  8
Make2D$Visibile$Curve
370
    -3
100
AcDbSpline
210
0.0
220
0.0
230
1.0
 70
     8
 71
     3
 72
     8
 73
     4
 74
     0
 42
0.0000000001
 43
0.0000000001
 40
0.0
 40
0.0
 40
0.0
 40
0.0
 40
1.0
 40
1.0
 40
1.0
 40
1.0
 10
1427.637080071309
 20
2822.386003374588
 30
0.0
 10
1427.637095098548
 20
2822.386660746189
 30
0.0
 10
1427.637108961551
 20
2822.387318085532
 30
0.0
 10
1427.637121659785
 20
2822.387975367002
 30
0.0
  0
SPLINE
  5
F7
330
1F
100
AcDbEntity
  8
Make2D$Visibile$Curve
370
    -3
100
AcDbSpline
210
0.0
220
0.0
230
1.0
 70
    12
 71
     2
 72
     6
 73
     3
 74
     0
 42
0.0000000001
 43
0.0000000001
 40
-1.0
 40
-1.0
 40
-1.0
 40
0.0
 40
0.0
 40
0.0
 10
1427.637080071309
 20
2822.386003374588
 30
0.0
 41
1.0
 10
1427.830541672086
 20
2822.381037544171
 30
0.0
 41
0.8392868117221354
 10
1427.925975263061
 20
2822.384031382175
 30
0.0
 41
1.0
  0
SPLINE
  5
F8
330
1F
100
AcDbEntity
  8
Make2D$Visibile$Curve
370
    -3
100
AcDbSpline
210
0.0
220
0.0
230
1.0
 70
    12
 71
     2
 72
     6
 73
     3
 74
     0
 42
0.0000000001
 43
0.0000000001
 40
-0.0688768706680824
 40
-0.0688768706680824
 40
-0.0688768706680824
 40
0.0
 40
0.0
 40
0.0
 10
1428.01670379571
 20
2820.375560144593
 30
0.0
 41
1.0
 10
1428.033909457477
 20
2820.375560177986
 30
0.0
 41
0.999999896731772
 10
1428.051142227488
 20
2820.375560144593
 30
0.0
 41
1.0
  0
SPLINE
  5
F9
330
1F
100
AcDbEntity
  8
Make2D$Visibile$Curve
370
    -3
100
AcDbSpline
210
0.0
220
0.0
230
1.0
 70
    12
 71
     2
 72
     6
 73
     3
 74
     0
 42
0.0000000001
 43
0.0000000001
 40
-0.0344384335558285
 40
-0.0344384335558285
 40
-0.0344384335558285
 40
0.0
 40
0.0
 40
0.0
 10
1493.661244453832
 20
2820.37556016129
 30
0.0
 41
1.0
 10
1493.644025237055
 20
2820.375560161291
 30
0.0
 41
0.9999999741829432
 10
1493.626806022055
 20
2820.375560144594
 30
0.0
 41
1.0
  0
SPLINE
  5
FA
330
1F
100
AcDbEntity
  8
Make2D$Visibile$Curve
370
    -3
100
AcDbSpline
210
0.0
220
0.0
230
1.0
 70
    28
 71
     2
 72
     6
 73
     3
 74
     0
 42
0.0000000001
 43
0.0000000001
 40
3.979162485629094
 40
3.979162485629094
 40
3.979162485629094
 40
37.67815491197243
 40
37.67815491197243
 40
37.67815491197243
 10
1569.458606402614
 20
2822.375214789964
 30
0.0
 41
1.0
 10
1569.311568675781
 20
2805.526360153978
 30
0.0
 41
1.0
 10
1569.164530948947
 20
2788.677505517993
 30
0.0
 41
1.0
  0
SPLINE
  5
FB
330
1F
100
AcDbEntity
  8
Make2D$Visibile$Curve
370
    -3
100
AcDbSpline
210
0.0
220
0.0
230
1.0
 70
     8
 71
     3
 72
    20
 73
    16
 74
     0
 42
0.0000000001
 43
0.0000000001
 40
0.0
 40
0.0
 40
0.0
 40
0.0
 40
0.2011807178104109
 40
0.2011807178104109
 40
0.3002925229985244
 40
0.3002925229985244
 40
0.3986154140588411
 40
0.3986154140588411
 40
0.5933658435433333
 40
0.5933658435433333
 40
0.689865420009323
 40
0.689865420009323
 40
0.7047855450282495
 40
0.7047855450282495
 40
0.7837746207732976
 40
0.7837746207732976
 40
0.7837746207732976
 40
0.7837746207732976
 10
1558.730412111342
 20
2821.123757524361
 30
0.0
 10
1558.746174470291
 20
2821.067366104322
 30
0.0
 10
1558.764356917266
 20
2821.014950933108
 30
0.0
 10
1558.793999274517
 20
2820.943993906018
 30
0.0
 10
1558.80416973478
 20
2820.921797940606
 30
0.0
 10
1558.824954102388
 20
2820.880226271737
 30
0.0
 10
1558.83556334832
 20
2820.860831807946
 30
0.0
 10
1558.867516297547
 20
2820.807215435248
 30
0.0
 10
1558.889139099049
 20
2820.777267195558
 30
0.0
 10
1558.919752198718
 20
2820.741642547387
 30
0.0
 10
1558.929564490578
 20
2820.731382534845
 30
0.0
 10
1558.940248145263
 20
2820.721272667103
 30
0.0
 10
1558.941664595085
 20
2820.719955437021
 30
0.0
 10
1558.950481216976
 20
2820.71189589396
 30
0.0
 10
1558.957420747984
 20
2820.70618148727
 30
0.0
 10
1558.963790371688
 20
2820.701405035516
 30
0.0
  0
SPLINE
  5
FC
330
1F
100
AcDbEntity
  8
Make2D$Visibile$Curve
370
    -3
100
AcDbSpline
210
0.0
220
0.0
230
1.0
 70
     8
 71
     3
 72
    10
 73
     6
 74
     0
 42
0.0000000001
 43
0.0000000001
 40
0.0
 40
0.0
 40
0.0
 40
0.0
 40
0.2724309311964299
 40
0.2724309311964299
 40
0.5436711797157189
 40
0.5436711797157189
 40
0.5436711797157189
 40
0.5436711797157189
 10
1558.661275079619
 20
2821.635266746561
 30
0.0
 10
1558.662219466073
 20
2821.54475229208
 30
0.0
 10
1558.668766015792
 20
2821.454849073568
 30
0.0
 10
1558.692273924044
 20
2821.282232515213
 30
0.0
 10
1558.709171910013
 20
2821.199735560315
 30
0.0
 10
1558.730411573815
 20
2821.123759447281
 30
0.0
  0
SPLINE
  5
FD
330
1F
100
AcDbEntity
  8
Make2D$Visibile$Curve
370
    -3
100
AcDbSpline
210
0.0
220
0.0
230
1.0
 70
     8
 71
     3
 72
     8
 73
     4
 74
     0
 42
0.0000000001
 43
0.0000000001
 40
0.0001524459051288
 40
0.0001524459051288
 40
0.0001524459051288
 40
0.0001524459051288
 40
0.7461782967355262
 40
0.7461782967355262
 40
0.7461782967355262
 40
0.7461782967355262
 10
1558.653490831895
 20
2822.380813684726
 30
0.0
 10
1558.656086846763
 20
2822.132299889848
 30
0.0
 10
1558.658681596128
 20
2821.883784244041
 30
0.0
 10
1558.661275079619
 20
2821.635266747362
 30
0.0
  0
SPLINE
  5
FE
330
1F
100
AcDbEntity
  8
Make2D$Visibile$Curve
370
    -3
100
AcDbSpline
210
0.0
220
0.0
230
1.0
 70
    12
 71
     2
 72
    12
 73
     9
 74
     0
 42
0.0000000001
 43
0.0000000001
 40
0.0058524860054628
 40
0.0058524860054628
 40
0.0058524860054628
 40
0.1167369004068447
 40
0.1167369004068447
 40
0.2410009691187834
 40
0.2410009691187834
 40
0.365265037830712
 40
0.365265037830712
 40
0.4797111797290353
 40
0.4797111797290353
 40
0.4797111797290353
 10
1558.653490778949
 20
2822.380813882816
 30
0.0
 41
0.9954778321931383
 10
1558.652878616177
 20
2822.436320960694
 30
0.0
 41
0.9256372883517939
 10
1558.632445511952
 20
2822.487933930861
 30
0.0
 41
0.8901650429449555
 10
1558.609575038811
 20
2822.545703569526
 30
0.0
 41
0.853553390593274
 10
1558.565641055989
 20
2822.589637552349
 30
0.0
 41
0.853553390593274
 10
1558.521707073167
 20
2822.633571535171
 30
0.0
 41
0.853553390593274
 10
1558.463937434501
 20
2822.656442008311
 30
0.0
 41
0.8901650429449555
 10
1558.410732092582
 20
2822.677505517992
 30
0.0
 41
0.926776695296637
 10
1558.353509021633
 20
2822.677505517993
 30
0.0
 41
1.0
  0
SPLINE
  5
FF
330
1F
100
AcDbEntity
  8
Make2D$Visibile$Curve
370
    -3
100
AcDbSpline
210
0.0
220
0.0
230
1.0
 70
    12
 71
     2
 72
     6
 73
     3
 74
     0
 42
0.0000000001
 43
0.0000000001
 40
0.0
 40
0.0
 40
0.0
 40
0.0032345065640083
 40
0.0032345065640083
 40
0.0032345065640083
 10
1569.45861496998
 20
2822.377505517992
 30
0.0
 41
1.0
 10
1569.458614969979
 20
2822.376360138743
 30
0.0
 41
0.9984210582686573
 10
1569.458606224149
 20
2822.375214792884
 30
0.0
 41
0.9968591401952953
  0
SPLINE
  5
100
330
1F
100
AcDbEntity
  8
Make2D$Visibile$Curve
370
    -3
100
AcDbSpline
210
0.0
220
0.0
230
1.0
 70
    12
 71
     2
 72
     8
 73
     5
 74
     0
 42
0.0000000001
 43
0.0000000001
 40
0.0
 40
0.0
 40
0.0
 40
0.2485281374238506
 40
0.2485281374238506
 40
0.4970562748477183
 40
0.4970562748477183
 40
0.4970562748477183
 10
1569.45861496998
 20
2822.377505517992
 30
0.0
 41
1.0
 10
1569.45861496998
 20
2822.501769586705
 30
0.0
 41
0.853553390593274
 10
1569.370747004336
 20
2822.589637552349
 30
0.0
 41
0.853553390593274
 10
1569.282879038691
 20
2822.677505517992
 30
0.0
 41
0.853553390593274
 10
1569.158614969979
 20
2822.677505517993
 30
0.0
 41
1.0
  0
SPLINE
  5
101
330
1F
100
AcDbEntity
  8
Make2D$Visibile$Curve
370
    -3
100
AcDbSpline
210
0.0
220
0.0
230
1.0
 70
     8
 71
     3
 72
    10
 73
     6
 74
     0
 42
0.0000000001
 43
0.0000000001
 40
0.0
 40
0.0
 40
0.0
 40
0.0
 40
0.2712402485185965
 40
0.2712402485185965
 40
0.5436711797141205
 40
0.5436711797141205
 40
0.5436711797141205
 40
0.5436711797141205
 10
1428.59207733385
 20
2821.12375944728
 30
0.0
 10
1428.613316997651
 20
2821.199735560315
 30
0.0
 10
1428.630214983619
 20
2821.282232515213
 30
0.0
 10
1428.653722891871
 20
2821.454849073568
 30
0.0
 10
1428.660269441589
 20
2821.544752292079
 30
0.0
 10
1428.661213828046
 20
2821.63526674656
 30
0.0
  0
SPLINE
  5
102
330
1F
100
AcDbEntity
  8
Make2D$Visibile$Curve
370
    -3
100
AcDbSpline
210
0.0
220
0.0
230
1.0
 70
     8
 71
     3
 72
    20
 73
    16
 74
     0
 42
0.0000000001
 43
0.0000000001
 40
0.0091261418069297
 40
0.0091261418069297
 40
0.0091261418069297
 40
0.0091261418069297
 40
0.0881416502633999
 40
0.0881416502633999
 40
0.1030611021961998
 40
0.1030611021961998
 40
0.1995619384726369
 40
0.1995619384726369
 40
0.3943149108157171
 40
0.3943149108157171
 40
0.4926390856818267
 40
0.4926390856818267
 40
0.591752185076624
 40
0.591752185076624
 40
0.7929355300026174
 40
0.7929355300026174
 40
0.7929355300026174
 40
0.7929355300026174
 10
1428.358690335734
 20
2820.7013988866
 30
0.0
 10
1428.365062208426
 20
2820.706176586429
 30
0.0
 10
1428.372004518719
 20
2820.711892993412
 30
0.0
 10
1428.380824399766
 20
2820.719955516897
 30
0.0
 10
1428.38224084562
 20
2820.72127274585
 30
0.0
 10
1428.392924417107
 20
2820.731382534861
 30
0.0
 10
1428.402736708971
 20
2820.741642547411
 30
0.0
 10
1428.43334980862
 20
2820.777267195558
 30
0.0
 10
1428.454972610123
 20
2820.807215435248
 30
0.0
 10
1428.486925559349
 20
2820.860831807944
 30
0.0
 10
1428.49753480528
 20
2820.880226271735
 30
0.0
 10
1428.518319172899
 20
2820.921797940625
 30
0.0
 10
1428.528489633155
 20
2820.943993906025
 30
0.0
 10
1428.558131990401
 20
2821.014950933105
 30
0.0
 10
1428.576314437375
 20
2821.06736610432
 30
0.0
 10
1428.592076796322
 20
2821.123757524359
 30
0.0
  0
SPLINE
  5
103
330
1F
100
AcDbEntity
  8
Make2D$Visibile$Curve
370
    -3
100
AcDbSpline
210
0.0
220
0.0
230
1.0
 70
     8
 71
     3
 72
    11
 73
     7
 74
     0
 42
0.0000000001
 43
0.0000000001
 40
-0.998292638663963
 40
-0.998292638663963
 40
-0.998292638663963
 40
-0.998292638663963
 40
-0.9880137156629236
 40
-0.9880137156629236
 40
-0.9880137156629236
 40
-0.803345634681614
 40
-0.803345634681614
 40
-0.803345634681614
 40
-0.803345634681614
 10
1427.918189841548
 20
2822.677505356877
 30
0.0
 10
1427.917401389882
 20
2822.677504710227
 30
0.0
 10
1427.91661293135
 20
2822.677502117018
 30
0.0
 10
1427.915824500701
 20
2822.677497576918
 30
0.0
 10
1427.901731650158
 20
2822.677416424622
 30
0.0
 10
1427.887611969563
 20
2822.676744426264
 30
0.0
 10
1427.873501365697
 20
2822.675434560029
 30
0.0
  0
SPLINE
  5
104
330
1F
100
AcDbEntity
  8
Make2D$Visibile$Curve
370
    -3
100
AcDbSpline
210
0.0
220
0.0
230
1.0
 70
    28
 71
     2
 72
     6
 73
     3
 74
     0
 42
0.0000000001
 43
0.0000000001
 40
3.979489730710292
 40
3.979489730710292
 40
3.979489730710292
 40
37.67815491197241
 40
37.67815491197241
 40
37.67815491197241
 10
1418.157957958718
 20
2788.677505517992
 30
0.0
 41
1.0
 10
1418.010921659742
 20
2805.526196537667
 30
0.0
 41
1.0
 10
1417.863885360766
 20
2822.374887557342
 30
0.0
 41
1.0
  0
SPLINE
  5
105
330
1F
100
AcDbEntity
  8
Make2D$Visibile$Curve
370
    -3
100
AcDbSpline
210
0.0
220
0.0
230
1.0
 70
    28
 71
     2
 72
     6
 73
     3
 74
     0
 42
0.0000000001
 43
0.0000000001
 40
474.3310589391357
 40
474.3310589391357
 40
474.3310589391357
 40
474.363969157748
 40
474.363969157748
 40
474.363969157748
 10
1417.863879775938
 20
2822.377505517992
 30
0.0
 41
0.9998374833584959
 10
1417.863873937686
 20
2822.377505517992
 30
0.0
 41
0.9999187191229696
 10
1417.863873937685
 20
2822.377505517992
 30
0.0
 41
1.0
  0
SPLINE
  5
106
330
1F
100
AcDbEntity
  8
Make2D$Visibile$Curve
370
    -3
100
AcDbSpline
210
0.0
220
0.0
230
1.0
 70
    28
 71
     2
 72
     6
 73
     3
 74
     0
 42
0.0000000001
 43
0.0000000001
 40
-2.115816177881533
 40
-2.115816177881533
 40
-2.115816177881533
 40
0.0
 40
0.0
 40
0.0
 10
1558.353509021632
 20
2822.677505517992
 30
0.0
 41
0.9999434538422283
 10
1558.891634087458
 20
2822.677505517992
 30
0.0
 41
0.999872641074425
 10
1559.403906173963
 20
2822.677505517993
 30
0.0
 41
1.0
  0
SPLINE
  5
107
330
1F
100
AcDbEntity
  8
Make2D$Visibile$Curve
370
    -3
100
AcDbSpline
210
0.0
220
0.0
230
1.0
 70
    28
 71
     2
 72
     6
 73
     3
 74
     0
 42
0.0000000001
 43
0.0000000001
 40
-86.9315872752188
 40
-86.9315872752188
 40
-86.9315872752188
 40
-86.207347105138
 40
-86.207347105138
 40
-86.207347105138
 10
1559.71305088218
 20
2822.677505517992
 30
0.0
 41
0.9953587429208787
 10
1559.559832042013
 20
2822.677505517993
 30
0.0
 41
0.9964172780478755
 10
1559.404299072818
 20
2822.677505517993
 30
0.0
 41
0.9974944531628962
  0
SPLINE
  5
108
330
1F
100
AcDbEntity
  8
Make2D$Visibile$Curve
370
    -3
100
AcDbSpline
210
0.0
220
0.0
230
1.0
 70
     8
 71
     3
 72
    14
 73
    10
 74
     0
 42
0.0000000001
 43
0.0000000001
 40
0.1154823683724363
 40
0.1154823683724363
 40
0.1154823683724363
 40
0.1154823683724363
 40
0.254031129530862
 40
0.254031129530862
 40
0.254031129530862
 40
0.361329774134511
 40
0.361329774134511
 40
0.361329774134511
 40
0.4925704941061413
 40
0.4925704941061413
 40
0.4925704941061413
 40
0.4925704941061413
 10
1558.658192869896
 20
2821.273833763104
 30
0.0
 10
1558.648913352443
 20
2821.316477021973
 30
0.0
 10
1558.641069129076
 20
2821.360304238496
 30
0.0
 10
1558.634786693544
 20
2821.404743985672
 30
0.0
 10
1558.629901318548
 20
2821.439301416241
 30
0.0
 10
1558.625926998826
 20
2821.474378162106
 30
0.0
 10
1558.622897328966
 20
2821.509691570146
 30
0.0
 10
1558.619193279925
 20
2821.552865447581
 30
0.0
 10
1558.616889647021
 20
2821.596551134638
 30
0.0
 10
1558.616015357088
 20
2821.640222855415
 30
0.0
  0
SPLINE
  5
109
330
1F
100
AcDbEntity
  8
Make2D$Visibile$Curve
370
    -3
100
AcDbSpline
210
0.0
220
0.0
230
1.0
 70
    28
 71
     2
 72
     6
 73
     3
 74
     0
 42
0.0000000001
 43
0.0000000001
 40
-50.22130142898634
 40
-50.22130142898634
 40
-50.22130142898634
 40
-49.44786848706106
 40
-49.44786848706106
 40
-49.44786848706106
 10
1427.918181892516
 20
2822.677505517992
 30
0.0
 41
0.8716432847700795
 10
1427.76264975035
 20
2822.677505517992
 30
0.0
 41
0.8721255614380674
 10
1427.609431714606
 20
2822.677505517992
 30
0.0
 41
0.8726234265451722
  0
SPLINE
  5
10A
330
1F
100
AcDbEntity
  8
Make2D$Visibile$Curve
370
    -3
100
AcDbSpline
210
0.0
220
0.0
230
1.0
 70
     8
 71
     3
 72
    10
 73
     6
 74
     0
 42
0.0000000001
 43
0.0000000001
 40
0.0066197703551
 40
0.0066197703551
 40
0.0066197703551
 40
0.0066197703551
 40
10.1633482288872
 40
10.1633482288872
 40
20.3200766874193
 40
20.3200766874193
 40
20.3200766874193
 40
20.3200766874193
 10
1506.211242830304
 20
2317.17750545885
 30
0.0
 10
1506.209582172899
 20
2317.177444963481
 30
0.0
 10
1504.859532327874
 20
2317.123243636545
 30
0.0
 10
1500.236787434564
 20
2317.003185884033
 30
0.0
 10
1496.996720170767
 20
2316.947160711128
 30
0.0
 10
1493.661244453832
 20
2316.945253459395
 30
0.0
  0
SPLINE
  5
10B
330
1F
100
AcDbEntity
  8
Make2D$Visibile$Curve
370
    -3
100
AcDbSpline
210
0.0
220
0.0
230
1.0
 70
     8
 71
     3
 72
    17
 73
    13
 74
     0
 42
0.0000000001
 43
0.0000000001
 40
0.0
 40
0.0
 40
0.0
 40
0.0
 40
0.6741755412490998
 40
0.6741755412490998
 40
0.6741755412490998
 40
1.348215401944189
 40
1.348215401944189
 40
1.348215401944189
 40
2.0244394598537
 40
2.0244394598537
 40
2.0244394598537
 40
2.286783558689609
 40
2.286783558689609
 40
2.286783558689609
 40
2.286783558689609
 10
1507.937247348396
 20
2314.58756582144
 30
0.0
 10
1507.714633228224
 20
2314.58756582144
 30
0.0
 10
1507.488950319492
 20
2314.549041915907
 30
0.0
 10
1507.278912468044
 20
2314.475277781944
 30
0.0
 10
1507.068898729244
 20
2314.401522116211
 30
0.0
 10
1506.868752247962
 20
2314.290528707959
 30
0.0
 10
1506.694825005132
 20
2314.151622326125
 30
0.0
 10
1506.520322048346
 20
2314.012256152363
 30
0.0
 10
1506.367428422711
 20
2313.841003516895
 30
0.0
 10
1506.24842980797
 20
2313.652023248068
 30
0.0
 10
1506.201898553508
 20
2313.578127522508
 30
0.0
 10
1506.160088737577
 20
2313.50104293884
 30
0.0
 10
1506.123514132061
 20
2313.421745813234
 30
0.0
  0
SPLINE
  5
10C
330
1F
100
AcDbEntity
  8
Make2D$Visibile$Curve
370
    -3
100
AcDbSpline
210
0.0
220
0.0
230
1.0
 70
     8
 71
     3
 72
    17
 73
    13
 74
     0
 42
0.0000000001
 43
0.0000000001
 40
-2.28695738187377
 40
-2.28695738187377
 40
-2.28695738187377
 40
-2.28695738187377
 40
-2.042075053136418
 40
-2.042075053136418
 40
-2.042075053136418
 40
-1.363726550212875
 40
-1.363726550212875
 40
-1.363726550212875
 40
-0.6817408619888813
 40
-0.6817408619888813
 40
-0.6817408619888813
 40
0.0
 40
0.0
 40
0.0
 40
0.0
 10
1507.937247348396
 20
2314.587565821199
 30
0.0
 10
1507.855723093466
 20
2314.587565821199
 30
0.0
 10
1507.774044695817
 20
2314.582524663639
 30
0.0
 10
1507.693138981038
 20
2314.572501218228
 30
0.0
 10
1507.470867052541
 20
2314.544963848987
 30
0.0
 10
1507.250300810495
 20
2314.478349532758
 30
0.0
 10
1507.049877022589
 20
2314.378382427449
 30
0.0
 10
1506.848376975839
 20
2314.277878507212
 30
0.0
 10
1506.661602294154
 20
2314.140870167542
 30
0.0
 10
1506.50503460841
 20
2313.979037332171
 30
0.0
 10
1506.348500902068
 20
2313.817239618881
 30
0.0
 10
1506.217803483599
 20
2313.626173842952
 30
0.0
 10
1506.123514132061
 20
2313.421745812992
 30
0.0
  0
SPLINE
  5
10D
330
1F
100
AcDbEntity
  8
Make2D$Visibile$Curve
370
    -3
100
AcDbSpline
210
0.0
220
0.0
230
1.0
 70
    28
 71
     2
 72
     8
 73
     5
 74
     0
 42
0.0000000001
 43
0.0000000001
 40
-1270.008252886221
 40
-1270.008252886221
 40
-1270.008252886221
 40
-635.0041264437934
 40
-635.0041264437934
 40
0.0
 40
0.0
 40
0.0
 10
1501.161244453833
 20
1629.013186036373
 30
0.0
 41
0.999999999998834
 10
1501.161244453833
 20
1629.013186036375
 30
0.0
 41
0.7290281913302518
 10
1501.161244453832
 20
1945.885257133755
 30
0.0
 41
1.0
 10
1501.161244453832
 20
2262.75732823207
 30
0.0
 41
0.7290281913296688
 10
1501.161244453831
 20
2302.660525908502
 30
0.0
 41
1.0
  0
SPLINE
  5
10E
330
1F
100
AcDbEntity
  8
Make2D$Visibile$Curve
370
    -3
100
AcDbSpline
210
0.0
220
0.0
230
1.0
 70
     8
 71
     3
 72
     8
 73
     4
 74
     0
 42
0.0000000001
 43
0.0000000001
 40
0.0066197703551
 40
0.0066197703551
 40
0.0066197703551
 40
0.0066197703551
 40
8.403147352610214
 40
8.403147352610214
 40
8.403147352610214
 40
8.403147352610214
 10
1481.111246077358
 20
2317.17750545885
 30
0.0
 10
1481.112618936322
 20
2317.177455447565
 30
0.0
 10
1482.035516570895
 20
2317.140404162377
 30
0.0
 10
1483.661251806413
 20
2317.093647927936
 30
0.0
  0
SPLINE
  5
10F
330
1F
100
AcDbEntity
  8
Make2D$Visibile$Curve
370
    -3
100
AcDbSpline
210
0.0
220
0.0
230
1.0
 70
    28
 71
     2
 72
     8
 73
     5
 74
     0
 42
0.0000000001
 43
0.0000000001
 40
-2540.016505775174
 40
-2540.016505775174
 40
-2540.016505775174
 40
-1905.01237933138
 40
-1905.01237933138
 40
-1270.008252886221
 40
-1270.008252886221
 40
-1270.008252886221
 10
1486.161244453831
 20
2302.660525908752
 30
0.0
 41
1.0
 10
1486.161244453831
 20
2262.757328234175
 30
0.0
 41
0.7290281913296688
 10
1486.161244453832
 20
1945.885257135742
 30
0.0
 41
1.0
 10
1486.161244453833
 20
1629.013186036374
 30
0.0
 41
0.7290281913290859
 10
1486.161244453832
 20
1629.013186036373
 30
0.0
 41
1.000000000001166
  0
SPLINE
  5
110
330
1F
100
AcDbEntity
  8
Make2D$Visibile$Curve
370
    -3
100
AcDbSpline
210
0.0
220
0.0
230
1.0
 70
     8
 71
     3
 72
    17
 73
    13
 74
     0
 42
0.0000000001
 43
0.0000000001
 40
0.0
 40
0.0
 40
0.0
 40
0.0
 40
0.6741755412490998
 40
0.6741755412490998
 40
0.6741755412490998
 40
1.348215401944189
 40
1.348215401944189
 40
1.348215401944189
 40
2.0244394598537
 40
2.0244394598537
 40
2.0244394598537
 40
2.286783558689609
 40
2.286783558689609
 40
2.286783558689609
 40
2.286783558689609
 10
1479.385241559266
 20
2314.58756582144
 30
0.0
 10
1479.607855679438
 20
2314.58756582144
 30
0.0
 10
1479.83353858817
 20
2314.549041915907
 30
0.0
 10
1480.043576439618
 20
2314.475277781944
 30
0.0
 10
1480.253590178418
 20
2314.401522116211
 30
0.0
 10
1480.4537366597
 20
2314.290528707959
 30
0.0
 10
1480.62766390253
 20
2314.151622326125
 30
0.0
 10
1480.802166859315
 20
2314.012256152363
 30
0.0
 10
1480.95506048495
 20
2313.841003516895
 30
0.0
 10
1481.074059099692
 20
2313.652023248068
 30
0.0
 10
1481.120590354154
 20
2313.578127522508
 30
0.0
 10
1481.162400170085
 20
2313.50104293884
 30
0.0
 10
1481.198974775601
 20
2313.421745813234
 30
0.0
  0
SPLINE
  5
111
330
1F
100
AcDbEntity
  8
Make2D$Visibile$Curve
370
    -3
100
AcDbSpline
210
0.0
220
0.0
230
1.0
 70
     8
 71
     3
 72
    17
 73
    13
 74
     0
 42
0.0000000001
 43
0.0000000001
 40
-2.28695738187377
 40
-2.28695738187377
 40
-2.28695738187377
 40
-2.28695738187377
 40
-2.042075053136418
 40
-2.042075053136418
 40
-2.042075053136418
 40
-1.363726550212875
 40
-1.363726550212875
 40
-1.363726550212875
 40
-0.6817408619888813
 40
-0.6817408619888813
 40
-0.6817408619888813
 40
0.0
 40
0.0
 40
0.0
 40
0.0
 10
1479.385241559265
 20
2314.587565821198
 30
0.0
 10
1479.466765814195
 20
2314.587565821198
 30
0.0
 10
1479.548444211844
 20
2314.582524663638
 30
0.0
 10
1479.629349926624
 20
2314.572501218228
 30
0.0
 10
1479.851621855121
 20
2314.544963848987
 30
0.0
 10
1480.072188097167
 20
2314.478349532758
 30
0.0
 10
1480.272611885073
 20
2314.378382427449
 30
0.0
 10
1480.474111931823
 20
2314.277878507212
 30
0.0
 10
1480.660886613508
 20
2314.140870167542
 30
0.0
 10
1480.817454299251
 20
2313.979037332171
 30
0.0
 10
1480.973988005593
 20
2313.81723961888
 30
0.0
 10
1481.104685424063
 20
2313.626173842951
 30
0.0
 10
1481.198974775601
 20
2313.421745812991
 30
0.0
  0
SPLINE
  5
112
330
1F
100
AcDbEntity
  8
Make2D$Visibile$Curve
370
    -3
100
AcDbSpline
210
0.0
220
0.0
230
1.0
 70
     8
 71
     3
 72
    10
 73
     6
 74
     0
 42
0.0000000001
 43
0.0000000001
 40
-20.32364620335972
 40
-20.32364620335972
 40
-20.32364620335972
 40
-20.32364620335972
 40
-10.16513572662664
 40
-10.16513572662664
 40
0.0
 40
0.0
 40
0.0
 40
0.0
 10
1481.111244529285
 20
2317.177505508611
 30
0.0
 10
1481.111321613574
 20
2317.17749592542
 30
0.0
 10
1482.442700786229
 20
2317.123806064105
 30
0.0
 10
1487.096541038491
 20
2317.002868067908
 30
0.0
 10
1490.325769638901
 20
2316.947160710612
 30
0.0
 10
1493.66124445383
 20
2316.945253459395
 30
0.0
  0
SPLINE
  5
113
330
1F
100
AcDbEntity
  8
Make2D$Visibile$Curve
370
    -3
100
AcDbSpline
210
0.0
220
0.0
230
1.0
 70
    28
 71
     2
 72
     6
 73
     3
 74
     0
 42
0.0000000001
 43
0.0000000001
 40
1.7096
 40
1.7096
 40
1.7096
 40
12.7096
 40
12.7096
 40
12.7096
 10
1488.16124445383
 20
2299.190383028247
 30
0.0
 41
1.0
 10
1493.66124445383
 20
2299.190383028247
 30
0.0
 41
1.0
 10
1499.16124445383
 20
2299.190383028247
 30
0.0
 41
1.0
  0
SPLINE
  5
114
330
1F
100
AcDbEntity
  8
Make2D$Visibile$Curve
370
    -3
100
AcDbSpline
210
0.0
220
0.0
230
1.0
 70
    28
 71
     2
 72
     6
 73
     3
 74
     0
 42
0.0000000001
 43
0.0000000001
 40
-151.0065729902284
 40
-151.0065729902284
 40
-151.0065729902284
 40
0.0
 40
0.0
 40
0.0
 10
1569.164530948947
 20
2788.677505517993
 30
0.0
 41
1.0
 10
1569.164530948947
 20
2788.677505517993
 30
0.0
 41
0.7071067811865472
 10
1493.661244453833
 20
2788.677505517992
 30
0.0
 41
1.0
  0
SPLINE
  5
115
330
1F
100
AcDbEntity
  8
Make2D$Visibile$Curve
370
    -3
100
AcDbSpline
210
0.0
220
0.0
230
1.0
 70
    28
 71
     2
 72
     8
 73
     5
 74
     0
 42
0.0000000001
 43
0.0000000001
 40
-170.7467052778493
 40
-170.7467052778493
 40
-170.7467052778493
 40
-85.37335263892462
 40
-85.37335263892462
 40
0.0
 40
0.0
 40
0.0
 10
1428.968979886032
 20
2822.677505517992
 30
0.0
 41
1.0
 10
1450.97456813437
 20
2822.677505517992
 30
0.0
 41
0.8704924498970663
 10
1493.661244453832
 20
2822.677505517992
 30
0.0
 41
1.0
 10
1536.347920773295
 20
2822.677505517992
 30
0.0
 41
0.8704924498970663
 10
1558.353509021633
 20
2822.677505517993
 30
0.0
 41
1.0
  0
SPLINE
  5
116
330
1F
100
AcDbEntity
  8
Make2D$Visibile$Curve
370
    -3
100
AcDbSpline
210
0.0
220
0.0
230
1.0
 70
    12
 71
     2
 72
     6
 73
     3
 74
     0
 42
0.0000000001
 43
0.0000000001
 40
0.0
 40
0.0
 40
0.0
 40
0.1940900395598903
 40
0.1940900395598903
 40
0.1940900395598903
 10
1559.625205144284
 20
2822.620668159252
 30
0.0
 41
1.0
 10
1559.664534683168
 20
2822.677505517992
 30
0.0
 41
0.9514573394358095
 10
1559.713057193059
 20
2822.677505517993
 30
0.0
 41
1.0
  0
SPLINE
  5
117
330
1F
100
AcDbEntity
  8
Make2D$Visibile$Curve
370
    -3
100
AcDbSpline
210
0.0
220
0.0
230
1.0
 70
    12
 71
     2
 72
     6
 73
     3
 74
     0
 42
0.0000000001
 43
0.0000000001
 40
0.0
 40
0.0
 40
0.0
 40
148.8889611737351
 40
148.8889611737351
 40
148.8889611737351
 10
1492.296294096083
 20
2822.375214802424
 30
0.0
 41
1.0
 10
1417.863885086625
 20
2822.375051179881
 30
0.0
 41
0.7134451241929155
 10
1417.863885360766
 20
2822.374887557342
 30
0.0
 41
0.9999999980733789
  0
SPLINE
  5
118
330
1F
100
AcDbEntity
  8
Make2D$Visibile$Curve
370
    -3
100
AcDbSpline
210
0.0
220
0.0
230
1.0
 70
     8
 71
     3
 72
     8
 73
     4
 74
     0
 42
0.0000000001
 43
0.0000000001
 40
-1.0
 40
-1.0
 40
-1.0
 40
-1.0
 40
-0.9998196777382922
 40
-0.9998196777382922
 40
-0.9998196777382922
 40
-0.9998196777382922
 10
1427.918582733702
 20
2822.677505517992
 30
0.0
 10
1427.918568902019
 20
2822.677505517992
 30
0.0
 10
1427.918555070332
 20
2822.677505517393
 30
0.0
 10
1427.918541238641
 20
2822.677505516195
 30
0.0
  0
SPLINE
  5
119
330
1F
100
AcDbEntity
  8
Make2D$Visibile$Curve
370
    -3
100
AcDbSpline
210
0.0
220
0.0
230
1.0
 70
    28
 71
     2
 72
     6
 73
     3
 74
     0
 42
0.0000000001
 43
0.0000000001
 40
-302.0131459804569
 40
-302.0131459804569
 40
-302.0131459804569
 40
-151.0065729902285
 40
-151.0065729902285
 40
-151.0065729902285
 10
1493.661244453833
 20
2788.677505517992
 30
0.0
 41
1.0
 10
1418.157957958718
 20
2788.677505517992
 30
0.0
 41
0.7071067811865476
 10
1418.157957958718
 20
2788.677505517992
 30
0.0
 41
0.9999999999999998
  0
SPLINE
  5
11A
330
1F
100
AcDbEntity
  8
Make2D$Visibile$Curve
370
    -3
100
AcDbSpline
210
0.0
220
0.0
230
1.0
 70
     8
 71
     3
 72
     8
 73
     4
 74
     0
 42
0.0000000001
 43
0.0000000001
 40
0.0
 40
0.0
 40
0.0
 40
0.0
 40
0.7458512470235755
 40
0.7458512470235755
 40
0.7458512470235755
 40
0.7458512470235755
 10
1428.661213828046
 20
2821.63526674736
 30
0.0
 10
1428.663806704545
 20
2821.883726079707
 30
0.0
 10
1428.666400846318
 20
2822.13218356204
 30
0.0
 10
1428.668996253015
 20
2822.380639194304
 30
0.0
  0
SPLINE
  5
11B
330
1F
100
AcDbEntity
  8
Make2D$Visibile$Curve
370
    -3
100
AcDbSpline
210
0.0
220
0.0
230
1.0
 70
    12
 71
     2
 72
     8
 73
     5
 74
     0
 42
0.0000000001
 43
0.0000000001
 40
0.0
 40
0.0
 40
0.0
 40
0.2485281374238506
 40
0.2485281374238506
 40
0.4970562748477183
 40
0.4970562748477183
 40
0.4970562748477183
 10
1417.863873937685
 20
2822.377505517992
 30
0.0
 41
1.0
 10
1417.863873937686
 20
2822.501769586703
 30
0.0
 41
0.853553390593274
 10
1417.95174190333
 20
2822.589637552347
 30
0.0
 41
0.853553390593274
 10
1418.039609868974
 20
2822.677505517992
 30
0.0
 41
0.853553390593274
 10
1418.163873937685
 20
2822.677505517992
 30
0.0
 41
1.0
  0
SPLINE
  5
11C
330
1F
100
AcDbEntity
  8
Make2D$Visibile$Curve
370
    -3
100
AcDbSpline
210
0.0
220
0.0
230
1.0
 70
     8
 71
     3
 72
     8
 73
     4
 74
     0
 42
0.0000000001
 43
0.0000000001
 40
0.0
 40
0.0
 40
0.0
 40
0.0
 40
0.000616372560229
 40
0.000616372560229
 40
0.000616372560229
 40
0.000616372560229
 10
1559.403919243099
 20
2822.6775055356
 30
0.0
 10
1559.40399701571
 20
2822.677505596006
 30
0.0
 10
1559.404133308817
 20
2822.677505494534
 30
0.0
 10
1559.404299072455
 20
2822.677505367722
 30
0.0
  0
SPLINE
  5
11D
330
1F
100
AcDbEntity
  8
Make2D$Visibile$Curve
370
    -3
100
AcDbSpline
210
0.0
220
0.0
230
1.0
 70
     8
 71
     2
 72
    18
 73
    15
 74
     0
 42
0.0000000001
 43
0.0000000001
 40
0.0
 40
0.0
 40
0.0
 40
1.0
 40
1.0
 40
2.0
 40
2.0
 40
3.0
 40
3.0
 40
4.0
 40
4.0
 40
5.0
 40
5.0
 40
6.0
 40
6.0
 40
7.0
 40
7.0
 40
7.0
 10
1427.918189841911
 20
2822.677505367726
 30
0.0
 10
1427.918229462091
 20
2822.677505397598
 30
0.0
 10
1427.918269082272
 20
2822.67750542747
 30
0.0
 10
1427.918303502441
 20
2822.677505451675
 30
0.0
 10
1427.918337922611
 20
2822.677505475881
 30
0.0
 10
1427.918367318687
 20
2822.677505493851
 30
0.0
 10
1427.918396714763
 20
2822.677505511822
 30
0.0
 10
1427.918421296342
 20
2822.677505523636
 30
0.0
 10
1427.918445877921
 20
2822.677505535449
 30
0.0
 10
1427.918465897699
 20
2822.677505541734
 30
0.0
 10
1427.918485917477
 20
2822.677505548018
 30
0.0
 10
1427.918501683835
 20
2822.677505549827
 30
0.0
 10
1427.918517450193
 20
2822.677505551635
 30
0.0
 10
1427.918529344366
 20
2822.677505550296
 30
0.0
 10
1427.918541238539
 20
2822.677505548957
 30
0.0
  0
SPLINE
  5
11E
330
1F
100
AcDbEntity
  8
Make2D$Visibile$Curve
370
    -3
100
AcDbSpline
210
0.0
220
0.0
230
1.0
 70
    12
 71
     2
 72
     6
 73
     3
 74
     0
 42
0.0000000001
 43
0.0000000001
 40
0.0
 40
0.0
 40
0.0
 40
28.75151365814932
 40
28.75151365814932
 40
28.75151365814932
 10
787.43325968763
 20
3252.493132738608
 30
0.0
 41
1.0
 10
801.8090165167046
 20
3252.493132738608
 30
0.0
 41
0.9814474670473942
 10
815.127842706385
 20
3247.082841310434
 30
0.0
 41
1.0
  0
SPLINE
  5
11F
330
1F
100
AcDbEntity
  8
Make2D$Visibile$Curve
370
    -3
100
AcDbSpline
210
0.0
220
0.0
230
1.0
 70
    12
 71
     2
 72
     6
 73
     3
 74
     0
 42
0.0000000001
 43
0.0000000001
 40
0.0
 40
0.0
 40
0.0
 40
1.283674237977882
 40
1.283674237977882
 40
1.283674237977882
 10
815.3866273179476
 20
3247.295447803621
 30
0.0
 41
1.0
 10
815.9807517897459
 20
3247.052608351879
 30
0.0
 41
0.9999622674950003
 10
816.570567669279
 20
3246.799483648298
 30
0.0
 41
1.0
  0
SPLINE
  5
120
330
1F
100
AcDbEntity
  8
Make2D$Visibile$Curve
370
    -3
100
AcDbSpline
210
0.0
220
0.0
230
1.0
 70
    12
 71
     2
 72
     6
 73
     3
 74
     0
 42
0.0000000001
 43
0.0000000001
 40
0.0
 40
0.0
 40
0.0
 40
17.31488758145098
 40
17.31488758145098
 40
17.31488758145098
 10
816.5321351906102
 20
3246.502531075933
 30
0.0
 41
1.0
 10
824.4840889852655
 20
3243.079409132847
 30
0.0
 41
0.9931516941115672
 10
831.4245764455579
 20
3237.904376108498
 30
0.0
 41
1.0
  0
SPLINE
  5
121
330
1F
100
AcDbEntity
  8
Make2D$Visibile$Curve
370
    -3
100
AcDbSpline
210
0.0
220
0.0
230
1.0
 70
    12
 71
     2
 72
     6
 73
     3
 74
     0
 42
0.0000000001
 43
0.0000000001
 40
0.0
 40
0.0
 40
0.0
 40
1.283674237977901
 40
1.283674237977901
 40
1.283674237977901
 10
831.6625286776114
 20
3238.086135897538
 30
0.0
 41
1.0
 10
832.1766490410043
 20
3237.701902714098
 30
0.0
 41
0.999962267495
 10
832.684016411153
 20
3237.308795554381
 30
0.0
 41
1.0
  0
SPLINE
  5
122
330
1F
100
AcDbEntity
  8
Make2D$Visibile$Curve
370
    -3
100
AcDbSpline
210
0.0
220
0.0
230
1.0
 70
    12
 71
     2
 72
     6
 73
     3
 74
     0
 42
0.0000000001
 43
0.0000000001
 40
0.0
 40
0.0
 40
0.0
 40
1.283674237977982
 40
1.283674237977982
 40
1.283674237977982
 10
832.6840164111529
 20
3120.50218509918
 30
0.0
 41
1.0
 10
832.176649041004
 20
3120.109077939463
 30
0.0
 41
0.9999622674949997
 10
831.6625286776111
 20
3119.724844756023
 30
0.0
 41
1.0
  0
SPLINE
  5
123
330
1F
100
AcDbEntity
  8
Make2D$Visibile$Curve
370
    -3
100
AcDbSpline
210
0.0
220
0.0
230
1.0
 70
    12
 71
     2
 72
     6
 73
     3
 74
     0
 42
0.0000000001
 43
0.0000000001
 40
0.0
 40
0.0
 40
0.0
 40
17.31488758145094
 40
17.31488758145094
 40
17.31488758145094
 10
831.4245764455576
 20
3119.906604545063
 30
0.0
 41
1.0
 10
824.4840889852653
 20
3114.731571520715
 30
0.0
 41
0.9931516941115661
 10
816.53213519061
 20
3111.308449577628
 30
0.0
 41
1.0
  0
SPLINE
  5
124
330
1F
100
AcDbEntity
  8
Make2D$Visibile$Curve
370
    -3
100
AcDbSpline
210
0.0
220
0.0
230
1.0
 70
    12
 71
     2
 72
     6
 73
     3
 74
     0
 42
0.0000000001
 43
0.0000000001
 40
0.0
 40
0.0
 40
0.0
 40
1.283674237977983
 40
1.283674237977983
 40
1.283674237977983
 10
816.5705676692786
 20
3111.011497005263
 30
0.0
 41
1.0
 10
815.9807517897456
 20
3110.758372301681
 30
0.0
 41
0.9999622674949992
 10
815.3866273179473
 20
3110.51553284994
 30
0.0
 41
1.0
  0
SPLINE
  5
125
330
1F
100
AcDbEntity
  8
Make2D$Visibile$Curve
370
    -3
100
AcDbSpline
210
0.0
220
0.0
230
1.0
 70
    12
 71
     2
 72
     6
 73
     3
 74
     0
 42
0.0000000001
 43
0.0000000001
 40
0.0
 40
0.0
 40
0.0
 40
28.75151365814892
 40
28.75151365814892
 40
28.75151365814892
 10
815.1278427063846
 20
3110.728139343127
 30
0.0
 41
1.0
 10
801.8090165167042
 20
3105.317847914953
 30
0.0
 41
0.9814474670473954
 10
787.43325968763
 20
3105.317847914953
 30
0.0
 41
1.0
  0
SPLINE
  5
126
330
1F
100
AcDbEntity
  8
Make2D$Visibile$Curve
370
    -3
100
AcDbSpline
210
0.0
220
0.0
230
1.0
 70
    24
 71
     2
 72
     6
 73
     3
 74
     0
 42
0.0000000001
 43
0.0000000001
 40
0.0
 40
0.0
 40
0.0
 40
29.50047376505446
 40
29.50047376505446
 40
29.50047376505446
 10
832.7077240142586
 20
3126.115779208291
 30
0.0
 10
832.6414038000701
 20
3126.166668498486
 30
0.0
 10
832.5750835858814
 20
3126.217557788682
 30
0.0
  0
SPLINE
  5
127
330
1F
100
AcDbEntity
  8
Make2D$Visibile$Curve
370
    -3
100
AcDbSpline
210
0.0
220
0.0
230
1.0
 70
     8
 71
     3
 72
     8
 73
     4
 74
     0
 42
0.0000000001
 43
0.0000000001
 40
0.0
 40
0.0
 40
0.0
 40
0.0
 40
22.0020375848932
 40
22.0020375848932
 40
22.0020375848932
 40
22.0020375848932
 10
714.3430674267222
 20
3170.307335359346
 30
0.0
 10
714.2509238770931
 20
3170.268937765911
 30
0.0
 10
714.1587956978701
 20
3170.230540171465
 30
0.0
 10
714.0666827160001
 20
3170.19214257602
 30
0.0
  0
SPLINE
  5
128
330
1F
100
AcDbEntity
  8
Make2D$Visibile$Curve
370
    -3
100
AcDbSpline
210
0.0
220
0.0
230
1.0
 70
     8
 71
     3
 72
     8
 73
     4
 74
     0
 42
0.0000000001
 43
0.0000000001
 40
0.0
 40
0.0
 40
0.0
 40
0.0
 40
22.0020375848932
 40
22.0020375848932
 40
22.0020375848932
 40
22.0020375848932
 10
714.0666827160001
 20
3187.61883807754
 30
0.0
 10
714.1587956978701
 20
3187.580440482095
 30
0.0
 10
714.2509238770931
 20
3187.54204288765
 30
0.0
 10
714.3430674267222
 20
3187.503645294215
 30
0.0
  0
SPLINE
  5
129
330
1F
100
AcDbEntity
  8
Make2D$Visibile$Curve
370
    -3
100
AcDbSpline
210
0.0
220
0.0
230
1.0
 70
     8
 71
     3
 72
    11
 73
     7
 74
     0
 42
0.0000000001
 43
0.0000000001
 40
0.0
 40
0.0
 40
0.0
 40
0.0
 40
22.00243710836818
 40
22.00243710836818
 40
22.00243710836818
 40
22.50249255117399
 40
22.50249255117399
 40
22.50249255117399
 40
22.50249255117399
 10
714.2291353337896
 20
3168.918838077541
 30
0.0
 10
714.3312614074955
 20
3168.880440479065
 30
0.0
 10
714.4334425561146
 20
3168.842042884604
 30
0.0
 10
714.5356794773204
 20
3168.803645294215
 30
0.0
 10
714.5380030439621
 20
3168.802772621612
 30
0.0
 10
714.5403266394128
 20
3168.801899949011
 30
0.0
 10
714.5426502636803
 20
3168.801027276412
 30
0.0
  0
SPLINE
  5
12A
330
1F
100
AcDbEntity
  8
Make2D$Visibile$Curve
370
    -3
100
AcDbSpline
210
0.0
220
0.0
230
1.0
 70
     8
 71
     3
 72
     8
 73
     4
 74
     0
 42
0.0000000001
 43
0.0000000001
 40
0.0
 40
0.0
 40
0.0
 40
0.0
 40
22.50249255118866
 40
22.50249255118866
 40
22.50249255118866
 40
22.50249255118866
 10
714.5426502636803
 20
3189.009953377149
 30
0.0
 10
714.4380871826783
 20
3188.970683114346
 30
0.0
 10
714.3335824548758
 20
3188.931412847283
 30
0.0
 10
714.2291353337896
 20
3188.89214257602
 30
0.0
  0
SPLINE
  5
12B
330
1F
100
AcDbEntity
  8
Make2D$Visibile$Curve
370
    -3
100
AcDbSpline
210
0.0
220
0.0
230
1.0
 70
     8
 71
     3
 72
     8
 73
     4
 74
     0
 42
0.0000000001
 43
0.0000000001
 40
-22.0020375848932
 40
-22.0020375848932
 40
-22.0020375848932
 40
-22.0020375848932
 40
0.0
 40
0.0
 40
0.0
 40
0.0
 10
831.6625286776111
 20
3119.724844756023
 30
0.0
 10
831.5832188935763
 20
3119.785418140618
 30
0.0
 10
831.5039015117306
 20
3119.846004687006
 30
0.0
 10
831.4245764455576
 20
3119.906604545063
 30
0.0
  0
SPLINE
  5
12C
330
1F
100
AcDbEntity
  8
Make2D$Visibile$Curve
370
    -3
100
AcDbSpline
210
0.0
220
0.0
230
1.0
 70
     8
 71
     3
 72
     8
 73
     4
 74
     0
 42
0.0000000001
 43
0.0000000001
 40
-22.0020375848932
 40
-22.0020375848932
 40
-22.0020375848932
 40
-22.0020375848932
 40
0.0
 40
0.0
 40
0.0
 40
0.0
 10
816.570567669279
 20
3246.799483648298
 30
0.0
 10
816.5577644714435
 20
3246.700512668258
 30
0.0
 10
816.5449536740664
 20
3246.601528527424
 30
0.0
 10
816.5321351906102
 20
3246.502531075933
 30
0.0
  0
SPLINE
  5
12D
330
1F
100
AcDbEntity
  8
Make2D$Visibile$Curve
370
    -3
100
AcDbSpline
210
0.0
220
0.0
230
1.0
 70
     8
 71
     3
 72
     8
 73
     4
 74
     0
 42
0.0000000001
 43
0.0000000001
 40
-22.0020375848932
 40
-22.0020375848932
 40
-22.0020375848932
 40
-22.0020375848932
 40
0.0
 40
0.0
 40
0.0
 40
0.0
 10
816.53213519061
 20
3111.308449577628
 30
0.0
 10
816.544953674066
 20
3111.209452126137
 30
0.0
 10
816.5577644714433
 20
3111.110467985303
 30
0.0
 10
816.5705676692785
 20
3111.011497005263
 30
0.0
  0
SPLINE
  5
12E
330
1F
100
AcDbEntity
  8
Make2D$Visibile$Curve
370
    -3
100
AcDbSpline
210
0.0
220
0.0
230
1.0
 70
     8
 71
     3
 72
     8
 73
     4
 74
     0
 42
0.0000000001
 43
0.0000000001
 40
-22.0020375848932
 40
-22.0020375848932
 40
-22.0020375848932
 40
-22.0020375848932
 40
0.0
 40
0.0
 40
0.0
 40
0.0
 10
831.4245764455579
 20
3237.904376108498
 30
0.0
 10
831.5039015117309
 20
3237.964975966555
 30
0.0
 10
831.5832188935766
 20
3238.025562512943
 30
0.0
 10
831.6625286776114
 20
3238.086135897538
 30
0.0
  0
SPLINE
  5
12F
330
1F
100
AcDbEntity
  8
Make2D$Visibile$Curve
370
    -3
100
AcDbSpline
210
0.0
220
0.0
230
1.0
 70
     8
 71
     3
 72
    11
 73
     7
 74
     0
 42
0.0000000001
 43
0.0000000001
 40
-22.50249255117399
 40
-22.50249255117399
 40
-22.50249255117399
 40
-22.50249255117399
 40
-22.00243710836817
 40
-22.00243710836817
 40
-22.00243710836817
 40
0.0
 40
0.0
 40
0.0
 40
0.0
 10
815.127842706385
 20
3247.082841310434
 30
0.0
 10
815.1297602751586
 20
3247.084417291779
 30
0.0
 10
815.1316778295254
 20
3247.085993248167
 30
0.0
 10
815.1335953694897
 20
3247.087569179605
 30
0.0
 10
815.2179671188134
 20
3247.15691015538
 30
0.0
 10
815.3023109853704
 20
3247.226202828641
 30
0.0
 10
815.3866273179476
 20
3247.295447803621
 30
0.0
  0
SPLINE
  5
130
330
1F
100
AcDbEntity
  8
Make2D$Visibile$Curve
370
    -3
100
AcDbSpline
210
0.0
220
0.0
230
1.0
 70
     8
 71
     3
 72
    11
 73
     7
 74
     0
 42
0.0000000001
 43
0.0000000001
 40
-22.50249255117399
 40
-22.50249255117399
 40
-22.50249255117399
 40
-22.50249255117399
 40
-22.00243710836821
 40
-22.00243710836821
 40
-22.00243710836821
 40
0.0
 40
0.0
 40
0.0
 40
0.0
 10
832.6292860928247
 20
3120.832602393495
 30
0.0
 10
832.6296921483187
 20
3120.830153739551
 30
0.0
 10
832.6300981894024
 20
3120.827705110562
 30
0.0
 10
832.6305042160799
 20
3120.825256506522
 30
0.0
 10
832.648369387962
 20
3120.717517940358
 30
0.0
 10
832.6662066700242
 20
3120.609827672635
 30
0.0
 10
832.6840164111529
 20
3120.50218509918
 30
0.0
  0
SPLINE
  5
131
330
1F
100
AcDbEntity
  8
Make2D$Visibile$Curve
370
    -3
100
AcDbSpline
210
0.0
220
0.0
230
1.0
 70
     8
 71
     3
 72
     8
 73
     4
 74
     0
 42
0.0000000001
 43
0.0000000001
 40
-22.50249255118866
 40
-22.50249255118866
 40
-22.50249255118866
 40
-22.50249255118866
 40
0.0
 40
0.0
 40
0.0
 40
0.0
 10
832.684016411153
 20
3237.308795554381
 30
0.0
 10
832.6658019031369
 20
3237.198706558537
 30
0.0
 10
832.6475585881258
 20
3237.088567675913
 30
0.0
 10
832.6292860928249
 20
3236.978378260066
 30
0.0
  0
SPLINE
  5
132
330
1F
100
AcDbEntity
  8
Make2D$Visibile$Curve
370
    -3
100
AcDbSpline
210
0.0
220
0.0
230
1.0
 70
     8
 71
     3
 72
     8
 73
     4
 74
     0
 42
0.0000000001
 43
0.0000000001
 40
-22.50249255118866
 40
-22.50249255118866
 40
-22.50249255118866
 40
-22.50249255118866
 40
0.0
 40
0.0
 40
0.0
 40
0.0
 10
815.3866273179473
 20
3110.51553284994
 30
0.0
 10
815.3003947048774
 20
3110.586351574521
 30
0.0
 10
815.214133292086
 20
3110.657220190082
 30
0.0
 10
815.1278427063846
 20
3110.728139343127
 30
0.0
  0
SPLINE
  5
133
330
1F
100
AcDbEntity
  8
Make2D$Visibile$Curve
370
    -3
100
AcDbSpline
210
0.0
220
0.0
230
1.0
 70
     8
 71
     3
 72
     8
 73
     4
 74
     0
 42
0.0000000001
 43
0.0000000001
 40
0.0
 40
0.0
 40
0.0
 40
0.0
 40
0.0039471140631223
 40
0.0039471140631223
 40
0.0039471140631223
 40
0.0039471140631223
 10
824.4485182051578
 20
3244.640759517551
 30
0.0
 10
824.4484780763296
 20
3244.640729423698
 30
0.0
 10
824.4484338332961
 20
3244.640701649092
 30
0.0
 10
824.448385477753
 20
3244.640676194801
 30
0.0
  0
SPLINE
  5
134
330
1F
100
AcDbEntity
  8
Make2D$Visibile$Curve
370
    -3
100
AcDbSpline
210
0.0
220
0.0
230
1.0
 70
    12
 71
     2
 72
     6
 73
     3
 74
     0
 42
0.0000000001
 43
0.0000000001
 40
196.6542564272279
 40
196.6542564272279
 40
196.6542564272279
 40
196.7204246055428
 40
196.7204246055428
 40
196.7204246055428
 10
825.3530416613189
 20
3244.515602443206
 30
0.0
 41
1.0
 10
825.3232249254418
 20
3244.532835215688
 30
0.0
 41
0.9999998967341659
 10
825.2933925387556
 20
3244.550040880175
 30
0.0
 41
1.0
  0
SPLINE
  5
135
330
1F
100
AcDbEntity
  8
Make2D$Visibile$Curve
370
    -3
100
AcDbSpline
210
0.0
220
0.0
230
1.0
 70
     8
 71
     3
 72
    11
 73
     7
 74
     0
 42
0.0000000001
 43
0.0000000001
 40
0.0
 40
0.0
 40
0.0
 40
0.0
 40
0.1459156895852013
 40
0.1459156895852013
 40
0.1459156895852013
 40
0.746178781549539
 40
0.746178781549539
 40
0.746178781549539
 40
0.746178781549539
 10
826.4822247898511
 20
3113.948335770463
 30
0.0
 10
826.4838969829985
 20
3113.948846182224
 30
0.0
 10
826.4855691475918
 20
3113.949356643249
 30
0.0
 10
826.4872412836324
 20
3113.949867153535
 30
0.0
 10
826.4941200610465
 20
3113.951967273705
 30
0.0
 10
826.5009983552595
 20
3113.954068227528
 30
0.0
 10
826.5078761663651
 20
3113.956170014842
 30
0.0
  0
SPLINE
  5
136
330
1F
100
AcDbEntity
  8
Make2D$Visibile$Curve
370
    -3
100
AcDbSpline
210
0.0
220
0.0
230
1.0
 70
     8
 71
     3
 72
    11
 73
     7
 74
     0
 42
0.0000000001
 43
0.0000000001
 40
-0.7461787815495391
 40
-0.7461787815495391
 40
-0.7461787815495391
 40
-0.7461787815495391
 40
-0.1459156895874892
 40
-0.1459156895874892
 40
-0.1459156895874892
 40
0.0
 40
0.0
 40
0.0
 40
0.0
 10
711.6542311331962
 20
3180.244308818637
 30
0.0
 10
711.6526100334381
 20
3180.251316075506
 30
0.0
 10
711.6509898972897
 20
3180.258323330737
 30
0.0
 10
711.649370724565
 20
3180.26533058433
 30
0.0
 10
711.6489771259781
 20
3180.26703395116
 30
0.0
 10
711.6485835843209
 20
3180.268737317894
 30
0.0
 10
711.6481900995906
 20
3180.27044068453
 30
0.0
  0
SPLINE
  5
137
330
1F
100
AcDbEntity
  8
Make2D$Visibile$Curve
370
    -3
100
AcDbSpline
210
0.0
220
0.0
230
1.0
 70
    12
 71
     2
 72
     6
 73
     3
 74
     0
 42
0.0000000001
 43
0.0000000001
 40
40.40674588659487
 40
40.40674588659487
 40
40.40674588659487
 40
40.47291406490967
 40
40.47291406490967
 40
40.47291406490967
 10
825.2933925387553
 20
3113.260939773386
 30
0.0
 41
1.0
 10
825.3232249254417
 20
3113.278145437872
 30
0.0
 41
0.9999998967341653
 10
825.3530416613187
 20
3113.295378210354
 30
0.0
 41
1.0
  0
SPLINE
  5
138
330
1F
100
AcDbEntity
  8
Make2D$Visibile$Curve
370
    -3
100
AcDbSpline
210
0.0
220
0.0
230
1.0
 70
     8
 71
     3
 72
    11
 73
     7
 74
     0
 42
0.0000000001
 43
0.0000000001
 40
0.0
 40
0.0
 40
0.0
 40
0.0
 40
0.145915689587487
 40
0.145915689587487
 40
0.145915689587487
 40
0.7461787815495379
 40
0.7461787815495379
 40
0.7461787815495379
 40
0.7461787815495379
 10
824.143712796934
 20
3112.591219657092
 30
0.0
 10
824.1449912133478
 20
3112.592412108183
 30
0.0
 10
824.1462696013822
 20
3112.593604608622
 30
0.0
 10
824.1475479610355
 20
3112.594797158412
 30
0.0
 10
824.1528068342952
 20
3112.599703029922
 30
0.0
 10
824.1580652272621
 20
3112.604609736599
 30
0.0
 10
824.1633231398425
 20
3112.609517278606
 30
0.0
  0
SPLINE
  5
139
330
1F
100
AcDbEntity
  8
Make2D$Visibile$Curve
370
    -3
100
AcDbSpline
210
0.0
220
0.0
230
1.0
 70
    28
 71
     2
 72
     6
 73
     3
 74
     0
 42
0.0000000001
 43
0.0000000001
 40
0.0
 40
0.0
 40
0.0
 40
0.0000072406079873
 40
0.0000072406079873
 40
0.0000072406079873
 10
787.43325968763
 20
3103.108131233714
 30
0.0
 41
1.0
 10
787.4332631928704
 20
3103.108131233714
 30
0.0
 41
0.9999999941234342
 10
787.433266698111
 20
3103.108131233714
 30
0.0
 41
0.9999999882468705
  0
SPLINE
  5
13A
330
1F
100
AcDbEntity
  8
Make2D$Visibile$Curve
370
    -3
100
AcDbSpline
210
0.0
220
0.0
230
1.0
 70
     8
 71
     3
 72
    11
 73
     7
 74
     0
 42
0.0000000001
 43
0.0000000001
 40
0.0
 40
0.0
 40
0.0
 40
0.0
 40
0.1459156895851999
 40
0.1459156895851999
 40
0.1459156895851999
 40
0.7461787815495392
 40
0.7461787815495392
 40
0.7461787815495392
 40
0.7461787815495392
 10
711.6542311331962
 20
3177.566671834924
 30
0.0
 10
711.6538370661741
 20
3177.564968467297
 30
0.0
 10
711.6534430560927
 20
3177.563265099768
 30
0.0
 10
711.6530491029491
 20
3177.561561732335
 30
0.0
 10
711.6514284716606
 20
3177.554554476262
 30
0.0
 10
711.6498088039366
 20
3177.547547221827
 30
0.0
 10
711.6481900995906
 20
3177.540539969031
 30
0.0
  0
SPLINE
  5
13B
330
1F
100
AcDbEntity
  8
Make2D$Visibile$Curve
370
    -3
100
AcDbSpline
210
0.0
220
0.0
230
1.0
 70
     8
 71
     3
 72
     8
 73
     4
 74
     0
 42
0.0000000001
 43
0.0000000001
 40
-1.0
 40
-1.0
 40
-1.0
 40
-1.0
 40
0.0
 40
0.0
 40
0.0
 40
0.0
 10
824.2969563899879
 20
3244.929613120828
 30
0.0
 10
824.296980619076
 20
3244.929625819062
 30
0.0
 10
824.2970027837519
 20
3244.929639682065
 30
0.0
 10
824.2970228831529
 20
3244.929654709304
 30
0.0
  0
SPLINE
  5
13C
330
1F
100
AcDbEntity
  8
Make2D$Visibile$Curve
370
    -3
100
AcDbSpline
210
0.0
220
0.0
230
1.0
 70
     8
 71
     3
 72
     8
 73
     4
 74
     0
 42
0.0000000001
 43
0.0000000001
 40
0.0
 40
0.0
 40
0.0
 40
0.0
 40
1.0
 40
1.0
 40
1.0
 40
1.0
 10
826.1799817087752
 20
3243.84252792446
 30
0.0
 10
826.1799787445057
 20
3243.842503004249
 30
0.0
 10
826.1799778211288
 20
3243.842476877573
 30
0.0
 10
826.17997893868
 20
3243.842449545451
 30
0.0
  0
SPLINE
  5
13D
330
1F
100
AcDbEntity
  8
Make2D$Visibile$Curve
370
    -3
100
AcDbSpline
210
0.0
220
0.0
230
1.0
 70
     8
 71
     3
 72
     8
 73
     4
 74
     0
 42
0.0000000001
 43
0.0000000001
 40
0.0
 40
0.0
 40
0.0
 40
0.0
 40
1.0
 40
1.0
 40
1.0
 40
1.0
 10
824.2970228831522
 20
3112.881325944257
 30
0.0
 10
824.2970027837513
 20
3112.881340971496
 30
0.0
 10
824.2969806190754
 20
3112.881354834499
 30
0.0
 10
824.2969563899876
 20
3112.881367532733
 30
0.0
  0
SPLINE
  5
13E
330
1F
100
AcDbEntity
  8
Make2D$Visibile$Curve
370
    -3
100
AcDbSpline
210
0.0
220
0.0
230
1.0
 70
     8
 71
     3
 72
     8
 73
     4
 74
     0
 42
0.0000000001
 43
0.0000000001
 40
-1.0
 40
-1.0
 40
-1.0
 40
-1.0
 40
0.0
 40
0.0
 40
0.0
 40
0.0
 10
711.8228437342224
 20
3177.818326751403
 30
0.0
 10
711.8228206226854
 20
3177.818341385291
 30
0.0
 10
711.8227975346342
 20
3177.818353648963
 30
0.0
 10
711.8227744709634
 20
3177.818363541935
 30
0.0
  0
SPLINE
  5
13F
330
1F
100
AcDbEntity
  8
Make2D$Visibile$Curve
370
    -3
100
AcDbSpline
210
0.0
220
0.0
230
1.0
 70
    12
 71
     2
 72
     8
 73
     5
 74
     0
 42
0.0000000001
 43
0.0000000001
 40
-36.0
 40
-36.0
 40
-36.0
 40
-18.0
 40
-18.0
 40
0.0
 40
0.0
 40
0.0
 10
787.43325968763
 20
3187.905490326781
 30
0.0
 41
1.0
 10
796.4332596876299
 20
3187.90549032678
 30
0.0
 41
0.7071067811865476
 10
796.43325968763
 20
3178.905490326781
 30
0.0
 41
1.0
 10
796.4332596876299
 20
3169.90549032678
 30
0.0
 41
0.7071067811865476
 10
787.43325968763
 20
3169.905490326781
 30
0.0
 41
1.0
  0
SPLINE
  5
140
330
1F
100
AcDbEntity
  8
Make2D$Visibile$Curve
370
    -3
100
AcDbSpline
210
0.0
220
0.0
230
1.0
 70
    12
 71
     2
 72
     6
 73
     3
 74
     0
 42
0.0000000001
 43
0.0000000001
 40
-1.283674237977932
 40
-1.283674237977932
 40
-1.283674237977932
 40
0.0
 40
0.0
 40
0.0
 10
714.0666827160001
 20
3170.19214257602
 30
0.0
 41
1.0
 10
714.1423782321403
 20
3169.554784688999
 30
0.0
 41
0.9999622674950012
 10
714.2291353337896
 20
3168.918838077541
 30
0.0
 41
1.0
  0
SPLINE
  5
141
330
1F
100
AcDbEntity
  8
Make2D$Visibile$Curve
370
    -3
100
AcDbSpline
210
0.0
220
0.0
230
1.0
 70
    12
 71
     2
 72
     6
 73
     3
 74
     0
 42
0.0000000001
 43
0.0000000001
 40
-1.283674237977944
 40
-1.283674237977944
 40
-1.283674237977944
 40
0.0
 40
0.0
 40
0.0
 10
714.2291353337896
 20
3188.89214257602
 30
0.0
 41
1.0
 10
714.14237823214
 20
3188.256195964562
 30
0.0
 41
0.9999622674949987
 10
714.0666827160001
 20
3187.61883807754
 30
0.0
 41
1.0
  0
SPLINE
  5
142
330
1F
100
AcDbEntity
  8
Make2D$Visibile$Curve
370
    -3
100
AcDbSpline
210
0.0
220
0.0
230
1.0
 70
    12
 71
     2
 72
     8
 73
     5
 74
     0
 42
0.0000000001
 43
0.0000000001
 40
-36.0
 40
-36.0
 40
-36.0
 40
-18.0
 40
-18.0
 40
0.0
 40
0.0
 40
0.0
 10
787.43325968763
 20
3169.905490326781
 30
0.0
 41
1.0
 10
778.4332596876299
 20
3169.90549032678
 30
0.0
 41
0.7071067811865476
 10
778.43325968763
 20
3178.905490326781
 30
0.0
 41
1.0
 10
778.4332596876299
 20
3187.90549032678
 30
0.0
 41
0.7071067811865476
 10
787.43325968763
 20
3187.905490326781
 30
0.0
 41
1.0
  0
SPLINE
  5
143
330
1F
100
AcDbEntity
  8
Make2D$Visibile$Curve
370
    -3
100
AcDbSpline
210
0.0
220
0.0
230
1.0
 70
    12
 71
     2
 72
     6
 73
     3
 74
     0
 42
0.0000000001
 43
0.0000000001
 40
0.0
 40
0.0
 40
0.0
 40
0.0054028043623556
 40
0.0054028043623556
 40
0.0054028043623556
 10
711.6481801060157
 20
3177.540539789038
 30
0.0
 41
0.9926622954464397
 10
711.6481314594687
 20
3177.543240753174
 30
0.0
 41
0.9962840020752857
 10
711.6481314594686
 20
3177.545942155355
 30
0.0
 41
1.0
  0
SPLINE
  5
144
330
1F
100
AcDbEntity
  8
Make2D$Visibile$Curve
370
    -3
100
AcDbSpline
210
0.0
220
0.0
230
1.0
 70
     8
 71
     3
 72
    10
 73
     6
 74
     0
 42
0.0000000001
 43
0.0000000001
 40
0.0
 40
0.0
 40
0.0
 40
0.0
 40
0.6989557183493913
 40
0.6989557183493913
 40
1.394552033169836
 40
1.394552033169836
 40
1.394552033169836
 40
1.394552033169836
 10
825.3530416613189
 20
3244.515602443206
 30
0.0
 10
825.5532580503309
 20
3244.399886109132
 30
0.0
 10
825.7498653963934
 20
3244.285438661788
 30
0.0
 10
826.0934292655427
 20
3244.085246058702
 30
0.0
 10
826.237425433215
 20
3244.001244391107
 30
0.0
 10
826.333899440512
 20
3243.94556051541
 30
0.0
  0
SPLINE
  5
145
330
1F
100
AcDbEntity
  8
Make2D$Visibile$Curve
370
    -3
100
AcDbSpline
210
0.0
220
0.0
230
1.0
 70
     8
 71
     3
 72
     8
 73
     4
 74
     0
 42
0.0000000001
 43
0.0000000001
 40
0.0
 40
0.0
 40
0.0
 40
0.0
 40
0.7461128420537567
 40
0.7461128420537567
 40
0.7461128420537567
 40
0.7461128420537567
 10
826.4149926648297
 20
3243.892545686814
 30
0.0
 10
826.4235482968381
 20
3243.889942466205
 30
0.0
 10
826.4321031200014
 20
3243.887337974895
 30
0.0
 10
826.4406571345236
 20
3243.884732213256
 30
0.0
  0
SPLINE
  5
146
330
1F
100
AcDbEntity
  8
Make2D$Visibile$Curve
370
    -3
100
AcDbSpline
210
0.0
220
0.0
230
1.0
 70
     8
 71
     3
 72
    10
 73
     6
 74
     0
 42
0.0000000001
 43
0.0000000001
 40
0.0
 40
0.0
 40
0.0
 40
0.0
 40
0.6955963148212451
 40
0.6955963148212451
 40
1.394552033172501
 40
1.394552033172501
 40
1.394552033172501
 40
1.394552033172501
 10
824.3092928584658
 20
3245.114467670557
 30
0.0
 10
824.4057535130446
 20
3245.058760667284
 30
0.0
 10
824.5504991749797
 20
3244.976057161829
 30
0.0
 10
824.8956529894796
 20
3244.778618424865
 30
0.0
 10
825.0930710593085
 20
3244.665575192277
 30
0.0
 10
825.2933925387556
 20
3244.550040880175
 30
0.0
  0
SPLINE
  5
147
330
1F
100
AcDbEntity
  8
Make2D$Visibile$Curve
370
    -3
100
AcDbSpline
210
0.0
220
0.0
230
1.0
 70
    12
 71
     2
 72
     6
 73
     3
 74
     0
 42
0.0000000001
 43
0.0000000001
 40
0.1013945517655008
 40
0.1013945517655008
 40
0.1013945517655008
 40
0.1665742293069286
 40
0.1665742293069286
 40
0.1665742293069286
 10
826.4477828225548
 20
3243.882463881057
 30
0.0
 41
0.9013541878835385
 10
826.4793653722461
 20
3243.871974882314
 30
0.0
 41
0.87829786403036
 10
826.507881319031
 20
3243.854819203413
 30
0.0
 41
0.8663625695272696
  0
SPLINE
  5
148
330
1F
100
AcDbEntity
  8
Make2D$Visibile$Curve
370
    -3
100
AcDbSpline
210
0.0
220
0.0
230
1.0
 70
     8
 71
     3
 72
    12
 73
     8
 74
     0
 42
0.0000000001
 43
0.0000000001
 40
0.1347238944490272
 40
0.1347238944490272
 40
0.1347238944490272
 40
0.1347238944490272
 40
0.1707838920249639
 40
0.1707838920249639
 40
0.3219583842544845
 40
0.3219583842544845
 40
0.6291223090170698
 40
0.6291223090170698
 40
0.6291223090170698
 40
0.6291223090170698
 10
824.1887805714192
 20
3245.185394282311
 30
0.0
 10
824.1887809107518
 20
3245.185394786332
 30
0.0
 10
824.1892059506853
 20
3245.18511944813
 30
0.0
 10
824.1928340858135
 20
3245.182834286239
 30
0.0
 10
824.2010412347631
 20
3245.177807802813
 30
0.0
 10
824.2329363414733
 20
3245.158783552891
 30
0.0
 10
824.2667373878905
 20
3245.139043871794
 30
0.0
 10
824.3092928121782
 20
3245.114467697289
 30
0.0
  0
SPLINE
  5
149
330
1F
100
AcDbEntity
  8
Make2D$Visibile$Curve
370
    -3
100
AcDbSpline
210
0.0
220
0.0
230
1.0
 70
     8
 71
     3
 72
     8
 73
     4
 74
     0
 42
0.0000000001
 43
0.0000000001
 40
0.0000658482120065
 40
0.0000658482120065
 40
0.0000658482120065
 40
0.0000658482120065
 40
0.7461786902667501
 40
0.7461786902667501
 40
0.7461786902667501
 40
0.7461786902667501
 10
824.203235156499
 20
3245.176508394559
 30
0.0
 10
824.2097688195844
 20
3245.170403281453
 30
0.0
 10
824.216301786797
 20
3245.164296832929
 30
0.0
 10
824.2228340579369
 20
3245.158189048611
 30
0.0
  0
SPLINE
  5
14A
330
1F
100
AcDbEntity
  8
Make2D$Visibile$Curve
370
    -3
100
AcDbSpline
210
0.0
220
0.0
230
1.0
 70
    12
 71
     2
 72
     8
 73
     5
 74
     0
 42
0.0000000001
 43
0.0000000001
 40
0.3122117695978377
 40
0.3122117695978377
 40
0.3122117695978377
 40
0.3629742793221882
 40
0.3629742793221882
 40
0.3814374154411938
 40
0.3814374154411938
 40
0.3814374154411938
 10
826.5078813190304
 20
3113.956161450148
 30
0.0
 41
0.8663625695272736
 10
826.4866707393725
 20
3113.943400804441
 30
0.0
 41
0.8752089950882327
 10
826.4636554687022
 20
3113.93428926866
 30
0.0
 41
0.8901650429449555
 10
826.4547779414199
 20
3113.930774736565
 30
0.0
 41
0.8960714536784109
 10
826.4456948973055
 20
3113.927831823701
 30
0.0
 41
0.9029307219179186
  0
SPLINE
  5
14B
330
1F
100
AcDbEntity
  8
Make2D$Visibile$Curve
370
    -3
100
AcDbSpline
210
0.0
220
0.0
230
1.0
 70
    12
 71
     2
 72
     6
 73
     3
 74
     0
 42
0.0000000001
 43
0.0000000001
 40
0.0
 40
0.0
 40
0.0
 40
0.0681452221307057
 40
0.0681452221307057
 40
0.0681452221307057
 10
824.1437176378438
 20
3245.219769741155
 30
0.0
 41
0.8704805765080998
 10
824.1728328650648
 20
3245.203652046232
 30
0.0
 41
0.8570915116846328
 10
824.1977078793371
 20
3245.181545255178
 30
0.0
 41
0.854292928808315
  0
SPLINE
  5
14C
330
1F
100
AcDbEntity
  8
Make2D$Visibile$Curve
370
    -3
100
AcDbSpline
210
0.0
220
0.0
230
1.0
 70
     8
 71
     3
 72
    12
 73
     8
 74
     0
 42
0.0000000001
 43
0.0000000001
 40
0.1347238943853781
 40
0.1347238943853781
 40
0.1347238943853781
 40
0.1347238943853781
 40
0.1707838919835767
 40
0.1707838919835767
 40
0.3219583842162712
 40
0.3219583842162712
 40
0.6291223089877759
 40
0.6291223089877759
 40
0.6291223089877759
 40
0.6291223089877759
 10
826.455579831618
 20
3113.934323534325
 30
0.0
 10
826.455580098447
 20
3113.934322988444
 30
0.0
 10
826.4551291286023
 20
3113.934092562164
 30
0.0
 10
826.4513360527869
 20
3113.932093085919
 30
0.0
 10
826.442879415973
 20
3113.927498728149
 30
0.0
 10
826.4104563788969
 20
3113.909388880442
 30
0.0
 10
826.3764607903967
 20
3113.88998615612
 30
0.0
 10
826.3338994868052
 20
3113.865420164871
 30
0.0
  0
SPLINE
  5
14D
330
1F
100
AcDbEntity
  8
Make2D$Visibile$Curve
370
    -3
100
AcDbSpline
210
0.0
220
0.0
230
1.0
 70
    12
 71
     2
 72
     6
 73
     3
 74
     0
 42
0.0000000001
 43
0.0000000001
 40
0.0
 40
0.0
 40
0.0
 40
0.0054028043623458
 40
0.0054028043623458
 40
0.0054028043623458
 10
711.6481314594686
 20
3180.265038498206
 30
0.0
 41
1.0
 10
711.6481314594686
 20
3180.267739900387
 30
0.0
 41
0.9962840020752924
 10
711.6481801060157
 20
3180.270440864522
 30
0.0
 41
0.9926622954464529
  0
SPLINE
  5
14E
330
1F
100
AcDbEntity
  8
Make2D$Visibile$Curve
370
    -3
100
AcDbSpline
210
0.0
220
0.0
230
1.0
 70
    12
 71
     2
 72
     6
 73
     3
 74
     0
 42
0.0000000001
 43
0.0000000001
 40
0.4141675586806684
 40
0.4141675586806684
 40
0.4141675586806684
 40
0.4774204212205162
 40
0.4774204212205162
 40
0.4774204212205162
 10
711.6542883618199
 20
3180.204571697695
 30
0.0
 41
0.9302443949172748
 10
711.6481314594687
 20
3180.234491641258
 30
0.0
 41
0.9595304520511503
 10
711.6481314594686
 20
3180.265038498206
 30
0.0
 41
1.0
  0
SPLINE
  5
14F
330
1F
100
AcDbEntity
  8
Make2D$Visibile$Curve
370
    -3
100
AcDbSpline
210
0.0
220
0.0
230
1.0
 70
     8
 71
     3
 72
    10
 73
     6
 74
     0
 42
0.0000000001
 43
0.0000000001
 40
0.0
 40
0.0
 40
0.0
 40
0.0
 40
0.6989557183470085
 40
0.6989557183470085
 40
1.394552033167625
 40
1.394552033167625
 40
1.394552033167625
 40
1.394552033167625
 10
711.6533448628159
 20
3178.939928763749
 30
0.0
 10
711.6534499532509
 20
3179.171179409923
 30
0.0
 10
711.6542606770179
 20
3179.398670089857
 30
0.0
 10
711.655850622365
 20
3179.796301429904
 30
0.0
 10
711.656600116627
 20
3179.963006602955
 30
0.0
 10
711.6565867639126
 20
3180.074397481928
 30
0.0
  0
SPLINE
  5
150
330
1F
100
AcDbEntity
  8
Make2D$Visibile$Curve
370
    -3
100
AcDbSpline
210
0.0
220
0.0
230
1.0
 70
    12
 71
     2
 72
     6
 73
     3
 74
     0
 42
0.0000000001
 43
0.0000000001
 40
0.2592228379054005
 40
0.2592228379054005
 40
0.2592228379054005
 40
0.3273680600360078
 40
0.3273680600360078
 40
0.3273680600360078
 10
824.1977078793367
 20
3112.629435398383
 30
0.0
 41
0.8542929288083274
 10
824.1728328650645
 20
3112.607328607329
 30
0.0
 41
0.8570915116846645
 10
824.1437176378435
 20
3112.591210912406
 30
0.0
 41
0.8704805765081196
  0
SPLINE
  5
151
330
1F
100
AcDbEntity
  8
Make2D$Visibile$Curve
370
    -3
100
AcDbSpline
210
0.0
220
0.0
230
1.0
 70
     8
 71
     3
 72
    12
 73
     8
 74
     0
 42
0.0000000001
 43
0.0000000001
 40
0.1347238944158471
 40
0.1347238944158471
 40
0.1347238944158471
 40
0.1347238944158471
 40
0.1707838920036296
 40
0.1707838920036296
 40
0.321958384235519
 40
0.321958384235519
 40
0.6291223090049232
 40
0.6291223090049232
 40
0.6291223090049232
 40
0.6291223090049232
 10
711.6554186598535
 20
3177.596753163705
 30
0.0
 10
711.6554180536921
 20
3177.596753205566
 30
0.0
 10
711.6554439836027
 20
3177.597258970047
 30
0.0
 10
711.6556089242877
 20
3177.601543608183
 30
0.0
 10
711.6558584121515
 20
3177.611164449379
 30
0.0
 10
711.6563863425174
 20
3177.648298547008
 30
0.0
 10
711.656580884601
 20
3177.687440952427
 30
0.0
 10
711.6565867639063
 20
3177.736583118181
 30
0.0
  0
SPLINE
  5
152
330
1F
100
AcDbEntity
  8
Make2D$Visibile$Curve
370
    -3
100
AcDbSpline
210
0.0
220
0.0
230
1.0
 70
    12
 71
     2
 72
     6
 73
     3
 74
     0
 42
0.0000000001
 43
0.0000000001
 40
0.0
 40
0.0
 40
0.0
 40
0.0632528625402014
 40
0.0632528625402014
 40
0.0632528625402014
 10
711.6481314594686
 20
3177.545942155355
 30
0.0
 41
1.0
 10
711.6481314594685
 20
3177.576489012303
 30
0.0
 41
0.959530452050924
 10
711.6542883618198
 20
3177.606408955867
 30
0.0
 41
0.9302443949169473
  0
SPLINE
  5
153
330
1F
100
AcDbEntity
  8
Make2D$Visibile$Curve
370
    -3
100
AcDbSpline
210
0.0
220
0.0
230
1.0
 70
    12
 71
     2
 72
     6
 73
     3
 74
     0
 42
0.0000000001
 43
0.0000000001
 40
355.6526592671036
 40
355.6526592671036
 40
355.6526592671036
 40
355.7288522093124
 40
355.7288522093124
 40
355.7288522093124
 10
711.6533448628156
 20
3178.939928763749
 30
0.0
 41
1.0
 10
711.6533292120066
 20
3178.90549032678
 30
0.0
 41
0.9999998967341654
 10
711.6533448628156
 20
3178.871051889812
 30
0.0
 41
1.0
  0
SPLINE
  5
154
330
1F
100
AcDbEntity
  8
Make2D$Visibile$Curve
370
    -3
100
AcDbSpline
210
0.0
220
0.0
230
1.0
 70
    28
 71
     2
 72
     6
 73
     3
 74
     0
 42
0.0000000001
 43
0.0000000001
 40
1.7096
 40
1.7096
 40
1.7096
 40
12.7096
 40
12.7096
 40
12.7096
 10
1125.59757917308
 20
3184.405490326779
 30
0.0
 41
1.0
 10
1125.59757917308
 20
3178.905490326779
 30
0.0
 41
1.0
 10
1125.59757917308
 20
3173.405490326779
 30
0.0
 41
1.0
  0
SPLINE
  5
155
330
1F
100
AcDbEntity
  8
Make2D$Visibile$Curve
370
    -3
100
AcDbSpline
210
0.0
220
0.0
230
1.0
 70
    28
 71
     2
 72
     6
 73
     3
 74
     0
 42
0.0000000001
 43
0.0000000001
 40
1.709599999999999
 40
1.709599999999999
 40
1.709599999999999
 40
12.7096
 40
12.7096
 40
12.7096
 10
449.268940209594
 20
3173.405490326778
 30
0.0
 41
1.0
 10
449.268940209594
 20
3178.905490326778
 30
0.0
 41
1.0
 10
449.268940209594
 20
3184.405490326778
 30
0.0
 41
1.0
  0
SPLINE
  5
156
330
1F
100
AcDbEntity
  8
Make2D$Visibile$Curve
370
    -3
100
AcDbSpline
210
0.0
220
0.0
230
1.0
 70
    12
 71
     2
 72
     8
 73
     5
 74
     0
 42
0.0000000001
 43
0.0000000001
 40
0.0
 40
0.0
 40
0.0
 40
1.656854249492374
 40
1.656854249492374
 40
3.313708498984769
 40
3.313708498984769
 40
3.313708498984769
 10
1125.59757917308
 20
3173.405490326779
 30
0.0
 41
1.0
 10
1125.59757917308
 20
3172.577063202033
 30
0.0
 41
0.853553390593274
 10
1125.011792735453
 20
3171.991276764406
 30
0.0
 41
0.853553390593274
 10
1124.426006297826
 20
3171.405490326779
 30
0.0
 41
0.853553390593274
 10
1123.59757917308
 20
3171.405490326779
 30
0.0
 41
1.0
  0
SPLINE
  5
157
330
1F
100
AcDbEntity
  8
Make2D$Visibile$Curve
370
    -3
100
AcDbSpline
210
0.0
220
0.0
230
1.0
 70
    12
 71
     2
 72
     8
 73
     5
 74
     0
 42
0.0000000001
 43
0.0000000001
 40
0.0
 40
0.0
 40
0.0
 40
1.656854249492414
 40
1.656854249492414
 40
3.313708498984809
 40
3.313708498984809
 40
3.313708498984809
 10
449.268940209594
 20
3173.405490326778
 30
0.0
 41
1.0
 10
449.2689402095941
 20
3172.577063202031
 30
0.0
 41
0.853553390593274
 10
449.854726647221
 20
3171.991276764405
 30
0.0
 41
0.853553390593274
 10
450.4405130848479
 20
3171.405490326778
 30
0.0
 41
0.853553390593274
 10
451.268940209594
 20
3171.405490326778
 30
0.0
 41
1.0
  0
SPLINE
  5
158
330
1F
100
AcDbEntity
  8
Make2D$Visibile$Curve
370
    -3
100
AcDbSpline
210
0.0
220
0.0
230
1.0
 70
    12
 71
     2
 72
     6
 73
     3
 74
     0
 42
0.0000000001
 43
0.0000000001
 40
0.0
 40
0.0
 40
0.0
 40
4.0
 40
4.0
 40
4.0
 10
1123.59757917308
 20
3186.405490326779
 30
0.0
 41
1.0
 10
1125.59757917308
 20
3186.405490326778
 30
0.0
 41
0.707106781186548
 10
1125.59757917308
 20
3184.405490326779
 30
0.0
 41
1.0
  0
SPLINE
  5
159
330
1F
100
AcDbEntity
  8
Make2D$Visibile$Curve
370
    -3
100
AcDbSpline
210
0.0
220
0.0
230
1.0
 70
    12
 71
     2
 72
     6
 73
     3
 74
     0
 42
0.0000000001
 43
0.0000000001
 40
0.0
 40
0.0
 40
0.0
 40
4.0
 40
4.0
 40
4.0
 10
449.268940209594
 20
3184.405490326778
 30
0.0
 41
1.0
 10
449.2689402095941
 20
3186.405490326778
 30
0.0
 41
0.707106781186548
 10
451.268940209594
 20
3186.405490326778
 30
0.0
 41
1.0
  0
SPLINE
  5
15A
330
1F
100
AcDbEntity
  8
Make2D$Visibile$Curve
370
    -3
100
AcDbSpline
210
0.0
220
0.0
230
1.0
 70
    12
 71
     2
 72
     8
 73
     5
 74
     0
 42
0.0000000001
 43
0.0000000001
 40
0.0
 40
0.0
 40
0.0
 40
11.0
 40
11.0
 40
21.99999999999999
 40
21.99999999999999
 40
21.99999999999999
 10
787.43325968929
 20
3184.405490326778
 30
0.0
 41
1.0
 10
781.9332596892899
 20
3184.405490326779
 30
0.0
 41
0.7071067811865477
 10
781.93325968929
 20
3178.905490326778
 30
0.0
 41
1.0
 10
781.9332596892899
 20
3173.405490326778
 30
0.0
 41
0.7071067811865477
 10
787.43325968929
 20
3173.405490326778
 30
0.0
 41
1.0
  0
SPLINE
  5
15B
330
1F
100
AcDbEntity
  8
Make2D$Visibile$Curve
370
    -3
100
AcDbSpline
210
0.0
220
0.0
230
1.0
 70
    12
 71
     2
 72
     8
 73
     5
 74
     0
 42
0.0000000001
 43
0.0000000001
 40
-24.0
 40
-24.0
 40
-24.0
 40
-12.0
 40
-12.0
 40
0.0
 40
0.0
 40
0.0
 10
787.43325968929
 20
3172.905490326778
 30
0.0
 41
1.0
 10
781.4332596892899
 20
3172.905490326779
 30
0.0
 41
0.7071067811865476
 10
781.43325968929
 20
3178.905490326778
 30
0.0
 41
1.0
 10
781.4332596892899
 20
3184.905490326778
 30
0.0
 41
0.7071067811865476
 10
787.43325968929
 20
3184.905490326778
 30
0.0
 41
1.0
  0
SPLINE
  5
15C
330
1F
100
AcDbEntity
  8
Make2D$Visibile$Curve
370
    -3
100
AcDbSpline
210
0.0
220
0.0
230
1.0
 70
    12
 71
     2
 72
     8
 73
     5
 74
     0
 42
0.0000000001
 43
0.0000000001
 40
-24.0
 40
-24.0
 40
-24.0
 40
-12.0
 40
-12.0
 40
0.0
 40
0.0
 40
0.0
 10
787.43325968929
 20
3184.905490326778
 30
0.0
 41
1.0
 10
793.43325968929
 20
3184.905490326778
 30
0.0
 41
0.7071067811865476
 10
793.43325968929
 20
3178.905490326778
 30
0.0
 41
1.0
 10
793.43325968929
 20
3172.905490326779
 30
0.0
 41
0.7071067811865476
 10
787.43325968929
 20
3172.905490326778
 30
0.0
 41
1.0
  0
SPLINE
  5
15D
330
1F
100
AcDbEntity
  8
Make2D$Visibile$Curve
370
    -3
100
AcDbSpline
210
0.0
220
0.0
230
1.0
 70
    12
 71
     2
 72
     8
 73
     5
 74
     0
 42
0.0000000001
 43
0.0000000001
 40
0.0
 40
0.0
 40
0.0
 40
71.95344197761229
 40
71.95344197761229
 40
143.9068839552245
 40
143.9068839552245
 40
143.9068839552245
 10
832.6292860928249
 20
3236.978378260066
 30
0.0
 41
1.0
 10
861.0209020994579
 20
3214.882211315587
 30
0.0
 41
0.8983817584158319
 10
861.0209020994578
 20
3178.90549032678
 30
0.0
 41
1.0
 10
861.0209020994577
 20
3142.928769337974
 30
0.0
 41
0.8983817584158319
 10
832.6292860928247
 20
3120.832602393495
 30
0.0
 41
1.0
  0
SPLINE
  5
15E
330
1F
100
AcDbEntity
  8
Make2D$Visibile$Curve
370
    -3
100
AcDbSpline
210
0.0
220
0.0
230
1.0
 70
    12
 71
     2
 72
     8
 73
     5
 74
     0
 42
0.0000000001
 43
0.0000000001
 40
-295.9999999999999
 40
-295.9999999999999
 40
-295.9999999999999
 40
-147.9999999999999
 40
-147.9999999999999
 40
0.0
 40
0.0
 40
0.0
 10
787.43325968763
 20
3252.90549032678
 30
0.0
 41
1.0
 10
861.43325968763
 20
3252.90549032678
 30
0.0
 41
0.7071067811865477
 10
861.43325968763
 20
3178.90549032678
 30
0.0
 41
1.0
 10
861.43325968763
 20
3104.905490326781
 30
0.0
 41
0.7071067811865477
 10
787.43325968763
 20
3104.90549032678
 30
0.0
 41
1.0
  0
SPLINE
  5
15F
330
1F
100
AcDbEntity
  8
Make2D$Visibile$Curve
370
    -3
100
AcDbSpline
210
0.0
220
0.0
230
1.0
 70
     8
 71
     3
 72
    11
 73
     7
 74
     0
 42
0.0000000001
 43
0.0000000001
 40
0.0
 40
0.0
 40
0.0
 40
0.0
 40
0.1792414325871152
 40
0.1792414325871152
 40
0.1792414325871152
 40
0.3548362180855664
 40
0.3548362180855664
 40
0.3548362180855664
 40
0.3548362180855664
 10
826.3379300027516
 20
3113.867801908339
 30
0.0
 10
826.3632220156028
 20
3113.882402306776
 30
0.0
 10
826.3854834915076
 20
3113.895187564355
 30
0.0
 10
826.4043995937245
 20
3113.90596379821
 30
0.0
 10
826.4227850426348
 20
3113.916437726439
 30
0.0
 10
826.438080545653
 20
3113.925049623987
 30
0.0
 10
826.4501460774828
 20
3113.931717083017
 30
0.0
  0
SPLINE
  5
160
330
1F
100
AcDbEntity
  8
Make2D$Visibile$Curve
370
    -3
100
AcDbSpline
210
0.0
220
0.0
230
1.0
 70
    12
 71
     2
 72
     6
 73
     3
 74
     0
 42
0.0000000001
 43
0.0000000001
 40
0.0395087125692803
 40
0.0395087125692803
 40
0.0395087125692803
 40
0.0840421219918438
 40
0.0840421219918438
 40
0.0840421219918438
 10
711.6555662298954
 20
3180.210164287776
 30
0.0
 41
0.9717753178204429
 10
711.6574687519625
 20
3180.190434849144
 30
0.0
 41
0.9577877112787416
 10
711.6619536201172
 20
3180.171128178067
 30
0.0
 41
0.9481274244968279
  0
SPLINE
  5
161
330
1F
100
AcDbEntity
  8
Make2D$Visibile$Curve
370
    -3
100
AcDbSpline
210
0.0
220
0.0
230
1.0
 70
     8
 71
     3
 72
    11
 73
     7
 74
     0
 42
0.0000000001
 43
0.0000000001
 40
0.2651290571835839
 40
0.2651290571835839
 40
0.2651290571835839
 40
0.2651290571835839
 40
0.440681979711895
 40
0.440681979711895
 40
0.440681979711895
 40
0.6199234122993149
 40
0.6199234122993149
 40
0.6199234122993149
 40
0.6199234122993149
 10
824.1937631466654
 20
3112.628994004051
 30
0.0
 10
824.2055688592075
 20
3112.63610850525
 30
0.0
 10
824.2206718840259
 20
3112.645047135125
 30
0.0
 10
824.2389309422849
 20
3112.65572988938
 30
0.0
 10
824.2577214856686
 20
3112.666723597513
 30
0.0
 10
824.2799245814792
 20
3112.679609972382
 30
0.0
 10
824.305214903856
 20
3112.694213298806
 30
0.0
  0
SPLINE
  5
162
330
1F
100
AcDbEntity
  8
Make2D$Visibile$Curve
370
    -3
100
AcDbSpline
210
0.0
220
0.0
230
1.0
 70
    12
 71
     2
 72
     8
 73
     5
 74
     0
 42
0.0000000001
 43
0.0000000001
 40
-296.0
 40
-296.0
 40
-296.0
 40
-148.0
 40
-148.0
 40
0.0
 40
0.0
 40
0.0
 10
787.43325968763
 20
3104.90549032678
 30
0.0
 41
1.0
 10
713.4332596876299
 20
3104.90549032678
 30
0.0
 41
0.7071067811865476
 10
713.43325968763
 20
3178.90549032678
 30
0.0
 41
1.0
 10
713.4332596876299
 20
3252.90549032678
 30
0.0
 41
0.7071067811865476
 10
787.43325968763
 20
3252.90549032678
 30
0.0
 41
1.0
  0
SPLINE
  5
163
330
1F
100
AcDbEntity
  8
Make2D$Visibile$Curve
370
    -3
100
AcDbSpline
210
0.0
220
0.0
230
1.0
 70
    12
 71
     2
 72
     6
 73
     3
 74
     0
 42
0.0000000001
 43
0.0000000001
 40
-128.1805033305725
 40
-128.1805033305725
 40
-128.1805033305725
 40
0.0
 40
0.0
 40
0.0
 10
714.5426502636803
 20
3168.801027276412
 30
0.0
 41
1.0
 10
723.3430080223436
 20
3105.317847914953
 30
0.0
 41
0.7540928175942823
 10
787.43325968763
 20
3105.317847914953
 30
0.0
 41
1.0
  0
SPLINE
  5
164
330
1F
100
AcDbEntity
  8
Make2D$Visibile$Curve
370
    -3
100
AcDbSpline
210
0.0
220
0.0
230
1.0
 70
    12
 71
     2
 72
     6
 73
     3
 74
     0
 42
0.0000000001
 43
0.0000000001
 40
-17.314887581451
 40
-17.314887581451
 40
-17.314887581451
 40
0.0
 40
0.0
 40
0.0
 10
714.3430674267222
 20
3187.503645294215
 30
0.0
 41
1.0
 10
713.3316010923594
 20
3178.905490326781
 30
0.0
 41
0.9931516941115675
 10
714.3430674267222
 20
3170.307335359346
 30
0.0
 41
1.0
  0
SPLINE
  5
165
330
1F
100
AcDbEntity
  8
Make2D$Visibile$Curve
370
    -3
100
AcDbSpline
210
0.0
220
0.0
230
1.0
 70
    12
 71
     2
 72
     6
 73
     3
 74
     0
 42
0.0000000001
 43
0.0000000001
 40
-128.1805033305724
 40
-128.1805033305724
 40
-128.1805033305724
 40
0.0
 40
0.0
 40
0.0
 10
787.43325968763
 20
3252.493132738608
 30
0.0
 41
1.0
 10
723.3430080223438
 20
3252.493132738608
 30
0.0
 41
0.7540928175942827
 10
714.5426502636803
 20
3189.009953377149
 30
0.0
 41
1.0
  0
SPLINE
  5
166
330
1F
100
AcDbEntity
  8
Make2D$Visibile$Curve
370
    -3
100
AcDbSpline
210
0.0
220
0.0
230
1.0
 70
     8
 71
     3
 72
    14
 73
    10
 74
     0
 42
0.0000000001
 43
0.0000000001
 40
-1.275351703562076
 40
-1.275351703562076
 40
-1.275351703562076
 40
-1.275351703562076
 40
-0.8810643512475191
 40
-0.8810643512475191
 40
-0.8810643512475191
 40
-0.4401931022920601
 40
-0.4401931022920601
 40
-0.4401931022920601
 40
0.0
 40
0.0
 40
0.0
 40
0.0
 10
825.4507701040734
 20
3113.351922807891
 30
0.0
 10
825.5633309729421
 20
3113.417091228244
 30
0.0
 10
825.6754232509251
 20
3113.482184283001
 30
0.0
 10
825.779697364124
 20
3113.542863416283
 30
0.0
 10
825.8962894808152
 20
3113.610710635227
 30
0.0
 10
826.0062971161303
 20
3113.674887971688
 30
0.0
 10
826.1007171605222
 20
3113.729929624679
 30
0.0
 10
826.1949842446079
 20
3113.78488211029
 30
0.0
 10
826.2763012615001
 20
3113.832225294382
 30
0.0
 10
826.3379300027516
 20
3113.867801908339
 30
0.0
  0
SPLINE
  5
167
330
1F
100
AcDbEntity
  8
Make2D$Visibile$Curve
370
    -3
100
AcDbSpline
210
0.0
220
0.0
230
1.0
 70
     8
 71
     3
 72
    14
 73
    10
 74
     0
 42
0.0000000001
 43
0.0000000001
 40
-1.388786646220149
 40
-1.388786646220149
 40
-1.388786646220149
 40
-1.388786646220149
 40
-0.9485935439259151
 40
-0.9485935439259151
 40
-0.9485935439259151
 40
-0.5077222949704541
 40
-0.5077222949704541
 40
-0.5077222949704541
 40
-0.1134314737469262
 40
-0.1134314737469262
 40
-0.1134314737469262
 40
-0.1134314737469262
 10
824.305214903856
 20
3112.694213298806
 30
0.0
 10
824.3668395259497
 20
3112.729797047355
 30
0.0
 10
824.4484984345161
 20
3112.776548057698
 30
0.0
 10
824.5432222250994
 20
3112.830709504451
 30
0.0
 10
824.6380997170527
 20
3112.884958835026
 30
0.0
 10
824.748682738433
 20
3112.948139573588
 30
0.0
 10
824.8657362119602
 20
3113.015187699052
 30
0.0
 10
824.9704238604872
 20
3113.075152690961
 30
0.0
 10
825.0828432955793
 20
3113.13968153175
 30
0.0
 10
825.1955622345178
 20
3113.204578470916
 30
0.0
  0
SPLINE
  5
168
330
1F
100
AcDbEntity
  8
Make2D$Visibile$Curve
370
    -3
100
AcDbSpline
210
0.0
220
0.0
230
1.0
 70
     8
 71
     3
 72
    11
 73
     7
 74
     0
 42
0.0000000001
 43
0.0000000001
 40
-0.6199234122991153
 40
-0.6199234122991153
 40
-0.6199234122991153
 40
-0.6199234122991153
 40
-0.4406819797118983
 40
-0.4406819797118983
 40
-0.4406819797118983
 40
-0.265117007057887
 40
-0.265117007057887
 40
-0.265117007057887
 40
-0.265117007057887
 10
711.6566341562822
 20
3177.731901717247
 30
0.0
 10
711.6566324658078
 20
3177.702697992387
 30
0.0
 10
711.6565740857135
 20
3177.677026359938
 30
0.0
 10
711.6564485268804
 20
3177.65525641795
 30
0.0
 10
711.6563265110682
 20
3177.634100780477
 30
0.0
 10
711.6561369252806
 20
3177.616550905284
 30
0.0
 10
711.6558784155741
 20
3177.602769179014
 30
0.0
  0
SPLINE
  5
169
330
1F
100
AcDbEntity
  8
Make2D$Visibile$Curve
370
    -3
100
AcDbSpline
210
0.0
220
0.0
230
1.0
 70
     8
 71
     3
 72
    14
 73
    10
 74
     0
 42
0.0000000001
 43
0.0000000001
 40
-1.275363268714959
 40
-1.275363268714959
 40
-1.275363268714959
 40
-1.275363268714959
 40
-0.8810643512475969
 40
-0.8810643512475969
 40
-0.8810643512475969
 40
-0.4401931022920893
 40
-0.4401931022920893
 40
-0.4401931022920893
 40
0.0
 40
0.0
 40
0.0
 40
0.0
 10
711.6534496855301
 20
3178.758155722045
 30
0.0
 10
711.6536067533368
 20
3178.628087098913
 30
0.0
 10
711.6539328604024
 20
3178.49846174587
 30
0.0
 10
711.6543454868076
 20
3178.377814609549
 30
0.0
 10
711.6548068436432
 20
3178.242919265141
 30
0.0
 10
711.6553822297085
 20
3178.115561190117
 30
0.0
 10
711.6558396772697
 20
3178.006270206552
 30
0.0
 10
711.6562963837666
 20
3177.897156274187
 30
0.0
 10
711.6566382754404
 20
3177.803062079753
 30
0.0
 10
711.6566341562822
 20
3177.731901717247
 30
0.0
  0
SPLINE
  5
16A
330
1F
100
AcDbEntity
  8
Make2D$Visibile$Curve
370
    -3
100
AcDbSpline
210
0.0
220
0.0
230
1.0
 70
     8
 71
     3
 72
    12
 73
     8
 74
     0
 42
0.0000000001
 43
0.0000000001
 40
0.0
 40
0.0
 40
0.0
 40
0.0
 40
0.3071639247645213
 40
0.3071639247645213
 40
0.4583384169957643
 40
0.4583384169957643
 40
0.4943984145515815
 40
0.4943984145515815
 40
0.4943984145515815
 40
0.4943984145515815
 10
826.3338994868056
 20
3243.94556048869
 30
0.0
 10
826.3764607903977
 20
3243.920994497441
 30
0.0
 10
826.4104563789002
 20
3243.901591773117
 30
0.0
 10
826.4428794159779
 20
3243.883481925409
 30
0.0
 10
826.4513360527922
 20
3243.878887567639
 30
0.0
 10
826.4551291286041
 20
3243.876888091395
 30
0.0
 10
826.455580098448
 20
3243.876657665116
 30
0.0
 10
826.4555798316192
 20
3243.876657119235
 30
0.0
  0
SPLINE
  5
16B
330
1F
100
AcDbEntity
  8
Make2D$Visibile$Curve
370
    -3
100
AcDbSpline
210
0.0
220
0.0
230
1.0
 70
    12
 71
     2
 72
    12
 73
     9
 74
     0
 42
0.0000000001
 43
0.0000000001
 40
44.22184805302054
 40
44.22184805302054
 40
44.22184805302054
 40
62.7925977200133
 40
62.7925977200133
 40
125.5851954400266
 40
125.5851954400266
 40
188.3777931600399
 40
188.3777931600399
 40
206.9485428270331
 40
206.9485428270331
 40
206.9485428270331
 10
826.5078813190307
 20
3243.854819203413
 30
0.0
 41
0.8663625695272817
 10
834.4643428650826
 20
3239.068076525482
 30
0.0
 41
0.853553390593274
 10
841.0300943757069
 20
3232.502325014857
 30
0.0
 41
0.853553390593274
 10
863.2306302037771
 20
3210.301789186787
 30
0.0
 41
0.853553390593274
 10
863.230630203777
 20
3178.90549032678
 30
0.0
 41
1.0
 10
863.2306302037771
 20
3147.509191466773
 30
0.0
 41
0.853553390593274
 10
841.0300943757069
 20
3125.308655638704
 30
0.0
 41
0.853553390593274
 10
834.4643428650826
 20
3118.742904128079
 30
0.0
 41
0.853553390593274
 10
826.5078813190306
 20
3113.956161450148
 30
0.0
 41
0.8663625695272823
  0
SPLINE
  5
16C
330
1F
100
AcDbEntity
  8
Make2D$Visibile$Curve
370
    -3
100
AcDbSpline
210
0.0
220
0.0
230
1.0
 70
     8
 71
     3
 72
     8
 73
     4
 74
     0
 42
0.0000000001
 43
0.0000000001
 40
0.0001482992715077
 40
0.0001482992715077
 40
0.0001482992715077
 40
0.0001482992715077
 40
0.7461786902668897
 40
0.7461786902668897
 40
0.7461786902668897
 40
0.7461786902668897
 10
826.440654298789
 20
3113.926247576471
 30
0.0
 10
826.4321012292032
 20
3113.923642103014
 30
0.0
 10
826.4235473512997
 20
3113.921037899657
 30
0.0
 10
826.4149926648361
 20
3113.918434966749
 30
0.0
  0
SPLINE
  5
16D
330
1F
100
AcDbEntity
  8
Make2D$Visibile$Curve
370
    -3
100
AcDbSpline
210
0.0
220
0.0
230
1.0
 70
    12
 71
     2
 72
    10
 73
     7
 74
     0
 42
0.0000000001
 43
0.0000000001
 40
127.1785212518045
 40
127.1785212518045
 40
127.1785212518045
 40
188.3777931600399
 40
188.3777931600399
 40
251.1703908800532
 40
251.1703908800532
 40
292.614793082819
 40
292.614793082819
 40
292.614793082819
 10
711.6481801060157
 20
3180.270440864522
 30
0.0
 41
0.9926622954464368
 10
712.1992149145568
 20
3210.865114929861
 30
0.0
 41
0.853553390593274
 10
733.8364249995533
 20
3232.502325014857
 30
0.0
 41
0.853553390593274
 10
756.0369608276235
 20
3254.702860842928
 30
0.0
 41
0.853553390593274
 10
787.43325968763
 20
3254.702860842928
 30
0.0
 41
1.0
 10
807.0133305996923
 20
3254.702860842927
 30
0.0
 41
0.9033422345648673
 10
824.1437176378439
 20
3245.219769741154
 30
0.0
 41
0.870480576508128
  0
SPLINE
  5
16E
330
1F
100
AcDbEntity
  8
Make2D$Visibile$Curve
370
    -3
100
AcDbSpline
210
0.0
220
0.0
230
1.0
 70
     8
 71
     3
 72
    10
 73
     6
 74
     0
 42
0.0000000001
 43
0.0000000001
 40
0.0
 40
0.0
 40
0.0
 40
0.0
 40
0.6955963148251757
 40
0.6955963148251757
 40
1.394552033179394
 40
1.394552033179394
 40
1.394552033179394
 40
1.394552033179394
 10
826.3338994405115
 20
3113.865420138151
 30
0.0
 10
826.2374254332208
 20
3113.809736262458
 30
0.0
 10
826.0934292655486
 20
3113.725734594862
 30
0.0
 10
825.7498653963962
 20
3113.525541991775
 30
0.0
 10
825.5532580503314
 20
3113.411094544429
 30
0.0
 10
825.3530416613187
 20
3113.295378210354
 30
0.0
  0
SPLINE
  5
16F
330
1F
100
AcDbEntity
  8
Make2D$Visibile$Curve
370
    -3
100
AcDbSpline
210
0.0
220
0.0
230
1.0
 70
     8
 71
     3
 72
    12
 73
     8
 74
     0
 42
0.0000000001
 43
0.0000000001
 40
0.0
 40
0.0
 40
0.0
 40
0.0
 40
0.3071639247659042
 40
0.3071639247659042
 40
0.4583384169964169
 40
0.4583384169964169
 40
0.4943984145783241
 40
0.4943984145783241
 40
0.4943984145783241
 40
0.4943984145783241
 10
711.6565867639063
 20
3180.07439753538
 30
0.0
 10
711.656580884601
 20
3180.123539701133
 30
0.0
 10
711.6563863425173
 20
3180.162682106553
 30
0.0
 10
711.6558584121515
 20
3180.199816204182
 30
0.0
 10
711.6556089242875
 20
3180.209437045378
 30
0.0
 10
711.6554439836026
 20
3180.213721683514
 30
0.0
 10
711.6554180536921
 20
3180.214227447995
 30
0.0
 10
711.6554186598535
 20
3180.214227489855
 30
0.0
  0
SPLINE
  5
170
330
1F
100
AcDbEntity
  8
Make2D$Visibile$Curve
370
    -3
100
AcDbSpline
210
0.0
220
0.0
230
1.0
 70
     8
 71
     3
 72
    10
 73
     6
 74
     0
 42
0.0000000001
 43
0.0000000001
 40
0.0
 40
0.0
 40
0.0
 40
0.0
 40
0.6989557183517041
 40
0.6989557183517041
 40
1.394552033172909
 40
1.394552033172909
 40
1.394552033172909
 40
1.394552033172909
 10
825.2933925387554
 20
3113.260939773386
 30
0.0
 10
825.0930710593079
 20
3113.145405461284
 30
0.0
 10
824.8956529894796
 20
3113.032362228696
 30
0.0
 10
824.5504991749787
 20
3112.834923491731
 30
0.0
 10
824.4057535130443
 20
3112.752219986277
 30
0.0
 10
824.3092928584656
 20
3112.696512983003
 30
0.0
  0
SPLINE
  5
171
330
1F
100
AcDbEntity
  8
Make2D$Visibile$Curve
370
    -3
100
AcDbSpline
210
0.0
220
0.0
230
1.0
 70
     8
 71
     3
 72
    12
 73
     8
 74
     0
 42
0.0000000001
 43
0.0000000001
 40
0.0
 40
0.0
 40
0.0
 40
0.0
 40
0.307163924768213
 40
0.307163924768213
 40
0.4583384170009857
 40
0.4583384170009857
 40
0.4943984145812692
 40
0.4943984145812692
 40
0.4943984145812692
 40
0.4943984145812692
 10
824.3092928121775
 20
3112.696512956271
 30
0.0
 10
824.266737387887
 20
3112.671936781765
 30
0.0
 10
824.232936341471
 20
3112.652197100669
 30
0.0
 10
824.2010412347631
 20
3112.633172850747
 30
0.0
 10
824.1928340858144
 20
3112.628146367322
 30
0.0
 10
824.1892059506861
 20
3112.625861205431
 30
0.0
 10
824.1887809107525
 20
3112.62558586723
 30
0.0
 10
824.18878057142
 20
3112.625586371251
 30
0.0
  0
SPLINE
  5
172
330
1F
100
AcDbEntity
  8
Make2D$Visibile$Curve
370
    -3
100
AcDbSpline
210
0.0
220
0.0
230
1.0
 70
     8
 71
     3
 72
     8
 73
     4
 74
     0
 42
0.0000000001
 43
0.0000000001
 40
0.0
 40
0.0
 40
0.0
 40
0.0
 40
0.7461128420537965
 40
0.7461128420537965
 40
0.7461128420537965
 40
0.7461128420537965
 10
824.2228340580306
 20
3112.652791605043
 30
0.0
 10
824.2163017867723
 20
3112.646683820609
 30
0.0
 10
824.209768819517
 20
3112.64057737205
 30
0.0
 10
824.2032351565047
 20
3112.634472259012
 30
0.0
  0
SPLINE
  5
173
330
1F
100
AcDbEntity
  8
Make2D$Visibile$Curve
370
    -3
100
AcDbSpline
210
0.0
220
0.0
230
1.0
 70
     8
 71
     3
 72
    10
 73
     6
 74
     0
 42
0.0000000001
 43
0.0000000001
 40
0.0
 40
0.0
 40
0.0
 40
0.0
 40
0.6955963148262968
 40
0.6955963148262968
 40
1.394552033177016
 40
1.394552033177016
 40
1.394552033177016
 40
1.394552033177016
 10
711.6565867639126
 20
3177.736583171633
 30
0.0
 10
711.6566001166273
 20
3177.847974050595
 30
0.0
 10
711.6558506223652
 20
3178.014679223649
 30
0.0
 10
711.6542606770179
 20
3178.4123105637
 30
0.0
 10
711.6534499532509
 20
3178.639801243638
 30
0.0
 10
711.6533448628157
 20
3178.871051889812
 30
0.0
  0
SPLINE
  5
174
330
1F
100
AcDbEntity
  8
Make2D$Visibile$Curve
370
    -3
100
AcDbSpline
210
0.0
220
0.0
230
1.0
 70
    12
 71
     2
 72
     8
 73
     5
 74
     0
 42
0.0000000001
 43
0.0000000001
 40
0.0
 40
0.0
 40
0.0
 40
62.7925977200133
 40
62.7925977200133
 40
123.9918696282489
 40
123.9918696282489
 40
123.9918696282489
 10
787.43325968763
 20
3103.108119810633
 30
0.0
 41
1.0
 10
756.0369608276235
 20
3103.108119810633
 30
0.0
 41
0.853553390593274
 10
733.8364249995533
 20
3125.308655638704
 30
0.0
 41
0.853553390593274
 10
712.1992149145568
 20
3146.9458657237
 30
0.0
 41
0.853553390593274
 10
711.6481801060157
 20
3177.540539789038
 30
0.0
 41
0.9926622954464375
  0
SPLINE
  5
175
330
1F
100
AcDbEntity
  8
Make2D$Visibile$Curve
370
    -3
100
AcDbSpline
210
0.0
220
0.0
230
1.0
 70
    12
 71
     2
 72
     6
 73
     3
 74
     0
 42
0.0000000001
 43
0.0000000001
 40
84.14079323726111
 40
84.14079323726111
 40
84.14079323726111
 40
125.5851954400266
 40
125.5851954400266
 40
125.5851954400266
 10
824.1437176378436
 20
3112.591210912406
 30
0.0
 41
0.8704805765081285
 10
807.0133305996924
 20
3103.108119810634
 30
0.0
 41
0.903342234564868
 10
787.43325968763
 20
3103.108119810633
 30
0.0
 41
1.0
  0
SPLINE
  5
176
330
1F
100
AcDbEntity
  8
Make2D$Visibile$Curve
370
    -3
100
AcDbSpline
210
0.0
220
0.0
230
1.0
 70
     8
 71
     3
 72
     8
 73
     4
 74
     0
 42
0.0000000001
 43
0.0000000001
 40
0.0000658482119763
 40
0.0000658482119763
 40
0.0000658482119763
 40
0.0000658482119763
 40
0.7461786902668334
 40
0.7461786902668334
 40
0.7461786902668334
 40
0.7461786902668334
 10
711.6558867718401
 20
3177.613714145455
 30
0.0
 10
711.6579071233302
 20
3177.622425020181
 30
0.0
 10
711.6599289792794
 20
3177.631135960047
 30
0.0
 10
711.6619523401132
 20
3177.639846965046
 30
0.0
  0
SPLINE
  5
177
330
1F
100
AcDbEntity
  8
Make2D$Visibile$Curve
370
    -3
100
AcDbSpline
210
0.0
220
0.0
230
1.0
 70
    12
 71
     2
 72
     8
 73
     5
 74
     0
 42
0.0000000001
 43
0.0000000001
 40
0.0
 40
0.0
 40
0.0
 40
9.999999999999996
 40
9.999999999999996
 40
19.99999999999999
 40
19.99999999999999
 40
19.99999999999999
 10
787.43325968929
 20
3183.905490326779
 30
0.0
 41
1.0
 10
782.43325968929
 20
3183.905490326779
 30
0.0
 41
0.7071067811865477
 10
782.43325968929
 20
3178.905490326779
 30
0.0
 41
1.0
 10
782.43325968929
 20
3173.905490326778
 30
0.0
 41
0.7071067811865477
 10
787.43325968929
 20
3173.905490326779
 30
0.0
 41
1.0
  0
SPLINE
  5
178
330
1F
100
AcDbEntity
  8
Make2D$Visibile$Curve
370
    -3
100
AcDbSpline
210
0.0
220
0.0
230
1.0
 70
    12
 71
     2
 72
     8
 73
     5
 74
     0
 42
0.0000000001
 43
0.0000000001
 40
0.0
 40
0.0
 40
0.0
 40
9.999999999999996
 40
9.999999999999996
 40
19.99999999999999
 40
19.99999999999999
 40
19.99999999999999
 10
787.43325968929
 20
3173.905490326779
 30
0.0
 41
1.0
 10
792.43325968929
 20
3173.905490326778
 30
0.0
 41
0.7071067811865477
 10
792.43325968929
 20
3178.905490326779
 30
0.0
 41
1.0
 10
792.43325968929
 20
3183.905490326779
 30
0.0
 41
0.7071067811865477
 10
787.43325968929
 20
3183.905490326779
 30
0.0
 41
1.0
  0
SPLINE
  5
179
330
1F
100
AcDbEntity
  8
Make2D$Visibile$Curve
370
    -3
100
AcDbSpline
210
0.0
220
0.0
230
1.0
 70
    12
 71
     2
 72
     8
 73
     5
 74
     0
 42
0.0000000001
 43
0.0000000001
 40
0.0
 40
0.0
 40
0.0
 40
11.0
 40
11.0
 40
22.0
 40
22.0
 40
22.0
 10
787.43325968929
 20
3173.405490326778
 30
0.0
 41
1.0
 10
792.9332596892899
 20
3173.405490326779
 30
0.0
 41
0.7071067811865476
 10
792.93325968929
 20
3178.905490326778
 30
0.0
 41
1.0
 10
792.9332596892899
 20
3184.405490326778
 30
0.0
 41
0.7071067811865476
 10
787.43325968929
 20
3184.405490326778
 30
0.0
 41
1.0
  0
ENDSEC
  0
SECTION
  2
OBJECTS
  0
DICTIONARY
  5
C
330
0
100
AcDbDictionary
281
     1
  3
ACAD_DETAILVIEWSTYLE
350
1B5
  3
ACAD_GROUP
350
D
  3
ACAD_LAYOUT
350
1A
  3
ACAD_MATERIAL
350
43
  3
ACAD_MLEADERSTYLE
350
5B
  3
ACAD_MLINESTYLE
350
17
  3
ACAD_PLOTSETTINGS
350
19
  3
ACAD_PLOTSTYLENAME
350
E
  3
ACAD_SCALELIST
350
47
  3
ACAD_SECTIONVIEWSTYLE
350
1B6
  3
ACAD_TABLESTYLE
350
59
  3
ACAD_VISUALSTYLE
350
2A
  3
AcDbVariableDictionary
350
17A
  3
ACDB_RECOMPOSE_DATA
350
1B2
  0
SUN
  5
5D
330
29
100
AcDbSun
 90
        1
290
     0
 63
     7
421
 16777215
 40
1.0
291
     1
 91
  2455826
 92
 54000000
292
     0
 70
     2
 71
   256
280
     1
  0
DICTIONARY
  5
1B5
102
{ACAD_REACTORS
330
C
102
}
330
C
100
AcDbDictionary
281
     1
  0
DICTIONARY
  5
D
102
{ACAD_REACTORS
330
C
102
}
330
C
100
AcDbDictionary
281
     1
  0
DICTIONARY
  5
1A
102
{ACAD_REACTORS
330
C
102
}
330
C
100
AcDbDictionary
281
     1
  3
Layout1
350
1E
  3
Layout2
350
26
  3
Model
350
22
  0
DICTIONARY
  5
43
102
{ACAD_REACTORS
330
C
102
}
330
C
100
AcDbDictionary
281
     1
  3
ByBlock
350
45
  3
ByLayer
350
44
  3
Global
350
46
  0
DICTIONARY
  5
5B
102
{ACAD_REACTORS
330
C
102
}
330
C
100
AcDbDictionary
281
     1
  3
Standard
350
5C
  0
DICTIONARY
  5
17
102
{ACAD_REACTORS
330
C
102
}
330
C
100
AcDbDictionary
281
     1
  3
Standard
350
18
  0
DICTIONARY
  5
19
102
{ACAD_REACTORS
330
C
102
}
330
C
100
AcDbDictionary
281
     1
  0
ACDBDICTIONARYWDFLT
  5
E
102
{ACAD_REACTORS
330
C
102
}
330
C
100
AcDbDictionary
281
     1
  3
Normal
350
F
100
AcDbDictionaryWithDefault
340
F
  0
DICTIONARY
  5
47
102
{ACAD_REACTORS
330
C
102
}
330
C
100
AcDbDictionary
281
     1
  3
A0
350
48
  3
A1
350
49
  3
A2
350
4A
  3
A3
350
4B
  3
A4
350
4C
  3
A5
350
4D
  3
A6
350
4E
  3
A7
350
4F
  3
A8
350
50
  3
A9
350
51
  3
B1
350
52
  3
B2
350
53
  3
B3
350
54
  3
B4
350
55
  3
B5
350
56
  3
B6
350
57
  3
B7
350
58
  0
DICTIONARY
  5
1B6
102
{ACAD_REACTORS
330
C
102
}
330
C
100
AcDbDictionary
281
     1
  0
DICTIONARY
  5
59
102
{ACAD_REACTORS
330
C
102
}
330
C
100
AcDbDictionary
281
     1
  3
Standard
350
5A
  0
DICTIONARY
  5
2A
102
{ACAD_REACTORS
330
C
102
}
330
C
100
AcDbDictionary
281
     1
  3
2dWireframe
350
2F
  3
Basic
350
32
  3
Brighten
350
36
  3
ColorChange
350
3A
  3
Conceptual
350
34
  3
Dim
350
35
  3
EdgeColorOff
350
3D
  3
Facepattern
350
39
  3
Flat
350
2B
  3
FlatWithEdges
350
2C
  3
Gouraud
350
2D
  3
GouraudWithEdges
350
2E
  3
Hidden
350
31
  3
JitterOff
350
3B
  3
Linepattern
350
38
  3
OverhangOff
350
3C
  3
Realistic
350
33
  3
Shaded
350
42
  3
Shaded with edges
350
41
  3
Shades of Gray
350
3E
  3
Sketchy
350
3F
  3
Thicken
350
37
  3
Wireframe
350
30
  3
X-Ray
350
40
  0
DICTIONARY
  5
17A
102
{ACAD_REACTORS
330
C
102
}
330
C
100
AcDbDictionary
281
     1
  3
CANNOSCALE
350
17B
  3
CMLEADERSTYLE
350
1B4
  3
CTABLESTYLE
350
1B3
  3
XCLIPFRAME
350
17C
  0
XRECORD
  5
1B2
102
{ACAD_REACTORS
330
C
102
}
330
C
100
AcDbXrecord
280
     1
 90
        1
330
5A
  0
LAYOUT
  5
1E
102
{ACAD_REACTORS
330
1A
102
}
330
1A
100
AcDbPlotSettings
  1

  2
none_device
  4

  6

 40
0.0
 41
0.0
 42
0.0
 43
0.0
 44
0.0
 45
0.0
 46
0.0
 47
0.0
 48
0.0
 49
0.0
140
0.0
141
0.0
142
1.0
143
1.0
 70
   688
 72
     0
 73
     0
 74
     5
  7

 75
    16
 76
     0
 77
     2
 78
   300
147
1.0
148
0.0
149
0.0
100
AcDbLayout
  1
Layout1
 70
     1
 71
     1
 10
0.0
 20
0.0
 11
12.0
 21
9.0
 12
0.0
 22
0.0
 32
0.0
 14
1.000000000000000E+20
 24
1.000000000000000E+20
 34
1.000000000000000E+20
 15
-1.000000000000000E+20
 25
-1.000000000000000E+20
 35
-1.000000000000000E+20
146
0.0
 13
0.0
 23
0.0
 33
0.0
 16
1.0
 26
0.0
 36
0.0
 17
0.0
 27
1.0
 37
0.0
 76
     0
330
1B
  0
LAYOUT
  5
26
102
{ACAD_REACTORS
330
1A
102
}
330
1A
100
AcDbPlotSettings
  1

  2
none_device
  4

  6

 40
0.0
 41
0.0
 42
0.0
 43
0.0
 44
0.0
 45
0.0
 46
0.0
 47
0.0
 48
0.0
 49
0.0
140
0.0
141
0.0
142
1.0
143
1.0
 70
   688
 72
     0
 73
     0
 74
     5
  7

 75
    16
 76
     0
 77
     2
 78
   300
147
1.0
148
0.0
149
0.0
100
AcDbLayout
  1
Layout2
 70
     1
 71
     2
 10
0.0
 20
0.0
 11
0.0
 21
0.0
 12
0.0
 22
0.0
 32
0.0
 14
0.0
 24
0.0
 34
0.0
 15
0.0
 25
0.0
 35
0.0
146
0.0
 13
0.0
 23
0.0
 33
0.0
 16
1.0
 26
0.0
 36
0.0
 17
0.0
 27
1.0
 37
0.0
 76
     0
330
23
  0
LAYOUT
  5
22
102
{ACAD_REACTORS
330
1A
102
}
330
1A
100
AcDbPlotSettings
  1

  2
none_device
  4
Letter_(8.50_x_11.00_Inches)
  6

 40
6.35
 41
6.35
 42
6.35000508
 43
6.35000508
 44
215.9
 45
279.4
 46
0.0
 47
0.0
 48
0.0
 49
0.0
140
0.0
141
0.0
142
1.0
143
1.0
 70
  1712
 72
     0
 73
     0
 74
     0
  7

 75
     0
 76
     0
 77
     2
 78
   300
147
1.0
148
0.0
149
0.0
100
AcDbLayout
  1
Model
 70
     1
 71
     0
 10
0.0
 20
0.0
 11
12.0
 21
9.0
 12
0.0
 22
0.0
 32
0.0
 14
437.43325968928
 24
1617.177505517946
 34
0.0
 15
1569.45861496998
 25
3254.702825832555
 35
0.0
146
0.0
 13
0.0
 23
0.0
 33
0.0
 16
1.0
 26
0.0
 36
0.0
 17
0.0
 27
1.0
 37
0.0
 76
     0
330
1F
331
29
  0
MATERIAL
  5
45
102
{ACAD_REACTORS
330
43
102
}
330
43
100
AcDbMaterial
  1
ByBlock
 72
     1
 94
      127
  0
MATERIAL
  5
44
102
{ACAD_REACTORS
330
43
102
}
330
43
100
AcDbMaterial
  1
ByLayer
 72
     1
 94
      127
  0
MATERIAL
  5
46
102
{ACAD_REACTORS
330
43
102
}
330
43
100
AcDbMaterial
  1
Global
 72
     1
 94
      127
  0
MLEADERSTYLE
  5
5C
102
{ACAD_REACTORS
330
5B
102
}
102
{ACAD_XDICTIONARY
360
1B0
102
}
330
5B
100
AcDbMLeaderStyle
170
     2
171
     1
172
     0
 90
        2
 40
0.0
 41
0.0
173
     1
 91
-1056964608
340
14
 92
       -2
290
     1
 42
0.09
291
     1
 43
0.36
  3
Standard
341
0
 44
0.18
300

342
11
174
     1
178
     6
175
     1
176
     0
 93
-1056964608
 45
0.18
292
     0
297
     0
 46
0.18
343
0
 94
-1056964608
 47
1.0
 49
1.0
140
1.0
293
     1
141
0.0
294
     1
177
     0
142
1.0
295
     0
296
     0
143
0.125
1001
ACAD_MLEADERVER
1070
     2
  0
MLINESTYLE
  5
18
102
{ACAD_REACTORS
330
17
102
}
330
17
100
AcDbMlineStyle
  2
Standard
 70
     0
  3

 62
   256
 51
90.0
 52
90.0
 71
     2
 49
0.5
 62
   256
  6
BYLAYER
 49
-0.5
 62
   256
  6
BYLAYER
  0
ACDBPLACEHOLDER
  5
F
102
{ACAD_REACTORS
330
E
102
}
330
E
  0
SCALE
  5
48
102
{ACAD_REACTORS
330
47
102
}
330
47
100
AcDbScale
 70
     0
300
1:1
140
1.0
141
1.0
290
     1
  0
SCALE
  5
49
102
{ACAD_REACTORS
330
47
102
}
330
47
100
AcDbScale
 70
     0
300
1/128" = 1'-0"
140
0.0078125
141
12.0
290
     0
  0
SCALE
  5
4A
102
{ACAD_REACTORS
330
47
102
}
330
47
100
AcDbScale
 70
     0
300
1/64" = 1'-0"
140
0.015625
141
12.0
290
     0
  0
SCALE
  5
4B
102
{ACAD_REACTORS
330
47
102
}
330
47
100
AcDbScale
 70
     0
300
1/32" = 1'-0"
140
0.03125
141
12.0
290
     0
  0
SCALE
  5
4C
102
{ACAD_REACTORS
330
47
102
}
330
47
100
AcDbScale
 70
     0
300
1/16" = 1'-0"
140
0.0625
141
12.0
290
     0
  0
SCALE
  5
4D
102
{ACAD_REACTORS
330
47
102
}
330
47
100
AcDbScale
 70
     0
300
3/32" = 1'-0"
140
0.09375
141
12.0
290
     0
  0
SCALE
  5
4E
102
{ACAD_REACTORS
330
47
102
}
330
47
100
AcDbScale
 70
     0
300
1/8" = 1'-0"
140
0.125
141
12.0
290
     0
  0
SCALE
  5
4F
102
{ACAD_REACTORS
330
47
102
}
330
47
100
AcDbScale
 70
     0
300
3/16" = 1'-0"
140
0.1875
141
12.0
290
     0
  0
SCALE
  5
50
102
{ACAD_REACTORS
330
47
102
}
330
47
100
AcDbScale
 70
     0
300
1/4" = 1'-0"
140
0.25
141
12.0
290
     0
  0
SCALE
  5
51
102
{ACAD_REACTORS
330
47
102
}
330
47
100
AcDbScale
 70
     0
300
3/8" = 1'-0"
140
0.375
141
12.0
290
     0
  0
SCALE
  5
52
102
{ACAD_REACTORS
330
47
102
}
330
47
100
AcDbScale
 70
     0
300
1/2" = 1'-0"
140
0.5
141
12.0
290
     0
  0
SCALE
  5
53
102
{ACAD_REACTORS
330
47
102
}
330
47
100
AcDbScale
 70
     0
300
3/4" = 1'-0"
140
0.75
141
12.0
290
     0
  0
SCALE
  5
54
102
{ACAD_REACTORS
330
47
102
}
330
47
100
AcDbScale
 70
     0
300
1" = 1'-0"
140
1.0
141
12.0
290
     0
  0
SCALE
  5
55
102
{ACAD_REACTORS
330
47
102
}
330
47
100
AcDbScale
 70
     0
300
1-1/2" = 1'-0"
140
1.5
141
12.0
290
     0
  0
SCALE
  5
56
102
{ACAD_REACTORS
330
47
102
}
330
47
100
AcDbScale
 70
     0
300
3" = 1'-0"
140
3.0
141
12.0
290
     0
  0
SCALE
  5
57
102
{ACAD_REACTORS
330
47
102
}
330
47
100
AcDbScale
 70
     0
300
6" = 1'-0"
140
6.0
141
12.0
290
     0
  0
SCALE
  5
58
102
{ACAD_REACTORS
330
47
102
}
330
47
100
AcDbScale
 70
     0
300
1'-0" = 1'-0"
140
12.0
141
12.0
290
     0
  0
TABLESTYLE
  5
5A
102
{ACAD_REACTORS
330
59
102
}
102
{ACAD_XDICTIONARY
360
1AD
102
}
330
59
100
AcDbTableStyle
  3
Standard
 70
     0
 71
     0
 40
0.06
 41
0.06
280
     0
281
     0
  7
Standard
140
0.18
170
     2
 62
     0
 63
   257
283
     0
 90
        4
 91
        0
  1

274
    -2
284
     1
 64
     0
275
    -2
285
     1
 65
     0
276
    -2
286
     1
 66
     0
277
    -2
287
     1
 67
     0
278
    -2
288
     1
 68
     0
279
    -2
289
     1
 69
     0
  7
Standard
140
0.25
170
     5
 62
     0
 63
   257
283
     0
 90
        4
 91
        0
  1

274
    -2
284
     1
 64
     0
275
    -2
285
     1
 65
     0
276
    -2
286
     1
 66
     0
277
    -2
287
     1
 67
     0
278
    -2
288
     1
 68
     0
279
    -2
289
     1
 69
     0
  7
Standard
140
0.18
170
     5
 62
     0
 63
   257
283
     0
 90
        4
 91
        0
  1

274
    -2
284
     1
 64
     0
275
    -2
285
     1
 65
     0
276
    -2
286
     1
 66
     0
277
    -2
287
     1
 67
     0
278
    -2
288
     1
 68
     0
279
    -2
289
     1
 69
     0
  0
VISUALSTYLE
  5
2F
102
{ACAD_REACTORS
330
2A
102
}
102
{ACAD_XDICTIONARY
360
185
102
}
330
2A
100
AcDbVisualStyle
  2
2dWireframe
 70
     4
 71
     0
 72
     2
 73
     0
 90
        0
 40
0.6
 41
30.0
 62
     5
 63
     7
421
 16777215
 74
     1
 91
        4
 64
     7
 65
   257
 75
     1
175
     1
 42
1.0
 92
        0
 66
   257
 43
1.0
 76
     1
 77
     6
 78
     2
 67
     7
 79
     5
170
     0
171
     0
290
     0
174
     0
 93
        1
 44
0.0
173
     0
291
     0
 45
0.0
  0
VISUALSTYLE
  5
32
102
{ACAD_REACTORS
330
2A
102
}
102
{ACAD_XDICTIONARY
360
18B
102
}
330
2A
100
AcDbVisualStyle
  2
Basic
 70
     7
 71
     1
 72
     0
 73
     1
 90
        0
 40
0.6
 41
30.0
 62
     5
 63
     7
421
 16777215
 74
     0
 91
        4
 64
     7
 65
   257
 75
     1
175
     1
 42
1.0
 92
        8
 66
     7
 43
1.0
 76
     1
 77
     6
 78
     2
 67
     7
 79
     5
170
     0
171
     0
290
     0
174
     0
 93
        1
 44
0.0
173
     0
291
     1
 45
0.0
  0
VISUALSTYLE
  5
36
102
{ACAD_REACTORS
330
2A
102
}
102
{ACAD_XDICTIONARY
360
193
102
}
330
2A
100
AcDbVisualStyle
  2
Brighten
 70
    12
 71
     2
 72
     2
 73
     0
 90
        0
 40
0.6
 41
30.0
 62
     5
 63
     7
421
 16777215
 74
     1
 91
        4
 64
     7
 65
   257
 75
     1
175
     1
 42
1.0
 92
        8
 66
     7
 43
1.0
 76
     1
 77
     6
 78
     2
 67
     7
 79
     5
170
     0
171
     0
290
     0
174
     0
 93
        1
 44
50.0
173
     0
291
     1
 45
0.0
  0
VISUALSTYLE
  5
3A
102
{ACAD_REACTORS
330
2A
102
}
102
{ACAD_XDICTIONARY
360
19B
102
}
330
2A
100
AcDbVisualStyle
  2
ColorChange
 70
    16
 71
     2
 72
     2
 73
     3
 90
        0
 40
0.6
 41
30.0
 62
     5
 63
     8
421
  8421504
 74
     1
 91
        4
 64
     7
 65
   257
 75
     1
175
     1
 42
1.0
 92
        8
 66
     8
424
  8421504
 43
1.0
 76
     1
 77
     6
 78
     2
 67
     7
 79
     5
170
     0
171
     0
290
     0
174
     0
 93
        1
 44
0.0
173
     0
291
     1
 45
0.0
  0
VISUALSTYLE
  5
34
102
{ACAD_REACTORS
330
2A
102
}
102
{ACAD_XDICTIONARY
360
18F
102
}
330
2A
100
AcDbVisualStyle
  2
Conceptual
 70
     9
 71
     3
 72
     2
 73
     0
 90
        0
 40
0.6
 41
30.0
 62
     5
 63
     7
421
 16777215
 74
     2
 91
        2
 64
     7
 65
   257
 75
     1
175
     1
 42
179.0
 92
        8
 66
     7
 43
1.0
 76
     1
 77
     6
 78
     2
 67
     7
 79
     3
170
     0
171
     0
290
     0
174
     0
 93
        1
 44
0.0
173
     0
291
     0
 45
0.0
  0
VISUALSTYLE
  5
35
102
{ACAD_REACTORS
330
2A
102
}
102
{ACAD_XDICTIONARY
360
191
102
}
330
2A
100
AcDbVisualStyle
  2
Dim
 70
    11
 71
     2
 72
     2
 73
     0
 90
        0
 40
0.6
 41
30.0
 62
     5
 63
     7
421
 16777215
 74
     1
 91
        4
 64
     7
 65
   257
 75
     1
175
     1
 42
1.0
 92
        8
 66
     7
 43
1.0
 76
     1
 77
     6
 78
     2
 67
     7
 79
     5
170
     0
171
     0
290
     0
174
     0
 93
        1
 44
-50.0
173
     0
291
     1
 45
0.0
  0
VISUALSTYLE
  5
3D
102
{ACAD_REACTORS
330
2A
102
}
102
{ACAD_XDICTIONARY
360
1A1
102
}
330
2A
100
AcDbVisualStyle
  2
EdgeColorOff
 70
    22
 71
     2
 72
     2
 73
     0
 90
        0
 40
0.6
 41
30.0
 62
     5
 63
     7
421
 16777215
 74
     1
 91
        4
 64
     7
 65
   257
 75
     1
175
     1
 42
1.0
 92
        8
 66
     7
 43
1.0
 76
     1
 77
     6
 78
     2
 67
     7
 79
     5
170
     0
171
     0
290
     0
174
     0
 93
        1
 44
0.0
173
     0
291
     1
 45
0.0
  0
VISUALSTYLE
  5
39
102
{ACAD_REACTORS
330
2A
102
}
102
{ACAD_XDICTIONARY
360
199
102
}
330
2A
100
AcDbVisualStyle
  2
Facepattern
 70
    15
 71
     2
 72
     2
 73
     0
 90
        0
 40
0.6
 41
30.0
 62
     5
 63
     7
421
 16777215
 74
     1
 91
        4
 64
     7
 65
   257
 75
     1
175
     1
 42
1.0
 92
        8
 66
     7
 43
1.0
 76
     1
 77
     6
 78
     2
 67
     7
 79
     5
170
     0
171
     0
290
     0
174
     0
 93
        1
 44
0.0
173
     0
291
     1
 45
0.0
  0
VISUALSTYLE
  5
2B
102
{ACAD_REACTORS
330
2A
102
}
102
{ACAD_XDICTIONARY
360
17D
102
}
330
2A
100
AcDbVisualStyle
  2
Flat
 70
     0
 71
     2
 72
     1
 73
     1
 90
        2
 40
0.6
 41
30.0
 62
     5
 63
     7
421
 16777215
 74
     0
 91
        0
 64
     7
 65
   257
 75
     1
175
     1
 42
1.0
 92
        8
 66
     7
 43
1.0
 76
     1
 77
     6
 78
     2
 67
     7
 79
     5
170
     0
171
     0
290
     0
174
     0
 93
       13
 44
0.0
173
     0
291
     1
 45
0.0
  0
VISUALSTYLE
  5
2C
102
{ACAD_REACTORS
330
2A
102
}
102
{ACAD_XDICTIONARY
360
17F
102
}
330
2A
100
AcDbVisualStyle
  2
FlatWithEdges
 70
     1
 71
     2
 72
     1
 73
     1
 90
        2
 40
0.6
 41
30.0
 62
     5
 63
     7
421
 16777215
 74
     1
 91
        0
 64
     7
 65
   257
 75
     1
175
     1
 42
1.0
 92
        0
 66
   257
 43
1.0
 76
     1
 77
     6
 78
     2
 67
     7
 79
     5
170
     0
171
     0
290
     0
174
     0
 93
       13
 44
0.0
173
     0
291
     1
 45
0.0
  0
VISUALSTYLE
  5
2D
102
{ACAD_REACTORS
330
2A
102
}
102
{ACAD_XDICTIONARY
360
181
102
}
330
2A
100
AcDbVisualStyle
  2
Gouraud
 70
     2
 71
     2
 72
     2
 73
     1
 90
        2
 40
0.6
 41
30.0
 62
     5
 63
     7
421
 16777215
 74
     0
 91
        0
 64
     7
 65
   257
 75
     1
175
     1
 42
1.0
 92
        0
 66
     7
 43
1.0
 76
     1
 77
     6
 78
     2
 67
     7
 79
     5
170
     0
171
     0
290
     0
174
     0
 93
       13
 44
0.0
173
     0
291
     1
 45
0.0
  0
VISUALSTYLE
  5
2E
102
{ACAD_REACTORS
330
2A
102
}
102
{ACAD_XDICTIONARY
360
183
102
}
330
2A
100
AcDbVisualStyle
  2
GouraudWithEdges
 70
     3
 71
     2
 72
     2
 73
     1
 90
        2
 40
0.6
 41
30.0
 62
     5
 63
     7
421
 16777215
 74
     1
 91
        0
 64
     7
 65
   257
 75
     1
175
     1
 42
1.0
 92
        0
 66
   257
 43
1.0
 76
     1
 77
     6
 78
     2
 67
     7
 79
     5
170
     0
171
     0
290
     0
174
     0
 93
       13
 44
0.0
173
     0
291
     1
 45
0.0
  0
VISUALSTYLE
  5
31
102
{ACAD_REACTORS
330
2A
102
}
102
{ACAD_XDICTIONARY
360
189
102
}
330
2A
100
AcDbVisualStyle
  2
Hidden
 70
     6
 71
     1
 72
     2
 73
     2
 90
        0
 40
0.6
 41
30.0
 62
     5
 63
     7
421
 16777215
 74
     2
 91
        2
 64
     7
 65
   257
 75
     2
175
     1
 42
40.0
 92
        0
 66
   257
 43
1.0
 76
     1
 77
     6
 78
     2
 67
     7
 79
     3
170
     0
171
     0
290
     0
174
     0
 93
        1
 44
0.0
173
     0
291
     0
 45
0.0
  0
VISUALSTYLE
  5
3B
102
{ACAD_REACTORS
330
2A
102
}
102
{ACAD_XDICTIONARY
360
19D
102
}
330
2A
100
AcDbVisualStyle
  2
JitterOff
 70
    20
 71
     2
 72
     2
 73
     0
 90
        0
 40
0.6
 41
30.0
 62
     5
 63
     7
421
 16777215
 74
     1
 91
        4
 64
     7
 65
   257
 75
     1
175
     1
 42
1.0
 92
       10
 66
     7
 43
1.0
 76
     1
 77
     6
 78
     2
 67
     7
 79
     5
170
     0
171
     0
290
     0
174
     0
 93
        1
 44
0.0
173
     0
291
     1
 45
0.0
  0
VISUALSTYLE
  5
38
102
{ACAD_REACTORS
330
2A
102
}
102
{ACAD_XDICTIONARY
360
197
102
}
330
2A
100
AcDbVisualStyle
  2
Linepattern
 70
    14
 71
     2
 72
     2
 73
     0
 90
        0
 40
0.6
 41
30.0
 62
     5
 63
     7
421
 16777215
 74
     1
 91
        4
 64
     7
 65
   257
 75
     7
175
     7
 42
1.0
 92
        8
 66
     7
 43
1.0
 76
     1
 77
     6
 78
     2
 67
     7
 79
     5
170
     0
171
     0
290
     0
174
     0
 93
        1
 44
0.0
173
     0
291
     1
 45
0.0
  0
VISUALSTYLE
  5
3C
102
{ACAD_REACTORS
330
2A
102
}
102
{ACAD_XDICTIONARY
360
19F
102
}
330
2A
100
AcDbVisualStyle
  2
OverhangOff
 70
    21
 71
     2
 72
     2
 73
     0
 90
        0
 40
0.6
 41
30.0
 62
     5
 63
     7
421
 16777215
 74
     1
 91
        4
 64
     7
 65
   257
 75
     1
175
     1
 42
1.0
 92
        9
 66
     7
 43
1.0
 76
     1
 77
     6
 78
     2
 67
     7
 79
     5
170
     0
171
     0
290
     0
174
     0
 93
        1
 44
0.0
173
     0
291
     1
 45
0.0
  0
VISUALSTYLE
  5
33
102
{ACAD_REACTORS
330
2A
102
}
102
{ACAD_XDICTIONARY
360
18D
102
}
330
2A
100
AcDbVisualStyle
  2
Realistic
 70
     8
 71
     2
 72
     3
 73
     0
 90
        2
 40
0.6
 41
30.0
 62
     5
 63
     7
421
 16777215
 74
     0
 91
        0
 64
     7
 65
   257
 75
     1
175
     1
 42
1.0
 92
        8
 66
   257
 43
1.0
 76
     1
 77
     6
 78
     2
 67
     7
 79
     3
170
     0
171
     0
290
     0
174
     0
 93
       13
 44
0.0
173
     0
291
     0
 45
0.0
  0
VISUALSTYLE
  5
42
102
{ACAD_REACTORS
330
2A
102
}
102
{ACAD_XDICTIONARY
360
1AB
102
}
330
2A
100
AcDbVisualStyle
  2
Shaded
 70
    27
 71
     2
 72
     2
 73
     1
 90
        2
 40
0.6
 41
30.0
 62
     5
 63
     7
421
 16777215
 74
     0
 91
        4
 64
     7
 65
   257
 75
     1
175
     1
 42
1.0
 92
        8
 66
   257
 43
1.0
 76
     1
 77
     6
 78
     2
 67
     8
425
  7895160
 79
     3
170
     0
171
     0
290
     0
174
     0
 93
        5
 44
0.0
173
     0
291
     0
 45
0.0
  0
VISUALSTYLE
  5
41
102
{ACAD_REACTORS
330
2A
102
}
102
{ACAD_XDICTIONARY
360
1A9
102
}
330
2A
100
AcDbVisualStyle
  2
Shaded with edges
 70
    26
 71
     2
 72
     2
 73
     1
 90
        2
 40
0.6
 41
30.0
 62
     5
 63
     7
421
 16777215
 74
     1
 91
       10
 64
     7
 65
   257
 75
     2
175
     1
 42
1.0
 92
        8
 66
   257
 43
1.0
 76
     1
 77
     6
 78
     2
 67
     7
 79
     3
170
     0
171
     0
290
     0
174
     0
 93
        5
 44
0.0
173
     0
291
     0
 45
0.0
  0
VISUALSTYLE
  5
3E
102
{ACAD_REACTORS
330
2A
102
}
102
{ACAD_XDICTIONARY
360
1A3
102
}
330
2A
100
AcDbVisualStyle
  2
Shades of Gray
 70
    23
 71
     2
 72
     2
 73
     3
 90
        0
 40
0.6
 41
30.0
 62
     5
 63
     7
421
 16777215
 74
     2
 91
        2
 64
     7
 65
     7
 75
     1
175
     1
 42
40.0
 92
        8
 66
     7
 43
1.0
 76
     1
 77
     6
 78
     2
 67
     7
 79
     3
170
     0
171
     0
290
     0
174
     0
 93
        1
 44
0.0
173
     0
291
     0
 45
0.0
  0
VISUALSTYLE
  5
3F
102
{ACAD_REACTORS
330
2A
102
}
102
{ACAD_XDICTIONARY
360
1A5
102
}
330
2A
100
AcDbVisualStyle
  2
Sketchy
 70
    24
 71
     1
 72
     2
 73
     2
 90
        0
 40
0.6
 41
30.0
 62
     5
 63
     7
421
 16777215
 74
     2
 91
        2
 64
     7
 65
     7
 75
     1
175
     1
 42
40.0
 92
       11
 66
     7
 43
1.0
 76
     1
 77
     6
 78
     2
 67
     7
 79
     6
170
     0
171
     0
290
     0
174
     0
 93
        1
 44
0.0
173
     0
291
     0
 45
0.0
  0
VISUALSTYLE
  5
37
102
{ACAD_REACTORS
330
2A
102
}
102
{ACAD_XDICTIONARY
360
195
102
}
330
2A
100
AcDbVisualStyle
  2
Thicken
 70
    13
 71
     2
 72
     2
 73
     0
 90
        0
 40
0.6
 41
30.0
 62
     5
 63
     7
421
 16777215
 74
     1
 91
        4
 64
     7
 65
   257
 75
     1
175
     1
 42
1.0
 92
       12
 66
     7
 43
1.0
 76
     1
 77
     6
 78
     2
 67
     7
 79
     5
170
     0
171
     0
290
     0
174
     0
 93
        1
 44
0.0
173
     0
291
     1
 45
0.0
  0
VISUALSTYLE
  5
30
102
{ACAD_REACTORS
330
2A
102
}
102
{ACAD_XDICTIONARY
360
187
102
}
330
2A
100
AcDbVisualStyle
  2
Wireframe
 70
     5
 71
     0
 72
     2
 73
     0
 90
        0
 40
0.6
 41
30.0
 62
     5
 63
     7
421
 16777215
 74
     1
 91
        4
 64
     7
 65
   257
 75
     1
175
     1
 42
1.0
 92
        0
 66
   257
 43
1.0
 76
     1
 77
     6
 78
     2
 67
     7
 79
     3
170
     0
171
     0
290
     0
174
     0
 93
        1
 44
0.0
173
     0
291
     0
 45
0.0
  0
VISUALSTYLE
  5
40
102
{ACAD_REACTORS
330
2A
102
}
102
{ACAD_XDICTIONARY
360
1A7
102
}
330
2A
100
AcDbVisualStyle
  2
X-Ray
 70
    25
 71
     2
 72
     2
 73
     1
 90
        1
 40
0.5
 41
30.0
 62
     5
 63
     7
421
 16777215
 74
     1
 91
        0
 64
     7
 65
   257
 75
     1
175
     1
 42
1.0
 92
        8
 66
     7
 43
1.0
 76
     1
 77
     6
 78
     2
 67
     7
 79
     3
170
     0
171
     0
290
     0
174
     0
 93
       13
 44
0.0
173
     0
291
     0
 45
0.0
  0
DICTIONARYVAR
  5
17B
102
{ACAD_REACTORS
330
17A
102
}
330
17A
100
DictionaryVariables
280
     0
  1
1:1
  0
DICTIONARYVAR
  5
1B4
102
{ACAD_REACTORS
330
17A
102
}
330
17A
100
DictionaryVariables
280
     0
  1
Standard
  0
DICTIONARYVAR
  5
1B3
102
{ACAD_REACTORS
330
17A
102
}
330
17A
100
DictionaryVariables
280
     0
  1
Standard
  0
DICTIONARYVAR
  5
17C
102
{ACAD_REACTORS
330
17A
102
}
330
17A
100
DictionaryVariables
280
     0
  1
2
  0
DICTIONARY
  5
1B0
330
5C
100
AcDbDictionary
280
     1
281
     1
  3
ACAD_XREC_ROUNDTRIP
360
1B1
  0
DICTIONARY
  5
1AD
330
5A
100
AcDbDictionary
280
     1
281
     1
  3
ACAD_ROUNDTRIP_2008_TABLESTYLE_CELLSTYLEMAP
360
1AE
  0
DICTIONARY
  5
185
330
2F
100
AcDbDictionary
280
     1
281
     1
  3
ACAD_XREC_ROUNDTRIP
360
186
  0
DICTIONARY
  5
18B
330
32
100
AcDbDictionary
280
     1
281
     1
  3
ACAD_XREC_ROUNDTRIP
360
18C
  0
DICTIONARY
  5
193
330
36
100
AcDbDictionary
280
     1
281
     1
  3
ACAD_XREC_ROUNDTRIP
360
194
  0
DICTIONARY
  5
19B
330
3A
100
AcDbDictionary
280
     1
281
     1
  3
ACAD_XREC_ROUNDTRIP
360
19C
  0
DICTIONARY
  5
18F
330
34
100
AcDbDictionary
280
     1
281
     1
  3
ACAD_XREC_ROUNDTRIP
360
190
  0
DICTIONARY
  5
191
330
35
100
AcDbDictionary
280
     1
281
     1
  3
ACAD_XREC_ROUNDTRIP
360
192
  0
DICTIONARY
  5
1A1
330
3D
100
AcDbDictionary
280
     1
281
     1
  3
ACAD_XREC_ROUNDTRIP
360
1A2
  0
DICTIONARY
  5
199
330
39
100
AcDbDictionary
280
     1
281
     1
  3
ACAD_XREC_ROUNDTRIP
360
19A
  0
DICTIONARY
  5
17D
330
2B
100
AcDbDictionary
280
     1
281
     1
  3
ACAD_XREC_ROUNDTRIP
360
17E
  0
DICTIONARY
  5
17F
330
2C
100
AcDbDictionary
280
     1
281
     1
  3
ACAD_XREC_ROUNDTRIP
360
180
  0
DICTIONARY
  5
181
330
2D
100
AcDbDictionary
280
     1
281
     1
  3
ACAD_XREC_ROUNDTRIP
360
182
  0
DICTIONARY
  5
183
330
2E
100
AcDbDictionary
280
     1
281
     1
  3
ACAD_XREC_ROUNDTRIP
360
184
  0
DICTIONARY
  5
189
330
31
100
AcDbDictionary
280
     1
281
     1
  3
ACAD_XREC_ROUNDTRIP
360
18A
  0
DICTIONARY
  5
19D
330
3B
100
AcDbDictionary
280
     1
281
     1
  3
ACAD_XREC_ROUNDTRIP
360
19E
  0
DICTIONARY
  5
197
330
38
100
AcDbDictionary
280
     1
281
     1
  3
ACAD_XREC_ROUNDTRIP
360
198
  0
DICTIONARY
  5
19F
330
3C
100
AcDbDictionary
280
     1
281
     1
  3
ACAD_XREC_ROUNDTRIP
360
1A0
  0
DICTIONARY
  5
18D
330
33
100
AcDbDictionary
280
     1
281
     1
  3
ACAD_XREC_ROUNDTRIP
360
18E
  0
DICTIONARY
  5
1AB
330
42
100
AcDbDictionary
280
     1
281
     1
  3
ACAD_XREC_ROUNDTRIP
360
1AC
  0
DICTIONARY
  5
1A9
330
41
100
AcDbDictionary
280
     1
281
     1
  3
ACAD_XREC_ROUNDTRIP
360
1AA
  0
DICTIONARY
  5
1A3
330
3E
100
AcDbDictionary
280
     1
281
     1
  3
ACAD_XREC_ROUNDTRIP
360
1A4
  0
DICTIONARY
  5
1A5
330
3F
100
AcDbDictionary
280
     1
281
     1
  3
ACAD_XREC_ROUNDTRIP
360
1A6
  0
DICTIONARY
  5
195
330
37
100
AcDbDictionary
280
     1
281
     1
  3
ACAD_XREC_ROUNDTRIP
360
196
  0
DICTIONARY
  5
187
330
30
100
AcDbDictionary
280
     1
281
     1
  3
ACAD_XREC_ROUNDTRIP
360
188
  0
DICTIONARY
  5
1A7
330
40
100
AcDbDictionary
280
     1
281
     1
  3
ACAD_XREC_ROUNDTRIP
360
1A8
  0
XRECORD
  5
1B1
102
{ACAD_REACTORS
330
1B0
102
}
330
1B0
100
AcDbXrecord
280
     1
102
ACAD_ROUNDTRIP_2010_MLEADER_STYLE
  0
CELLSTYLEMAP
  5
1AE
102
{ACAD_REACTORS
330
1AD
102
}
330
1AD
100
AcDbCellStyleMap
 90
        3
300
CELLSTYLE
  1
TABLEFORMAT_BEGIN
 90
        5
170
     1
 91
        0
 92
    32768
 62
   257
 93
        1
300
CONTENTFORMAT
  1
CONTENTFORMAT_BEGIN
 90
        0
 91
        0
 92
        4
 93
        0
300

 40
0.0
140
1.0
 94
        5
 62
     0
340
11
144
0.25
309
CONTENTFORMAT_END
171
     1
301
MARGIN
  1
CELLMARGIN_BEGIN
 40
0.06
 40
0.06
 40
0.06
 40
0.06
 40
0.06
 40
0.06
309
CELLMARGIN_END
 94
        6
 95
        1
302
GRIDFORMAT
  1
GRIDFORMAT_BEGIN
 90
        0
 91
        1
 62
     0
 92
       -2
340
14
 93
        0
 40
0.045
309
GRIDFORMAT_END
 95
        2
302
GRIDFORMAT
  1
GRIDFORMAT_BEGIN
 90
        0
 91
        1
 62
     0
 92
       -2
340
14
 93
        0
 40
0.045
309
GRIDFORMAT_END
 95
        4
302
GRIDFORMAT
  1
GRIDFORMAT_BEGIN
 90
        0
 91
        1
 62
     0
 92
       -2
340
14
 93
        0
 40
0.045
309
GRIDFORMAT_END
 95
        8
302
GRIDFORMAT
  1
GRIDFORMAT_BEGIN
 90
        0
 91
        1
 62
     0
 92
       -2
340
14
 93
        0
 40
0.045
309
GRIDFORMAT_END
 95
       16
302
GRIDFORMAT
  1
GRIDFORMAT_BEGIN
 90
        0
 91
        1
 62
     0
 92
       -2
340
14
 93
        0
 40
0.045
309
GRIDFORMAT_END
 95
       32
302
GRIDFORMAT
  1
GRIDFORMAT_BEGIN
 90
        0
 91
        1
 62
     0
 92
       -2
340
14
 93
        0
 40
0.045
309
GRIDFORMAT_END
309
TABLEFORMAT_END
  1
CELLSTYLE_BEGIN
 90
        1
 91
        1
300
_TITLE
309
CELLSTYLE_END
300
CELLSTYLE
  1
TABLEFORMAT_BEGIN
 90
        5
170
     1
 91
        0
 92
        0
 62
   257
 93
        1
300
CONTENTFORMAT
  1
CONTENTFORMAT_BEGIN
 90
        0
 91
        0
 92
        4
 93
        0
300

 40
0.0
140
1.0
 94
        5
 62
     0
340
11
144
0.18
309
CONTENTFORMAT_END
171
     1
301
MARGIN
  1
CELLMARGIN_BEGIN
 40
0.06
 40
0.06
 40
0.06
 40
0.06
 40
0.06
 40
0.06
309
CELLMARGIN_END
 94
        6
 95
        1
302
GRIDFORMAT
  1
GRIDFORMAT_BEGIN
 90
        0
 91
        1
 62
     0
 92
       -2
340
14
 93
        0
 40
0.045
309
GRIDFORMAT_END
 95
        2
302
GRIDFORMAT
  1
GRIDFORMAT_BEGIN
 90
        0
 91
        1
 62
     0
 92
       -2
340
14
 93
        0
 40
0.045
309
GRIDFORMAT_END
 95
        4
302
GRIDFORMAT
  1
GRIDFORMAT_BEGIN
 90
        0
 91
        1
 62
     0
 92
       -2
340
14
 93
        0
 40
0.045
309
GRIDFORMAT_END
 95
        8
302
GRIDFORMAT
  1
GRIDFORMAT_BEGIN
 90
        0
 91
        1
 62
     0
 92
       -2
340
14
 93
        0
 40
0.045
309
GRIDFORMAT_END
 95
       16
302
GRIDFORMAT
  1
GRIDFORMAT_BEGIN
 90
        0
 91
        1
 62
     0
 92
       -2
340
14
 93
        0
 40
0.045
309
GRIDFORMAT_END
 95
       32
302
GRIDFORMAT
  1
GRIDFORMAT_BEGIN
 90
        0
 91
        1
 62
     0
 92
       -2
340
14
 93
        0
 40
0.045
309
GRIDFORMAT_END
309
TABLEFORMAT_END
  1
CELLSTYLE_BEGIN
 90
        2
 91
        1
300
_HEADER
309
CELLSTYLE_END
300
CELLSTYLE
  1
TABLEFORMAT_BEGIN
 90
        5
170
     1
 91
        0
 92
        0
 62
   257
 93
        1
300
CONTENTFORMAT
  1
CONTENTFORMAT_BEGIN
 90
        0
 91
        0
 92
        4
 93
        0
300

 40
0.0
140
1.0
 94
        2
 62
     0
340
11
144
0.18
309
CONTENTFORMAT_END
171
     1
301
MARGIN
  1
CELLMARGIN_BEGIN
 40
0.06
 40
0.06
 40
0.06
 40
0.06
 40
0.06
 40
0.06
309
CELLMARGIN_END
 94
        6
 95
        1
302
GRIDFORMAT
  1
GRIDFORMAT_BEGIN
 90
        0
 91
        1
 62
     0
 92
       -2
340
14
 93
        0
 40
0.045
309
GRIDFORMAT_END
 95
        2
302
GRIDFORMAT
  1
GRIDFORMAT_BEGIN
 90
        0
 91
        1
 62
     0
 92
       -2
340
14
 93
        0
 40
0.045
309
GRIDFORMAT_END
 95
        4
302
GRIDFORMAT
  1
GRIDFORMAT_BEGIN
 90
        0
 91
        1
 62
     0
 92
       -2
340
14
 93
        0
 40
0.045
309
GRIDFORMAT_END
 95
        8
302
GRIDFORMAT
  1
GRIDFORMAT_BEGIN
 90
        0
 91
        1
 62
     0
 92
       -2
340
14
 93
        0
 40
0.045
309
GRIDFORMAT_END
 95
       16
302
GRIDFORMAT
  1
GRIDFORMAT_BEGIN
 90
        0
 91
        1
 62
     0
 92
       -2
340
14
 93
        0
 40
0.045
309
GRIDFORMAT_END
 95
       32
302
GRIDFORMAT
  1
GRIDFORMAT_BEGIN
 90
        0
 91
        1
 62
     0
 92
       -2
340
14
 93
        0
 40
0.045
309
GRIDFORMAT_END
309
TABLEFORMAT_END
  1
CELLSTYLE_BEGIN
 90
        3
 91
        2
300
_DATA
309
CELLSTYLE_END
  0
XRECORD
  5
186
102
{ACAD_REACTORS
330
185
102
}
330
185
100
AcDbXrecord
280
     1
102
RTVSPropertyOp0
 70
     1
102
RTVSPropertyOp1
 70
     1
102
RTVSPropertyOp2
 70
     1
102
RTVSPropertyOp3
 70
     1
102
RTVSPropertyOp4
 70
     1
102
RTVSPropertyOp5
 70
     1
102
RTVSPropertyOp6
 70
     1
102
RTVSPropertyOp7
 70
     1
102
RTVSPropertyOp8
 70
     1
102
RTVSPropertyOp9
 70
     1
102
RTVSPropertyOp10
 70
     1
102
RTVSPropertyOp11
 70
     1
102
RTVSPropertyOp12
 70
     1
102
RTVSPropertyOp13
 70
     1
102
RTVSPropertyOp14
 70
     1
102
RTVSPropertyOp15
 70
     1
102
RTVSPropertyOp16
 70
     1
102
RTVSPropertyOp17
 70
     1
102
RTVSPropertyOp18
 70
     1
102
RTVSPropertyOp19
 70
     1
102
RTVSPropertyOp20
 70
     1
102
RTVSPropertyOp21
 70
     1
102
RTVSPropertyOp22
 70
     1
102
RTVSPropertyOp23
 70
     1
102
RTVSPropertyOp24
 70
     1
102
RTVSPropertyOp25
 70
     1
102
RTVSPropertyOp26
 70
     1
102
RTVSPropertyOp27
 70
     1
102
RTVSPropertyOp28
 70
     1
102
RTVSPropertyOp29
 70
     1
102
RTVSPropertyOp30
 70
     1
102
RTVSPropertyOp31
 70
     1
102
RTVSPropertyOp32
 70
     1
102
RTVSPropertyOp33
 70
     1
102
RTVSPropertyOp34
 70
     1
102
RTVSPropertyOp35
 70
     1
102
RTVSPropertyOp36
 70
     1
102
RTVSPropertyOp37
 70
     1
102
RTVSPropertyOp38
 70
     1
102
RTVSPropertyOp39
 70
     1
102
RTVSPropertyOp40
 70
     1
102
RTVSPropertyOp41
 70
     1
102
RTVSPropertyOp42
 70
     1
102
RTVSPropertyOp43
 70
     1
102
RTVSPropertyOp44
 70
     1
102
RTVSPropertyOp45
 70
     1
102
RTVSPropertyOp46
 70
     1
102
RTVSPropertyOp47
 70
     1
102
RTVSPropertyOp48
 70
     1
102
RTVSPropertyOp49
 70
     1
102
RTVSPropertyOp50
 70
     1
102
RTVSPropertyOp51
 70
     0
102
RTVSPropertyOp52
 70
     0
102
RTVSPropertyOp53
 70
     1
102
RTVSPropertyOp54
 70
     1
102
RTVSPropertyOp55
 70
     1
102
RTVSPropertyOp56
 70
     1
102
RTVSPropertyOp57
 70
     1
102
RTVSPost2010Prop28
280
     1
102
RTVSPost2010PropOp28
 70
     1
102
RTVSPost2010Prop29
280
     1
102
RTVSPost2010PropOp29
 70
     1
102
RTVSPost2010Prop30
280
     0
102
RTVSPost2010PropOp30
 70
     1
102
RTVSPost2010Prop31
280
     0
102
RTVSPost2010PropOp31
 70
     1
102
RTVSPost2010Prop32
280
     0
102
RTVSPost2010PropOp32
 70
     1
102
RTVSPost2010Prop33
280
     0
102
RTVSPost2010PropOp33
 70
     1
102
RTVSPost2010Prop34
280
     0
102
RTVSPost2010PropOp34
 70
     1
102
RTVSPost2010Prop35
280
     0
102
RTVSPost2010PropOp35
 70
     1
102
RTVSPost2010Prop36
280
     0
102
RTVSPost2010PropOp36
 70
     1
102
RTVSPost2010Prop37
 90
       50
102
RTVSPost2010PropOp37
 70
     1
102
RTVSPost2010Prop38
140
0.0
102
RTVSPost2010PropOp38
 70
     1
102
RTVSPost2010Prop39
140
1.0
102
RTVSPost2010PropOp39
 70
     1
102
RTVSPost2010Prop40
 90
        0
102
RTVSPost2010PropOp40
 70
     1
102
RTVSPost2010Prop41ColorIndex
 90
       18
102
RTVSPost2010Prop41ColorRGB
 90
        0
102
RTVSPost2010PropOp41
 70
     1
102
RTVSPost2010Prop42
 90
       50
102
RTVSPost2010PropOp42
 70
     1
102
RTVSPost2010Prop43
 90
        3
102
RTVSPost2010PropOp43
 70
     1
102
RTVSPost2010Prop44ColorIndex
 90
        5
102
RTVSPost2010Prop44ColorRGB
 90
      255
102
RTVSPost2010PropOp44
 70
     1
102
RTVSPost2010Prop45
280
     0
102
RTVSPost2010PropOp45
 70
     1
102
RTVSPost2010Prop46
 90
       50
102
RTVSPost2010PropOp46
 70
     1
102
RTVSPost2010Prop47
 90
       50
102
RTVSPost2010PropOp47
 70
     1
102
RTVSPost2010Prop48
 90
       50
102
RTVSPost2010PropOp48
 70
     1
102
RTVSPost2010Prop49
280
     0
102
RTVSPost2010PropOp49
 70
     1
102
RTVSPost2010Prop50
 90
       50
102
RTVSPost2010PropOp50
 70
     1
102
RTVSPost2010Prop51ColorIndex
 90
      256
102
RTVSPost2010Prop51ColorRGB
 90
-16777216
102
RTVSPost2010PropOp51
 70
     0
102
RTVSPost2010Prop52
140
1.0
102
RTVSPost2010PropOp52
 70
     0
102
RTVSPost2010Prop53
 90
        2
102
RTVSPost2010PropOp53
 70
     1
102
RTVSPost2010Prop54
  1
strokes_ogs.tif
102
RTVSPost2010PropOp54
 70
     1
102
RTVSPost2010Prop55
280
     0
102
RTVSPost2010PropOp55
 70
     1
102
RTVSPost2010Prop56
140
1.0
102
RTVSPost2010PropOp56
 70
     1
102
RTVSPost2010Prop57
140
1.0
102
RTVSPost2010PropOp57
 70
     1
  0
XRECORD
  5
18C
102
{ACAD_REACTORS
330
18B
102
}
330
18B
100
AcDbXrecord
280
     1
102
RTVSPropertyOp0
 70
     1
102
RTVSPropertyOp1
 70
     1
102
RTVSPropertyOp2
 70
     1
102
RTVSPropertyOp3
 70
     1
102
RTVSPropertyOp4
 70
     1
102
RTVSPropertyOp5
 70
     1
102
RTVSPropertyOp6
 70
     1
102
RTVSPropertyOp7
 70
     1
102
RTVSPropertyOp8
 70
     1
102
RTVSPropertyOp9
 70
     1
102
RTVSPropertyOp10
 70
     1
102
RTVSPropertyOp11
 70
     1
102
RTVSPropertyOp12
 70
     1
102
RTVSPropertyOp13
 70
     1
102
RTVSPropertyOp14
 70
     1
102
RTVSPropertyOp15
 70
     1
102
RTVSPropertyOp16
 70
     1
102
RTVSPropertyOp17
 70
     1
102
RTVSPropertyOp18
 70
     1
102
RTVSPropertyOp19
 70
     1
102
RTVSPropertyOp20
 70
     1
102
RTVSPropertyOp21
 70
     1
102
RTVSPropertyOp22
 70
     1
102
RTVSPropertyOp23
 70
     1
102
RTVSPropertyOp24
 70
     1
102
RTVSPropertyOp25
 70
     1
102
RTVSPropertyOp26
 70
     1
102
RTVSPropertyOp27
 70
     1
102
RTVSPropertyOp28
 70
     1
102
RTVSPropertyOp29
 70
     1
102
RTVSPropertyOp30
 70
     1
102
RTVSPropertyOp31
 70
     1
102
RTVSPropertyOp32
 70
     1
102
RTVSPropertyOp33
 70
     1
102
RTVSPropertyOp34
 70
     1
102
RTVSPropertyOp35
 70
     1
102
RTVSPropertyOp36
 70
     1
102
RTVSPropertyOp37
 70
     1
102
RTVSPropertyOp38
 70
     1
102
RTVSPropertyOp39
 70
     1
102
RTVSPropertyOp40
 70
     1
102
RTVSPropertyOp41
 70
     1
102
RTVSPropertyOp42
 70
     1
102
RTVSPropertyOp43
 70
     1
102
RTVSPropertyOp44
 70
     1
102
RTVSPropertyOp45
 70
     1
102
RTVSPropertyOp46
 70
     1
102
RTVSPropertyOp47
 70
     1
102
RTVSPropertyOp48
 70
     1
102
RTVSPropertyOp49
 70
     1
102
RTVSPropertyOp50
 70
     1
102
RTVSPropertyOp51
 70
     0
102
RTVSPropertyOp52
 70
     0
102
RTVSPropertyOp53
 70
     1
102
RTVSPropertyOp54
 70
     1
102
RTVSPropertyOp55
 70
     1
102
RTVSPropertyOp56
 70
     1
102
RTVSPropertyOp57
 70
     1
102
RTVSPost2010Prop28
280
     0
102
RTVSPost2010PropOp28
 70
     1
102
RTVSPost2010Prop29
280
     1
102
RTVSPost2010PropOp29
 70
     1
102
RTVSPost2010Prop30
280
     1
102
RTVSPost2010PropOp30
 70
     1
102
RTVSPost2010Prop31
280
     0
102
RTVSPost2010PropOp31
 70
     1
102
RTVSPost2010Prop32
280
     0
102
RTVSPost2010PropOp32
 70
     1
102
RTVSPost2010Prop33
280
     0
102
RTVSPost2010PropOp33
 70
     1
102
RTVSPost2010Prop34
280
     0
102
RTVSPost2010PropOp34
 70
     1
102
RTVSPost2010Prop35
280
     0
102
RTVSPost2010PropOp35
 70
     1
102
RTVSPost2010Prop36
280
     0
102
RTVSPost2010PropOp36
 70
     1
102
RTVSPost2010Prop37
 90
       50
102
RTVSPost2010PropOp37
 70
     1
102
RTVSPost2010Prop38
140
0.0
102
RTVSPost2010PropOp38
 70
     1
102
RTVSPost2010Prop39
140
1.0
102
RTVSPost2010PropOp39
 70
     1
102
RTVSPost2010Prop40
 90
        0
102
RTVSPost2010PropOp40
 70
     1
102
RTVSPost2010Prop41ColorIndex
 90
       18
102
RTVSPost2010Prop41ColorRGB
 90
        0
102
RTVSPost2010PropOp41
 70
     1
102
RTVSPost2010Prop42
 90
       50
102
RTVSPost2010PropOp42
 70
     1
102
RTVSPost2010Prop43
 90
        3
102
RTVSPost2010PropOp43
 70
     1
102
RTVSPost2010Prop44ColorIndex
 90
        5
102
RTVSPost2010Prop44ColorRGB
 90
      255
102
RTVSPost2010PropOp44
 70
     1
102
RTVSPost2010Prop45
280
     0
102
RTVSPost2010PropOp45
 70
     1
102
RTVSPost2010Prop46
 90
       50
102
RTVSPost2010PropOp46
 70
     1
102
RTVSPost2010Prop47
 90
       50
102
RTVSPost2010PropOp47
 70
     1
102
RTVSPost2010Prop48
 90
       50
102
RTVSPost2010PropOp48
 70
     1
102
RTVSPost2010Prop49
280
     0
102
RTVSPost2010PropOp49
 70
     1
102
RTVSPost2010Prop50
 90
       50
102
RTVSPost2010PropOp50
 70
     1
102
RTVSPost2010Prop51ColorIndex
 90
      256
102
RTVSPost2010Prop51ColorRGB
 90
-16777216
102
RTVSPost2010PropOp51
 70
     0
102
RTVSPost2010Prop52
140
1.0
102
RTVSPost2010PropOp52
 70
     0
102
RTVSPost2010Prop53
 90
        2
102
RTVSPost2010PropOp53
 70
     1
102
RTVSPost2010Prop54
  1
strokes_ogs.tif
102
RTVSPost2010PropOp54
 70
     1
102
RTVSPost2010Prop55
280
     0
102
RTVSPost2010PropOp55
 70
     1
102
RTVSPost2010Prop56
140
1.0
102
RTVSPost2010PropOp56
 70
     1
102
RTVSPost2010Prop57
140
1.0
102
RTVSPost2010PropOp57
 70
     1
  0
XRECORD
  5
194
102
{ACAD_REACTORS
330
193
102
}
330
193
100
AcDbXrecord
280
     1
102
RTVSPropertyOp0
 70
     1
102
RTVSPropertyOp1
 70
     1
102
RTVSPropertyOp2
 70
     1
102
RTVSPropertyOp3
 70
     1
102
RTVSPropertyOp4
 70
     1
102
RTVSPropertyOp5
 70
     1
102
RTVSPropertyOp6
 70
     1
102
RTVSPropertyOp7
 70
     1
102
RTVSPropertyOp8
 70
     1
102
RTVSPropertyOp9
 70
     1
102
RTVSPropertyOp10
 70
     1
102
RTVSPropertyOp11
 70
     1
102
RTVSPropertyOp12
 70
     1
102
RTVSPropertyOp13
 70
     1
102
RTVSPropertyOp14
 70
     1
102
RTVSPropertyOp15
 70
     1
102
RTVSPropertyOp16
 70
     1
102
RTVSPropertyOp17
 70
     1
102
RTVSPropertyOp18
 70
     1
102
RTVSPropertyOp19
 70
     1
102
RTVSPropertyOp20
 70
     1
102
RTVSPropertyOp21
 70
     1
102
RTVSPropertyOp22
 70
     1
102
RTVSPropertyOp23
 70
     1
102
RTVSPropertyOp24
 70
     1
102
RTVSPropertyOp25
 70
     1
102
RTVSPropertyOp26
 70
     1
102
RTVSPropertyOp27
 70
     1
102
RTVSPropertyOp28
 70
     1
102
RTVSPropertyOp29
 70
     1
102
RTVSPropertyOp30
 70
     1
102
RTVSPropertyOp31
 70
     1
102
RTVSPropertyOp32
 70
     1
102
RTVSPropertyOp33
 70
     1
102
RTVSPropertyOp34
 70
     1
102
RTVSPropertyOp35
 70
     1
102
RTVSPropertyOp36
 70
     1
102
RTVSPropertyOp37
 70
     1
102
RTVSPropertyOp38
 70
     1
102
RTVSPropertyOp39
 70
     1
102
RTVSPropertyOp40
 70
     1
102
RTVSPropertyOp41
 70
     1
102
RTVSPropertyOp42
 70
     1
102
RTVSPropertyOp43
 70
     1
102
RTVSPropertyOp44
 70
     1
102
RTVSPropertyOp45
 70
     1
102
RTVSPropertyOp46
 70
     1
102
RTVSPropertyOp47
 70
     1
102
RTVSPropertyOp48
 70
     1
102
RTVSPropertyOp49
 70
     1
102
RTVSPropertyOp50
 70
     1
102
RTVSPropertyOp51
 70
     0
102
RTVSPropertyOp52
 70
     0
102
RTVSPropertyOp53
 70
     1
102
RTVSPropertyOp54
 70
     1
102
RTVSPropertyOp55
 70
     1
102
RTVSPropertyOp56
 70
     1
102
RTVSPropertyOp57
 70
     1
102
RTVSPost2010Prop28
280
     0
102
RTVSPost2010PropOp28
 70
     1
102
RTVSPost2010Prop29
280
     1
102
RTVSPost2010PropOp29
 70
     1
102
RTVSPost2010Prop30
280
     1
102
RTVSPost2010PropOp30
 70
     1
102
RTVSPost2010Prop31
280
     0
102
RTVSPost2010PropOp31
 70
     1
102
RTVSPost2010Prop32
280
     0
102
RTVSPost2010PropOp32
 70
     1
102
RTVSPost2010Prop33
280
     0
102
RTVSPost2010PropOp33
 70
     1
102
RTVSPost2010Prop34
280
     0
102
RTVSPost2010PropOp34
 70
     1
102
RTVSPost2010Prop35
280
     0
102
RTVSPost2010PropOp35
 70
     1
102
RTVSPost2010Prop36
280
     0
102
RTVSPost2010PropOp36
 70
     1
102
RTVSPost2010Prop37
 90
       50
102
RTVSPost2010PropOp37
 70
     1
102
RTVSPost2010Prop38
140
0.0
102
RTVSPost2010PropOp38
 70
     1
102
RTVSPost2010Prop39
140
1.0
102
RTVSPost2010PropOp39
 70
     1
102
RTVSPost2010Prop40
 90
        0
102
RTVSPost2010PropOp40
 70
     1
102
RTVSPost2010Prop41ColorIndex
 90
       18
102
RTVSPost2010Prop41ColorRGB
 90
        0
102
RTVSPost2010PropOp41
 70
     1
102
RTVSPost2010Prop42
 90
       50
102
RTVSPost2010PropOp42
 70
     1
102
RTVSPost2010Prop43
 90
        3
102
RTVSPost2010PropOp43
 70
     1
102
RTVSPost2010Prop44ColorIndex
 90
        5
102
RTVSPost2010Prop44ColorRGB
 90
      255
102
RTVSPost2010PropOp44
 70
     1
102
RTVSPost2010Prop45
280
     0
102
RTVSPost2010PropOp45
 70
     1
102
RTVSPost2010Prop46
 90
       50
102
RTVSPost2010PropOp46
 70
     1
102
RTVSPost2010Prop47
 90
       50
102
RTVSPost2010PropOp47
 70
     1
102
RTVSPost2010Prop48
 90
       50
102
RTVSPost2010PropOp48
 70
     1
102
RTVSPost2010Prop49
280
     0
102
RTVSPost2010PropOp49
 70
     1
102
RTVSPost2010Prop50
 90
       50
102
RTVSPost2010PropOp50
 70
     1
102
RTVSPost2010Prop51ColorIndex
 90
      256
102
RTVSPost2010Prop51ColorRGB
 90
-16777216
102
RTVSPost2010PropOp51
 70
     0
102
RTVSPost2010Prop52
140
1.0
102
RTVSPost2010PropOp52
 70
     0
102
RTVSPost2010Prop53
 90
        2
102
RTVSPost2010PropOp53
 70
     1
102
RTVSPost2010Prop54
  1
strokes_ogs.tif
102
RTVSPost2010PropOp54
 70
     1
102
RTVSPost2010Prop55
280
     0
102
RTVSPost2010PropOp55
 70
     1
102
RTVSPost2010Prop56
140
1.0
102
RTVSPost2010PropOp56
 70
     1
102
RTVSPost2010Prop57
140
1.0
102
RTVSPost2010PropOp57
 70
     1
  0
XRECORD
  5
19C
102
{ACAD_REACTORS
330
19B
102
}
330
19B
100
AcDbXrecord
280
     1
102
RTVSPropertyOp0
 70
     1
102
RTVSPropertyOp1
 70
     1
102
RTVSPropertyOp2
 70
     1
102
RTVSPropertyOp3
 70
     1
102
RTVSPropertyOp4
 70
     1
102
RTVSPropertyOp5
 70
     1
102
RTVSPropertyOp6
 70
     1
102
RTVSPropertyOp7
 70
     1
102
RTVSPropertyOp8
 70
     1
102
RTVSPropertyOp9
 70
     1
102
RTVSPropertyOp10
 70
     1
102
RTVSPropertyOp11
 70
     1
102
RTVSPropertyOp12
 70
     1
102
RTVSPropertyOp13
 70
     1
102
RTVSPropertyOp14
 70
     1
102
RTVSPropertyOp15
 70
     1
102
RTVSPropertyOp16
 70
     1
102
RTVSPropertyOp17
 70
     1
102
RTVSPropertyOp18
 70
     1
102
RTVSPropertyOp19
 70
     1
102
RTVSPropertyOp20
 70
     1
102
RTVSPropertyOp21
 70
     1
102
RTVSPropertyOp22
 70
     1
102
RTVSPropertyOp23
 70
     1
102
RTVSPropertyOp24
 70
     1
102
RTVSPropertyOp25
 70
     1
102
RTVSPropertyOp26
 70
     1
102
RTVSPropertyOp27
 70
     1
102
RTVSPropertyOp28
 70
     1
102
RTVSPropertyOp29
 70
     1
102
RTVSPropertyOp30
 70
     1
102
RTVSPropertyOp31
 70
     1
102
RTVSPropertyOp32
 70
     1
102
RTVSPropertyOp33
 70
     1
102
RTVSPropertyOp34
 70
     1
102
RTVSPropertyOp35
 70
     1
102
RTVSPropertyOp36
 70
     1
102
RTVSPropertyOp37
 70
     1
102
RTVSPropertyOp38
 70
     1
102
RTVSPropertyOp39
 70
     1
102
RTVSPropertyOp40
 70
     1
102
RTVSPropertyOp41
 70
     1
102
RTVSPropertyOp42
 70
     1
102
RTVSPropertyOp43
 70
     1
102
RTVSPropertyOp44
 70
     1
102
RTVSPropertyOp45
 70
     1
102
RTVSPropertyOp46
 70
     1
102
RTVSPropertyOp47
 70
     1
102
RTVSPropertyOp48
 70
     1
102
RTVSPropertyOp49
 70
     1
102
RTVSPropertyOp50
 70
     1
102
RTVSPropertyOp51
 70
     0
102
RTVSPropertyOp52
 70
     0
102
RTVSPropertyOp53
 70
     1
102
RTVSPropertyOp54
 70
     1
102
RTVSPropertyOp55
 70
     1
102
RTVSPropertyOp56
 70
     1
102
RTVSPropertyOp57
 70
     1
102
RTVSPost2010Prop28
280
     0
102
RTVSPost2010PropOp28
 70
     1
102
RTVSPost2010Prop29
280
     1
102
RTVSPost2010PropOp29
 70
     1
102
RTVSPost2010Prop30
280
     1
102
RTVSPost2010PropOp30
 70
     1
102
RTVSPost2010Prop31
280
     0
102
RTVSPost2010PropOp31
 70
     1
102
RTVSPost2010Prop32
280
     0
102
RTVSPost2010PropOp32
 70
     1
102
RTVSPost2010Prop33
280
     0
102
RTVSPost2010PropOp33
 70
     1
102
RTVSPost2010Prop34
280
     0
102
RTVSPost2010PropOp34
 70
     1
102
RTVSPost2010Prop35
280
     0
102
RTVSPost2010PropOp35
 70
     1
102
RTVSPost2010Prop36
280
     0
102
RTVSPost2010PropOp36
 70
     1
102
RTVSPost2010Prop37
 90
       50
102
RTVSPost2010PropOp37
 70
     1
102
RTVSPost2010Prop38
140
0.0
102
RTVSPost2010PropOp38
 70
     1
102
RTVSPost2010Prop39
140
1.0
102
RTVSPost2010PropOp39
 70
     1
102
RTVSPost2010Prop40
 90
        0
102
RTVSPost2010PropOp40
 70
     1
102
RTVSPost2010Prop41ColorIndex
 90
       18
102
RTVSPost2010Prop41ColorRGB
 90
        0
102
RTVSPost2010PropOp41
 70
     1
102
RTVSPost2010Prop42
 90
       50
102
RTVSPost2010PropOp42
 70
     1
102
RTVSPost2010Prop43
 90
        3
102
RTVSPost2010PropOp43
 70
     1
102
RTVSPost2010Prop44ColorIndex
 90
        5
102
RTVSPost2010Prop44ColorRGB
 90
      255
102
RTVSPost2010PropOp44
 70
     1
102
RTVSPost2010Prop45
280
     0
102
RTVSPost2010PropOp45
 70
     1
102
RTVSPost2010Prop46
 90
       50
102
RTVSPost2010PropOp46
 70
     1
102
RTVSPost2010Prop47
 90
       50
102
RTVSPost2010PropOp47
 70
     1
102
RTVSPost2010Prop48
 90
       50
102
RTVSPost2010PropOp48
 70
     1
102
RTVSPost2010Prop49
280
     0
102
RTVSPost2010PropOp49
 70
     1
102
RTVSPost2010Prop50
 90
       50
102
RTVSPost2010PropOp50
 70
     1
102
RTVSPost2010Prop51ColorIndex
 90
      256
102
RTVSPost2010Prop51ColorRGB
 90
-16777216
102
RTVSPost2010PropOp51
 70
     0
102
RTVSPost2010Prop52
140
1.0
102
RTVSPost2010PropOp52
 70
     0
102
RTVSPost2010Prop53
 90
        2
102
RTVSPost2010PropOp53
 70
     1
102
RTVSPost2010Prop54
  1
strokes_ogs.tif
102
RTVSPost2010PropOp54
 70
     1
102
RTVSPost2010Prop55
280
     0
102
RTVSPost2010PropOp55
 70
     1
102
RTVSPost2010Prop56
140
1.0
102
RTVSPost2010PropOp56
 70
     1
102
RTVSPost2010Prop57
140
1.0
102
RTVSPost2010PropOp57
 70
     1
  0
XRECORD
  5
190
102
{ACAD_REACTORS
330
18F
102
}
330
18F
100
AcDbXrecord
280
     1
102
RTVSPropertyOp0
 70
     1
102
RTVSPropertyOp1
 70
     1
102
RTVSPropertyOp2
 70
     1
102
RTVSPropertyOp3
 70
     1
102
RTVSPropertyOp4
 70
     1
102
RTVSPropertyOp5
 70
     1
102
RTVSPropertyOp6
 70
     1
102
RTVSPropertyOp7
 70
     1
102
RTVSPropertyOp8
 70
     1
102
RTVSPropertyOp9
 70
     1
102
RTVSPropertyOp10
 70
     1
102
RTVSPropertyOp11
 70
     1
102
RTVSPropertyOp12
 70
     1
102
RTVSPropertyOp13
 70
     1
102
RTVSPropertyOp14
 70
     1
102
RTVSPropertyOp15
 70
     1
102
RTVSPropertyOp16
 70
     1
102
RTVSPropertyOp17
 70
     1
102
RTVSPropertyOp18
 70
     1
102
RTVSPropertyOp19
 70
     1
102
RTVSPropertyOp20
 70
     1
102
RTVSPropertyOp21
 70
     1
102
RTVSPropertyOp22
 70
     1
102
RTVSPropertyOp23
 70
     1
102
RTVSPropertyOp24
 70
     1
102
RTVSPropertyOp25
 70
     1
102
RTVSPropertyOp26
 70
     1
102
RTVSPropertyOp27
 70
     1
102
RTVSPropertyOp28
 70
     1
102
RTVSPropertyOp29
 70
     1
102
RTVSPropertyOp30
 70
     1
102
RTVSPropertyOp31
 70
     1
102
RTVSPropertyOp32
 70
     1
102
RTVSPropertyOp33
 70
     1
102
RTVSPropertyOp34
 70
     1
102
RTVSPropertyOp35
 70
     1
102
RTVSPropertyOp36
 70
     1
102
RTVSPropertyOp37
 70
     1
102
RTVSPropertyOp38
 70
     1
102
RTVSPropertyOp39
 70
     1
102
RTVSPropertyOp40
 70
     1
102
RTVSPropertyOp41
 70
     1
102
RTVSPropertyOp42
 70
     1
102
RTVSPropertyOp43
 70
     1
102
RTVSPropertyOp44
 70
     1
102
RTVSPropertyOp45
 70
     1
102
RTVSPropertyOp46
 70
     1
102
RTVSPropertyOp47
 70
     1
102
RTVSPropertyOp48
 70
     1
102
RTVSPropertyOp49
 70
     1
102
RTVSPropertyOp50
 70
     1
102
RTVSPropertyOp51
 70
     0
102
RTVSPropertyOp52
 70
     0
102
RTVSPropertyOp53
 70
     1
102
RTVSPropertyOp54
 70
     1
102
RTVSPropertyOp55
 70
     1
102
RTVSPropertyOp56
 70
     1
102
RTVSPropertyOp57
 70
     1
102
RTVSPost2010Prop28
280
     0
102
RTVSPost2010PropOp28
 70
     1
102
RTVSPost2010Prop29
280
     1
102
RTVSPost2010PropOp29
 70
     1
102
RTVSPost2010Prop30
280
     1
102
RTVSPost2010PropOp30
 70
     1
102
RTVSPost2010Prop31
280
     0
102
RTVSPost2010PropOp31
 70
     1
102
RTVSPost2010Prop32
280
     0
102
RTVSPost2010PropOp32
 70
     1
102
RTVSPost2010Prop33
280
     0
102
RTVSPost2010PropOp33
 70
     1
102
RTVSPost2010Prop34
280
     0
102
RTVSPost2010PropOp34
 70
     1
102
RTVSPost2010Prop35
280
     0
102
RTVSPost2010PropOp35
 70
     1
102
RTVSPost2010Prop36
280
     0
102
RTVSPost2010PropOp36
 70
     1
102
RTVSPost2010Prop37
 90
       50
102
RTVSPost2010PropOp37
 70
     1
102
RTVSPost2010Prop38
140
0.0
102
RTVSPost2010PropOp38
 70
     1
102
RTVSPost2010Prop39
140
1.0
102
RTVSPost2010PropOp39
 70
     1
102
RTVSPost2010Prop40
 90
        0
102
RTVSPost2010PropOp40
 70
     1
102
RTVSPost2010Prop41ColorIndex
 90
       18
102
RTVSPost2010Prop41ColorRGB
 90
        0
102
RTVSPost2010PropOp41
 70
     1
102
RTVSPost2010Prop42
 90
       50
102
RTVSPost2010PropOp42
 70
     1
102
RTVSPost2010Prop43
 90
        3
102
RTVSPost2010PropOp43
 70
     1
102
RTVSPost2010Prop44ColorIndex
 90
        5
102
RTVSPost2010Prop44ColorRGB
 90
      255
102
RTVSPost2010PropOp44
 70
     1
102
RTVSPost2010Prop45
280
     0
102
RTVSPost2010PropOp45
 70
     1
102
RTVSPost2010Prop46
 90
       50
102
RTVSPost2010PropOp46
 70
     1
102
RTVSPost2010Prop47
 90
       50
102
RTVSPost2010PropOp47
 70
     1
102
RTVSPost2010Prop48
 90
       50
102
RTVSPost2010PropOp48
 70
     1
102
RTVSPost2010Prop49
280
     0
102
RTVSPost2010PropOp49
 70
     1
102
RTVSPost2010Prop50
 90
       50
102
RTVSPost2010PropOp50
 70
     1
102
RTVSPost2010Prop51ColorIndex
 90
      256
102
RTVSPost2010Prop51ColorRGB
 90
-16777216
102
RTVSPost2010PropOp51
 70
     0
102
RTVSPost2010Prop52
140
1.0
102
RTVSPost2010PropOp52
 70
     0
102
RTVSPost2010Prop53
 90
        2
102
RTVSPost2010PropOp53
 70
     1
102
RTVSPost2010Prop54
  1
strokes_ogs.tif
102
RTVSPost2010PropOp54
 70
     1
102
RTVSPost2010Prop55
280
     0
102
RTVSPost2010PropOp55
 70
     1
102
RTVSPost2010Prop56
140
1.0
102
RTVSPost2010PropOp56
 70
     1
102
RTVSPost2010Prop57
140
1.0
102
RTVSPost2010PropOp57
 70
     1
  0
XRECORD
  5
192
102
{ACAD_REACTORS
330
191
102
}
330
191
100
AcDbXrecord
280
     1
102
RTVSPropertyOp0
 70
     1
102
RTVSPropertyOp1
 70
     1
102
RTVSPropertyOp2
 70
     1
102
RTVSPropertyOp3
 70
     1
102
RTVSPropertyOp4
 70
     1
102
RTVSPropertyOp5
 70
     1
102
RTVSPropertyOp6
 70
     1
102
RTVSPropertyOp7
 70
     1
102
RTVSPropertyOp8
 70
     1
102
RTVSPropertyOp9
 70
     1
102
RTVSPropertyOp10
 70
     1
102
RTVSPropertyOp11
 70
     1
102
RTVSPropertyOp12
 70
     1
102
RTVSPropertyOp13
 70
     1
102
RTVSPropertyOp14
 70
     1
102
RTVSPropertyOp15
 70
     1
102
RTVSPropertyOp16
 70
     1
102
RTVSPropertyOp17
 70
     1
102
RTVSPropertyOp18
 70
     1
102
RTVSPropertyOp19
 70
     1
102
RTVSPropertyOp20
 70
     1
102
RTVSPropertyOp21
 70
     1
102
RTVSPropertyOp22
 70
     1
102
RTVSPropertyOp23
 70
     1
102
RTVSPropertyOp24
 70
     1
102
RTVSPropertyOp25
 70
     1
102
RTVSPropertyOp26
 70
     1
102
RTVSPropertyOp27
 70
     1
102
RTVSPropertyOp28
 70
     1
102
RTVSPropertyOp29
 70
     1
102
RTVSPropertyOp30
 70
     1
102
RTVSPropertyOp31
 70
     1
102
RTVSPropertyOp32
 70
     1
102
RTVSPropertyOp33
 70
     1
102
RTVSPropertyOp34
 70
     1
102
RTVSPropertyOp35
 70
     1
102
RTVSPropertyOp36
 70
     1
102
RTVSPropertyOp37
 70
     1
102
RTVSPropertyOp38
 70
     1
102
RTVSPropertyOp39
 70
     1
102
RTVSPropertyOp40
 70
     1
102
RTVSPropertyOp41
 70
     1
102
RTVSPropertyOp42
 70
     1
102
RTVSPropertyOp43
 70
     1
102
RTVSPropertyOp44
 70
     1
102
RTVSPropertyOp45
 70
     1
102
RTVSPropertyOp46
 70
     1
102
RTVSPropertyOp47
 70
     1
102
RTVSPropertyOp48
 70
     1
102
RTVSPropertyOp49
 70
     1
102
RTVSPropertyOp50
 70
     1
102
RTVSPropertyOp51
 70
     0
102
RTVSPropertyOp52
 70
     0
102
RTVSPropertyOp53
 70
     1
102
RTVSPropertyOp54
 70
     1
102
RTVSPropertyOp55
 70
     1
102
RTVSPropertyOp56
 70
     1
102
RTVSPropertyOp57
 70
     1
102
RTVSPost2010Prop28
280
     0
102
RTVSPost2010PropOp28
 70
     1
102
RTVSPost2010Prop29
280
     1
102
RTVSPost2010PropOp29
 70
     1
102
RTVSPost2010Prop30
280
     1
102
RTVSPost2010PropOp30
 70
     1
102
RTVSPost2010Prop31
280
     0
102
RTVSPost2010PropOp31
 70
     1
102
RTVSPost2010Prop32
280
     0
102
RTVSPost2010PropOp32
 70
     1
102
RTVSPost2010Prop33
280
     0
102
RTVSPost2010PropOp33
 70
     1
102
RTVSPost2010Prop34
280
     0
102
RTVSPost2010PropOp34
 70
     1
102
RTVSPost2010Prop35
280
     0
102
RTVSPost2010PropOp35
 70
     1
102
RTVSPost2010Prop36
280
     0
102
RTVSPost2010PropOp36
 70
     1
102
RTVSPost2010Prop37
 90
       50
102
RTVSPost2010PropOp37
 70
     1
102
RTVSPost2010Prop38
140
0.0
102
RTVSPost2010PropOp38
 70
     1
102
RTVSPost2010Prop39
140
1.0
102
RTVSPost2010PropOp39
 70
     1
102
RTVSPost2010Prop40
 90
        0
102
RTVSPost2010PropOp40
 70
     1
102
RTVSPost2010Prop41ColorIndex
 90
       18
102
RTVSPost2010Prop41ColorRGB
 90
        0
102
RTVSPost2010PropOp41
 70
     1
102
RTVSPost2010Prop42
 90
       50
102
RTVSPost2010PropOp42
 70
     1
102
RTVSPost2010Prop43
 90
        3
102
RTVSPost2010PropOp43
 70
     1
102
RTVSPost2010Prop44ColorIndex
 90
        5
102
RTVSPost2010Prop44ColorRGB
 90
      255
102
RTVSPost2010PropOp44
 70
     1
102
RTVSPost2010Prop45
280
     0
102
RTVSPost2010PropOp45
 70
     1
102
RTVSPost2010Prop46
 90
       50
102
RTVSPost2010PropOp46
 70
     1
102
RTVSPost2010Prop47
 90
       50
102
RTVSPost2010PropOp47
 70
     1
102
RTVSPost2010Prop48
 90
       50
102
RTVSPost2010PropOp48
 70
     1
102
RTVSPost2010Prop49
280
     0
102
RTVSPost2010PropOp49
 70
     1
102
RTVSPost2010Prop50
 90
       50
102
RTVSPost2010PropOp50
 70
     1
102
RTVSPost2010Prop51ColorIndex
 90
      256
102
RTVSPost2010Prop51ColorRGB
 90
-16777216
102
RTVSPost2010PropOp51
 70
     0
102
RTVSPost2010Prop52
140
1.0
102
RTVSPost2010PropOp52
 70
     0
102
RTVSPost2010Prop53
 90
        2
102
RTVSPost2010PropOp53
 70
     1
102
RTVSPost2010Prop54
  1
strokes_ogs.tif
102
RTVSPost2010PropOp54
 70
     1
102
RTVSPost2010Prop55
280
     0
102
RTVSPost2010PropOp55
 70
     1
102
RTVSPost2010Prop56
140
1.0
102
RTVSPost2010PropOp56
 70
     1
102
RTVSPost2010Prop57
140
1.0
102
RTVSPost2010PropOp57
 70
     1
  0
XRECORD
  5
1A2
102
{ACAD_REACTORS
330
1A1
102
}
330
1A1
100
AcDbXrecord
280
     1
102
RTVSPropertyOp0
 70
     0
102
RTVSPropertyOp1
 70
     0
102
RTVSPropertyOp2
 70
     0
102
RTVSPropertyOp3
 70
     0
102
RTVSPropertyOp4
 70
     0
102
RTVSPropertyOp5
 70
     0
102
RTVSPropertyOp6
 70
     0
102
RTVSPropertyOp7
 70
     0
102
RTVSPropertyOp8
 70
     0
102
RTVSPropertyOp9
 70
     0
102
RTVSPropertyOp10
 70
     0
102
RTVSPropertyOp11
 70
     0
102
RTVSPropertyOp12
 70
     0
102
RTVSPropertyOp13
 70
     0
102
RTVSPropertyOp14
 70
     2
102
RTVSPropertyOp15
 70
     0
102
RTVSPropertyOp16
 70
     0
102
RTVSPropertyOp17
 70
     0
102
RTVSPropertyOp18
 70
     0
102
RTVSPropertyOp19
 70
     0
102
RTVSPropertyOp20
 70
     0
102
RTVSPropertyOp21
 70
     0
102
RTVSPropertyOp22
 70
     0
102
RTVSPropertyOp23
 70
     0
102
RTVSPropertyOp24
 70
     0
102
RTVSPropertyOp25
 70
     0
102
RTVSPropertyOp26
 70
     0
102
RTVSPropertyOp27
 70
     0
102
RTVSPropertyOp28
 70
     0
102
RTVSPropertyOp29
 70
     0
102
RTVSPropertyOp30
 70
     0
102
RTVSPropertyOp31
 70
     0
102
RTVSPropertyOp32
 70
     0
102
RTVSPropertyOp33
 70
     0
102
RTVSPropertyOp34
 70
     0
102
RTVSPropertyOp35
 70
     0
102
RTVSPropertyOp36
 70
     0
102
RTVSPropertyOp37
 70
     0
102
RTVSPropertyOp38
 70
     0
102
RTVSPropertyOp39
 70
     0
102
RTVSPropertyOp40
 70
     0
102
RTVSPropertyOp41
 70
     0
102
RTVSPropertyOp42
 70
     0
102
RTVSPropertyOp43
 70
     0
102
RTVSPropertyOp44
 70
     0
102
RTVSPropertyOp45
 70
     0
102
RTVSPropertyOp46
 70
     0
102
RTVSPropertyOp47
 70
     0
102
RTVSPropertyOp48
 70
     0
102
RTVSPropertyOp49
 70
     0
102
RTVSPropertyOp50
 70
     0
102
RTVSPropertyOp51
 70
     0
102
RTVSPropertyOp52
 70
     0
102
RTVSPropertyOp53
 70
     0
102
RTVSPropertyOp54
 70
     0
102
RTVSPropertyOp55
 70
     0
102
RTVSPropertyOp56
 70
     0
102
RTVSPropertyOp57
 70
     0
102
RTVSPost2010Prop28
280
     0
102
RTVSPost2010PropOp28
 70
     0
102
RTVSPost2010Prop29
280
     1
102
RTVSPost2010PropOp29
 70
     0
102
RTVSPost2010Prop30
280
     1
102
RTVSPost2010PropOp30
 70
     0
102
RTVSPost2010Prop31
280
     0
102
RTVSPost2010PropOp31
 70
     0
102
RTVSPost2010Prop32
280
     0
102
RTVSPost2010PropOp32
 70
     0
102
RTVSPost2010Prop33
280
     0
102
RTVSPost2010PropOp33
 70
     0
102
RTVSPost2010Prop34
280
     0
102
RTVSPost2010PropOp34
 70
     0
102
RTVSPost2010Prop35
280
     0
102
RTVSPost2010PropOp35
 70
     0
102
RTVSPost2010Prop36
280
     0
102
RTVSPost2010PropOp36
 70
     0
102
RTVSPost2010Prop37
 90
       50
102
RTVSPost2010PropOp37
 70
     0
102
RTVSPost2010Prop38
140
0.0
102
RTVSPost2010PropOp38
 70
     0
102
RTVSPost2010Prop39
140
1.0
102
RTVSPost2010PropOp39
 70
     0
102
RTVSPost2010Prop40
 90
        0
102
RTVSPost2010PropOp40
 70
     0
102
RTVSPost2010Prop41ColorIndex
 90
       18
102
RTVSPost2010Prop41ColorRGB
 90
        0
102
RTVSPost2010PropOp41
 70
     0
102
RTVSPost2010Prop42
 90
       50
102
RTVSPost2010PropOp42
 70
     0
102
RTVSPost2010Prop43
 90
        3
102
RTVSPost2010PropOp43
 70
     0
102
RTVSPost2010Prop44ColorIndex
 90
        5
102
RTVSPost2010Prop44ColorRGB
 90
      255
102
RTVSPost2010PropOp44
 70
     0
102
RTVSPost2010Prop45
280
     0
102
RTVSPost2010PropOp45
 70
     0
102
RTVSPost2010Prop46
 90
       50
102
RTVSPost2010PropOp46
 70
     0
102
RTVSPost2010Prop47
 90
       50
102
RTVSPost2010PropOp47
 70
     0
102
RTVSPost2010Prop48
 90
       50
102
RTVSPost2010PropOp48
 70
     0
102
RTVSPost2010Prop49
280
     0
102
RTVSPost2010PropOp49
 70
     0
102
RTVSPost2010Prop50
 90
       50
102
RTVSPost2010PropOp50
 70
     0
102
RTVSPost2010Prop51ColorIndex
 90
      256
102
RTVSPost2010Prop51ColorRGB
 90
-16777216
102
RTVSPost2010PropOp51
 70
     0
102
RTVSPost2010Prop52
140
1.0
102
RTVSPost2010PropOp52
 70
     0
102
RTVSPost2010Prop53
 90
        2
102
RTVSPost2010PropOp53
 70
     0
102
RTVSPost2010Prop54
  1
strokes_ogs.tif
102
RTVSPost2010PropOp54
 70
     0
102
RTVSPost2010Prop55
280
     0
102
RTVSPost2010PropOp55
 70
     0
102
RTVSPost2010Prop56
140
1.0
102
RTVSPost2010PropOp56
 70
     0
102
RTVSPost2010Prop57
140
1.0
102
RTVSPost2010PropOp57
 70
     0
  0
XRECORD
  5
19A
102
{ACAD_REACTORS
330
199
102
}
330
199
100
AcDbXrecord
280
     1
102
RTVSPropertyOp0
 70
     1
102
RTVSPropertyOp1
 70
     1
102
RTVSPropertyOp2
 70
     1
102
RTVSPropertyOp3
 70
     1
102
RTVSPropertyOp4
 70
     1
102
RTVSPropertyOp5
 70
     1
102
RTVSPropertyOp6
 70
     1
102
RTVSPropertyOp7
 70
     1
102
RTVSPropertyOp8
 70
     1
102
RTVSPropertyOp9
 70
     1
102
RTVSPropertyOp10
 70
     1
102
RTVSPropertyOp11
 70
     1
102
RTVSPropertyOp12
 70
     1
102
RTVSPropertyOp13
 70
     1
102
RTVSPropertyOp14
 70
     1
102
RTVSPropertyOp15
 70
     1
102
RTVSPropertyOp16
 70
     1
102
RTVSPropertyOp17
 70
     1
102
RTVSPropertyOp18
 70
     1
102
RTVSPropertyOp19
 70
     1
102
RTVSPropertyOp20
 70
     1
102
RTVSPropertyOp21
 70
     1
102
RTVSPropertyOp22
 70
     1
102
RTVSPropertyOp23
 70
     1
102
RTVSPropertyOp24
 70
     1
102
RTVSPropertyOp25
 70
     1
102
RTVSPropertyOp26
 70
     1
102
RTVSPropertyOp27
 70
     1
102
RTVSPropertyOp28
 70
     1
102
RTVSPropertyOp29
 70
     1
102
RTVSPropertyOp30
 70
     1
102
RTVSPropertyOp31
 70
     1
102
RTVSPropertyOp32
 70
     1
102
RTVSPropertyOp33
 70
     1
102
RTVSPropertyOp34
 70
     1
102
RTVSPropertyOp35
 70
     1
102
RTVSPropertyOp36
 70
     1
102
RTVSPropertyOp37
 70
     1
102
RTVSPropertyOp38
 70
     1
102
RTVSPropertyOp39
 70
     1
102
RTVSPropertyOp40
 70
     1
102
RTVSPropertyOp41
 70
     1
102
RTVSPropertyOp42
 70
     1
102
RTVSPropertyOp43
 70
     1
102
RTVSPropertyOp44
 70
     1
102
RTVSPropertyOp45
 70
     1
102
RTVSPropertyOp46
 70
     1
102
RTVSPropertyOp47
 70
     1
102
RTVSPropertyOp48
 70
     1
102
RTVSPropertyOp49
 70
     1
102
RTVSPropertyOp50
 70
     1
102
RTVSPropertyOp51
 70
     0
102
RTVSPropertyOp52
 70
     0
102
RTVSPropertyOp53
 70
     1
102
RTVSPropertyOp54
 70
     1
102
RTVSPropertyOp55
 70
     1
102
RTVSPropertyOp56
 70
     1
102
RTVSPropertyOp57
 70
     1
102
RTVSPost2010Prop28
280
     0
102
RTVSPost2010PropOp28
 70
     1
102
RTVSPost2010Prop29
280
     1
102
RTVSPost2010PropOp29
 70
     1
102
RTVSPost2010Prop30
280
     1
102
RTVSPost2010PropOp30
 70
     1
102
RTVSPost2010Prop31
280
     0
102
RTVSPost2010PropOp31
 70
     1
102
RTVSPost2010Prop32
280
     0
102
RTVSPost2010PropOp32
 70
     1
102
RTVSPost2010Prop33
280
     0
102
RTVSPost2010PropOp33
 70
     1
102
RTVSPost2010Prop34
280
     0
102
RTVSPost2010PropOp34
 70
     1
102
RTVSPost2010Prop35
280
     0
102
RTVSPost2010PropOp35
 70
     1
102
RTVSPost2010Prop36
280
     0
102
RTVSPost2010PropOp36
 70
     1
102
RTVSPost2010Prop37
 90
       50
102
RTVSPost2010PropOp37
 70
     1
102
RTVSPost2010Prop38
140
0.0
102
RTVSPost2010PropOp38
 70
     1
102
RTVSPost2010Prop39
140
1.0
102
RTVSPost2010PropOp39
 70
     1
102
RTVSPost2010Prop40
 90
        0
102
RTVSPost2010PropOp40
 70
     1
102
RTVSPost2010Prop41ColorIndex
 90
       18
102
RTVSPost2010Prop41ColorRGB
 90
        0
102
RTVSPost2010PropOp41
 70
     1
102
RTVSPost2010Prop42
 90
       50
102
RTVSPost2010PropOp42
 70
     1
102
RTVSPost2010Prop43
 90
        3
102
RTVSPost2010PropOp43
 70
     1
102
RTVSPost2010Prop44ColorIndex
 90
        5
102
RTVSPost2010Prop44ColorRGB
 90
      255
102
RTVSPost2010PropOp44
 70
     1
102
RTVSPost2010Prop45
280
     0
102
RTVSPost2010PropOp45
 70
     1
102
RTVSPost2010Prop46
 90
       50
102
RTVSPost2010PropOp46
 70
     1
102
RTVSPost2010Prop47
 90
       50
102
RTVSPost2010PropOp47
 70
     1
102
RTVSPost2010Prop48
 90
       50
102
RTVSPost2010PropOp48
 70
     1
102
RTVSPost2010Prop49
280
     0
102
RTVSPost2010PropOp49
 70
     1
102
RTVSPost2010Prop50
 90
       50
102
RTVSPost2010PropOp50
 70
     1
102
RTVSPost2010Prop51ColorIndex
 90
      256
102
RTVSPost2010Prop51ColorRGB
 90
-16777216
102
RTVSPost2010PropOp51
 70
     0
102
RTVSPost2010Prop52
140
1.0
102
RTVSPost2010PropOp52
 70
     0
102
RTVSPost2010Prop53
 90
        2
102
RTVSPost2010PropOp53
 70
     1
102
RTVSPost2010Prop54
  1
strokes_ogs.tif
102
RTVSPost2010PropOp54
 70
     1
102
RTVSPost2010Prop55
280
     0
102
RTVSPost2010PropOp55
 70
     1
102
RTVSPost2010Prop56
140
1.0
102
RTVSPost2010PropOp56
 70
     1
102
RTVSPost2010Prop57
140
1.0
102
RTVSPost2010PropOp57
 70
     1
  0
XRECORD
  5
17E
102
{ACAD_REACTORS
330
17D
102
}
330
17D
100
AcDbXrecord
280
     1
102
RTVSPropertyOp0
 70
     1
102
RTVSPropertyOp1
 70
     1
102
RTVSPropertyOp2
 70
     1
102
RTVSPropertyOp3
 70
     1
102
RTVSPropertyOp4
 70
     1
102
RTVSPropertyOp5
 70
     1
102
RTVSPropertyOp6
 70
     1
102
RTVSPropertyOp7
 70
     1
102
RTVSPropertyOp8
 70
     1
102
RTVSPropertyOp9
 70
     1
102
RTVSPropertyOp10
 70
     1
102
RTVSPropertyOp11
 70
     1
102
RTVSPropertyOp12
 70
     1
102
RTVSPropertyOp13
 70
     1
102
RTVSPropertyOp14
 70
     1
102
RTVSPropertyOp15
 70
     1
102
RTVSPropertyOp16
 70
     1
102
RTVSPropertyOp17
 70
     1
102
RTVSPropertyOp18
 70
     1
102
RTVSPropertyOp19
 70
     1
102
RTVSPropertyOp20
 70
     1
102
RTVSPropertyOp21
 70
     1
102
RTVSPropertyOp22
 70
     1
102
RTVSPropertyOp23
 70
     1
102
RTVSPropertyOp24
 70
     1
102
RTVSPropertyOp25
 70
     1
102
RTVSPropertyOp26
 70
     1
102
RTVSPropertyOp27
 70
     1
102
RTVSPropertyOp28
 70
     1
102
RTVSPropertyOp29
 70
     1
102
RTVSPropertyOp30
 70
     1
102
RTVSPropertyOp31
 70
     1
102
RTVSPropertyOp32
 70
     1
102
RTVSPropertyOp33
 70
     1
102
RTVSPropertyOp34
 70
     1
102
RTVSPropertyOp35
 70
     1
102
RTVSPropertyOp36
 70
     1
102
RTVSPropertyOp37
 70
     1
102
RTVSPropertyOp38
 70
     1
102
RTVSPropertyOp39
 70
     1
102
RTVSPropertyOp40
 70
     1
102
RTVSPropertyOp41
 70
     1
102
RTVSPropertyOp42
 70
     1
102
RTVSPropertyOp43
 70
     1
102
RTVSPropertyOp44
 70
     1
102
RTVSPropertyOp45
 70
     1
102
RTVSPropertyOp46
 70
     1
102
RTVSPropertyOp47
 70
     1
102
RTVSPropertyOp48
 70
     1
102
RTVSPropertyOp49
 70
     1
102
RTVSPropertyOp50
 70
     1
102
RTVSPropertyOp51
 70
     0
102
RTVSPropertyOp52
 70
     0
102
RTVSPropertyOp53
 70
     1
102
RTVSPropertyOp54
 70
     1
102
RTVSPropertyOp55
 70
     1
102
RTVSPropertyOp56
 70
     1
102
RTVSPropertyOp57
 70
     1
102
RTVSPost2010Prop28
280
     0
102
RTVSPost2010PropOp28
 70
     1
102
RTVSPost2010Prop29
280
     1
102
RTVSPost2010PropOp29
 70
     1
102
RTVSPost2010Prop30
280
     1
102
RTVSPost2010PropOp30
 70
     1
102
RTVSPost2010Prop31
280
     0
102
RTVSPost2010PropOp31
 70
     1
102
RTVSPost2010Prop32
280
     0
102
RTVSPost2010PropOp32
 70
     1
102
RTVSPost2010Prop33
280
     0
102
RTVSPost2010PropOp33
 70
     1
102
RTVSPost2010Prop34
280
     0
102
RTVSPost2010PropOp34
 70
     1
102
RTVSPost2010Prop35
280
     0
102
RTVSPost2010PropOp35
 70
     1
102
RTVSPost2010Prop36
280
     0
102
RTVSPost2010PropOp36
 70
     1
102
RTVSPost2010Prop37
 90
       50
102
RTVSPost2010PropOp37
 70
     1
102
RTVSPost2010Prop38
140
0.0
102
RTVSPost2010PropOp38
 70
     1
102
RTVSPost2010Prop39
140
1.0
102
RTVSPost2010PropOp39
 70
     1
102
RTVSPost2010Prop40
 90
        0
102
RTVSPost2010PropOp40
 70
     1
102
RTVSPost2010Prop41ColorIndex
 90
       18
102
RTVSPost2010Prop41ColorRGB
 90
        0
102
RTVSPost2010PropOp41
 70
     1
102
RTVSPost2010Prop42
 90
       50
102
RTVSPost2010PropOp42
 70
     1
102
RTVSPost2010Prop43
 90
        3
102
RTVSPost2010PropOp43
 70
     1
102
RTVSPost2010Prop44ColorIndex
 90
        5
102
RTVSPost2010Prop44ColorRGB
 90
      255
102
RTVSPost2010PropOp44
 70
     1
102
RTVSPost2010Prop45
280
     0
102
RTVSPost2010PropOp45
 70
     1
102
RTVSPost2010Prop46
 90
       50
102
RTVSPost2010PropOp46
 70
     1
102
RTVSPost2010Prop47
 90
       50
102
RTVSPost2010PropOp47
 70
     1
102
RTVSPost2010Prop48
 90
       50
102
RTVSPost2010PropOp48
 70
     1
102
RTVSPost2010Prop49
280
     0
102
RTVSPost2010PropOp49
 70
     1
102
RTVSPost2010Prop50
 90
       50
102
RTVSPost2010PropOp50
 70
     1
102
RTVSPost2010Prop51ColorIndex
 90
      256
102
RTVSPost2010Prop51ColorRGB
 90
-16777216
102
RTVSPost2010PropOp51
 70
     0
102
RTVSPost2010Prop52
140
1.0
102
RTVSPost2010PropOp52
 70
     0
102
RTVSPost2010Prop53
 90
        2
102
RTVSPost2010PropOp53
 70
     1
102
RTVSPost2010Prop54
  1
strokes_ogs.tif
102
RTVSPost2010PropOp54
 70
     1
102
RTVSPost2010Prop55
280
     0
102
RTVSPost2010PropOp55
 70
     1
102
RTVSPost2010Prop56
140
1.0
102
RTVSPost2010PropOp56
 70
     1
102
RTVSPost2010Prop57
140
1.0
102
RTVSPost2010PropOp57
 70
     1
  0
XRECORD
  5
180
102
{ACAD_REACTORS
330
17F
102
}
330
17F
100
AcDbXrecord
280
     1
102
RTVSPropertyOp0
 70
     1
102
RTVSPropertyOp1
 70
     1
102
RTVSPropertyOp2
 70
     1
102
RTVSPropertyOp3
 70
     1
102
RTVSPropertyOp4
 70
     1
102
RTVSPropertyOp5
 70
     1
102
RTVSPropertyOp6
 70
     1
102
RTVSPropertyOp7
 70
     1
102
RTVSPropertyOp8
 70
     1
102
RTVSPropertyOp9
 70
     1
102
RTVSPropertyOp10
 70
     1
102
RTVSPropertyOp11
 70
     1
102
RTVSPropertyOp12
 70
     1
102
RTVSPropertyOp13
 70
     1
102
RTVSPropertyOp14
 70
     1
102
RTVSPropertyOp15
 70
     1
102
RTVSPropertyOp16
 70
     1
102
RTVSPropertyOp17
 70
     1
102
RTVSPropertyOp18
 70
     1
102
RTVSPropertyOp19
 70
     1
102
RTVSPropertyOp20
 70
     1
102
RTVSPropertyOp21
 70
     1
102
RTVSPropertyOp22
 70
     1
102
RTVSPropertyOp23
 70
     1
102
RTVSPropertyOp24
 70
     1
102
RTVSPropertyOp25
 70
     1
102
RTVSPropertyOp26
 70
     1
102
RTVSPropertyOp27
 70
     1
102
RTVSPropertyOp28
 70
     1
102
RTVSPropertyOp29
 70
     1
102
RTVSPropertyOp30
 70
     1
102
RTVSPropertyOp31
 70
     1
102
RTVSPropertyOp32
 70
     1
102
RTVSPropertyOp33
 70
     1
102
RTVSPropertyOp34
 70
     1
102
RTVSPropertyOp35
 70
     1
102
RTVSPropertyOp36
 70
     1
102
RTVSPropertyOp37
 70
     1
102
RTVSPropertyOp38
 70
     1
102
RTVSPropertyOp39
 70
     1
102
RTVSPropertyOp40
 70
     1
102
RTVSPropertyOp41
 70
     1
102
RTVSPropertyOp42
 70
     1
102
RTVSPropertyOp43
 70
     1
102
RTVSPropertyOp44
 70
     1
102
RTVSPropertyOp45
 70
     1
102
RTVSPropertyOp46
 70
     1
102
RTVSPropertyOp47
 70
     1
102
RTVSPropertyOp48
 70
     1
102
RTVSPropertyOp49
 70
     1
102
RTVSPropertyOp50
 70
     1
102
RTVSPropertyOp51
 70
     0
102
RTVSPropertyOp52
 70
     0
102
RTVSPropertyOp53
 70
     1
102
RTVSPropertyOp54
 70
     1
102
RTVSPropertyOp55
 70
     1
102
RTVSPropertyOp56
 70
     1
102
RTVSPropertyOp57
 70
     1
102
RTVSPost2010Prop28
280
     0
102
RTVSPost2010PropOp28
 70
     1
102
RTVSPost2010Prop29
280
     1
102
RTVSPost2010PropOp29
 70
     1
102
RTVSPost2010Prop30
280
     1
102
RTVSPost2010PropOp30
 70
     1
102
RTVSPost2010Prop31
280
     0
102
RTVSPost2010PropOp31
 70
     1
102
RTVSPost2010Prop32
280
     0
102
RTVSPost2010PropOp32
 70
     1
102
RTVSPost2010Prop33
280
     0
102
RTVSPost2010PropOp33
 70
     1
102
RTVSPost2010Prop34
280
     0
102
RTVSPost2010PropOp34
 70
     1
102
RTVSPost2010Prop35
280
     0
102
RTVSPost2010PropOp35
 70
     1
102
RTVSPost2010Prop36
280
     0
102
RTVSPost2010PropOp36
 70
     1
102
RTVSPost2010Prop37
 90
       50
102
RTVSPost2010PropOp37
 70
     1
102
RTVSPost2010Prop38
140
0.0
102
RTVSPost2010PropOp38
 70
     1
102
RTVSPost2010Prop39
140
1.0
102
RTVSPost2010PropOp39
 70
     1
102
RTVSPost2010Prop40
 90
        0
102
RTVSPost2010PropOp40
 70
     1
102
RTVSPost2010Prop41ColorIndex
 90
       18
102
RTVSPost2010Prop41ColorRGB
 90
        0
102
RTVSPost2010PropOp41
 70
     1
102
RTVSPost2010Prop42
 90
       50
102
RTVSPost2010PropOp42
 70
     1
102
RTVSPost2010Prop43
 90
        3
102
RTVSPost2010PropOp43
 70
     1
102
RTVSPost2010Prop44ColorIndex
 90
        5
102
RTVSPost2010Prop44ColorRGB
 90
      255
102
RTVSPost2010PropOp44
 70
     1
102
RTVSPost2010Prop45
280
     0
102
RTVSPost2010PropOp45
 70
     1
102
RTVSPost2010Prop46
 90
       50
102
RTVSPost2010PropOp46
 70
     1
102
RTVSPost2010Prop47
 90
       50
102
RTVSPost2010PropOp47
 70
     1
102
RTVSPost2010Prop48
 90
       50
102
RTVSPost2010PropOp48
 70
     1
102
RTVSPost2010Prop49
280
     0
102
RTVSPost2010PropOp49
 70
     1
102
RTVSPost2010Prop50
 90
       50
102
RTVSPost2010PropOp50
 70
     1
102
RTVSPost2010Prop51ColorIndex
 90
      256
102
RTVSPost2010Prop51ColorRGB
 90
-16777216
102
RTVSPost2010PropOp51
 70
     0
102
RTVSPost2010Prop52
140
1.0
102
RTVSPost2010PropOp52
 70
     0
102
RTVSPost2010Prop53
 90
        2
102
RTVSPost2010PropOp53
 70
     1
102
RTVSPost2010Prop54
  1
strokes_ogs.tif
102
RTVSPost2010PropOp54
 70
     1
102
RTVSPost2010Prop55
280
     0
102
RTVSPost2010PropOp55
 70
     1
102
RTVSPost2010Prop56
140
1.0
102
RTVSPost2010PropOp56
 70
     1
102
RTVSPost2010Prop57
140
1.0
102
RTVSPost2010PropOp57
 70
     1
  0
XRECORD
  5
182
102
{ACAD_REACTORS
330
181
102
}
330
181
100
AcDbXrecord
280
     1
102
RTVSPropertyOp0
 70
     1
102
RTVSPropertyOp1
 70
     1
102
RTVSPropertyOp2
 70
     1
102
RTVSPropertyOp3
 70
     1
102
RTVSPropertyOp4
 70
     1
102
RTVSPropertyOp5
 70
     1
102
RTVSPropertyOp6
 70
     1
102
RTVSPropertyOp7
 70
     1
102
RTVSPropertyOp8
 70
     1
102
RTVSPropertyOp9
 70
     1
102
RTVSPropertyOp10
 70
     1
102
RTVSPropertyOp11
 70
     1
102
RTVSPropertyOp12
 70
     1
102
RTVSPropertyOp13
 70
     1
102
RTVSPropertyOp14
 70
     1
102
RTVSPropertyOp15
 70
     1
102
RTVSPropertyOp16
 70
     1
102
RTVSPropertyOp17
 70
     1
102
RTVSPropertyOp18
 70
     1
102
RTVSPropertyOp19
 70
     1
102
RTVSPropertyOp20
 70
     1
102
RTVSPropertyOp21
 70
     1
102
RTVSPropertyOp22
 70
     1
102
RTVSPropertyOp23
 70
     1
102
RTVSPropertyOp24
 70
     1
102
RTVSPropertyOp25
 70
     1
102
RTVSPropertyOp26
 70
     1
102
RTVSPropertyOp27
 70
     1
102
RTVSPropertyOp28
 70
     1
102
RTVSPropertyOp29
 70
     1
102
RTVSPropertyOp30
 70
     1
102
RTVSPropertyOp31
 70
     1
102
RTVSPropertyOp32
 70
     1
102
RTVSPropertyOp33
 70
     1
102
RTVSPropertyOp34
 70
     1
102
RTVSPropertyOp35
 70
     1
102
RTVSPropertyOp36
 70
     1
102
RTVSPropertyOp37
 70
     1
102
RTVSPropertyOp38
 70
     1
102
RTVSPropertyOp39
 70
     1
102
RTVSPropertyOp40
 70
     1
102
RTVSPropertyOp41
 70
     1
102
RTVSPropertyOp42
 70
     1
102
RTVSPropertyOp43
 70
     1
102
RTVSPropertyOp44
 70
     1
102
RTVSPropertyOp45
 70
     1
102
RTVSPropertyOp46
 70
     1
102
RTVSPropertyOp47
 70
     1
102
RTVSPropertyOp48
 70
     1
102
RTVSPropertyOp49
 70
     1
102
RTVSPropertyOp50
 70
     1
102
RTVSPropertyOp51
 70
     0
102
RTVSPropertyOp52
 70
     0
102
RTVSPropertyOp53
 70
     1
102
RTVSPropertyOp54
 70
     1
102
RTVSPropertyOp55
 70
     1
102
RTVSPropertyOp56
 70
     1
102
RTVSPropertyOp57
 70
     1
102
RTVSPost2010Prop28
280
     0
102
RTVSPost2010PropOp28
 70
     1
102
RTVSPost2010Prop29
280
     1
102
RTVSPost2010PropOp29
 70
     1
102
RTVSPost2010Prop30
280
     1
102
RTVSPost2010PropOp30
 70
     1
102
RTVSPost2010Prop31
280
     0
102
RTVSPost2010PropOp31
 70
     1
102
RTVSPost2010Prop32
280
     0
102
RTVSPost2010PropOp32
 70
     1
102
RTVSPost2010Prop33
280
     0
102
RTVSPost2010PropOp33
 70
     1
102
RTVSPost2010Prop34
280
     0
102
RTVSPost2010PropOp34
 70
     1
102
RTVSPost2010Prop35
280
     0
102
RTVSPost2010PropOp35
 70
     1
102
RTVSPost2010Prop36
280
     0
102
RTVSPost2010PropOp36
 70
     1
102
RTVSPost2010Prop37
 90
       50
102
RTVSPost2010PropOp37
 70
     1
102
RTVSPost2010Prop38
140
0.0
102
RTVSPost2010PropOp38
 70
     1
102
RTVSPost2010Prop39
140
1.0
102
RTVSPost2010PropOp39
 70
     1
102
RTVSPost2010Prop40
 90
        0
102
RTVSPost2010PropOp40
 70
     1
102
RTVSPost2010Prop41ColorIndex
 90
       18
102
RTVSPost2010Prop41ColorRGB
 90
        0
102
RTVSPost2010PropOp41
 70
     1
102
RTVSPost2010Prop42
 90
       50
102
RTVSPost2010PropOp42
 70
     1
102
RTVSPost2010Prop43
 90
        3
102
RTVSPost2010PropOp43
 70
     1
102
RTVSPost2010Prop44ColorIndex
 90
        5
102
RTVSPost2010Prop44ColorRGB
 90
      255
102
RTVSPost2010PropOp44
 70
     1
102
RTVSPost2010Prop45
280
     0
102
RTVSPost2010PropOp45
 70
     1
102
RTVSPost2010Prop46
 90
       50
102
RTVSPost2010PropOp46
 70
     1
102
RTVSPost2010Prop47
 90
       50
102
RTVSPost2010PropOp47
 70
     1
102
RTVSPost2010Prop48
 90
       50
102
RTVSPost2010PropOp48
 70
     1
102
RTVSPost2010Prop49
280
     0
102
RTVSPost2010PropOp49
 70
     1
102
RTVSPost2010Prop50
 90
       50
102
RTVSPost2010PropOp50
 70
     1
102
RTVSPost2010Prop51ColorIndex
 90
      256
102
RTVSPost2010Prop51ColorRGB
 90
-16777216
102
RTVSPost2010PropOp51
 70
     0
102
RTVSPost2010Prop52
140
1.0
102
RTVSPost2010PropOp52
 70
     0
102
RTVSPost2010Prop53
 90
        2
102
RTVSPost2010PropOp53
 70
     1
102
RTVSPost2010Prop54
  1
strokes_ogs.tif
102
RTVSPost2010PropOp54
 70
     1
102
RTVSPost2010Prop55
280
     0
102
RTVSPost2010PropOp55
 70
     1
102
RTVSPost2010Prop56
140
1.0
102
RTVSPost2010PropOp56
 70
     1
102
RTVSPost2010Prop57
140
1.0
102
RTVSPost2010PropOp57
 70
     1
  0
XRECORD
  5
184
102
{ACAD_REACTORS
330
183
102
}
330
183
100
AcDbXrecord
280
     1
102
RTVSPropertyOp0
 70
     1
102
RTVSPropertyOp1
 70
     1
102
RTVSPropertyOp2
 70
     1
102
RTVSPropertyOp3
 70
     1
102
RTVSPropertyOp4
 70
     1
102
RTVSPropertyOp5
 70
     1
102
RTVSPropertyOp6
 70
     1
102
RTVSPropertyOp7
 70
     1
102
RTVSPropertyOp8
 70
     1
102
RTVSPropertyOp9
 70
     1
102
RTVSPropertyOp10
 70
     1
102
RTVSPropertyOp11
 70
     1
102
RTVSPropertyOp12
 70
     1
102
RTVSPropertyOp13
 70
     1
102
RTVSPropertyOp14
 70
     1
102
RTVSPropertyOp15
 70
     1
102
RTVSPropertyOp16
 70
     1
102
RTVSPropertyOp17
 70
     1
102
RTVSPropertyOp18
 70
     1
102
RTVSPropertyOp19
 70
     1
102
RTVSPropertyOp20
 70
     1
102
RTVSPropertyOp21
 70
     1
102
RTVSPropertyOp22
 70
     1
102
RTVSPropertyOp23
 70
     1
102
RTVSPropertyOp24
 70
     1
102
RTVSPropertyOp25
 70
     1
102
RTVSPropertyOp26
 70
     1
102
RTVSPropertyOp27
 70
     1
102
RTVSPropertyOp28
 70
     1
102
RTVSPropertyOp29
 70
     1
102
RTVSPropertyOp30
 70
     1
102
RTVSPropertyOp31
 70
     1
102
RTVSPropertyOp32
 70
     1
102
RTVSPropertyOp33
 70
     1
102
RTVSPropertyOp34
 70
     1
102
RTVSPropertyOp35
 70
     1
102
RTVSPropertyOp36
 70
     1
102
RTVSPropertyOp37
 70
     1
102
RTVSPropertyOp38
 70
     1
102
RTVSPropertyOp39
 70
     1
102
RTVSPropertyOp40
 70
     1
102
RTVSPropertyOp41
 70
     1
102
RTVSPropertyOp42
 70
     1
102
RTVSPropertyOp43
 70
     1
102
RTVSPropertyOp44
 70
     1
102
RTVSPropertyOp45
 70
     1
102
RTVSPropertyOp46
 70
     1
102
RTVSPropertyOp47
 70
     1
102
RTVSPropertyOp48
 70
     1
102
RTVSPropertyOp49
 70
     1
102
RTVSPropertyOp50
 70
     1
102
RTVSPropertyOp51
 70
     0
102
RTVSPropertyOp52
 70
     0
102
RTVSPropertyOp53
 70
     1
102
RTVSPropertyOp54
 70
     1
102
RTVSPropertyOp55
 70
     1
102
RTVSPropertyOp56
 70
     1
102
RTVSPropertyOp57
 70
     1
102
RTVSPost2010Prop28
280
     0
102
RTVSPost2010PropOp28
 70
     1
102
RTVSPost2010Prop29
280
     1
102
RTVSPost2010PropOp29
 70
     1
102
RTVSPost2010Prop30
280
     1
102
RTVSPost2010PropOp30
 70
     1
102
RTVSPost2010Prop31
280
     0
102
RTVSPost2010PropOp31
 70
     1
102
RTVSPost2010Prop32
280
     0
102
RTVSPost2010PropOp32
 70
     1
102
RTVSPost2010Prop33
280
     0
102
RTVSPost2010PropOp33
 70
     1
102
RTVSPost2010Prop34
280
     0
102
RTVSPost2010PropOp34
 70
     1
102
RTVSPost2010Prop35
280
     0
102
RTVSPost2010PropOp35
 70
     1
102
RTVSPost2010Prop36
280
     0
102
RTVSPost2010PropOp36
 70
     1
102
RTVSPost2010Prop37
 90
       50
102
RTVSPost2010PropOp37
 70
     1
102
RTVSPost2010Prop38
140
0.0
102
RTVSPost2010PropOp38
 70
     1
102
RTVSPost2010Prop39
140
1.0
102
RTVSPost2010PropOp39
 70
     1
102
RTVSPost2010Prop40
 90
        0
102
RTVSPost2010PropOp40
 70
     1
102
RTVSPost2010Prop41ColorIndex
 90
       18
102
RTVSPost2010Prop41ColorRGB
 90
        0
102
RTVSPost2010PropOp41
 70
     1
102
RTVSPost2010Prop42
 90
       50
102
RTVSPost2010PropOp42
 70
     1
102
RTVSPost2010Prop43
 90
        3
102
RTVSPost2010PropOp43
 70
     1
102
RTVSPost2010Prop44ColorIndex
 90
        5
102
RTVSPost2010Prop44ColorRGB
 90
      255
102
RTVSPost2010PropOp44
 70
     1
102
RTVSPost2010Prop45
280
     0
102
RTVSPost2010PropOp45
 70
     1
102
RTVSPost2010Prop46
 90
       50
102
RTVSPost2010PropOp46
 70
     1
102
RTVSPost2010Prop47
 90
       50
102
RTVSPost2010PropOp47
 70
     1
102
RTVSPost2010Prop48
 90
       50
102
RTVSPost2010PropOp48
 70
     1
102
RTVSPost2010Prop49
280
     0
102
RTVSPost2010PropOp49
 70
     1
102
RTVSPost2010Prop50
 90
       50
102
RTVSPost2010PropOp50
 70
     1
102
RTVSPost2010Prop51ColorIndex
 90
      256
102
RTVSPost2010Prop51ColorRGB
 90
-16777216
102
RTVSPost2010PropOp51
 70
     0
102
RTVSPost2010Prop52
140
1.0
102
RTVSPost2010PropOp52
 70
     0
102
RTVSPost2010Prop53
 90
        2
102
RTVSPost2010PropOp53
 70
     1
102
RTVSPost2010Prop54
  1
strokes_ogs.tif
102
RTVSPost2010PropOp54
 70
     1
102
RTVSPost2010Prop55
280
     0
102
RTVSPost2010PropOp55
 70
     1
102
RTVSPost2010Prop56
140
1.0
102
RTVSPost2010PropOp56
 70
     1
102
RTVSPost2010Prop57
140
1.0
102
RTVSPost2010PropOp57
 70
     1
  0
XRECORD
  5
18A
102
{ACAD_REACTORS
330
189
102
}
330
189
100
AcDbXrecord
280
     1
102
RTVSPropertyOp0
 70
     1
102
RTVSPropertyOp1
 70
     1
102
RTVSPropertyOp2
 70
     1
102
RTVSPropertyOp3
 70
     1
102
RTVSPropertyOp4
 70
     1
102
RTVSPropertyOp5
 70
     1
102
RTVSPropertyOp6
 70
     1
102
RTVSPropertyOp7
 70
     1
102
RTVSPropertyOp8
 70
     1
102
RTVSPropertyOp9
 70
     1
102
RTVSPropertyOp10
 70
     1
102
RTVSPropertyOp11
 70
     1
102
RTVSPropertyOp12
 70
     1
102
RTVSPropertyOp13
 70
     1
102
RTVSPropertyOp14
 70
     1
102
RTVSPropertyOp15
 70
     1
102
RTVSPropertyOp16
 70
     1
102
RTVSPropertyOp17
 70
     1
102
RTVSPropertyOp18
 70
     1
102
RTVSPropertyOp19
 70
     1
102
RTVSPropertyOp20
 70
     1
102
RTVSPropertyOp21
 70
     1
102
RTVSPropertyOp22
 70
     1
102
RTVSPropertyOp23
 70
     1
102
RTVSPropertyOp24
 70
     1
102
RTVSPropertyOp25
 70
     1
102
RTVSPropertyOp26
 70
     1
102
RTVSPropertyOp27
 70
     1
102
RTVSPropertyOp28
 70
     1
102
RTVSPropertyOp29
 70
     1
102
RTVSPropertyOp30
 70
     1
102
RTVSPropertyOp31
 70
     1
102
RTVSPropertyOp32
 70
     1
102
RTVSPropertyOp33
 70
     1
102
RTVSPropertyOp34
 70
     1
102
RTVSPropertyOp35
 70
     1
102
RTVSPropertyOp36
 70
     1
102
RTVSPropertyOp37
 70
     1
102
RTVSPropertyOp38
 70
     1
102
RTVSPropertyOp39
 70
     1
102
RTVSPropertyOp40
 70
     1
102
RTVSPropertyOp41
 70
     1
102
RTVSPropertyOp42
 70
     1
102
RTVSPropertyOp43
 70
     1
102
RTVSPropertyOp44
 70
     1
102
RTVSPropertyOp45
 70
     1
102
RTVSPropertyOp46
 70
     1
102
RTVSPropertyOp47
 70
     1
102
RTVSPropertyOp48
 70
     1
102
RTVSPropertyOp49
 70
     1
102
RTVSPropertyOp50
 70
     1
102
RTVSPropertyOp51
 70
     0
102
RTVSPropertyOp52
 70
     0
102
RTVSPropertyOp53
 70
     1
102
RTVSPropertyOp54
 70
     1
102
RTVSPropertyOp55
 70
     1
102
RTVSPropertyOp56
 70
     1
102
RTVSPropertyOp57
 70
     1
102
RTVSPost2010Prop28
280
     0
102
RTVSPost2010PropOp28
 70
     1
102
RTVSPost2010Prop29
280
     1
102
RTVSPost2010PropOp29
 70
     1
102
RTVSPost2010Prop30
280
     1
102
RTVSPost2010PropOp30
 70
     1
102
RTVSPost2010Prop31
280
     0
102
RTVSPost2010PropOp31
 70
     1
102
RTVSPost2010Prop32
280
     0
102
RTVSPost2010PropOp32
 70
     1
102
RTVSPost2010Prop33
280
     0
102
RTVSPost2010PropOp33
 70
     1
102
RTVSPost2010Prop34
280
     0
102
RTVSPost2010PropOp34
 70
     1
102
RTVSPost2010Prop35
280
     0
102
RTVSPost2010PropOp35
 70
     1
102
RTVSPost2010Prop36
280
     0
102
RTVSPost2010PropOp36
 70
     1
102
RTVSPost2010Prop37
 90
       50
102
RTVSPost2010PropOp37
 70
     1
102
RTVSPost2010Prop38
140
0.0
102
RTVSPost2010PropOp38
 70
     1
102
RTVSPost2010Prop39
140
1.0
102
RTVSPost2010PropOp39
 70
     1
102
RTVSPost2010Prop40
 90
        0
102
RTVSPost2010PropOp40
 70
     1
102
RTVSPost2010Prop41ColorIndex
 90
       18
102
RTVSPost2010Prop41ColorRGB
 90
        0
102
RTVSPost2010PropOp41
 70
     1
102
RTVSPost2010Prop42
 90
       50
102
RTVSPost2010PropOp42
 70
     1
102
RTVSPost2010Prop43
 90
        3
102
RTVSPost2010PropOp43
 70
     1
102
RTVSPost2010Prop44ColorIndex
 90
        5
102
RTVSPost2010Prop44ColorRGB
 90
      255
102
RTVSPost2010PropOp44
 70
     1
102
RTVSPost2010Prop45
280
     0
102
RTVSPost2010PropOp45
 70
     1
102
RTVSPost2010Prop46
 90
       50
102
RTVSPost2010PropOp46
 70
     1
102
RTVSPost2010Prop47
 90
       50
102
RTVSPost2010PropOp47
 70
     1
102
RTVSPost2010Prop48
 90
       50
102
RTVSPost2010PropOp48
 70
     1
102
RTVSPost2010Prop49
280
     0
102
RTVSPost2010PropOp49
 70
     1
102
RTVSPost2010Prop50
 90
       50
102
RTVSPost2010PropOp50
 70
     1
102
RTVSPost2010Prop51ColorIndex
 90
      256
102
RTVSPost2010Prop51ColorRGB
 90
-16777216
102
RTVSPost2010PropOp51
 70
     0
102
RTVSPost2010Prop52
140
1.0
102
RTVSPost2010PropOp52
 70
     0
102
RTVSPost2010Prop53
 90
        2
102
RTVSPost2010PropOp53
 70
     1
102
RTVSPost2010Prop54
  1
strokes_ogs.tif
102
RTVSPost2010PropOp54
 70
     1
102
RTVSPost2010Prop55
280
     0
102
RTVSPost2010PropOp55
 70
     1
102
RTVSPost2010Prop56
140
1.0
102
RTVSPost2010PropOp56
 70
     1
102
RTVSPost2010Prop57
140
1.0
102
RTVSPost2010PropOp57
 70
     1
  0
XRECORD
  5
19E
102
{ACAD_REACTORS
330
19D
102
}
330
19D
100
AcDbXrecord
280
     1
102
RTVSPropertyOp0
 70
     0
102
RTVSPropertyOp1
 70
     0
102
RTVSPropertyOp2
 70
     0
102
RTVSPropertyOp3
 70
     0
102
RTVSPropertyOp4
 70
     0
102
RTVSPropertyOp5
 70
     0
102
RTVSPropertyOp6
 70
     0
102
RTVSPropertyOp7
 70
     0
102
RTVSPropertyOp8
 70
     0
102
RTVSPropertyOp9
 70
     0
102
RTVSPropertyOp10
 70
     0
102
RTVSPropertyOp11
 70
     0
102
RTVSPropertyOp12
 70
     0
102
RTVSPropertyOp13
 70
     0
102
RTVSPropertyOp14
 70
     2
102
RTVSPropertyOp15
 70
     0
102
RTVSPropertyOp16
 70
     0
102
RTVSPropertyOp17
 70
     0
102
RTVSPropertyOp18
 70
     0
102
RTVSPropertyOp19
 70
     0
102
RTVSPropertyOp20
 70
     0
102
RTVSPropertyOp21
 70
     0
102
RTVSPropertyOp22
 70
     0
102
RTVSPropertyOp23
 70
     0
102
RTVSPropertyOp24
 70
     0
102
RTVSPropertyOp25
 70
     0
102
RTVSPropertyOp26
 70
     0
102
RTVSPropertyOp27
 70
     0
102
RTVSPropertyOp28
 70
     0
102
RTVSPropertyOp29
 70
     0
102
RTVSPropertyOp30
 70
     0
102
RTVSPropertyOp31
 70
     0
102
RTVSPropertyOp32
 70
     0
102
RTVSPropertyOp33
 70
     0
102
RTVSPropertyOp34
 70
     0
102
RTVSPropertyOp35
 70
     0
102
RTVSPropertyOp36
 70
     0
102
RTVSPropertyOp37
 70
     0
102
RTVSPropertyOp38
 70
     0
102
RTVSPropertyOp39
 70
     0
102
RTVSPropertyOp40
 70
     0
102
RTVSPropertyOp41
 70
     0
102
RTVSPropertyOp42
 70
     0
102
RTVSPropertyOp43
 70
     0
102
RTVSPropertyOp44
 70
     0
102
RTVSPropertyOp45
 70
     0
102
RTVSPropertyOp46
 70
     0
102
RTVSPropertyOp47
 70
     0
102
RTVSPropertyOp48
 70
     0
102
RTVSPropertyOp49
 70
     0
102
RTVSPropertyOp50
 70
     0
102
RTVSPropertyOp51
 70
     0
102
RTVSPropertyOp52
 70
     0
102
RTVSPropertyOp53
 70
     0
102
RTVSPropertyOp54
 70
     0
102
RTVSPropertyOp55
 70
     0
102
RTVSPropertyOp56
 70
     0
102
RTVSPropertyOp57
 70
     0
102
RTVSPost2010Prop28
280
     0
102
RTVSPost2010PropOp28
 70
     0
102
RTVSPost2010Prop29
280
     1
102
RTVSPost2010PropOp29
 70
     0
102
RTVSPost2010Prop30
280
     1
102
RTVSPost2010PropOp30
 70
     0
102
RTVSPost2010Prop31
280
     0
102
RTVSPost2010PropOp31
 70
     0
102
RTVSPost2010Prop32
280
     0
102
RTVSPost2010PropOp32
 70
     0
102
RTVSPost2010Prop33
280
     0
102
RTVSPost2010PropOp33
 70
     0
102
RTVSPost2010Prop34
280
     0
102
RTVSPost2010PropOp34
 70
     0
102
RTVSPost2010Prop35
280
     0
102
RTVSPost2010PropOp35
 70
     0
102
RTVSPost2010Prop36
280
     0
102
RTVSPost2010PropOp36
 70
     0
102
RTVSPost2010Prop37
 90
       50
102
RTVSPost2010PropOp37
 70
     0
102
RTVSPost2010Prop38
140
0.0
102
RTVSPost2010PropOp38
 70
     0
102
RTVSPost2010Prop39
140
1.0
102
RTVSPost2010PropOp39
 70
     0
102
RTVSPost2010Prop40
 90
        0
102
RTVSPost2010PropOp40
 70
     0
102
RTVSPost2010Prop41ColorIndex
 90
       18
102
RTVSPost2010Prop41ColorRGB
 90
        0
102
RTVSPost2010PropOp41
 70
     0
102
RTVSPost2010Prop42
 90
       50
102
RTVSPost2010PropOp42
 70
     0
102
RTVSPost2010Prop43
 90
        3
102
RTVSPost2010PropOp43
 70
     0
102
RTVSPost2010Prop44ColorIndex
 90
        5
102
RTVSPost2010Prop44ColorRGB
 90
      255
102
RTVSPost2010PropOp44
 70
     0
102
RTVSPost2010Prop45
280
     0
102
RTVSPost2010PropOp45
 70
     0
102
RTVSPost2010Prop46
 90
       50
102
RTVSPost2010PropOp46
 70
     0
102
RTVSPost2010Prop47
 90
       50
102
RTVSPost2010PropOp47
 70
     0
102
RTVSPost2010Prop48
 90
       50
102
RTVSPost2010PropOp48
 70
     0
102
RTVSPost2010Prop49
280
     0
102
RTVSPost2010PropOp49
 70
     0
102
RTVSPost2010Prop50
 90
       50
102
RTVSPost2010PropOp50
 70
     0
102
RTVSPost2010Prop51ColorIndex
 90
      256
102
RTVSPost2010Prop51ColorRGB
 90
-16777216
102
RTVSPost2010PropOp51
 70
     0
102
RTVSPost2010Prop52
140
1.0
102
RTVSPost2010PropOp52
 70
     0
102
RTVSPost2010Prop53
 90
        2
102
RTVSPost2010PropOp53
 70
     0
102
RTVSPost2010Prop54
  1
strokes_ogs.tif
102
RTVSPost2010PropOp54
 70
     0
102
RTVSPost2010Prop55
280
     0
102
RTVSPost2010PropOp55
 70
     0
102
RTVSPost2010Prop56
140
1.0
102
RTVSPost2010PropOp56
 70
     0
102
RTVSPost2010Prop57
140
1.0
102
RTVSPost2010PropOp57
 70
     0
  0
XRECORD
  5
198
102
{ACAD_REACTORS
330
197
102
}
330
197
100
AcDbXrecord
280
     1
102
RTVSPropertyOp0
 70
     1
102
RTVSPropertyOp1
 70
     1
102
RTVSPropertyOp2
 70
     1
102
RTVSPropertyOp3
 70
     1
102
RTVSPropertyOp4
 70
     1
102
RTVSPropertyOp5
 70
     1
102
RTVSPropertyOp6
 70
     1
102
RTVSPropertyOp7
 70
     1
102
RTVSPropertyOp8
 70
     1
102
RTVSPropertyOp9
 70
     1
102
RTVSPropertyOp10
 70
     1
102
RTVSPropertyOp11
 70
     1
102
RTVSPropertyOp12
 70
     1
102
RTVSPropertyOp13
 70
     1
102
RTVSPropertyOp14
 70
     1
102
RTVSPropertyOp15
 70
     1
102
RTVSPropertyOp16
 70
     1
102
RTVSPropertyOp17
 70
     1
102
RTVSPropertyOp18
 70
     1
102
RTVSPropertyOp19
 70
     1
102
RTVSPropertyOp20
 70
     1
102
RTVSPropertyOp21
 70
     1
102
RTVSPropertyOp22
 70
     1
102
RTVSPropertyOp23
 70
     1
102
RTVSPropertyOp24
 70
     1
102
RTVSPropertyOp25
 70
     1
102
RTVSPropertyOp26
 70
     1
102
RTVSPropertyOp27
 70
     1
102
RTVSPropertyOp28
 70
     1
102
RTVSPropertyOp29
 70
     1
102
RTVSPropertyOp30
 70
     1
102
RTVSPropertyOp31
 70
     1
102
RTVSPropertyOp32
 70
     1
102
RTVSPropertyOp33
 70
     1
102
RTVSPropertyOp34
 70
     1
102
RTVSPropertyOp35
 70
     1
102
RTVSPropertyOp36
 70
     1
102
RTVSPropertyOp37
 70
     1
102
RTVSPropertyOp38
 70
     1
102
RTVSPropertyOp39
 70
     1
102
RTVSPropertyOp40
 70
     1
102
RTVSPropertyOp41
 70
     1
102
RTVSPropertyOp42
 70
     1
102
RTVSPropertyOp43
 70
     1
102
RTVSPropertyOp44
 70
     1
102
RTVSPropertyOp45
 70
     1
102
RTVSPropertyOp46
 70
     1
102
RTVSPropertyOp47
 70
     1
102
RTVSPropertyOp48
 70
     1
102
RTVSPropertyOp49
 70
     1
102
RTVSPropertyOp50
 70
     1
102
RTVSPropertyOp51
 70
     0
102
RTVSPropertyOp52
 70
     0
102
RTVSPropertyOp53
 70
     1
102
RTVSPropertyOp54
 70
     1
102
RTVSPropertyOp55
 70
     1
102
RTVSPropertyOp56
 70
     1
102
RTVSPropertyOp57
 70
     1
102
RTVSPost2010Prop28
280
     0
102
RTVSPost2010PropOp28
 70
     1
102
RTVSPost2010Prop29
280
     1
102
RTVSPost2010PropOp29
 70
     1
102
RTVSPost2010Prop30
280
     1
102
RTVSPost2010PropOp30
 70
     1
102
RTVSPost2010Prop31
280
     0
102
RTVSPost2010PropOp31
 70
     1
102
RTVSPost2010Prop32
280
     0
102
RTVSPost2010PropOp32
 70
     1
102
RTVSPost2010Prop33
280
     0
102
RTVSPost2010PropOp33
 70
     1
102
RTVSPost2010Prop34
280
     0
102
RTVSPost2010PropOp34
 70
     1
102
RTVSPost2010Prop35
280
     0
102
RTVSPost2010PropOp35
 70
     1
102
RTVSPost2010Prop36
280
     0
102
RTVSPost2010PropOp36
 70
     1
102
RTVSPost2010Prop37
 90
       50
102
RTVSPost2010PropOp37
 70
     1
102
RTVSPost2010Prop38
140
0.0
102
RTVSPost2010PropOp38
 70
     1
102
RTVSPost2010Prop39
140
1.0
102
RTVSPost2010PropOp39
 70
     1
102
RTVSPost2010Prop40
 90
        0
102
RTVSPost2010PropOp40
 70
     1
102
RTVSPost2010Prop41ColorIndex
 90
       18
102
RTVSPost2010Prop41ColorRGB
 90
        0
102
RTVSPost2010PropOp41
 70
     1
102
RTVSPost2010Prop42
 90
       50
102
RTVSPost2010PropOp42
 70
     1
102
RTVSPost2010Prop43
 90
        3
102
RTVSPost2010PropOp43
 70
     1
102
RTVSPost2010Prop44ColorIndex
 90
        5
102
RTVSPost2010Prop44ColorRGB
 90
      255
102
RTVSPost2010PropOp44
 70
     1
102
RTVSPost2010Prop45
280
     0
102
RTVSPost2010PropOp45
 70
     1
102
RTVSPost2010Prop46
 90
       50
102
RTVSPost2010PropOp46
 70
     1
102
RTVSPost2010Prop47
 90
       50
102
RTVSPost2010PropOp47
 70
     1
102
RTVSPost2010Prop48
 90
       50
102
RTVSPost2010PropOp48
 70
     1
102
RTVSPost2010Prop49
280
     0
102
RTVSPost2010PropOp49
 70
     1
102
RTVSPost2010Prop50
 90
       50
102
RTVSPost2010PropOp50
 70
     1
102
RTVSPost2010Prop51ColorIndex
 90
      256
102
RTVSPost2010Prop51ColorRGB
 90
-16777216
102
RTVSPost2010PropOp51
 70
     0
102
RTVSPost2010Prop52
140
1.0
102
RTVSPost2010PropOp52
 70
     0
102
RTVSPost2010Prop53
 90
        2
102
RTVSPost2010PropOp53
 70
     1
102
RTVSPost2010Prop54
  1
strokes_ogs.tif
102
RTVSPost2010PropOp54
 70
     1
102
RTVSPost2010Prop55
280
     0
102
RTVSPost2010PropOp55
 70
     1
102
RTVSPost2010Prop56
140
1.0
102
RTVSPost2010PropOp56
 70
     1
102
RTVSPost2010Prop57
140
1.0
102
RTVSPost2010PropOp57
 70
     1
  0
XRECORD
  5
1A0
102
{ACAD_REACTORS
330
19F
102
}
330
19F
100
AcDbXrecord
280
     1
102
RTVSPropertyOp0
 70
     0
102
RTVSPropertyOp1
 70
     0
102
RTVSPropertyOp2
 70
     0
102
RTVSPropertyOp3
 70
     0
102
RTVSPropertyOp4
 70
     0
102
RTVSPropertyOp5
 70
     0
102
RTVSPropertyOp6
 70
     0
102
RTVSPropertyOp7
 70
     0
102
RTVSPropertyOp8
 70
     0
102
RTVSPropertyOp9
 70
     0
102
RTVSPropertyOp10
 70
     0
102
RTVSPropertyOp11
 70
     0
102
RTVSPropertyOp12
 70
     0
102
RTVSPropertyOp13
 70
     0
102
RTVSPropertyOp14
 70
     2
102
RTVSPropertyOp15
 70
     0
102
RTVSPropertyOp16
 70
     0
102
RTVSPropertyOp17
 70
     0
102
RTVSPropertyOp18
 70
     0
102
RTVSPropertyOp19
 70
     0
102
RTVSPropertyOp20
 70
     0
102
RTVSPropertyOp21
 70
     0
102
RTVSPropertyOp22
 70
     0
102
RTVSPropertyOp23
 70
     0
102
RTVSPropertyOp24
 70
     0
102
RTVSPropertyOp25
 70
     0
102
RTVSPropertyOp26
 70
     0
102
RTVSPropertyOp27
 70
     0
102
RTVSPropertyOp28
 70
     0
102
RTVSPropertyOp29
 70
     0
102
RTVSPropertyOp30
 70
     0
102
RTVSPropertyOp31
 70
     0
102
RTVSPropertyOp32
 70
     0
102
RTVSPropertyOp33
 70
     0
102
RTVSPropertyOp34
 70
     0
102
RTVSPropertyOp35
 70
     0
102
RTVSPropertyOp36
 70
     0
102
RTVSPropertyOp37
 70
     0
102
RTVSPropertyOp38
 70
     0
102
RTVSPropertyOp39
 70
     0
102
RTVSPropertyOp40
 70
     0
102
RTVSPropertyOp41
 70
     0
102
RTVSPropertyOp42
 70
     0
102
RTVSPropertyOp43
 70
     0
102
RTVSPropertyOp44
 70
     0
102
RTVSPropertyOp45
 70
     0
102
RTVSPropertyOp46
 70
     0
102
RTVSPropertyOp47
 70
     0
102
RTVSPropertyOp48
 70
     0
102
RTVSPropertyOp49
 70
     0
102
RTVSPropertyOp50
 70
     0
102
RTVSPropertyOp51
 70
     0
102
RTVSPropertyOp52
 70
     0
102
RTVSPropertyOp53
 70
     0
102
RTVSPropertyOp54
 70
     0
102
RTVSPropertyOp55
 70
     0
102
RTVSPropertyOp56
 70
     0
102
RTVSPropertyOp57
 70
     0
102
RTVSPost2010Prop28
280
     0
102
RTVSPost2010PropOp28
 70
     0
102
RTVSPost2010Prop29
280
     1
102
RTVSPost2010PropOp29
 70
     0
102
RTVSPost2010Prop30
280
     1
102
RTVSPost2010PropOp30
 70
     0
102
RTVSPost2010Prop31
280
     0
102
RTVSPost2010PropOp31
 70
     0
102
RTVSPost2010Prop32
280
     0
102
RTVSPost2010PropOp32
 70
     0
102
RTVSPost2010Prop33
280
     0
102
RTVSPost2010PropOp33
 70
     0
102
RTVSPost2010Prop34
280
     0
102
RTVSPost2010PropOp34
 70
     0
102
RTVSPost2010Prop35
280
     0
102
RTVSPost2010PropOp35
 70
     0
102
RTVSPost2010Prop36
280
     0
102
RTVSPost2010PropOp36
 70
     0
102
RTVSPost2010Prop37
 90
       50
102
RTVSPost2010PropOp37
 70
     0
102
RTVSPost2010Prop38
140
0.0
102
RTVSPost2010PropOp38
 70
     0
102
RTVSPost2010Prop39
140
1.0
102
RTVSPost2010PropOp39
 70
     0
102
RTVSPost2010Prop40
 90
        0
102
RTVSPost2010PropOp40
 70
     0
102
RTVSPost2010Prop41ColorIndex
 90
       18
102
RTVSPost2010Prop41ColorRGB
 90
        0
102
RTVSPost2010PropOp41
 70
     0
102
RTVSPost2010Prop42
 90
       50
102
RTVSPost2010PropOp42
 70
     0
102
RTVSPost2010Prop43
 90
        3
102
RTVSPost2010PropOp43
 70
     0
102
RTVSPost2010Prop44ColorIndex
 90
        5
102
RTVSPost2010Prop44ColorRGB
 90
      255
102
RTVSPost2010PropOp44
 70
     0
102
RTVSPost2010Prop45
280
     0
102
RTVSPost2010PropOp45
 70
     0
102
RTVSPost2010Prop46
 90
       50
102
RTVSPost2010PropOp46
 70
     0
102
RTVSPost2010Prop47
 90
       50
102
RTVSPost2010PropOp47
 70
     0
102
RTVSPost2010Prop48
 90
       50
102
RTVSPost2010PropOp48
 70
     0
102
RTVSPost2010Prop49
280
     0
102
RTVSPost2010PropOp49
 70
     0
102
RTVSPost2010Prop50
 90
       50
102
RTVSPost2010PropOp50
 70
     0
102
RTVSPost2010Prop51ColorIndex
 90
      256
102
RTVSPost2010Prop51ColorRGB
 90
-16777216
102
RTVSPost2010PropOp51
 70
     0
102
RTVSPost2010Prop52
140
1.0
102
RTVSPost2010PropOp52
 70
     0
102
RTVSPost2010Prop53
 90
        2
102
RTVSPost2010PropOp53
 70
     0
102
RTVSPost2010Prop54
  1
strokes_ogs.tif
102
RTVSPost2010PropOp54
 70
     0
102
RTVSPost2010Prop55
280
     0
102
RTVSPost2010PropOp55
 70
     0
102
RTVSPost2010Prop56
140
1.0
102
RTVSPost2010PropOp56
 70
     0
102
RTVSPost2010Prop57
140
1.0
102
RTVSPost2010PropOp57
 70
     0
  0
XRECORD
  5
18E
102
{ACAD_REACTORS
330
18D
102
}
330
18D
100
AcDbXrecord
280
     1
102
RTVSPropertyOp0
 70
     1
102
RTVSPropertyOp1
 70
     1
102
RTVSPropertyOp2
 70
     1
102
RTVSPropertyOp3
 70
     1
102
RTVSPropertyOp4
 70
     1
102
RTVSPropertyOp5
 70
     1
102
RTVSPropertyOp6
 70
     1
102
RTVSPropertyOp7
 70
     1
102
RTVSPropertyOp8
 70
     1
102
RTVSPropertyOp9
 70
     1
102
RTVSPropertyOp10
 70
     1
102
RTVSPropertyOp11
 70
     1
102
RTVSPropertyOp12
 70
     1
102
RTVSPropertyOp13
 70
     1
102
RTVSPropertyOp14
 70
     1
102
RTVSPropertyOp15
 70
     1
102
RTVSPropertyOp16
 70
     1
102
RTVSPropertyOp17
 70
     1
102
RTVSPropertyOp18
 70
     1
102
RTVSPropertyOp19
 70
     1
102
RTVSPropertyOp20
 70
     1
102
RTVSPropertyOp21
 70
     1
102
RTVSPropertyOp22
 70
     1
102
RTVSPropertyOp23
 70
     1
102
RTVSPropertyOp24
 70
     1
102
RTVSPropertyOp25
 70
     1
102
RTVSPropertyOp26
 70
     1
102
RTVSPropertyOp27
 70
     1
102
RTVSPropertyOp28
 70
     1
102
RTVSPropertyOp29
 70
     1
102
RTVSPropertyOp30
 70
     1
102
RTVSPropertyOp31
 70
     1
102
RTVSPropertyOp32
 70
     1
102
RTVSPropertyOp33
 70
     1
102
RTVSPropertyOp34
 70
     1
102
RTVSPropertyOp35
 70
     1
102
RTVSPropertyOp36
 70
     1
102
RTVSPropertyOp37
 70
     1
102
RTVSPropertyOp38
 70
     1
102
RTVSPropertyOp39
 70
     1
102
RTVSPropertyOp40
 70
     1
102
RTVSPropertyOp41
 70
     1
102
RTVSPropertyOp42
 70
     1
102
RTVSPropertyOp43
 70
     1
102
RTVSPropertyOp44
 70
     1
102
RTVSPropertyOp45
 70
     1
102
RTVSPropertyOp46
 70
     1
102
RTVSPropertyOp47
 70
     1
102
RTVSPropertyOp48
 70
     1
102
RTVSPropertyOp49
 70
     1
102
RTVSPropertyOp50
 70
     1
102
RTVSPropertyOp51
 70
     0
102
RTVSPropertyOp52
 70
     0
102
RTVSPropertyOp53
 70
     1
102
RTVSPropertyOp54
 70
     1
102
RTVSPropertyOp55
 70
     1
102
RTVSPropertyOp56
 70
     1
102
RTVSPropertyOp57
 70
     1
102
RTVSPost2010Prop28
280
     0
102
RTVSPost2010PropOp28
 70
     1
102
RTVSPost2010Prop29
280
     1
102
RTVSPost2010PropOp29
 70
     1
102
RTVSPost2010Prop30
280
     1
102
RTVSPost2010PropOp30
 70
     1
102
RTVSPost2010Prop31
280
     0
102
RTVSPost2010PropOp31
 70
     1
102
RTVSPost2010Prop32
280
     0
102
RTVSPost2010PropOp32
 70
     1
102
RTVSPost2010Prop33
280
     0
102
RTVSPost2010PropOp33
 70
     1
102
RTVSPost2010Prop34
280
     0
102
RTVSPost2010PropOp34
 70
     1
102
RTVSPost2010Prop35
280
     0
102
RTVSPost2010PropOp35
 70
     1
102
RTVSPost2010Prop36
280
     0
102
RTVSPost2010PropOp36
 70
     1
102
RTVSPost2010Prop37
 90
       50
102
RTVSPost2010PropOp37
 70
     1
102
RTVSPost2010Prop38
140
0.0
102
RTVSPost2010PropOp38
 70
     1
102
RTVSPost2010Prop39
140
1.0
102
RTVSPost2010PropOp39
 70
     1
102
RTVSPost2010Prop40
 90
        0
102
RTVSPost2010PropOp40
 70
     1
102
RTVSPost2010Prop41ColorIndex
 90
       18
102
RTVSPost2010Prop41ColorRGB
 90
        0
102
RTVSPost2010PropOp41
 70
     1
102
RTVSPost2010Prop42
 90
       50
102
RTVSPost2010PropOp42
 70
     1
102
RTVSPost2010Prop43
 90
        3
102
RTVSPost2010PropOp43
 70
     1
102
RTVSPost2010Prop44ColorIndex
 90
        5
102
RTVSPost2010Prop44ColorRGB
 90
      255
102
RTVSPost2010PropOp44
 70
     1
102
RTVSPost2010Prop45
280
     0
102
RTVSPost2010PropOp45
 70
     1
102
RTVSPost2010Prop46
 90
       50
102
RTVSPost2010PropOp46
 70
     1
102
RTVSPost2010Prop47
 90
       50
102
RTVSPost2010PropOp47
 70
     1
102
RTVSPost2010Prop48
 90
       50
102
RTVSPost2010PropOp48
 70
     1
102
RTVSPost2010Prop49
280
     0
102
RTVSPost2010PropOp49
 70
     1
102
RTVSPost2010Prop50
 90
       50
102
RTVSPost2010PropOp50
 70
     1
102
RTVSPost2010Prop51ColorIndex
 90
      256
102
RTVSPost2010Prop51ColorRGB
 90
-16777216
102
RTVSPost2010PropOp51
 70
     0
102
RTVSPost2010Prop52
140
1.0
102
RTVSPost2010PropOp52
 70
     0
102
RTVSPost2010Prop53
 90
        2
102
RTVSPost2010PropOp53
 70
     1
102
RTVSPost2010Prop54
  1
strokes_ogs.tif
102
RTVSPost2010PropOp54
 70
     1
102
RTVSPost2010Prop55
280
     0
102
RTVSPost2010PropOp55
 70
     1
102
RTVSPost2010Prop56
140
1.0
102
RTVSPost2010PropOp56
 70
     1
102
RTVSPost2010Prop57
140
1.0
102
RTVSPost2010PropOp57
 70
     1
  0
XRECORD
  5
1AC
102
{ACAD_REACTORS
330
1AB
102
}
330
1AB
100
AcDbXrecord
280
     1
102
RTVSPropertyOp0
 70
     1
102
RTVSPropertyOp1
 70
     1
102
RTVSPropertyOp2
 70
     1
102
RTVSPropertyOp3
 70
     1
102
RTVSPropertyOp4
 70
     1
102
RTVSPropertyOp5
 70
     1
102
RTVSPropertyOp6
 70
     1
102
RTVSPropertyOp7
 70
     1
102
RTVSPropertyOp8
 70
     1
102
RTVSPropertyOp9
 70
     1
102
RTVSPropertyOp10
 70
     1
102
RTVSPropertyOp11
 70
     1
102
RTVSPropertyOp12
 70
     1
102
RTVSPropertyOp13
 70
     1
102
RTVSPropertyOp14
 70
     1
102
RTVSPropertyOp15
 70
     1
102
RTVSPropertyOp16
 70
     1
102
RTVSPropertyOp17
 70
     1
102
RTVSPropertyOp18
 70
     1
102
RTVSPropertyOp19
 70
     1
102
RTVSPropertyOp20
 70
     1
102
RTVSPropertyOp21
 70
     1
102
RTVSPropertyOp22
 70
     1
102
RTVSPropertyOp23
 70
     1
102
RTVSPropertyOp24
 70
     1
102
RTVSPropertyOp25
 70
     1
102
RTVSPropertyOp26
 70
     1
102
RTVSPropertyOp27
 70
     1
102
RTVSPropertyOp28
 70
     1
102
RTVSPropertyOp29
 70
     1
102
RTVSPropertyOp30
 70
     1
102
RTVSPropertyOp31
 70
     1
102
RTVSPropertyOp32
 70
     1
102
RTVSPropertyOp33
 70
     1
102
RTVSPropertyOp34
 70
     1
102
RTVSPropertyOp35
 70
     1
102
RTVSPropertyOp36
 70
     1
102
RTVSPropertyOp37
 70
     1
102
RTVSPropertyOp38
 70
     1
102
RTVSPropertyOp39
 70
     1
102
RTVSPropertyOp40
 70
     1
102
RTVSPropertyOp41
 70
     1
102
RTVSPropertyOp42
 70
     1
102
RTVSPropertyOp43
 70
     1
102
RTVSPropertyOp44
 70
     1
102
RTVSPropertyOp45
 70
     1
102
RTVSPropertyOp46
 70
     1
102
RTVSPropertyOp47
 70
     1
102
RTVSPropertyOp48
 70
     1
102
RTVSPropertyOp49
 70
     1
102
RTVSPropertyOp50
 70
     1
102
RTVSPropertyOp51
 70
     0
102
RTVSPropertyOp52
 70
     0
102
RTVSPropertyOp53
 70
     1
102
RTVSPropertyOp54
 70
     1
102
RTVSPropertyOp55
 70
     1
102
RTVSPropertyOp56
 70
     1
102
RTVSPropertyOp57
 70
     1
102
RTVSPost2010Prop28
280
     0
102
RTVSPost2010PropOp28
 70
     1
102
RTVSPost2010Prop29
280
     1
102
RTVSPost2010PropOp29
 70
     1
102
RTVSPost2010Prop30
280
     1
102
RTVSPost2010PropOp30
 70
     1
102
RTVSPost2010Prop31
280
     0
102
RTVSPost2010PropOp31
 70
     1
102
RTVSPost2010Prop32
280
     0
102
RTVSPost2010PropOp32
 70
     1
102
RTVSPost2010Prop33
280
     0
102
RTVSPost2010PropOp33
 70
     1
102
RTVSPost2010Prop34
280
     0
102
RTVSPost2010PropOp34
 70
     1
102
RTVSPost2010Prop35
280
     0
102
RTVSPost2010PropOp35
 70
     1
102
RTVSPost2010Prop36
280
     0
102
RTVSPost2010PropOp36
 70
     1
102
RTVSPost2010Prop37
 90
       50
102
RTVSPost2010PropOp37
 70
     1
102
RTVSPost2010Prop38
140
0.0
102
RTVSPost2010PropOp38
 70
     1
102
RTVSPost2010Prop39
140
1.0
102
RTVSPost2010PropOp39
 70
     1
102
RTVSPost2010Prop40
 90
        0
102
RTVSPost2010PropOp40
 70
     1
102
RTVSPost2010Prop41ColorIndex
 90
       18
102
RTVSPost2010Prop41ColorRGB
 90
        0
102
RTVSPost2010PropOp41
 70
     1
102
RTVSPost2010Prop42
 90
       50
102
RTVSPost2010PropOp42
 70
     1
102
RTVSPost2010Prop43
 90
        3
102
RTVSPost2010PropOp43
 70
     1
102
RTVSPost2010Prop44ColorIndex
 90
        5
102
RTVSPost2010Prop44ColorRGB
 90
      255
102
RTVSPost2010PropOp44
 70
     1
102
RTVSPost2010Prop45
280
     0
102
RTVSPost2010PropOp45
 70
     1
102
RTVSPost2010Prop46
 90
       50
102
RTVSPost2010PropOp46
 70
     1
102
RTVSPost2010Prop47
 90
       50
102
RTVSPost2010PropOp47
 70
     1
102
RTVSPost2010Prop48
 90
       50
102
RTVSPost2010PropOp48
 70
     1
102
RTVSPost2010Prop49
280
     0
102
RTVSPost2010PropOp49
 70
     1
102
RTVSPost2010Prop50
 90
       50
102
RTVSPost2010PropOp50
 70
     1
102
RTVSPost2010Prop51ColorIndex
 90
      256
102
RTVSPost2010Prop51ColorRGB
 90
-16777216
102
RTVSPost2010PropOp51
 70
     0
102
RTVSPost2010Prop52
140
1.0
102
RTVSPost2010PropOp52
 70
     0
102
RTVSPost2010Prop53
 90
        2
102
RTVSPost2010PropOp53
 70
     1
102
RTVSPost2010Prop54
  1
strokes_ogs.tif
102
RTVSPost2010PropOp54
 70
     1
102
RTVSPost2010Prop55
280
     0
102
RTVSPost2010PropOp55
 70
     1
102
RTVSPost2010Prop56
140
1.0
102
RTVSPost2010PropOp56
 70
     1
102
RTVSPost2010Prop57
140
1.0
102
RTVSPost2010PropOp57
 70
     1
  0
XRECORD
  5
1AA
102
{ACAD_REACTORS
330
1A9
102
}
330
1A9
100
AcDbXrecord
280
     1
102
RTVSPropertyOp0
 70
     1
102
RTVSPropertyOp1
 70
     1
102
RTVSPropertyOp2
 70
     1
102
RTVSPropertyOp3
 70
     1
102
RTVSPropertyOp4
 70
     1
102
RTVSPropertyOp5
 70
     1
102
RTVSPropertyOp6
 70
     1
102
RTVSPropertyOp7
 70
     1
102
RTVSPropertyOp8
 70
     1
102
RTVSPropertyOp9
 70
     1
102
RTVSPropertyOp10
 70
     1
102
RTVSPropertyOp11
 70
     1
102
RTVSPropertyOp12
 70
     1
102
RTVSPropertyOp13
 70
     1
102
RTVSPropertyOp14
 70
     1
102
RTVSPropertyOp15
 70
     1
102
RTVSPropertyOp16
 70
     1
102
RTVSPropertyOp17
 70
     1
102
RTVSPropertyOp18
 70
     1
102
RTVSPropertyOp19
 70
     1
102
RTVSPropertyOp20
 70
     1
102
RTVSPropertyOp21
 70
     1
102
RTVSPropertyOp22
 70
     1
102
RTVSPropertyOp23
 70
     1
102
RTVSPropertyOp24
 70
     1
102
RTVSPropertyOp25
 70
     1
102
RTVSPropertyOp26
 70
     1
102
RTVSPropertyOp27
 70
     1
102
RTVSPropertyOp28
 70
     1
102
RTVSPropertyOp29
 70
     1
102
RTVSPropertyOp30
 70
     1
102
RTVSPropertyOp31
 70
     1
102
RTVSPropertyOp32
 70
     1
102
RTVSPropertyOp33
 70
     1
102
RTVSPropertyOp34
 70
     1
102
RTVSPropertyOp35
 70
     1
102
RTVSPropertyOp36
 70
     1
102
RTVSPropertyOp37
 70
     1
102
RTVSPropertyOp38
 70
     1
102
RTVSPropertyOp39
 70
     1
102
RTVSPropertyOp40
 70
     1
102
RTVSPropertyOp41
 70
     1
102
RTVSPropertyOp42
 70
     1
102
RTVSPropertyOp43
 70
     1
102
RTVSPropertyOp44
 70
     1
102
RTVSPropertyOp45
 70
     1
102
RTVSPropertyOp46
 70
     1
102
RTVSPropertyOp47
 70
     1
102
RTVSPropertyOp48
 70
     1
102
RTVSPropertyOp49
 70
     1
102
RTVSPropertyOp50
 70
     1
102
RTVSPropertyOp51
 70
     0
102
RTVSPropertyOp52
 70
     0
102
RTVSPropertyOp53
 70
     1
102
RTVSPropertyOp54
 70
     1
102
RTVSPropertyOp55
 70
     1
102
RTVSPropertyOp56
 70
     1
102
RTVSPropertyOp57
 70
     1
102
RTVSPost2010Prop28
280
     0
102
RTVSPost2010PropOp28
 70
     1
102
RTVSPost2010Prop29
280
     1
102
RTVSPost2010PropOp29
 70
     1
102
RTVSPost2010Prop30
280
     1
102
RTVSPost2010PropOp30
 70
     1
102
RTVSPost2010Prop31
280
     0
102
RTVSPost2010PropOp31
 70
     1
102
RTVSPost2010Prop32
280
     0
102
RTVSPost2010PropOp32
 70
     1
102
RTVSPost2010Prop33
280
     0
102
RTVSPost2010PropOp33
 70
     1
102
RTVSPost2010Prop34
280
     0
102
RTVSPost2010PropOp34
 70
     1
102
RTVSPost2010Prop35
280
     0
102
RTVSPost2010PropOp35
 70
     1
102
RTVSPost2010Prop36
280
     0
102
RTVSPost2010PropOp36
 70
     1
102
RTVSPost2010Prop37
 90
       50
102
RTVSPost2010PropOp37
 70
     1
102
RTVSPost2010Prop38
140
0.0
102
RTVSPost2010PropOp38
 70
     1
102
RTVSPost2010Prop39
140
1.0
102
RTVSPost2010PropOp39
 70
     1
102
RTVSPost2010Prop40
 90
        0
102
RTVSPost2010PropOp40
 70
     1
102
RTVSPost2010Prop41ColorIndex
 90
       18
102
RTVSPost2010Prop41ColorRGB
 90
        0
102
RTVSPost2010PropOp41
 70
     1
102
RTVSPost2010Prop42
 90
       50
102
RTVSPost2010PropOp42
 70
     1
102
RTVSPost2010Prop43
 90
        3
102
RTVSPost2010PropOp43
 70
     1
102
RTVSPost2010Prop44ColorIndex
 90
        5
102
RTVSPost2010Prop44ColorRGB
 90
      255
102
RTVSPost2010PropOp44
 70
     1
102
RTVSPost2010Prop45
280
     0
102
RTVSPost2010PropOp45
 70
     1
102
RTVSPost2010Prop46
 90
       50
102
RTVSPost2010PropOp46
 70
     1
102
RTVSPost2010Prop47
 90
       50
102
RTVSPost2010PropOp47
 70
     1
102
RTVSPost2010Prop48
 90
       50
102
RTVSPost2010PropOp48
 70
     1
102
RTVSPost2010Prop49
280
     0
102
RTVSPost2010PropOp49
 70
     1
102
RTVSPost2010Prop50
 90
       50
102
RTVSPost2010PropOp50
 70
     1
102
RTVSPost2010Prop51ColorIndex
 90
      256
102
RTVSPost2010Prop51ColorRGB
 90
-16777216
102
RTVSPost2010PropOp51
 70
     0
102
RTVSPost2010Prop52
140
1.0
102
RTVSPost2010PropOp52
 70
     0
102
RTVSPost2010Prop53
 90
        2
102
RTVSPost2010PropOp53
 70
     1
102
RTVSPost2010Prop54
  1
strokes_ogs.tif
102
RTVSPost2010PropOp54
 70
     1
102
RTVSPost2010Prop55
280
     0
102
RTVSPost2010PropOp55
 70
     1
102
RTVSPost2010Prop56
140
1.0
102
RTVSPost2010PropOp56
 70
     1
102
RTVSPost2010Prop57
140
1.0
102
RTVSPost2010PropOp57
 70
     1
  0
XRECORD
  5
1A4
102
{ACAD_REACTORS
330
1A3
102
}
330
1A3
100
AcDbXrecord
280
     1
102
RTVSPropertyOp0
 70
     1
102
RTVSPropertyOp1
 70
     1
102
RTVSPropertyOp2
 70
     1
102
RTVSPropertyOp3
 70
     1
102
RTVSPropertyOp4
 70
     1
102
RTVSPropertyOp5
 70
     1
102
RTVSPropertyOp6
 70
     1
102
RTVSPropertyOp7
 70
     1
102
RTVSPropertyOp8
 70
     1
102
RTVSPropertyOp9
 70
     1
102
RTVSPropertyOp10
 70
     1
102
RTVSPropertyOp11
 70
     1
102
RTVSPropertyOp12
 70
     1
102
RTVSPropertyOp13
 70
     1
102
RTVSPropertyOp14
 70
     1
102
RTVSPropertyOp15
 70
     1
102
RTVSPropertyOp16
 70
     1
102
RTVSPropertyOp17
 70
     1
102
RTVSPropertyOp18
 70
     1
102
RTVSPropertyOp19
 70
     1
102
RTVSPropertyOp20
 70
     1
102
RTVSPropertyOp21
 70
     1
102
RTVSPropertyOp22
 70
     1
102
RTVSPropertyOp23
 70
     1
102
RTVSPropertyOp24
 70
     1
102
RTVSPropertyOp25
 70
     1
102
RTVSPropertyOp26
 70
     1
102
RTVSPropertyOp27
 70
     1
102
RTVSPropertyOp28
 70
     1
102
RTVSPropertyOp29
 70
     1
102
RTVSPropertyOp30
 70
     1
102
RTVSPropertyOp31
 70
     1
102
RTVSPropertyOp32
 70
     1
102
RTVSPropertyOp33
 70
     1
102
RTVSPropertyOp34
 70
     1
102
RTVSPropertyOp35
 70
     1
102
RTVSPropertyOp36
 70
     1
102
RTVSPropertyOp37
 70
     1
102
RTVSPropertyOp38
 70
     1
102
RTVSPropertyOp39
 70
     1
102
RTVSPropertyOp40
 70
     1
102
RTVSPropertyOp41
 70
     1
102
RTVSPropertyOp42
 70
     1
102
RTVSPropertyOp43
 70
     1
102
RTVSPropertyOp44
 70
     1
102
RTVSPropertyOp45
 70
     1
102
RTVSPropertyOp46
 70
     1
102
RTVSPropertyOp47
 70
     1
102
RTVSPropertyOp48
 70
     1
102
RTVSPropertyOp49
 70
     1
102
RTVSPropertyOp50
 70
     1
102
RTVSPropertyOp51
 70
     0
102
RTVSPropertyOp52
 70
     0
102
RTVSPropertyOp53
 70
     1
102
RTVSPropertyOp54
 70
     1
102
RTVSPropertyOp55
 70
     1
102
RTVSPropertyOp56
 70
     1
102
RTVSPropertyOp57
 70
     1
102
RTVSPost2010Prop28
280
     0
102
RTVSPost2010PropOp28
 70
     1
102
RTVSPost2010Prop29
280
     1
102
RTVSPost2010PropOp29
 70
     1
102
RTVSPost2010Prop30
280
     1
102
RTVSPost2010PropOp30
 70
     1
102
RTVSPost2010Prop31
280
     0
102
RTVSPost2010PropOp31
 70
     1
102
RTVSPost2010Prop32
280
     0
102
RTVSPost2010PropOp32
 70
     1
102
RTVSPost2010Prop33
280
     0
102
RTVSPost2010PropOp33
 70
     1
102
RTVSPost2010Prop34
280
     0
102
RTVSPost2010PropOp34
 70
     1
102
RTVSPost2010Prop35
280
     0
102
RTVSPost2010PropOp35
 70
     1
102
RTVSPost2010Prop36
280
     0
102
RTVSPost2010PropOp36
 70
     1
102
RTVSPost2010Prop37
 90
       50
102
RTVSPost2010PropOp37
 70
     1
102
RTVSPost2010Prop38
140
0.0
102
RTVSPost2010PropOp38
 70
     1
102
RTVSPost2010Prop39
140
1.0
102
RTVSPost2010PropOp39
 70
     1
102
RTVSPost2010Prop40
 90
        0
102
RTVSPost2010PropOp40
 70
     1
102
RTVSPost2010Prop41ColorIndex
 90
       18
102
RTVSPost2010Prop41ColorRGB
 90
        0
102
RTVSPost2010PropOp41
 70
     1
102
RTVSPost2010Prop42
 90
       50
102
RTVSPost2010PropOp42
 70
     1
102
RTVSPost2010Prop43
 90
        3
102
RTVSPost2010PropOp43
 70
     1
102
RTVSPost2010Prop44ColorIndex
 90
        5
102
RTVSPost2010Prop44ColorRGB
 90
      255
102
RTVSPost2010PropOp44
 70
     1
102
RTVSPost2010Prop45
280
     0
102
RTVSPost2010PropOp45
 70
     1
102
RTVSPost2010Prop46
 90
       50
102
RTVSPost2010PropOp46
 70
     1
102
RTVSPost2010Prop47
 90
       50
102
RTVSPost2010PropOp47
 70
     1
102
RTVSPost2010Prop48
 90
       50
102
RTVSPost2010PropOp48
 70
     1
102
RTVSPost2010Prop49
280
     0
102
RTVSPost2010PropOp49
 70
     1
102
RTVSPost2010Prop50
 90
       50
102
RTVSPost2010PropOp50
 70
     1
102
RTVSPost2010Prop51ColorIndex
 90
      256
102
RTVSPost2010Prop51ColorRGB
 90
-16777216
102
RTVSPost2010PropOp51
 70
     0
102
RTVSPost2010Prop52
140
1.0
102
RTVSPost2010PropOp52
 70
     0
102
RTVSPost2010Prop53
 90
        2
102
RTVSPost2010PropOp53
 70
     1
102
RTVSPost2010Prop54
  1
strokes_ogs.tif
102
RTVSPost2010PropOp54
 70
     1
102
RTVSPost2010Prop55
280
     0
102
RTVSPost2010PropOp55
 70
     1
102
RTVSPost2010Prop56
140
1.0
102
RTVSPost2010PropOp56
 70
     1
102
RTVSPost2010Prop57
140
1.0
102
RTVSPost2010PropOp57
 70
     1
  0
XRECORD
  5
1A6
102
{ACAD_REACTORS
330
1A5
102
}
330
1A5
100
AcDbXrecord
280
     1
102
RTVSPropertyOp0
 70
     1
102
RTVSPropertyOp1
 70
     1
102
RTVSPropertyOp2
 70
     1
102
RTVSPropertyOp3
 70
     1
102
RTVSPropertyOp4
 70
     1
102
RTVSPropertyOp5
 70
     1
102
RTVSPropertyOp6
 70
     1
102
RTVSPropertyOp7
 70
     1
102
RTVSPropertyOp8
 70
     1
102
RTVSPropertyOp9
 70
     1
102
RTVSPropertyOp10
 70
     1
102
RTVSPropertyOp11
 70
     1
102
RTVSPropertyOp12
 70
     1
102
RTVSPropertyOp13
 70
     1
102
RTVSPropertyOp14
 70
     1
102
RTVSPropertyOp15
 70
     1
102
RTVSPropertyOp16
 70
     1
102
RTVSPropertyOp17
 70
     1
102
RTVSPropertyOp18
 70
     1
102
RTVSPropertyOp19
 70
     1
102
RTVSPropertyOp20
 70
     1
102
RTVSPropertyOp21
 70
     1
102
RTVSPropertyOp22
 70
     1
102
RTVSPropertyOp23
 70
     1
102
RTVSPropertyOp24
 70
     1
102
RTVSPropertyOp25
 70
     1
102
RTVSPropertyOp26
 70
     1
102
RTVSPropertyOp27
 70
     1
102
RTVSPropertyOp28
 70
     1
102
RTVSPropertyOp29
 70
     1
102
RTVSPropertyOp30
 70
     1
102
RTVSPropertyOp31
 70
     1
102
RTVSPropertyOp32
 70
     1
102
RTVSPropertyOp33
 70
     1
102
RTVSPropertyOp34
 70
     1
102
RTVSPropertyOp35
 70
     1
102
RTVSPropertyOp36
 70
     1
102
RTVSPropertyOp37
 70
     1
102
RTVSPropertyOp38
 70
     1
102
RTVSPropertyOp39
 70
     1
102
RTVSPropertyOp40
 70
     1
102
RTVSPropertyOp41
 70
     1
102
RTVSPropertyOp42
 70
     1
102
RTVSPropertyOp43
 70
     1
102
RTVSPropertyOp44
 70
     1
102
RTVSPropertyOp45
 70
     1
102
RTVSPropertyOp46
 70
     1
102
RTVSPropertyOp47
 70
     1
102
RTVSPropertyOp48
 70
     1
102
RTVSPropertyOp49
 70
     1
102
RTVSPropertyOp50
 70
     1
102
RTVSPropertyOp51
 70
     0
102
RTVSPropertyOp52
 70
     0
102
RTVSPropertyOp53
 70
     1
102
RTVSPropertyOp54
 70
     1
102
RTVSPropertyOp55
 70
     1
102
RTVSPropertyOp56
 70
     1
102
RTVSPropertyOp57
 70
     1
102
RTVSPost2010Prop28
280
     0
102
RTVSPost2010PropOp28
 70
     1
102
RTVSPost2010Prop29
280
     1
102
RTVSPost2010PropOp29
 70
     1
102
RTVSPost2010Prop30
280
     1
102
RTVSPost2010PropOp30
 70
     1
102
RTVSPost2010Prop31
280
     0
102
RTVSPost2010PropOp31
 70
     1
102
RTVSPost2010Prop32
280
     0
102
RTVSPost2010PropOp32
 70
     1
102
RTVSPost2010Prop33
280
     0
102
RTVSPost2010PropOp33
 70
     1
102
RTVSPost2010Prop34
280
     0
102
RTVSPost2010PropOp34
 70
     1
102
RTVSPost2010Prop35
280
     0
102
RTVSPost2010PropOp35
 70
     1
102
RTVSPost2010Prop36
280
     0
102
RTVSPost2010PropOp36
 70
     1
102
RTVSPost2010Prop37
 90
       50
102
RTVSPost2010PropOp37
 70
     1
102
RTVSPost2010Prop38
140
0.0
102
RTVSPost2010PropOp38
 70
     1
102
RTVSPost2010Prop39
140
1.0
102
RTVSPost2010PropOp39
 70
     1
102
RTVSPost2010Prop40
 90
        0
102
RTVSPost2010PropOp40
 70
     1
102
RTVSPost2010Prop41ColorIndex
 90
       18
102
RTVSPost2010Prop41ColorRGB
 90
        0
102
RTVSPost2010PropOp41
 70
     1
102
RTVSPost2010Prop42
 90
       50
102
RTVSPost2010PropOp42
 70
     1
102
RTVSPost2010Prop43
 90
        3
102
RTVSPost2010PropOp43
 70
     1
102
RTVSPost2010Prop44ColorIndex
 90
        5
102
RTVSPost2010Prop44ColorRGB
 90
      255
102
RTVSPost2010PropOp44
 70
     1
102
RTVSPost2010Prop45
280
     0
102
RTVSPost2010PropOp45
 70
     1
102
RTVSPost2010Prop46
 90
       50
102
RTVSPost2010PropOp46
 70
     1
102
RTVSPost2010Prop47
 90
       50
102
RTVSPost2010PropOp47
 70
     1
102
RTVSPost2010Prop48
 90
       50
102
RTVSPost2010PropOp48
 70
     1
102
RTVSPost2010Prop49
280
     0
102
RTVSPost2010PropOp49
 70
     1
102
RTVSPost2010Prop50
 90
       50
102
RTVSPost2010PropOp50
 70
     1
102
RTVSPost2010Prop51ColorIndex
 90
      256
102
RTVSPost2010Prop51ColorRGB
 90
-16777216
102
RTVSPost2010PropOp51
 70
     0
102
RTVSPost2010Prop52
140
1.0
102
RTVSPost2010PropOp52
 70
     0
102
RTVSPost2010Prop53
 90
        2
102
RTVSPost2010PropOp53
 70
     1
102
RTVSPost2010Prop54
  1
strokes_ogs.tif
102
RTVSPost2010PropOp54
 70
     1
102
RTVSPost2010Prop55
280
     0
102
RTVSPost2010PropOp55
 70
     1
102
RTVSPost2010Prop56
140
1.0
102
RTVSPost2010PropOp56
 70
     1
102
RTVSPost2010Prop57
140
1.0
102
RTVSPost2010PropOp57
 70
     1
  0
XRECORD
  5
196
102
{ACAD_REACTORS
330
195
102
}
330
195
100
AcDbXrecord
280
     1
102
RTVSPropertyOp0
 70
     1
102
RTVSPropertyOp1
 70
     1
102
RTVSPropertyOp2
 70
     1
102
RTVSPropertyOp3
 70
     1
102
RTVSPropertyOp4
 70
     1
102
RTVSPropertyOp5
 70
     1
102
RTVSPropertyOp6
 70
     1
102
RTVSPropertyOp7
 70
     1
102
RTVSPropertyOp8
 70
     1
102
RTVSPropertyOp9
 70
     1
102
RTVSPropertyOp10
 70
     1
102
RTVSPropertyOp11
 70
     1
102
RTVSPropertyOp12
 70
     1
102
RTVSPropertyOp13
 70
     1
102
RTVSPropertyOp14
 70
     1
102
RTVSPropertyOp15
 70
     1
102
RTVSPropertyOp16
 70
     1
102
RTVSPropertyOp17
 70
     1
102
RTVSPropertyOp18
 70
     1
102
RTVSPropertyOp19
 70
     1
102
RTVSPropertyOp20
 70
     1
102
RTVSPropertyOp21
 70
     1
102
RTVSPropertyOp22
 70
     1
102
RTVSPropertyOp23
 70
     1
102
RTVSPropertyOp24
 70
     1
102
RTVSPropertyOp25
 70
     1
102
RTVSPropertyOp26
 70
     1
102
RTVSPropertyOp27
 70
     1
102
RTVSPropertyOp28
 70
     1
102
RTVSPropertyOp29
 70
     1
102
RTVSPropertyOp30
 70
     1
102
RTVSPropertyOp31
 70
     1
102
RTVSPropertyOp32
 70
     1
102
RTVSPropertyOp33
 70
     1
102
RTVSPropertyOp34
 70
     1
102
RTVSPropertyOp35
 70
     1
102
RTVSPropertyOp36
 70
     1
102
RTVSPropertyOp37
 70
     1
102
RTVSPropertyOp38
 70
     1
102
RTVSPropertyOp39
 70
     1
102
RTVSPropertyOp40
 70
     1
102
RTVSPropertyOp41
 70
     1
102
RTVSPropertyOp42
 70
     1
102
RTVSPropertyOp43
 70
     1
102
RTVSPropertyOp44
 70
     1
102
RTVSPropertyOp45
 70
     1
102
RTVSPropertyOp46
 70
     1
102
RTVSPropertyOp47
 70
     1
102
RTVSPropertyOp48
 70
     1
102
RTVSPropertyOp49
 70
     1
102
RTVSPropertyOp50
 70
     1
102
RTVSPropertyOp51
 70
     0
102
RTVSPropertyOp52
 70
     0
102
RTVSPropertyOp53
 70
     1
102
RTVSPropertyOp54
 70
     1
102
RTVSPropertyOp55
 70
     1
102
RTVSPropertyOp56
 70
     1
102
RTVSPropertyOp57
 70
     1
102
RTVSPost2010Prop28
280
     0
102
RTVSPost2010PropOp28
 70
     1
102
RTVSPost2010Prop29
280
     1
102
RTVSPost2010PropOp29
 70
     1
102
RTVSPost2010Prop30
280
     1
102
RTVSPost2010PropOp30
 70
     1
102
RTVSPost2010Prop31
280
     0
102
RTVSPost2010PropOp31
 70
     1
102
RTVSPost2010Prop32
280
     0
102
RTVSPost2010PropOp32
 70
     1
102
RTVSPost2010Prop33
280
     0
102
RTVSPost2010PropOp33
 70
     1
102
RTVSPost2010Prop34
280
     0
102
RTVSPost2010PropOp34
 70
     1
102
RTVSPost2010Prop35
280
     0
102
RTVSPost2010PropOp35
 70
     1
102
RTVSPost2010Prop36
280
     0
102
RTVSPost2010PropOp36
 70
     1
102
RTVSPost2010Prop37
 90
       50
102
RTVSPost2010PropOp37
 70
     1
102
RTVSPost2010Prop38
140
0.0
102
RTVSPost2010PropOp38
 70
     1
102
RTVSPost2010Prop39
140
1.0
102
RTVSPost2010PropOp39
 70
     1
102
RTVSPost2010Prop40
 90
        0
102
RTVSPost2010PropOp40
 70
     1
102
RTVSPost2010Prop41ColorIndex
 90
       18
102
RTVSPost2010Prop41ColorRGB
 90
        0
102
RTVSPost2010PropOp41
 70
     1
102
RTVSPost2010Prop42
 90
       50
102
RTVSPost2010PropOp42
 70
     1
102
RTVSPost2010Prop43
 90
        3
102
RTVSPost2010PropOp43
 70
     1
102
RTVSPost2010Prop44ColorIndex
 90
        5
102
RTVSPost2010Prop44ColorRGB
 90
      255
102
RTVSPost2010PropOp44
 70
     1
102
RTVSPost2010Prop45
280
     0
102
RTVSPost2010PropOp45
 70
     1
102
RTVSPost2010Prop46
 90
       50
102
RTVSPost2010PropOp46
 70
     1
102
RTVSPost2010Prop47
 90
       50
102
RTVSPost2010PropOp47
 70
     1
102
RTVSPost2010Prop48
 90
       50
102
RTVSPost2010PropOp48
 70
     1
102
RTVSPost2010Prop49
280
     0
102
RTVSPost2010PropOp49
 70
     1
102
RTVSPost2010Prop50
 90
       50
102
RTVSPost2010PropOp50
 70
     1
102
RTVSPost2010Prop51ColorIndex
 90
      256
102
RTVSPost2010Prop51ColorRGB
 90
-16777216
102
RTVSPost2010PropOp51
 70
     0
102
RTVSPost2010Prop52
140
1.0
102
RTVSPost2010PropOp52
 70
     0
102
RTVSPost2010Prop53
 90
        2
102
RTVSPost2010PropOp53
 70
     1
102
RTVSPost2010Prop54
  1
strokes_ogs.tif
102
RTVSPost2010PropOp54
 70
     1
102
RTVSPost2010Prop55
280
     0
102
RTVSPost2010PropOp55
 70
     1
102
RTVSPost2010Prop56
140
1.0
102
RTVSPost2010PropOp56
 70
     1
102
RTVSPost2010Prop57
140
1.0
102
RTVSPost2010PropOp57
 70
     1
  0
XRECORD
  5
188
102
{ACAD_REACTORS
330
187
102
}
330
187
100
AcDbXrecord
280
     1
102
RTVSPropertyOp0
 70
     1
102
RTVSPropertyOp1
 70
     1
102
RTVSPropertyOp2
 70
     1
102
RTVSPropertyOp3
 70
     1
102
RTVSPropertyOp4
 70
     1
102
RTVSPropertyOp5
 70
     1
102
RTVSPropertyOp6
 70
     1
102
RTVSPropertyOp7
 70
     1
102
RTVSPropertyOp8
 70
     1
102
RTVSPropertyOp9
 70
     1
102
RTVSPropertyOp10
 70
     1
102
RTVSPropertyOp11
 70
     1
102
RTVSPropertyOp12
 70
     1
102
RTVSPropertyOp13
 70
     1
102
RTVSPropertyOp14
 70
     1
102
RTVSPropertyOp15
 70
     1
102
RTVSPropertyOp16
 70
     1
102
RTVSPropertyOp17
 70
     1
102
RTVSPropertyOp18
 70
     1
102
RTVSPropertyOp19
 70
     1
102
RTVSPropertyOp20
 70
     1
102
RTVSPropertyOp21
 70
     1
102
RTVSPropertyOp22
 70
     1
102
RTVSPropertyOp23
 70
     1
102
RTVSPropertyOp24
 70
     1
102
RTVSPropertyOp25
 70
     1
102
RTVSPropertyOp26
 70
     1
102
RTVSPropertyOp27
 70
     1
102
RTVSPropertyOp28
 70
     1
102
RTVSPropertyOp29
 70
     1
102
RTVSPropertyOp30
 70
     1
102
RTVSPropertyOp31
 70
     1
102
RTVSPropertyOp32
 70
     1
102
RTVSPropertyOp33
 70
     1
102
RTVSPropertyOp34
 70
     1
102
RTVSPropertyOp35
 70
     1
102
RTVSPropertyOp36
 70
     1
102
RTVSPropertyOp37
 70
     1
102
RTVSPropertyOp38
 70
     1
102
RTVSPropertyOp39
 70
     1
102
RTVSPropertyOp40
 70
     1
102
RTVSPropertyOp41
 70
     1
102
RTVSPropertyOp42
 70
     1
102
RTVSPropertyOp43
 70
     1
102
RTVSPropertyOp44
 70
     1
102
RTVSPropertyOp45
 70
     1
102
RTVSPropertyOp46
 70
     1
102
RTVSPropertyOp47
 70
     1
102
RTVSPropertyOp48
 70
     1
102
RTVSPropertyOp49
 70
     1
102
RTVSPropertyOp50
 70
     1
102
RTVSPropertyOp51
 70
     0
102
RTVSPropertyOp52
 70
     0
102
RTVSPropertyOp53
 70
     1
102
RTVSPropertyOp54
 70
     1
102
RTVSPropertyOp55
 70
     1
102
RTVSPropertyOp56
 70
     1
102
RTVSPropertyOp57
 70
     1
102
RTVSPost2010Prop28
280
     0
102
RTVSPost2010PropOp28
 70
     1
102
RTVSPost2010Prop29
280
     1
102
RTVSPost2010PropOp29
 70
     1
102
RTVSPost2010Prop30
280
     1
102
RTVSPost2010PropOp30
 70
     1
102
RTVSPost2010Prop31
280
     0
102
RTVSPost2010PropOp31
 70
     1
102
RTVSPost2010Prop32
280
     0
102
RTVSPost2010PropOp32
 70
     1
102
RTVSPost2010Prop33
280
     0
102
RTVSPost2010PropOp33
 70
     1
102
RTVSPost2010Prop34
280
     0
102
RTVSPost2010PropOp34
 70
     1
102
RTVSPost2010Prop35
280
     0
102
RTVSPost2010PropOp35
 70
     1
102
RTVSPost2010Prop36
280
     0
102
RTVSPost2010PropOp36
 70
     1
102
RTVSPost2010Prop37
 90
       50
102
RTVSPost2010PropOp37
 70
     1
102
RTVSPost2010Prop38
140
0.0
102
RTVSPost2010PropOp38
 70
     1
102
RTVSPost2010Prop39
140
1.0
102
RTVSPost2010PropOp39
 70
     1
102
RTVSPost2010Prop40
 90
        0
102
RTVSPost2010PropOp40
 70
     1
102
RTVSPost2010Prop41ColorIndex
 90
       18
102
RTVSPost2010Prop41ColorRGB
 90
        0
102
RTVSPost2010PropOp41
 70
     1
102
RTVSPost2010Prop42
 90
       50
102
RTVSPost2010PropOp42
 70
     1
102
RTVSPost2010Prop43
 90
        3
102
RTVSPost2010PropOp43
 70
     1
102
RTVSPost2010Prop44ColorIndex
 90
        5
102
RTVSPost2010Prop44ColorRGB
 90
      255
102
RTVSPost2010PropOp44
 70
     1
102
RTVSPost2010Prop45
280
     0
102
RTVSPost2010PropOp45
 70
     1
102
RTVSPost2010Prop46
 90
       50
102
RTVSPost2010PropOp46
 70
     1
102
RTVSPost2010Prop47
 90
       50
102
RTVSPost2010PropOp47
 70
     1
102
RTVSPost2010Prop48
 90
       50
102
RTVSPost2010PropOp48
 70
     1
102
RTVSPost2010Prop49
280
     0
102
RTVSPost2010PropOp49
 70
     1
102
RTVSPost2010Prop50
 90
       50
102
RTVSPost2010PropOp50
 70
     1
102
RTVSPost2010Prop51ColorIndex
 90
      256
102
RTVSPost2010Prop51ColorRGB
 90
-16777216
102
RTVSPost2010PropOp51
 70
     0
102
RTVSPost2010Prop52
140
1.0
102
RTVSPost2010PropOp52
 70
     0
102
RTVSPost2010Prop53
 90
        2
102
RTVSPost2010PropOp53
 70
     1
102
RTVSPost2010Prop54
  1
strokes_ogs.tif
102
RTVSPost2010PropOp54
 70
     1
102
RTVSPost2010Prop55
280
     0
102
RTVSPost2010PropOp55
 70
     1
102
RTVSPost2010Prop56
140
1.0
102
RTVSPost2010PropOp56
 70
     1
102
RTVSPost2010Prop57
140
1.0
102
RTVSPost2010PropOp57
 70
     1
  0
XRECORD
  5
1A8
102
{ACAD_REACTORS
330
1A7
102
}
330
1A7
100
AcDbXrecord
280
     1
102
RTVSPropertyOp0
 70
     1
102
RTVSPropertyOp1
 70
     1
102
RTVSPropertyOp2
 70
     1
102
RTVSPropertyOp3
 70
     1
102
RTVSPropertyOp4
 70
     1
102
RTVSPropertyOp5
 70
     1
102
RTVSPropertyOp6
 70
     1
102
RTVSPropertyOp7
 70
     1
102
RTVSPropertyOp8
 70
     1
102
RTVSPropertyOp9
 70
     1
102
RTVSPropertyOp10
 70
     1
102
RTVSPropertyOp11
 70
     1
102
RTVSPropertyOp12
 70
     1
102
RTVSPropertyOp13
 70
     1
102
RTVSPropertyOp14
 70
     1
102
RTVSPropertyOp15
 70
     1
102
RTVSPropertyOp16
 70
     1
102
RTVSPropertyOp17
 70
     1
102
RTVSPropertyOp18
 70
     1
102
RTVSPropertyOp19
 70
     1
102
RTVSPropertyOp20
 70
     1
102
RTVSPropertyOp21
 70
     1
102
RTVSPropertyOp22
 70
     1
102
RTVSPropertyOp23
 70
     1
102
RTVSPropertyOp24
 70
     1
102
RTVSPropertyOp25
 70
     1
102
RTVSPropertyOp26
 70
     1
102
RTVSPropertyOp27
 70
     1
102
RTVSPropertyOp28
 70
     1
102
RTVSPropertyOp29
 70
     1
102
RTVSPropertyOp30
 70
     1
102
RTVSPropertyOp31
 70
     1
102
RTVSPropertyOp32
 70
     1
102
RTVSPropertyOp33
 70
     1
102
RTVSPropertyOp34
 70
     1
102
RTVSPropertyOp35
 70
     1
102
RTVSPropertyOp36
 70
     1
102
RTVSPropertyOp37
 70
     1
102
RTVSPropertyOp38
 70
     1
102
RTVSPropertyOp39
 70
     1
102
RTVSPropertyOp40
 70
     1
102
RTVSPropertyOp41
 70
     1
102
RTVSPropertyOp42
 70
     1
102
RTVSPropertyOp43
 70
     1
102
RTVSPropertyOp44
 70
     1
102
RTVSPropertyOp45
 70
     1
102
RTVSPropertyOp46
 70
     1
102
RTVSPropertyOp47
 70
     1
102
RTVSPropertyOp48
 70
     1
102
RTVSPropertyOp49
 70
     1
102
RTVSPropertyOp50
 70
     1
102
RTVSPropertyOp51
 70
     0
102
RTVSPropertyOp52
 70
     0
102
RTVSPropertyOp53
 70
     1
102
RTVSPropertyOp54
 70
     1
102
RTVSPropertyOp55
 70
     1
102
RTVSPropertyOp56
 70
     1
102
RTVSPropertyOp57
 70
     1
102
RTVSPost2010Prop28
280
     0
102
RTVSPost2010PropOp28
 70
     1
102
RTVSPost2010Prop29
280
     1
102
RTVSPost2010PropOp29
 70
     1
102
RTVSPost2010Prop30
280
     1
102
RTVSPost2010PropOp30
 70
     1
102
RTVSPost2010Prop31
280
     0
102
RTVSPost2010PropOp31
 70
     1
102
RTVSPost2010Prop32
280
     0
102
RTVSPost2010PropOp32
 70
     1
102
RTVSPost2010Prop33
280
     0
102
RTVSPost2010PropOp33
 70
     1
102
RTVSPost2010Prop34
280
     0
102
RTVSPost2010PropOp34
 70
     1
102
RTVSPost2010Prop35
280
     0
102
RTVSPost2010PropOp35
 70
     1
102
RTVSPost2010Prop36
280
     0
102
RTVSPost2010PropOp36
 70
     1
102
RTVSPost2010Prop37
 90
       50
102
RTVSPost2010PropOp37
 70
     1
102
RTVSPost2010Prop38
140
0.0
102
RTVSPost2010PropOp38
 70
     1
102
RTVSPost2010Prop39
140
1.0
102
RTVSPost2010PropOp39
 70
     1
102
RTVSPost2010Prop40
 90
        0
102
RTVSPost2010PropOp40
 70
     1
102
RTVSPost2010Prop41ColorIndex
 90
       18
102
RTVSPost2010Prop41ColorRGB
 90
        0
102
RTVSPost2010PropOp41
 70
     1
102
RTVSPost2010Prop42
 90
       50
102
RTVSPost2010PropOp42
 70
     1
102
RTVSPost2010Prop43
 90
        3
102
RTVSPost2010PropOp43
 70
     1
102
RTVSPost2010Prop44ColorIndex
 90
        5
102
RTVSPost2010Prop44ColorRGB
 90
      255
102
RTVSPost2010PropOp44
 70
     1
102
RTVSPost2010Prop45
280
     0
102
RTVSPost2010PropOp45
 70
     1
102
RTVSPost2010Prop46
 90
       50
102
RTVSPost2010PropOp46
 70
     1
102
RTVSPost2010Prop47
 90
       50
102
RTVSPost2010PropOp47
 70
     1
102
RTVSPost2010Prop48
 90
       50
102
RTVSPost2010PropOp48
 70
     1
102
RTVSPost2010Prop49
280
     0
102
RTVSPost2010PropOp49
 70
     1
102
RTVSPost2010Prop50
 90
       50
102
RTVSPost2010PropOp50
 70
     1
102
RTVSPost2010Prop51ColorIndex
 90
      256
102
RTVSPost2010Prop51ColorRGB
 90
-16777216
102
RTVSPost2010PropOp51
 70
     0
102
RTVSPost2010Prop52
140
1.0
102
RTVSPost2010PropOp52
 70
     0
102
RTVSPost2010Prop53
 90
        2
102
RTVSPost2010PropOp53
 70
     1
102
RTVSPost2010Prop54
  1
strokes_ogs.tif
102
RTVSPost2010PropOp54
 70
     1
102
RTVSPost2010Prop55
280
     0
102
RTVSPost2010PropOp55
 70
     1
102
RTVSPost2010Prop56
140
1.0
102
RTVSPost2010PropOp56
 70
     1
102
RTVSPost2010Prop57
140
1.0
102
RTVSPost2010PropOp57
 70
     1
  0
ENDSEC
  0
EOF
