  0
SECTION
  2
HEADER
  9
$ACADVER
  1
AC1024
  9
$ACADMAINTVER
 70
     6
  9
$DWGCODEPAGE
  3
UNDEFINED
  9
$INSBASE
 10
0.0
 20
0.0
 30
0.0
  9
$EXTMIN
 10
1.000000000000000E+20
 20
1.000000000000000E+20
 30
1.000000000000000E+20
  9
$EXTMAX
 10
-1.000000000000000E+20
 20
-1.000000000000000E+20
 30
-1.000000000000000E+20
  9
$LIMMIN
 10
0.0
 20
0.0
  9
$LIMMAX
 10
12.0
 20
9.0
  9
$ORTHOMODE
 70
     0
  9
$REGENMODE
 70
     1
  9
$FILLMODE
 70
     1
  9
$QTEXTMODE
 70
     0
  9
$MIRRTEXT
 70
     1
  9
$LTSCALE
 40
1.0
  9
$ATTMODE
 70
     1
  9
$TEXTSIZE
 40
0.2
  9
$TRACEWID
 40
0.05
  9
$TEXTSTYLE
  7
Standard
  9
$CLAYER
  8
0
  9
$CELTYPE
  6
ByLayer
  9
$CECOLOR
 62
   256
  9
$CELTSCALE
 40
1.0
  9
$DISPSILH
 70
     0
  9
$DIMSCALE
 40
1.0
  9
$DIMASZ
 40
0.18
  9
$DIMEXO
 40
0.0625
  9
$DIMDLI
 40
0.38
  9
$DIMRND
 40
0.0
  9
$DIMDLE
 40
0.0
  9
$DIMEXE
 40
0.18
  9
$DIMTP
 40
0.0
  9
$DIMTM
 40
0.0
  9
$DIMTXT
 40
0.18
  9
$DIMCEN
 40
0.09
  9
$DIMTSZ
 40
0.0
  9
$DIMTOL
 70
     0
  9
$DIMLIM
 70
     0
  9
$DIMTIH
 70
     1
  9
$DIMTOH
 70
     1
  9
$DIMSE1
 70
     0
  9
$DIMSE2
 70
     0
  9
$DIMTAD
 70
     0
  9
$DIMZIN
 70
     0
  9
$DIMBLK
  1

  9
$DIMASO
 70
     1
  9
$DIMSHO
 70
     1
  9
$DIMPOST
  1

  9
$DIMAPOST
  1

  9
$DIMALT
 70
     0
  9
$DIMALTD
 70
     2
  9
$DIMALTF
 40
25.4
  9
$DIMLFAC
 40
1.0
  9
$DIMTOFL
 70
     0
  9
$DIMTVP
 40
0.0
  9
$DIMTIX
 70
     0
  9
$DIMSOXD
 70
     0
  9
$DIMSAH
 70
     0
  9
$DIMBLK1
  1

  9
$DIMBLK2
  1

  9
$DIMSTYLE
  2
Standard
  9
$DIMCLRD
 70
     0
  9
$DIMCLRE
 70
     0
  9
$DIMCLRT
 70
     0
  9
$DIMTFAC
 40
1.0
  9
$DIMGAP
 40
0.09
  9
$DIMJUST
 70
     0
  9
$DIMSD1
 70
     0
  9
$DIMSD2
 70
     0
  9
$DIMTOLJ
 70
     1
  9
$DIMTZIN
 70
     0
  9
$DIMALTZ
 70
     0
  9
$DIMALTTZ
 70
     0
  9
$DIMUPT
 70
     0
  9
$DIMDEC
 70
     4
  9
$DIMTDEC
 70
     4
  9
$DIMALTU
 70
     2
  9
$DIMALTTD
 70
     2
  9
$DIMTXSTY
  7
Standard
  9
$DIMAUNIT
 70
     0
  9
$DIMADEC
 70
     0
  9
$DIMALTRND
 40
0.0
  9
$DIMAZIN
 70
     0
  9
$DIMDSEP
 70
    46
  9
$DIMATFIT
 70
     3
  9
$DIMFRAC
 70
     0
  9
$DIMLDRBLK
  1

  9
$DIMLUNIT
 70
     2
  9
$DIMLWD
 70
    -2
  9
$DIMLWE
 70
    -2
  9
$DIMTMOVE
 70
     0
  9
$DIMFXL
 40
1.0
  9
$DIMFXLON
 70
     0
  9
$DIMJOGANG
 40
0.7853981633974483
  9
$DIMTFILL
 70
     0
  9
$DIMTFILLCLR
 70
     0
  9
$DIMARCSYM
 70
     0
  9
$DIMLTYPE
  6

  9
$DIMLTEX1
  6

  9
$DIMLTEX2
  6

  9
$DIMTXTDIRECTION
 70
     0
  9
$LUNITS
 70
     2
  9
$LUPREC
 70
     4
  9
$SKETCHINC
 40
0.1
  9
$FILLETRAD
 40
0.5
  9
$AUNITS
 70
     0
  9
$AUPREC
 70
     0
  9
$MENU
  1
.
  9
$ELEVATION
 40
0.0
  9
$PELEVATION
 40
0.0
  9
$THICKNESS
 40
0.0
  9
$LIMCHECK
 70
     0
  9
$CHAMFERA
 40
0.5
  9
$CHAMFERB
 40
0.5
  9
$CHAMFERC
 40
1.0
  9
$CHAMFERD
 40
0.0
  9
$SKPOLY
 70
     0
  9
$TDCREATE
 40
2457050.550960637
  9
$TDUCREATE
 40
2457050.509293981
  9
$TDUPDATE
 40
2457050.550960637
  9
$TDUUPDATE
 40
2457050.509293981
  9
$TDINDWG
 40
0.0000000116
  9
$TDUSRTIMER
 40
0.0000000116
  9
$USRTIMER
 70
     1
  9
$ANGBASE
 50
0.0
  9
$ANGDIR
 70
     0
  9
$PDMODE
 70
     0
  9
$PDSIZE
 40
0.0
  9
$PLINEWID
 40
0.0
  9
$SPLFRAME
 70
     0
  9
$SPLINETYPE
 70
     6
  9
$SPLINESEGS
 70
     8
  9
$HANDSEED
  5
234
  9
$SURFTAB1
 70
     6
  9
$SURFTAB2
 70
     6
  9
$SURFTYPE
 70
     6
  9
$SURFU
 70
     6
  9
$SURFV
 70
     6
  9
$UCSBASE
  2

  9
$UCSNAME
  2

  9
$UCSORG
 10
0.0
 20
0.0
 30
0.0
  9
$UCSXDIR
 10
1.0
 20
0.0
 30
0.0
  9
$UCSYDIR
 10
0.0
 20
1.0
 30
0.0
  9
$UCSORTHOREF
  2

  9
$UCSORTHOVIEW
 70
     0
  9
$UCSORGTOP
 10
0.0
 20
0.0
 30
0.0
  9
$UCSORGBOTTOM
 10
0.0
 20
0.0
 30
0.0
  9
$UCSORGLEFT
 10
0.0
 20
0.0
 30
0.0
  9
$UCSORGRIGHT
 10
0.0
 20
0.0
 30
0.0
  9
$UCSORGFRONT
 10
0.0
 20
0.0
 30
0.0
  9
$UCSORGBACK
 10
0.0
 20
0.0
 30
0.0
  9
$PUCSBASE
  2

  9
$PUCSNAME
  2

  9
$PUCSORG
 10
0.0
 20
0.0
 30
0.0
  9
$PUCSXDIR
 10
1.0
 20
0.0
 30
0.0
  9
$PUCSYDIR
 10
0.0
 20
1.0
 30
0.0
  9
$PUCSORTHOREF
  2

  9
$PUCSORTHOVIEW
 70
     0
  9
$PUCSORGTOP
 10
0.0
 20
0.0
 30
0.0
  9
$PUCSORGBOTTOM
 10
0.0
 20
0.0
 30
0.0
  9
$PUCSORGLEFT
 10
0.0
 20
0.0
 30
0.0
  9
$PUCSORGRIGHT
 10
0.0
 20
0.0
 30
0.0
  9
$PUCSORGFRONT
 10
0.0
 20
0.0
 30
0.0
  9
$PUCSORGBACK
 10
0.0
 20
0.0
 30
0.0
  9
$USERI1
 70
     0
  9
$USERI2
 70
     0
  9
$USERI3
 70
     0
  9
$USERI4
 70
     0
  9
$USERI5
 70
     0
  9
$USERR1
 40
0.0
  9
$USERR2
 40
0.0
  9
$USERR3
 40
0.0
  9
$USERR4
 40
0.0
  9
$USERR5
 40
0.0
  9
$WORLDVIEW
 70
     1
  9
$SHADEDGE
 70
     3
  9
$SHADEDIF
 70
    70
  9
$TILEMODE
 70
     1
  9
$MAXACTVP
 70
    64
  9
$PINSBASE
 10
0.0
 20
0.0
 30
0.0
  9
$PLIMCHECK
 70
     0
  9
$PEXTMIN
 10
1.000000000000000E+20
 20
1.000000000000000E+20
 30
1.000000000000000E+20
  9
$PEXTMAX
 10
-1.000000000000000E+20
 20
-1.000000000000000E+20
 30
-1.000000000000000E+20
  9
$PLIMMIN
 10
0.0
 20
0.0
  9
$PLIMMAX
 10
12.0
 20
9.0
  9
$UNITMODE
 70
     0
  9
$VISRETAIN
 70
     1
  9
$PLINEGEN
 70
     0
  9
$PSLTSCALE
 70
     1
  9
$TREEDEPTH
 70
  3020
  9
$CMLSTYLE
  2
Standard
  9
$CMLJUST
 70
     0
  9
$CMLSCALE
 40
1.0
  9
$PROXYGRAPHICS
 70
     1
  9
$MEASUREMENT
 70
     0
  9
$CELWEIGHT
370
    -1
  9
$ENDCAPS
280
     0
  9
$JOINSTYLE
280
     0
  9
$LWDISPLAY
290
     1
  9
$INSUNITS
 70
     1
  9
$HYPERLINKBASE
  1

  9
$STYLESHEET
  1

  9
$XEDIT
290
     1
  9
$CEPSNTYPE
380
     0
  9
$PSTYLEMODE
290
     1
  9
$FINGERPRINTGUID
  2
{9107A78A-3F7A-B5E2-CC34-C3A1C23ACD4D}
  9
$VERSIONGUID
  2
{FAEB1C32-E019-11D5-929B-00C0DF256EC4}
  9
$EXTNAMES
290
     1
  9
$PSVPSCALE
 40
0.0
  9
$OLESTARTUP
290
     0
  9
$SORTENTS
280
   127
  9
$INDEXCTL
280
     0
  9
$HIDETEXT
280
     1
  9
$XCLIPFRAME
280
     2
  9
$HALOGAP
280
     0
  9
$OBSCOLOR
 70
   257
  9
$OBSLTYPE
280
     0
  9
$INTERSECTIONDISPLAY
280
     0
  9
$INTERSECTIONCOLOR
 70
   257
  9
$DIMASSOC
280
     2
  9
$PROJECTNAME
  1

  9
$CAMERADISPLAY
290
     0
  9
$LENSLENGTH
 40
50.0
  9
$CAMERAHEIGHT
 40
0.0
  9
$STEPSPERSEC
 40
2.0
  9
$STEPSIZE
 40
6.0
  9
$3DDWFPREC
 40
2.0
  9
$PSOLWIDTH
 40
0.25
  9
$PSOLHEIGHT
 40
4.0
  9
$LOFTANG1
 40
1.570796326794897
  9
$LOFTANG2
 40
1.570796326794897
  9
$LOFTMAG1
 40
0.0
  9
$LOFTMAG2
 40
0.0
  9
$LOFTPARAM
 70
     7
  9
$LOFTNORMALS
280
     1
  9
$LATITUDE
 40
37.795
  9
$LONGITUDE
 40
-122.394
  9
$NORTHDIRECTION
 40
0.0
  9
$TIMEZONE
 70
 -8000
  9
$LIGHTGLYPHDISPLAY
280
     1
  9
$TILEMODELIGHTSYNCH
280
     1
  9
$CMATERIAL
347
3C
  9
$SOLIDHIST
280
     1
  9
$SHOWHIST
280
     1
  9
$DWFFRAME
280
     2
  9
$DGNFRAME
280
     2
  9
$REALWORLDSCALE
290
     1
  9
$INTERFERECOLOR
 62
   256
  9
$CSHADOW
280
     0
  9
$SHADOWPLANELOCATION
 40
0.0
  0
ENDSEC
  0
SECTION
  2
CLASSES
  0
CLASS
  1
ACDBDICTIONARYWDFLT
  2
AcDbDictionaryWithDefault
  3
ObjectDBX Classes
 90
        0
 91
        4
280
     0
281
     0
  0
CLASS
  1
VISUALSTYLE
  2
AcDbVisualStyle
  3
ObjectDBX Classes
 90
     4095
 91
        4
280
     0
281
     0
  0
CLASS
  1
MATERIAL
  2
AcDbMaterial
  3
ObjectDBX Classes
 90
     1153
 91
        4
280
     0
281
     0
  0
CLASS
  1
SUN
  2
AcDbSun
  3
SCENEOE
 90
     1024
 91
        4
280
     0
281
     0
  0
ENDSEC
  0
SECTION
  2
TABLES
  0
TABLE
  2
VPORT
  5
8
330
0
100
AcDbSymbolTable
 70
     1
  0
VPORT
  5
29
330
8
100
AcDbSymbolTableRecord
100
AcDbViewportTableRecord
  2
*Active
 70
     0
 10
0.0
 20
0.0
 11
1.0
 21
1.0
 12
0.0
 22
0.0
 13
0.0
 23
0.0
 14
0.5
 24
0.5
 15
0.5
 25
0.5
 16
0.0
 26
0.0
 36
1.0
 17
170.0
 27
-152.0
 37
0.0
 40
1270.0
 41
0.6362204724409449
 42
50.0
 43
0.0
 44
0.0
 50
0.0
 51
0.0
 71
     0
 72
   100
 73
     1
 74
     3
 75
     0
 76
     0
 77
     0
 78
     0
281
     0
 65
     1
110
0.0
120
0.0
130
0.0
111
1.0
121
0.0
131
0.0
112
0.0
122
1.0
132
0.0
 79
     0
146
0.0
 60
     3
 61
     5
292
     1
282
     1
141
0.0
142
0.0
 63
   250
361
3F
  0
ENDTAB
  0
TABLE
  2
LTYPE
  5
5
330
0
100
AcDbSymbolTable
 70
     1
  0
LTYPE
  5
14
330
5
100
AcDbSymbolTableRecord
100
AcDbLinetypeTableRecord
  2
ByBlock
 70
     0
  3

 72
    65
 73
     0
 40
0.0
  0
LTYPE
  5
15
330
5
100
AcDbSymbolTableRecord
100
AcDbLinetypeTableRecord
  2
ByLayer
 70
     0
  3

 72
    65
 73
     0
 40
0.0
  0
LTYPE
  5
16
330
5
100
AcDbSymbolTableRecord
100
AcDbLinetypeTableRecord
  2
Continuous
 70
     0
  3
Solid line
 72
    65
 73
     0
 40
0.0
  0
ENDTAB
  0
TABLE
  2
LAYER
  5
2
330
0
100
AcDbSymbolTable
 70
     2
  0
LAYER
  5
10
330
2
100
AcDbSymbolTableRecord
100
AcDbLayerTableRecord
  2
0
 70
     0
 62
     7
  6
Continuous
370
    -3
390
F
347
3E
  0
LAYER
  5
40
330
2
100
AcDbSymbolTableRecord
100
AcDbLayerTableRecord
  2
Livello 1
 70
     0
 62
     7
  6
Continuous
370
    -3
390
F
347
3E
  0
ENDTAB
  0
TABLE
  2
STYLE
  5
3
330
0
100
AcDbSymbolTable
 70
     1
  0
STYLE
  5
11
330
3
100
AcDbSymbolTableRecord
100
AcDbTextStyleTableRecord
  2
Standard
 70
     0
 40
0.0
 41
1.0
 50
0.0
 71
     0
 42
0.2
  3
txt
  4

  0
ENDTAB
  0
TABLE
  2
VIEW
  5
6
330
0
100
AcDbSymbolTable
 70
     0
  0
ENDTAB
  0
TABLE
  2
UCS
  5
7
330
0
100
AcDbSymbolTable
 70
     0
  0
ENDTAB
  0
TABLE
  2
APPID
  5
9
330
0
100
AcDbSymbolTable
 70
     1
  0
APPID
  5
12
330
9
100
AcDbSymbolTableRecord
100
AcDbRegAppTableRecord
  2
ACAD
 70
     0
  0
ENDTAB
  0
TABLE
  2
DIMSTYLE
  5
A
330
0
100
AcDbSymbolTable
 70
     1
100
AcDbDimStyleTable
  0
DIMSTYLE
105
27
330
A
100
AcDbSymbolTableRecord
100
AcDbDimStyleTableRecord
  2
Standard
 70
     0
178
     0
340
11
  0
ENDTAB
  0
TABLE
  2
BLOCK_RECORD
  5
1
330
0
100
AcDbSymbolTable
 70
     1
  0
BLOCK_RECORD
  5
1F
330
1
100
AcDbSymbolTableRecord
100
AcDbBlockTableRecord
  2
*Model_Space
340
22
 70
     0
280
     1
281
     0
  0
BLOCK_RECORD
  5
1B
330
1
100
AcDbSymbolTableRecord
100
AcDbBlockTableRecord
  2
*Paper_Space
340
1E
 70
     0
280
     1
281
     0
  0
BLOCK_RECORD
  5
23
330
1
100
AcDbSymbolTableRecord
100
AcDbBlockTableRecord
  2
*Paper_Space0
340
26
 70
     0
280
     1
281
     0
  0
ENDTAB
  0
ENDSEC
  0
SECTION
  2
BLOCKS
  0
BLOCK
  5
20
330
1F
100
AcDbEntity
  8
0
100
AcDbBlockBegin
  2
*Model_Space
 70
     0
 10
0.0
 20
0.0
 30
0.0
  3
*Model_Space
  1

  0
ENDBLK
  5
21
330
1F
100
AcDbEntity
  8
0
100
AcDbBlockEnd
  0
BLOCK
  5
1C
330
1B
100
AcDbEntity
 67
     1
  8
0
100
AcDbBlockBegin
  2
*Paper_Space
 70
     0
 10
0.0
 20
0.0
 30
0.0
  3
*Paper_Space
  1

  0
ENDBLK
  5
1D
330
1B
100
AcDbEntity
 67
     1
  8
0
100
AcDbBlockEnd
  0
BLOCK
  5
24
330
23
100
AcDbEntity
  8
0
100
AcDbBlockBegin
  2
*Paper_Space0
 70
     0
 10
0.0
 20
0.0
 30
0.0
  3
*Paper_Space0
  1

  0
ENDBLK
  5
25
330
23
100
AcDbEntity
  8
0
100
AcDbBlockEnd
  0
ENDSEC
  0
SECTION
  2
ENTITIES
  0
POLYLINE
  5
41
330
1F
100
AcDbEntity
  8
Livello 1
 62
     7
420
 16777215
370
     9
100
AcDb2dPolyline
 66
     1
 10
0.0
 20
0.0
 30
0.0
  0
VERTEX
  5
42
330
41
100
AcDbEntity
  8
Livello 1
 62
     7
420
 16777215
370
     9
100
AcDbVertex
100
AcDb2dVertex
 10
133.5338965737128
 20
359.6191930511441
 30
0.0
  0
VERTEX
  5
43
330
41
100
AcDbEntity
  8
Livello 1
 62
     7
420
 16777215
370
     9
100
AcDbVertex
100
AcDb2dVertex
 10
134.2927178657046
 20
359.6191930511441
 30
0.0
  0
VERTEX
  5
44
330
41
100
AcDbEntity
  8
Livello 1
 62
     7
420
 16777215
370
     9
100
AcDbVertex
100
AcDb2dVertex
 10
136.5058678854384
 20
359.6191930511441
 30
0.0
  0
VERTEX
  5
45
330
41
100
AcDbEntity
  8
Livello 1
 62
     7
420
 16777215
370
     9
100
AcDbVertex
100
AcDb2dVertex
 10
140.1138127083859
 20
359.6191930511441
 30
0.0
  0
VERTEX
  5
46
330
41
100
AcDbEntity
  8
Livello 1
 62
     7
420
 16777215
370
     9
100
AcDbVertex
100
AcDb2dVertex
 10
144.9445654414676
 20
359.6191930511441
 30
0.0
  0
VERTEX
  5
47
330
41
100
AcDbEntity
  8
Livello 1
 62
     7
420
 16777215
370
     9
100
AcDbVertex
100
AcDb2dVertex
 10
150.7656602841489
 20
359.6191930511441
 30
0.0
  0
VERTEX
  5
48
330
41
100
AcDbEntity
  8
Livello 1
 62
     7
420
 16777215
370
     9
100
AcDbVertex
100
AcDb2dVertex
 10
157.3616411286148
 20
359.6191930511441
 30
0.0
  0
VERTEX
  5
49
330
41
100
AcDbEntity
  8
Livello 1
 62
     7
420
 16777215
370
     9
100
AcDbVertex
100
AcDb2dVertex
 10
164.4055438814312
 20
359.6191930511441
 30
0.0
  0
VERTEX
  5
4A
330
41
100
AcDbEntity
  8
Livello 1
 62
     7
420
 16777215
370
     9
100
AcDbVertex
100
AcDb2dVertex
 10
171.6204885443976
 20
359.6191930511441
 30
0.0
  0
VERTEX
  5
4B
330
41
100
AcDbEntity
  8
Livello 1
 62
     7
420
 16777215
370
     9
100
AcDbVertex
100
AcDb2dVertex
 10
178.6653362801417
 20
359.6191930511441
 30
0.0
  0
VERTEX
  5
4C
330
41
100
AcDbEntity
  8
Livello 1
 62
     7
420
 16777215
370
     9
100
AcDbVertex
100
AcDb2dVertex
 10
185.2452524148157
 20
359.6191930511441
 30
0.0
  0
VERTEX
  5
4D
330
41
100
AcDbEntity
  8
Livello 1
 62
     7
420
 16777215
370
     9
100
AcDbVertex
100
AcDb2dVertex
 10
191.0824119672889
 20
359.6191930511441
 30
0.0
  0
VERTEX
  5
4E
330
41
100
AcDbEntity
  8
Livello 1
 62
     7
420
 16777215
370
     9
100
AcDbVertex
100
AcDb2dVertex
 10
195.9131647003705
 20
359.6191930511441
 30
0.0
  0
VERTEX
  5
4F
330
41
100
AcDbEntity
  8
Livello 1
 62
     7
420
 16777215
370
     9
100
AcDbVertex
100
AcDb2dVertex
 10
199.5050448135253
 20
359.6191930511441
 30
0.0
  0
VERTEX
  5
50
330
41
100
AcDbEntity
  8
Livello 1
 62
     7
420
 16777215
370
     9
100
AcDbVertex
100
AcDb2dVertex
 10
201.7342595430518
 20
359.6191930511441
 30
0.0
  0
VERTEX
  5
51
330
41
100
AcDbEntity
  8
Livello 1
 62
     7
420
 16777215
370
     9
100
AcDbVertex
100
AcDb2dVertex
 10
202.4930808350446
 20
359.6191930511441
 30
0.0
  0
SEQEND
  5
52
330
41
100
AcDbEntity
  8
Livello 1
 62
     7
420
 16777215
370
     9
  0
POLYLINE
  5
53
330
1F
100
AcDbEntity
  8
Livello 1
 62
     7
420
 16777215
370
     9
100
AcDb2dPolyline
 66
     1
 10
0.0
 20
0.0
 30
0.0
  0
VERTEX
  5
54
330
53
100
AcDbEntity
  8
Livello 1
 62
     7
420
 16777215
370
     9
100
AcDbVertex
100
AcDb2dVertex
 10
139.7887385808071
 20
-466.7956647472583
 30
0.0
  0
VERTEX
  5
55
330
53
100
AcDbEntity
  8
Livello 1
 62
     7
420
 16777215
370
     9
100
AcDbVertex
100
AcDb2dVertex
 10
139.9276510713717
 20
-466.7956647472583
 30
0.0
  0
SEQEND
  5
56
330
53
100
AcDbEntity
  8
Livello 1
 62
     7
420
 16777215
370
     9
  0
POLYLINE
  5
57
330
1F
100
AcDbEntity
  8
Livello 1
 62
     7
420
 16777215
370
     9
100
AcDb2dPolyline
 66
     1
 10
0.0
 20
0.0
 30
0.0
  0
VERTEX
  5
58
330
57
100
AcDbEntity
  8
Livello 1
 62
     7
420
 16777215
370
     9
100
AcDbVertex
100
AcDb2dVertex
 10
168.0134887043787
 20
-438.7101814828493
 30
0.0
  0
VERTEX
  5
59
330
57
100
AcDbEntity
  8
Livello 1
 62
     7
420
 16777215
370
     9
100
AcDbVertex
100
AcDb2dVertex
 10
168.0134887043787
 20
-438.5089001189699
 30
0.0
  0
SEQEND
  5
5A
330
57
100
AcDbEntity
  8
Livello 1
 62
     7
420
 16777215
370
     9
  0
POLYLINE
  5
5B
330
1F
100
AcDbEntity
  8
Livello 1
 62
     7
420
 16777215
370
     9
100
AcDb2dPolyline
 66
     1
 10
0.0
 20
0.0
 30
0.0
  0
VERTEX
  5
5C
330
5B
100
AcDbEntity
  8
Livello 1
 62
     7
420
 16777215
370
     9
100
AcDbVertex
100
AcDb2dVertex
 10
139.9276510713717
 20
-494.8810298888002
 30
0.0
  0
VERTEX
  5
5D
330
5B
100
AcDbEntity
  8
Livello 1
 62
     7
420
 16777215
370
     9
100
AcDbVertex
100
AcDb2dVertex
 10
139.7887385808071
 20
-494.8810298888002
 30
0.0
  0
SEQEND
  5
5E
330
5B
100
AcDbEntity
  8
Livello 1
 62
     7
420
 16777215
370
     9
  0
POLYLINE
  5
5F
330
1F
100
AcDbEntity
  8
Livello 1
 62
     7
420
 16777215
370
     9
100
AcDb2dPolyline
 66
     1
 10
0.0
 20
0.0
 30
0.0
  0
VERTEX
  5
60
330
5F
100
AcDbEntity
  8
Livello 1
 62
     7
420
 16777215
370
     9
100
AcDbVertex
100
AcDb2dVertex
 10
196.2382388279493
 20
-522.9665131532092
 30
0.0
  0
VERTEX
  5
61
330
5F
100
AcDbEntity
  8
Livello 1
 62
     7
420
 16777215
370
     9
100
AcDbVertex
100
AcDb2dVertex
 10
196.0993263373848
 20
-522.9665131532092
 30
0.0
  0
SEQEND
  5
62
330
5F
100
AcDbEntity
  8
Livello 1
 62
     7
420
 16777215
370
     9
  0
POLYLINE
  5
63
330
1F
100
AcDbEntity
  8
Livello 1
 62
     7
420
 16777215
370
     9
100
AcDb2dPolyline
 66
     1
 10
0.0
 20
0.0
 30
0.0
  0
VERTEX
  5
64
330
63
100
AcDbEntity
  8
Livello 1
 62
     7
420
 16777215
370
     9
100
AcDbVertex
100
AcDb2dVertex
 10
168.0134887043787
 20
-551.0519964176183
 30
0.0
  0
VERTEX
  5
65
330
63
100
AcDbEntity
  8
Livello 1
 62
     7
420
 16777215
370
     9
100
AcDbVertex
100
AcDb2dVertex
 10
168.0134887043787
 20
-551.2532777814959
 30
0.0
  0
SEQEND
  5
66
330
63
100
AcDbEntity
  8
Livello 1
 62
     7
420
 16777215
370
     9
  0
POLYLINE
  5
67
330
1F
100
AcDbEntity
  8
Livello 1
 62
     7
420
 16777215
370
     9
100
AcDb2dPolyline
 66
     1
 10
0.0
 20
0.0
 30
0.0
  0
VERTEX
  5
68
330
67
100
AcDbEntity
  8
Livello 1
 62
     7
420
 16777215
370
     9
100
AcDbVertex
100
AcDb2dVertex
 10
196.0993263373848
 20
-494.8810298888002
 30
0.0
  0
VERTEX
  5
69
330
67
100
AcDbEntity
  8
Livello 1
 62
     7
420
 16777215
370
     9
100
AcDbVertex
100
AcDb2dVertex
 10
196.2382388279493
 20
-494.8810298888002
 30
0.0
  0
SEQEND
  5
6A
330
67
100
AcDbEntity
  8
Livello 1
 62
     7
420
 16777215
370
     9
  0
POLYLINE
  5
6B
330
1F
100
AcDbEntity
  8
Livello 1
 62
     7
420
 16777215
370
     9
100
AcDb2dPolyline
 66
     1
 10
0.0
 20
0.0
 30
0.0
  0
VERTEX
  5
6C
330
6B
100
AcDbEntity
  8
Livello 1
 62
     7
420
 16777215
370
     9
100
AcDbVertex
100
AcDb2dVertex
 10
517.7951399444773
 20
415.791577054355
 30
0.0
  0
VERTEX
  5
6D
330
6B
100
AcDbEntity
  8
Livello 1
 62
     7
420
 16777215
370
     9
100
AcDbVertex
100
AcDb2dVertex
 10
517.0363186524864
 20
415.791577054355
 30
0.0
  0
VERTEX
  5
6E
330
6B
100
AcDbEntity
  8
Livello 1
 62
     7
420
 16777215
370
     9
100
AcDbVertex
100
AcDb2dVertex
 10
514.7910392131671
 20
415.791577054355
 30
0.0
  0
VERTEX
  5
6F
330
6B
100
AcDbEntity
  8
Livello 1
 62
     7
420
 16777215
370
     9
100
AcDbVertex
100
AcDb2dVertex
 10
511.0753663363139
 20
415.791577054355
 30
0.0
  0
VERTEX
  5
70
330
6B
100
AcDbEntity
  8
Livello 1
 62
     7
420
 16777215
370
     9
100
AcDbVertex
100
AcDb2dVertex
 10
505.8732353121304
 20
415.791577054355
 30
0.0
  0
VERTEX
  5
71
330
6B
100
AcDbEntity
  8
Livello 1
 62
     7
420
 16777215
370
     9
100
AcDbVertex
100
AcDb2dVertex
 10
499.2309503041433
 20
415.791577054355
 30
0.0
  0
VERTEX
  5
72
330
6B
100
AcDbEntity
  8
Livello 1
 62
     7
420
 16777215
370
     9
100
AcDbVertex
100
AcDb2dVertex
 10
491.1645760221418
 20
415.791577054355
 30
0.0
  0
VERTEX
  5
73
330
6B
100
AcDbEntity
  8
Livello 1
 62
     7
420
 16777215
370
     9
100
AcDbVertex
100
AcDb2dVertex
 10
481.7204166296488
 20
415.791577054355
 30
0.0
  0
VERTEX
  5
74
330
6B
100
AcDbEntity
  8
Livello 1
 62
     7
420
 16777215
370
     9
100
AcDbVertex
100
AcDb2dVertex
 10
470.9287115803927
 20
415.791577054355
 30
0.0
  0
VERTEX
  5
75
330
6B
100
AcDbEntity
  8
Livello 1
 62
     7
420
 16777215
370
     9
100
AcDbVertex
100
AcDb2dVertex
 10
458.8376550037519
 20
415.791577054355
 30
0.0
  0
VERTEX
  5
76
330
6B
100
AcDbEntity
  8
Livello 1
 62
     7
420
 16777215
370
     9
100
AcDbVertex
100
AcDb2dVertex
 10
445.5067808242566
 20
415.791577054355
 30
0.0
  0
VERTEX
  5
77
330
6B
100
AcDbEntity
  8
Livello 1
 62
     7
420
 16777215
370
     9
100
AcDbVertex
100
AcDb2dVertex
 10
430.9842831712813
 20
415.791577054355
 30
0.0
  0
VERTEX
  5
78
330
6B
100
AcDbEntity
  8
Livello 1
 62
     7
420
 16777215
370
     9
100
AcDbVertex
100
AcDb2dVertex
 10
415.3467056620793
 20
415.791577054355
 30
0.0
  0
SEQEND
  5
79
330
6B
100
AcDbEntity
  8
Livello 1
 62
     7
420
 16777215
370
     9
  0
POLYLINE
  5
7A
330
1F
100
AcDbEntity
  8
Livello 1
 62
     7
420
 16777215
370
     9
100
AcDb2dPolyline
 66
     1
 10
0.0
 20
0.0
 30
0.0
  0
VERTEX
  5
7B
330
7A
100
AcDbEntity
  8
Livello 1
 62
     7
420
 16777215
370
     9
100
AcDbVertex
100
AcDb2dVertex
 10
415.3467056620793
 20
415.791577054355
 30
0.0
  0
VERTEX
  5
7C
330
7A
100
AcDbEntity
  8
Livello 1
 62
     7
420
 16777215
370
     9
100
AcDbVertex
100
AcDb2dVertex
 10
398.6412974430996
 20
415.791577054355
 30
0.0
  0
VERTEX
  5
7D
330
7A
100
AcDbEntity
  8
Livello 1
 62
     7
420
 16777215
370
     9
100
AcDbVertex
100
AcDb2dVertex
 10
380.9446021315907
 20
415.791577054355
 30
0.0
  0
VERTEX
  5
7E
330
7A
100
AcDbEntity
  8
Livello 1
 62
     7
420
 16777215
370
     9
100
AcDbVertex
100
AcDb2dVertex
 10
362.3341083277346
 20
415.791577054355
 30
0.0
  0
VERTEX
  5
7F
330
7A
100
AcDbEntity
  8
Livello 1
 62
     7
420
 16777215
370
     9
100
AcDbVertex
100
AcDb2dVertex
 10
342.9033693415004
 20
415.791577054355
 30
0.0
  0
VERTEX
  5
80
330
7A
100
AcDbEntity
  8
Livello 1
 62
     7
420
 16777215
370
     9
100
AcDbVertex
100
AcDb2dVertex
 10
322.7138090632725
 20
415.791577054355
 30
0.0
  0
VERTEX
  5
81
330
7A
100
AcDbEntity
  8
Livello 1
 62
     7
420
 16777215
370
     9
100
AcDbVertex
100
AcDb2dVertex
 10
301.8589808030238
 20
415.791577054355
 30
0.0
  0
VERTEX
  5
82
330
7A
100
AcDbEntity
  8
Livello 1
 62
     7
420
 16777215
370
     9
100
AcDbVertex
100
AcDb2dVertex
 10
280.4466126146617
 20
415.791577054355
 30
0.0
  0
VERTEX
  5
83
330
7A
100
AcDbEntity
  8
Livello 1
 62
     7
420
 16777215
370
     9
100
AcDbVertex
100
AcDb2dVertex
 10
258.5390733715012
 20
415.791577054355
 30
0.0
  0
VERTEX
  5
84
330
7A
100
AcDbEntity
  8
Livello 1
 62
     7
420
 16777215
370
     9
100
AcDbVertex
100
AcDb2dVertex
 10
236.2440911274462
 20
415.791577054355
 30
0.0
  0
VERTEX
  5
85
330
7A
100
AcDbEntity
  8
Livello 1
 62
     7
420
 16777215
370
     9
100
AcDbVertex
100
AcDb2dVertex
 10
213.6703389193353
 20
415.791577054355
 30
0.0
  0
VERTEX
  5
86
330
7A
100
AcDbEntity
  8
Livello 1
 62
     7
420
 16777215
370
     9
100
AcDbVertex
100
AcDb2dVertex
 10
190.8801856204809
 20
415.791577054355
 30
0.0
  0
VERTEX
  5
87
330
7A
100
AcDbEntity
  8
Livello 1
 62
     7
420
 16777215
370
     9
100
AcDbVertex
100
AcDb2dVertex
 10
168.0115987385207
 20
415.791577054355
 30
0.0
  0
VERTEX
  5
88
330
7A
100
AcDbEntity
  8
Livello 1
 62
     7
420
 16777215
370
     9
100
AcDbVertex
100
AcDb2dVertex
 10
145.1288371126238
 20
415.791577054355
 30
0.0
  0
VERTEX
  5
89
330
7A
100
AcDbEntity
  8
Livello 1
 62
     7
420
 16777215
370
     9
100
AcDbVertex
100
AcDb2dVertex
 10
122.3538035406345
 20
415.791577054355
 30
0.0
  0
VERTEX
  5
8A
330
7A
100
AcDbEntity
  8
Livello 1
 62
     7
420
 16777215
370
     9
100
AcDbVertex
100
AcDb2dVertex
 10
99.76493160565951
 20
415.791577054355
 30
0.0
  0
VERTEX
  5
8B
330
7A
100
AcDbEntity
  8
Livello 1
 62
     7
420
 16777215
370
     9
100
AcDbVertex
100
AcDb2dVertex
 10
77.48506908846957
 20
415.791577054355
 30
0.0
  0
VERTEX
  5
8C
330
7A
100
AcDbEntity
  8
Livello 1
 62
     7
420
 16777215
370
     9
100
AcDbVertex
100
AcDb2dVertex
 10
55.57752984530816
 20
415.791577054355
 30
0.0
  0
VERTEX
  5
8D
330
7A
100
AcDbEntity
  8
Livello 1
 62
     7
420
 16777215
370
     9
100
AcDbVertex
100
AcDb2dVertex
 10
34.14909694715243
 20
415.791577054355
 30
0.0
  0
VERTEX
  5
8E
330
7A
100
AcDbEntity
  8
Livello 1
 62
     7
420
 16777215
370
     9
100
AcDbVertex
100
AcDb2dVertex
 10
13.3103333966983
 20
415.791577054355
 30
0.0
  0
VERTEX
  5
8F
330
7A
100
AcDbEntity
  8
Livello 1
 62
     7
420
 16777215
370
     9
100
AcDbVertex
100
AcDb2dVertex
 10
-6.879226881529576
 20
415.791577054355
 30
0.0
  0
VERTEX
  5
90
330
7A
100
AcDbEntity
  8
Livello 1
 62
     7
420
 16777215
370
     9
100
AcDbVertex
100
AcDb2dVertex
 10
-26.30996586776473
 20
415.791577054355
 30
0.0
  0
VERTEX
  5
91
330
7A
100
AcDbEntity
  8
Livello 1
 62
     7
420
 16777215
370
     9
100
AcDbVertex
100
AcDb2dVertex
 10
-44.92045967162085
 20
415.791577054355
 30
0.0
  0
VERTEX
  5
92
330
7A
100
AcDbEntity
  8
Livello 1
 62
     7
420
 16777215
370
     9
100
AcDbVertex
100
AcDb2dVertex
 10
-62.61715498312969
 20
415.791577054355
 30
0.0
  0
VERTEX
  5
93
330
7A
100
AcDbEntity
  8
Livello 1
 62
     7
420
 16777215
370
     9
100
AcDbVertex
100
AcDb2dVertex
 10
-79.32256320210945
 20
415.791577054355
 30
0.0
  0
VERTEX
  5
94
330
7A
100
AcDbEntity
  8
Livello 1
 62
     7
420
 16777215
370
     9
100
AcDbVertex
100
AcDb2dVertex
 10
-94.9601407113123
 20
415.791577054355
 30
0.0
  0
VERTEX
  5
95
330
7A
100
AcDbEntity
  8
Livello 1
 62
     7
420
 16777215
370
     9
100
AcDbVertex
100
AcDb2dVertex
 10
-109.4826383642858
 20
415.791577054355
 30
0.0
  0
VERTEX
  5
96
330
7A
100
AcDbEntity
  8
Livello 1
 62
     7
420
 16777215
370
     9
100
AcDbVertex
100
AcDb2dVertex
 10
-122.813512543783
 20
415.791577054355
 30
0.0
  0
VERTEX
  5
97
330
7A
100
AcDbEntity
  8
Livello 1
 62
     7
420
 16777215
370
     9
100
AcDbVertex
100
AcDb2dVertex
 10
-134.9045691204228
 20
415.791577054355
 30
0.0
  0
VERTEX
  5
98
330
7A
100
AcDbEntity
  8
Livello 1
 62
     7
420
 16777215
370
     9
100
AcDbVertex
100
AcDb2dVertex
 10
-145.6962741696789
 20
415.791577054355
 30
0.0
  0
VERTEX
  5
99
330
7A
100
AcDbEntity
  8
Livello 1
 62
     7
420
 16777215
370
     9
100
AcDbVertex
100
AcDb2dVertex
 10
-155.140433562171
 20
415.791577054355
 30
0.0
  0
VERTEX
  5
9A
330
7A
100
AcDbEntity
  8
Livello 1
 62
     7
420
 16777215
370
     9
100
AcDbVertex
100
AcDb2dVertex
 10
-163.2068078441725
 20
415.791577054355
 30
0.0
  0
VERTEX
  5
9B
330
7A
100
AcDbEntity
  8
Livello 1
 62
     7
420
 16777215
370
     9
100
AcDbVertex
100
AcDb2dVertex
 10
-169.8490928521605
 20
415.791577054355
 30
0.0
  0
VERTEX
  5
9C
330
7A
100
AcDbEntity
  8
Livello 1
 62
     7
420
 16777215
370
     9
100
AcDbVertex
100
AcDb2dVertex
 10
-175.0512238763422
 20
415.791577054355
 30
0.0
  0
VERTEX
  5
9D
330
7A
100
AcDbEntity
  8
Livello 1
 62
     7
420
 16777215
370
     9
100
AcDbVertex
100
AcDb2dVertex
 10
-178.7668967531963
 20
415.791577054355
 30
0.0
  0
VERTEX
  5
9E
330
7A
100
AcDbEntity
  8
Livello 1
 62
     7
420
 16777215
370
     9
100
AcDbVertex
100
AcDb2dVertex
 10
-181.0121761925157
 20
415.791577054355
 30
0.0
  0
VERTEX
  5
9F
330
7A
100
AcDbEntity
  8
Livello 1
 62
     7
420
 16777215
370
     9
100
AcDbVertex
100
AcDb2dVertex
 10
-181.7709974845084
 20
415.791577054355
 30
0.0
  0
SEQEND
  5
A0
330
7A
100
AcDbEntity
  8
Livello 1
 62
     7
420
 16777215
370
     9
  0
POLYLINE
  5
A1
330
1F
100
AcDbEntity
  8
Livello 1
 62
     7
420
 16777215
370
     9
100
AcDb2dPolyline
 66
     1
 10
0.0
 20
0.0
 30
0.0
  0
VERTEX
  5
A2
330
A1
100
AcDbEntity
  8
Livello 1
 62
     7
420
 16777215
370
     9
100
AcDbVertex
100
AcDb2dVertex
 10
519.1105561816548
 20
441.0745953199284
 30
0.0
  0
VERTEX
  5
A3
330
A1
100
AcDbEntity
  8
Livello 1
 62
     7
420
 16777215
370
     9
100
AcDbVertex
100
AcDb2dVertex
 10
518.3677995994549
 20
441.0745953199284
 30
0.0
  0
VERTEX
  5
A4
330
A1
100
AcDbEntity
  8
Livello 1
 62
     7
420
 16777215
370
     9
100
AcDbVertex
100
AcDb2dVertex
 10
516.1074004332731
 20
441.0745953199284
 30
0.0
  0
VERTEX
  5
A5
330
A1
100
AcDbEntity
  8
Livello 1
 62
     7
420
 16777215
370
     9
100
AcDbVertex
100
AcDb2dVertex
 10
512.3756628466253
 20
441.0745953199284
 30
0.0
  0
VERTEX
  5
A6
330
A1
100
AcDbEntity
  8
Livello 1
 62
     7
420
 16777215
370
     9
100
AcDbVertex
100
AcDb2dVertex
 10
507.1584120955795
 20
441.0745953199284
 30
0.0
  0
VERTEX
  5
A7
330
A1
100
AcDbEntity
  8
Livello 1
 62
     7
420
 16777215
370
     9
100
AcDbVertex
100
AcDb2dVertex
 10
500.4849426509354
 20
441.0745953199284
 30
0.0
  0
VERTEX
  5
A8
330
A1
100
AcDbEntity
  8
Livello 1
 62
     7
420
 16777215
370
     9
100
AcDbVertex
100
AcDb2dVertex
 10
492.3883289152054
 20
441.0745953199284
 30
0.0
  0
VERTEX
  5
A9
330
A1
100
AcDbEntity
  8
Livello 1
 62
     7
420
 16777215
370
     9
100
AcDbVertex
100
AcDb2dVertex
 10
482.9129850860554
 20
441.0745953199284
 30
0.0
  0
VERTEX
  5
AA
330
A1
100
AcDbEntity
  8
Livello 1
 62
     7
420
 16777215
370
     9
100
AcDbVertex
100
AcDb2dVertex
 10
472.0749758732782
 20
441.0745953199284
 30
0.0
  0
VERTEX
  5
AB
330
A1
100
AcDbEntity
  8
Livello 1
 62
     7
420
 16777215
370
     9
100
AcDbVertex
100
AcDb2dVertex
 10
459.9517898770519
 20
441.0745953199284
 30
0.0
  0
VERTEX
  5
AC
330
A1
100
AcDbEntity
  8
Livello 1
 62
     7
420
 16777215
370
     9
100
AcDbVertex
100
AcDb2dVertex
 10
446.5594918071693
 20
441.0745953199284
 30
0.0
  0
VERTEX
  5
AD
330
A1
100
AcDbEntity
  8
Livello 1
 62
     7
420
 16777215
370
     9
100
AcDbVertex
100
AcDb2dVertex
 10
431.9906899906728
 20
441.0745953199284
 30
0.0
  0
VERTEX
  5
AE
330
A1
100
AcDbEntity
  8
Livello 1
 62
     7
420
 16777215
370
     9
100
AcDbVertex
100
AcDb2dVertex
 10
416.2756238812926
 20
441.0745953199284
 30
0.0
  0
SEQEND
  5
AF
330
A1
100
AcDbEntity
  8
Livello 1
 62
     7
420
 16777215
370
     9
  0
POLYLINE
  5
B0
330
1F
100
AcDbEntity
  8
Livello 1
 62
     7
420
 16777215
370
     9
100
AcDb2dPolyline
 66
     1
 10
0.0
 20
0.0
 30
0.0
  0
VERTEX
  5
B1
330
B0
100
AcDbEntity
  8
Livello 1
 62
     7
420
 16777215
370
     9
100
AcDbVertex
100
AcDb2dVertex
 10
416.2756238812926
 20
441.0745953199284
 30
0.0
  0
VERTEX
  5
B2
330
B0
100
AcDbEntity
  8
Livello 1
 62
     7
420
 16777215
370
     9
100
AcDbVertex
100
AcDb2dVertex
 10
399.507846788998
 20
441.0745953199284
 30
0.0
  0
VERTEX
  5
B3
330
B0
100
AcDbEntity
  8
Livello 1
 62
     7
420
 16777215
370
     9
100
AcDbVertex
100
AcDb2dVertex
 10
381.7497275871056
 20
441.0745953199284
 30
0.0
  0
VERTEX
  5
B4
330
B0
100
AcDbEntity
  8
Livello 1
 62
     7
420
 16777215
370
     9
100
AcDbVertex
100
AcDb2dVertex
 10
363.0768649099336
 20
441.0745953199284
 30
0.0
  0
VERTEX
  5
B5
330
B0
100
AcDbEntity
  8
Livello 1
 62
     7
420
 16777215
370
     9
100
AcDbVertex
100
AcDb2dVertex
 10
343.5535175966552
 20
441.0745953199284
 30
0.0
  0
VERTEX
  5
B6
330
B0
100
AcDbEntity
  8
Livello 1
 62
     7
420
 16777215
370
     9
100
AcDbVertex
100
AcDb2dVertex
 10
323.3025334280437
 20
441.0745953199284
 30
0.0
  0
VERTEX
  5
B7
330
B0
100
AcDbEntity
  8
Livello 1
 62
     7
420
 16777215
370
     9
100
AcDbVertex
100
AcDb2dVertex
 10
302.3702165676168
 20
441.0745953199284
 30
0.0
  0
VERTEX
  5
B8
330
B0
100
AcDbEntity
  8
Livello 1
 62
     7
420
 16777215
370
     9
100
AcDbVertex
100
AcDb2dVertex
 10
280.8642950692829
 20
441.0745953199284
 30
0.0
  0
VERTEX
  5
B9
330
B0
100
AcDbEntity
  8
Livello 1
 62
     7
420
 16777215
370
     9
100
AcDbVertex
100
AcDb2dVertex
 10
258.8792672259433
 20
441.0745953199284
 30
0.0
  0
VERTEX
  5
BA
330
B0
100
AcDbEntity
  8
Livello 1
 62
     7
420
 16777215
370
     9
100
AcDbVertex
100
AcDb2dVertex
 10
236.50679638171
 20
441.0745953199284
 30
0.0
  0
VERTEX
  5
BB
330
B0
100
AcDbEntity
  8
Livello 1
 62
     7
420
 16777215
370
     9
100
AcDbVertex
100
AcDb2dVertex
 10
213.8404358465568
 20
441.0745953199284
 30
0.0
  0
VERTEX
  5
BC
330
B0
100
AcDbEntity
  8
Livello 1
 62
     7
420
 16777215
370
     9
100
AcDbVertex
100
AcDb2dVertex
 10
190.9727939475242
 20
441.0745953199284
 30
0.0
  0
VERTEX
  5
BD
330
B0
100
AcDbEntity
  8
Livello 1
 62
     7
420
 16777215
370
     9
100
AcDbVertex
100
AcDb2dVertex
 10
168.0115987385207
 20
441.0745953199284
 30
0.0
  0
VERTEX
  5
BE
330
B0
100
AcDbEntity
  8
Livello 1
 62
     7
420
 16777215
370
     9
100
AcDbVertex
100
AcDb2dVertex
 10
145.0513485124457
 20
441.0745953199284
 30
0.0
  0
VERTEX
  5
BF
330
B0
100
AcDbEntity
  8
Livello 1
 62
     7
420
 16777215
370
     9
100
AcDbVertex
100
AcDb2dVertex
 10
122.1837066134131
 20
441.0745953199284
 30
0.0
  0
VERTEX
  5
C0
330
B0
100
AcDbEntity
  8
Livello 1
 62
     7
420
 16777215
370
     9
100
AcDbVertex
100
AcDb2dVertex
 10
99.51734607825983
 20
441.0745953199284
 30
0.0
  0
VERTEX
  5
C1
330
B0
100
AcDbEntity
  8
Livello 1
 62
     7
420
 16777215
370
     9
100
AcDbVertex
100
AcDb2dVertex
 10
77.14487523402659
 20
441.0745953199284
 30
0.0
  0
VERTEX
  5
C2
330
B0
100
AcDbEntity
  8
Livello 1
 62
     7
420
 16777215
370
     9
100
AcDbVertex
100
AcDb2dVertex
 10
55.15890240775843
 20
441.0745953199284
 30
0.0
  0
VERTEX
  5
C3
330
B0
100
AcDbEntity
  8
Livello 1
 62
     7
420
 16777215
370
     9
100
AcDbVertex
100
AcDb2dVertex
 10
33.65392589235307
 20
441.0745953199284
 30
0.0
  0
VERTEX
  5
C4
330
B0
100
AcDbEntity
  8
Livello 1
 62
     7
420
 16777215
370
     9
100
AcDbVertex
100
AcDb2dVertex
 10
12.72160903192616
 20
441.0745953199284
 30
0.0
  0
VERTEX
  5
C5
330
B0
100
AcDbEntity
  8
Livello 1
 62
     7
420
 16777215
370
     9
100
AcDbVertex
100
AcDb2dVertex
 10
-7.545439846478985
 20
441.0745953199284
 30
0.0
  0
VERTEX
  5
C6
330
B0
100
AcDbEntity
  8
Livello 1
 62
     7
420
 16777215
370
     9
100
AcDbVertex
100
AcDb2dVertex
 10
-27.05366743289323
 20
441.0745953199284
 30
0.0
  0
VERTEX
  5
C7
330
B0
100
AcDbEntity
  8
Livello 1
 62
     7
420
 16777215
370
     9
100
AcDbVertex
100
AcDb2dVertex
 10
-45.72558512713567
 20
441.0745953199284
 30
0.0
  0
VERTEX
  5
C8
330
B0
100
AcDbEntity
  8
Livello 1
 62
     7
420
 16777215
370
     9
100
AcDbVertex
100
AcDb2dVertex
 10
-63.48370432902811
 20
441.0745953199284
 30
0.0
  0
VERTEX
  5
C9
330
B0
100
AcDbEntity
  8
Livello 1
 62
     7
420
 16777215
370
     9
100
AcDbVertex
100
AcDb2dVertex
 10
-80.25148142132275
 20
441.0745953199284
 30
0.0
  0
VERTEX
  5
CA
330
B0
100
AcDbEntity
  8
Livello 1
 62
     7
420
 16777215
370
     9
100
AcDbVertex
100
AcDb2dVertex
 10
-95.96654753070379
 20
441.0745953199284
 30
0.0
  0
VERTEX
  5
CB
330
B0
100
AcDbEntity
  8
Livello 1
 62
     7
420
 16777215
370
     9
100
AcDbVertex
100
AcDb2dVertex
 10
-110.5353493471994
 20
441.0745953199284
 30
0.0
  0
VERTEX
  5
CC
330
B0
100
AcDbEntity
  8
Livello 1
 62
     7
420
 16777215
370
     9
100
AcDbVertex
100
AcDb2dVertex
 10
-123.9125276902178
 20
441.0745953199284
 30
0.0
  0
VERTEX
  5
CD
330
B0
100
AcDbEntity
  8
Livello 1
 62
     7
420
 16777215
370
     9
100
AcDbVertex
100
AcDb2dVertex
 10
-136.0508334133083
 20
441.0745953199284
 30
0.0
  0
VERTEX
  5
CE
330
B0
100
AcDbEntity
  8
Livello 1
 62
     7
420
 16777215
370
     9
100
AcDbVertex
100
AcDb2dVertex
 10
-146.8888426260855
 20
441.0745953199284
 30
0.0
  0
VERTEX
  5
CF
330
B0
100
AcDbEntity
  8
Livello 1
 62
     7
420
 16777215
370
     9
100
AcDbVertex
100
AcDb2dVertex
 10
-156.3641864552355
 20
441.0745953199284
 30
0.0
  0
VERTEX
  5
D0
330
B0
100
AcDbEntity
  8
Livello 1
 62
     7
420
 16777215
370
     9
100
AcDbVertex
100
AcDb2dVertex
 10
-164.4617451738932
 20
441.0745953199284
 30
0.0
  0
VERTEX
  5
D1
330
B0
100
AcDbEntity
  8
Livello 1
 62
     7
420
 16777215
370
     9
100
AcDbVertex
100
AcDb2dVertex
 10
-171.1342696356087
 20
441.0745953199284
 30
0.0
  0
VERTEX
  5
D2
330
B0
100
AcDbEntity
  8
Livello 1
 62
     7
420
 16777215
370
     9
100
AcDbVertex
100
AcDb2dVertex
 10
-176.3515203866555
 20
441.0745953199284
 30
0.0
  0
VERTEX
  5
D3
330
B0
100
AcDbEntity
  8
Livello 1
 62
     7
420
 16777215
370
     9
100
AcDbVertex
100
AcDb2dVertex
 10
-180.0832579733024
 20
441.0745953199284
 30
0.0
  0
VERTEX
  5
D4
330
B0
100
AcDbEntity
  8
Livello 1
 62
     7
420
 16777215
370
     9
100
AcDbVertex
100
AcDb2dVertex
 10
-182.3436571394859
 20
441.0745953199284
 30
0.0
  0
VERTEX
  5
D5
330
B0
100
AcDbEntity
  8
Livello 1
 62
     7
420
 16777215
370
     9
100
AcDbVertex
100
AcDb2dVertex
 10
-183.0864137216849
 20
441.0745953199284
 30
0.0
  0
SEQEND
  5
D6
330
B0
100
AcDbEntity
  8
Livello 1
 62
     7
420
 16777215
370
     9
  0
POLYLINE
  5
D7
330
1F
100
AcDbEntity
  8
Livello 1
 62
     7
420
 16777215
370
     9
100
AcDb2dPolyline
 66
     1
 10
0.0
 20
0.0
 30
0.0
  0
VERTEX
  5
D8
330
D7
100
AcDbEntity
  8
Livello 1
 62
     7
420
 16777215
370
     9
100
AcDbVertex
100
AcDb2dVertex
 10
256.3864022592234
 20
-736.2995986938477
 30
0.0
  0
VERTEX
  5
D9
330
D7
100
AcDbEntity
  8
Livello 1
 62
     7
420
 16777215
370
     9
100
AcDbVertex
100
AcDb2dVertex
 10
265.737953324674
 20
-736.2995986938477
 30
0.0
  0
VERTEX
  5
DA
330
D7
100
AcDbEntity
  8
Livello 1
 62
     7
420
 16777215
370
     9
100
AcDbVertex
100
AcDb2dVertex
 10
273.8506317701958
 20
-736.2995986938477
 30
0.0
  0
VERTEX
  5
DB
330
D7
100
AcDbEntity
  8
Livello 1
 62
     7
420
 16777215
370
     9
100
AcDbVertex
100
AcDb2dVertex
 10
280.6167095418832
 20
-736.2995986938477
 30
0.0
  0
VERTEX
  5
DC
330
D7
100
AcDbEntity
  8
Livello 1
 62
     7
420
 16777215
370
     9
100
AcDbVertex
100
AcDb2dVertex
 10
285.9898824762149
 20
-736.2995986938477
 30
0.0
  0
VERTEX
  5
DD
330
D7
100
AcDbEntity
  8
Livello 1
 62
     7
420
 16777215
370
     9
100
AcDbVertex
100
AcDb2dVertex
 10
289.8756522802905
 20
-736.2995986938477
 30
0.0
  0
VERTEX
  5
DE
330
D7
100
AcDbEntity
  8
Livello 1
 62
     7
420
 16777215
370
     9
100
AcDbVertex
100
AcDb2dVertex
 10
292.2135400466523
 20
-736.2995986938477
 30
0.0
  0
VERTEX
  5
DF
330
D7
100
AcDbEntity
  8
Livello 1
 62
     7
420
 16777215
370
     9
100
AcDbVertex
100
AcDb2dVertex
 10
293.003545775302
 20
-736.2995986938477
 30
0.0
  0
SEQEND
  5
E0
330
D7
100
AcDbEntity
  8
Livello 1
 62
     7
420
 16777215
370
     9
  0
POLYLINE
  5
E1
330
1F
100
AcDbEntity
  8
Livello 1
 62
     7
420
 16777215
370
     9
100
AcDb2dPolyline
 66
     1
 10
0.0
 20
0.0
 30
0.0
  0
VERTEX
  5
E2
330
E1
100
AcDbEntity
  8
Livello 1
 62
     7
420
 16777215
370
     9
100
AcDbVertex
100
AcDb2dVertex
 10
43.02059668466791
 20
-736.2995986938477
 30
0.0
  0
VERTEX
  5
E3
330
E1
100
AcDbEntity
  8
Livello 1
 62
     7
420
 16777215
370
     9
100
AcDbVertex
100
AcDb2dVertex
 10
43.73311381313761
 20
-736.2995986938477
 30
0.0
  0
VERTEX
  5
E4
330
E1
100
AcDbEntity
  8
Livello 1
 62
     7
420
 16777215
370
     9
100
AcDbVertex
100
AcDb2dVertex
 10
45.86972021562178
 20
-736.2995986938477
 30
0.0
  0
VERTEX
  5
E5
330
E1
100
AcDbEntity
  8
Livello 1
 62
     7
420
 16777215
370
     9
100
AcDbVertex
100
AcDb2dVertex
 10
49.41529616525531
 20
-736.2995986938477
 30
0.0
  0
VERTEX
  5
E6
330
E1
100
AcDbEntity
  8
Livello 1
 62
     7
420
 16777215
370
     9
100
AcDbVertex
100
AcDb2dVertex
 10
54.30747278872332
 20
-736.2995986938477
 30
0.0
  0
VERTEX
  5
E7
330
E1
100
AcDbEntity
  8
Livello 1
 62
     7
420
 16777215
370
     9
100
AcDbVertex
100
AcDb2dVertex
 10
60.51601063229646
 20
-736.2995986938477
 30
0.0
  0
VERTEX
  5
E8
330
E1
100
AcDbEntity
  8
Livello 1
 62
     7
420
 16777215
370
     9
100
AcDbVertex
100
AcDb2dVertex
 10
67.94830136893415
 20
-736.2995986938477
 30
0.0
  0
VERTEX
  5
E9
330
E1
100
AcDbEntity
  8
Livello 1
 62
     7
420
 16777215
370
     9
100
AcDbVertex
100
AcDb2dVertex
 10
76.52496643259838
 20
-736.2995986938477
 30
0.0
  0
VERTEX
  5
EA
330
E1
100
AcDbEntity
  8
Livello 1
 62
     7
420
 16777215
370
     9
100
AcDbVertex
100
AcDb2dVertex
 10
86.15528746210566
 20
-736.2995986938477
 30
0.0
  0
VERTEX
  5
EB
330
E1
100
AcDbEntity
  8
Livello 1
 62
     7
420
 16777215
370
     9
100
AcDbVertex
100
AcDb2dVertex
 10
96.73059142061902
 20
-736.2995986938477
 30
0.0
  0
VERTEX
  5
EC
330
E1
100
AcDbEntity
  8
Livello 1
 62
     7
420
 16777215
370
     9
100
AcDbVertex
100
AcDb2dVertex
 10
108.1100758517168
 20
-736.2995986938477
 30
0.0
  0
VERTEX
  5
ED
330
E1
100
AcDbEntity
  8
Livello 1
 62
     7
420
 16777215
370
     9
100
AcDbVertex
100
AcDb2dVertex
 10
120.1708929746292
 20
-736.2995986938477
 30
0.0
  0
VERTEX
  5
EE
330
E1
100
AcDbEntity
  8
Livello 1
 62
     7
420
 16777215
370
     9
100
AcDbVertex
100
AcDb2dVertex
 10
132.7892500256548
 20
-736.2995986938477
 30
0.0
  0
VERTEX
  5
EF
330
E1
100
AcDbEntity
  8
Livello 1
 62
     7
420
 16777215
370
     9
100
AcDbVertex
100
AcDb2dVertex
 10
145.8101698044375
 20
-736.2995986938477
 30
0.0
  0
VERTEX
  5
F0
330
E1
100
AcDbEntity
  8
Livello 1
 62
     7
420
 16777215
370
     9
100
AcDbVertex
100
AcDb2dVertex
 10
159.0937948374849
 20
-736.2995986938477
 30
0.0
  0
VERTEX
  5
F1
330
E1
100
AcDbEntity
  8
Livello 1
 62
     7
420
 16777215
370
     9
100
AcDbVertex
100
AcDb2dVertex
 10
172.4709731805024
 20
-736.2995986938477
 30
0.0
  0
VERTEX
  5
F2
330
E1
100
AcDbEntity
  8
Livello 1
 62
     7
420
 16777215
370
     9
100
AcDbVertex
100
AcDb2dVertex
 10
185.8018473600005
 20
-736.2995986938477
 30
0.0
  0
VERTEX
  5
F3
330
E1
100
AcDbEntity
  8
Livello 1
 62
     7
420
 16777215
370
     9
100
AcDbVertex
100
AcDb2dVertex
 10
198.9304951926897
 20
-736.2995986938477
 30
0.0
  0
VERTEX
  5
F4
330
E1
100
AcDbEntity
  8
Livello 1
 62
     7
420
 16777215
370
     9
100
AcDbVertex
100
AcDb2dVertex
 10
211.6887097172084
 20
-736.2995986938477
 30
0.0
  0
VERTEX
  5
F5
330
E1
100
AcDbEntity
  8
Livello 1
 62
     7
420
 16777215
370
     9
100
AcDbVertex
100
AcDb2dVertex
 10
223.9659279308635
 20
-736.2995986938477
 30
0.0
  0
VERTEX
  5
F6
330
E1
100
AcDbEntity
  8
Livello 1
 62
     7
420
 16777215
370
     9
100
AcDbVertex
100
AcDb2dVertex
 10
235.5939428722904
 20
-736.2995986938477
 30
0.0
  0
VERTEX
  5
F7
330
E1
100
AcDbEntity
  8
Livello 1
 62
     7
420
 16777215
370
     9
100
AcDbVertex
100
AcDb2dVertex
 10
246.4310071021382
 20
-736.2995986938477
 30
0.0
  0
VERTEX
  5
F8
330
E1
100
AcDbEntity
  8
Livello 1
 62
     7
420
 16777215
370
     9
100
AcDbVertex
100
AcDb2dVertex
 10
256.3864022592234
 20
-736.2995986938477
 30
0.0
  0
SEQEND
  5
F9
330
E1
100
AcDbEntity
  8
Livello 1
 62
     7
420
 16777215
370
     9
  0
POLYLINE
  5
FA
330
1F
100
AcDbEntity
  8
Livello 1
 62
     7
420
 16777215
370
     9
100
AcDb2dPolyline
 66
     1
 10
0.0
 20
0.0
 30
0.0
  0
VERTEX
  5
FB
330
FA
100
AcDbEntity
  8
Livello 1
 62
     7
420
 16777215
370
     9
100
AcDbVertex
100
AcDb2dVertex
 10
196.7938887902055
 20
-522.9648594330829
 30
0.0
  0
VERTEX
  5
FC
330
FA
100
AcDbEntity
  8
Livello 1
 62
     7
420
 16777215
370
     9
100
AcDbVertex
100
AcDb2dVertex
 10
196.7938887902055
 20
-466.7940110271302
 30
0.0
  0
SEQEND
  5
FD
330
FA
100
AcDbEntity
  8
Livello 1
 62
     7
420
 16777215
370
     9
  0
POLYLINE
  5
FE
330
1F
100
AcDbEntity
  8
Livello 1
 62
     7
420
 16777215
370
     9
100
AcDb2dPolyline
 66
     1
 10
0.0
 20
0.0
 30
0.0
  0
VERTEX
  5
FF
330
FE
100
AcDbEntity
  8
Livello 1
 62
     7
420
 16777215
370
     9
100
AcDbVertex
100
AcDb2dVertex
 10
196.7938887902055
 20
-466.7940110271302
 30
0.0
  0
VERTEX
  5
100
330
FE
100
AcDbEntity
  8
Livello 1
 62
     7
420
 16777215
370
     9
100
AcDbVertex
100
AcDb2dVertex
 10
196.4073907722413
 20
-462.0253909216317
 30
0.0
  0
VERTEX
  5
101
330
FE
100
AcDbEntity
  8
Livello 1
 62
     7
420
 16777215
370
     9
100
AcDbVertex
100
AcDb2dVertex
 10
195.2308870256284
 20
-457.4115117707552
 30
0.0
  0
VERTEX
  5
102
330
FE
100
AcDbEntity
  8
Livello 1
 62
     7
420
 16777215
370
     9
100
AcDbVertex
100
AcDb2dVertex
 10
193.3106817138869
 20
-453.0454543930136
 30
0.0
  0
VERTEX
  5
103
330
FE
100
AcDbEntity
  8
Livello 1
 62
     7
420
 16777215
370
     9
100
AcDbVertex
100
AcDb2dVertex
 10
190.7091437103318
 20
-449.0664856475651
 30
0.0
  0
VERTEX
  5
104
330
FE
100
AcDbEntity
  8
Livello 1
 62
     7
420
 16777215
370
     9
100
AcDbVertex
100
AcDb2dVertex
 10
187.4272179978916
 20
-445.5363837933946
 30
0.0
  0
VERTEX
  5
105
330
FE
100
AcDbEntity
  8
Livello 1
 62
     7
420
 16777215
370
     9
100
AcDbVertex
100
AcDb2dVertex
 10
183.6028720842014
 20
-442.5947700582637
 30
0.0
  0
VERTEX
  5
106
330
FE
100
AcDbEntity
  8
Livello 1
 62
     7
420
 16777215
370
     9
100
AcDbVertex
100
AcDb2dVertex
 10
179.2833551157119
 20
-440.3033045782868
 30
0.0
  0
VERTEX
  5
107
330
FE
100
AcDbEntity
  8
Livello 1
 62
     7
420
 16777215
370
     9
100
AcDbVertex
100
AcDb2dVertex
 10
174.6226993098517
 20
-438.7705422674389
 30
0.0
  0
VERTEX
  5
108
330
FE
100
AcDbEntity
  8
Livello 1
 62
     7
420
 16777215
370
     9
100
AcDbVertex
100
AcDb2dVertex
 10
169.854315450083
 20
-438.0582613846982
 30
0.0
  0
VERTEX
  5
109
330
FE
100
AcDbEntity
  8
Livello 1
 62
     7
420
 16777215
370
     9
100
AcDbVertex
100
AcDb2dVertex
 10
165.0396274267941
 20
-438.1512240803422
 30
0.0
  0
VERTEX
  5
10A
330
FE
100
AcDbEntity
  8
Livello 1
 62
     7
420
 16777215
370
     9
100
AcDbVertex
100
AcDb2dVertex
 10
160.378971620934
 20
-439.0337200131671
 30
0.0
  0
VERTEX
  5
10B
330
FE
100
AcDbEntity
  8
Livello 1
 62
     7
420
 16777215
370
     9
100
AcDbVertex
100
AcDb2dVertex
 10
155.935661888745
 20
-440.6594450196553
 30
0.0
  0
VERTEX
  5
10C
330
FE
100
AcDbEntity
  8
Livello 1
 62
     7
420
 16777215
370
     9
100
AcDbVertex
100
AcDb2dVertex
 10
151.8013615743403
 20
-442.9972146631535
 30
0.0
  0
VERTEX
  5
10D
330
FE
100
AcDbEntity
  8
Livello 1
 62
     7
420
 16777215
370
     9
100
AcDbVertex
100
AcDb2dVertex
 10
148.1168731341431
 20
-445.9853688075382
 30
0.0
  0
VERTEX
  5
10E
330
FE
100
AcDbEntity
  8
Livello 1
 62
     7
420
 16777215
370
     9
100
AcDbVertex
100
AcDb2dVertex
 10
144.9124360218821
 20
-449.6237893299458
 30
0.0
  0
VERTEX
  5
10F
330
FE
100
AcDbEntity
  8
Livello 1
 62
     7
420
 16777215
370
     9
100
AcDbVertex
100
AcDb2dVertex
 10
142.342082454983
 20
-453.7421430574232
 30
0.0
  0
VERTEX
  5
110
330
FE
100
AcDbEntity
  8
Livello 1
 62
     7
420
 16777215
370
     9
100
AcDbVertex
100
AcDb2dVertex
 10
140.5144854702839
 20
-458.2785336081197
 30
0.0
  0
VERTEX
  5
111
330
FE
100
AcDbEntity
  8
Livello 1
 62
     7
420
 16777215
370
     9
100
AcDbVertex
100
AcDb2dVertex
 10
139.4617744873713
 20
-463.0472718364872
 30
0.0
  0
VERTEX
  5
112
330
FE
100
AcDbEntity
  8
Livello 1
 62
     7
420
 16777215
370
     9
100
AcDbVertex
100
AcDb2dVertex
 10
139.2141889599716
 20
-466.7940110271302
 30
0.0
  0
SEQEND
  5
113
330
FE
100
AcDbEntity
  8
Livello 1
 62
     7
420
 16777215
370
     9
  0
POLYLINE
  5
114
330
1F
100
AcDbEntity
  8
Livello 1
 62
     7
420
 16777215
370
     9
100
AcDb2dPolyline
 66
     1
 10
0.0
 20
0.0
 30
0.0
  0
VERTEX
  5
115
330
114
100
AcDbEntity
  8
Livello 1
 62
     7
420
 16777215
370
     9
100
AcDbVertex
100
AcDb2dVertex
 10
139.2141889599716
 20
-466.7940110271302
 30
0.0
  0
VERTEX
  5
116
330
114
100
AcDbEntity
  8
Livello 1
 62
     7
420
 16777215
370
     9
100
AcDbVertex
100
AcDb2dVertex
 10
139.2141889599716
 20
-522.9648594330829
 30
0.0
  0
SEQEND
  5
117
330
114
100
AcDbEntity
  8
Livello 1
 62
     7
420
 16777215
370
     9
  0
POLYLINE
  5
118
330
1F
100
AcDbEntity
  8
Livello 1
 62
     7
420
 16777215
370
     9
100
AcDb2dPolyline
 66
     1
 10
0.0
 20
0.0
 30
0.0
  0
VERTEX
  5
119
330
118
100
AcDbEntity
  8
Livello 1
 62
     7
420
 16777215
370
     9
100
AcDbVertex
100
AcDb2dVertex
 10
139.2141889599716
 20
-522.9648594330829
 30
0.0
  0
VERTEX
  5
11A
330
118
100
AcDbEntity
  8
Livello 1
 62
     7
420
 16777215
370
     9
100
AcDbVertex
100
AcDb2dVertex
 10
139.6167516877285
 20
-527.7335976614468
 30
0.0
  0
VERTEX
  5
11B
330
118
100
AcDbEntity
  8
Livello 1
 62
     7
420
 16777215
370
     9
100
AcDbVertex
100
AcDb2dVertex
 10
140.7932554343415
 20
-532.3628327849201
 30
0.0
  0
VERTEX
  5
11C
330
118
100
AcDbEntity
  8
Livello 1
 62
     7
420
 16777215
370
     9
100
AcDbVertex
100
AcDb2dVertex
 10
142.713460746083
 20
-536.7134160672013
 30
0.0
  0
VERTEX
  5
11D
330
118
100
AcDbEntity
  8
Livello 1
 62
     7
420
 16777215
370
     9
100
AcDbVertex
100
AcDb2dVertex
 10
145.3149987496381
 20
-540.6925029355152
 30
0.0
  0
VERTEX
  5
11E
330
118
100
AcDbEntity
  8
Livello 1
 62
     7
420
 16777215
370
     9
100
AcDbVertex
100
AcDb2dVertex
 10
148.5969244620792
 20
-544.2224866668184
 30
0.0
  0
VERTEX
  5
11F
330
118
100
AcDbEntity
  8
Livello 1
 62
     7
420
 16777215
370
     9
100
AcDbVertex
100
AcDb2dVertex
 10
152.4212703757685
 20
-547.1642185248165
 30
0.0
  0
VERTEX
  5
120
330
118
100
AcDbEntity
  8
Livello 1
 62
     7
420
 16777215
370
     9
100
AcDbVertex
100
AcDb2dVertex
 10
156.740787344258
 20
-549.4556840047935
 30
0.0
  0
VERTEX
  5
121
330
118
100
AcDbEntity
  8
Livello 1
 62
     7
420
 16777215
370
     9
100
AcDbVertex
100
AcDb2dVertex
 10
161.3853784403254
 20
-550.9884463156395
 30
0.0
  0
VERTEX
  5
122
330
118
100
AcDbEntity
  8
Livello 1
 62
     7
420
 16777215
370
     9
100
AcDbVertex
100
AcDb2dVertex
 10
166.1698270098868
 20
-551.7006090755149
 30
0.0
  0
VERTEX
  5
123
330
118
100
AcDbEntity
  8
Livello 1
 62
     7
420
 16777215
370
     9
100
AcDbVertex
100
AcDb2dVertex
 10
170.9845150331757
 20
-551.6077645027399
 30
0.0
  0
VERTEX
  5
124
330
118
100
AcDbEntity
  8
Livello 1
 62
     7
420
 16777215
370
     9
100
AcDbVertex
100
AcDb2dVertex
 10
175.6451708390359
 20
-550.725150447046
 30
0.0
  0
VERTEX
  5
125
330
118
100
AcDbEntity
  8
Livello 1
 62
     7
420
 16777215
370
     9
100
AcDbVertex
100
AcDb2dVertex
 10
180.0733608443616
 20
-549.0995435634231
 30
0.0
  0
VERTEX
  5
126
330
118
100
AcDbEntity
  8
Livello 1
 62
     7
420
 16777215
370
     9
100
AcDbVertex
100
AcDb2dVertex
 10
184.2067161758368
 20
-546.7616557970614
 30
0.0
  0
VERTEX
  5
127
330
118
100
AcDbEntity
  8
Livello 1
 62
     7
420
 16777215
370
     9
100
AcDbVertex
100
AcDb2dVertex
 10
187.9072693258267
 20
-543.7735016526749
 30
0.0
  0
VERTEX
  5
128
330
118
100
AcDbEntity
  8
Livello 1
 62
     7
420
 16777215
370
     9
100
AcDbVertex
100
AcDb2dVertex
 10
191.1117064380878
 20
-540.1350811302673
 30
0.0
  0
VERTEX
  5
129
330
118
100
AcDbEntity
  8
Livello 1
 62
     7
420
 16777215
370
     9
100
AcDbVertex
100
AcDb2dVertex
 10
193.6820600049859
 20
-536.0167274027899
 30
0.0
  0
VERTEX
  5
12A
330
118
100
AcDbEntity
  8
Livello 1
 62
     7
420
 16777215
370
     9
100
AcDbVertex
100
AcDb2dVertex
 10
195.5087120067565
 20
-531.4958109475556
 30
0.0
  0
VERTEX
  5
12B
330
118
100
AcDbEntity
  8
Livello 1
 62
     7
420
 16777215
370
     9
100
AcDbVertex
100
AcDb2dVertex
 10
196.5623679725986
 20
-526.7117167465931
 30
0.0
  0
VERTEX
  5
12C
330
118
100
AcDbEntity
  8
Livello 1
 62
     7
420
 16777215
370
     9
100
AcDbVertex
100
AcDb2dVertex
 10
196.7938887902055
 20
-522.9648594330829
 30
0.0
  0
SEQEND
  5
12D
330
118
100
AcDbEntity
  8
Livello 1
 62
     7
420
 16777215
370
     9
  0
POLYLINE
  5
12E
330
1F
100
AcDbEntity
  8
Livello 1
 62
     7
420
 16777215
370
     9
100
AcDb2dPolyline
 66
     1
 10
0.0
 20
0.0
 30
0.0
  0
VERTEX
  5
12F
330
12E
100
AcDbEntity
  8
Livello 1
 62
     7
420
 16777215
370
     9
100
AcDbVertex
100
AcDb2dVertex
 10
41.61257212044711
 20
-327.7604445253728
 30
0.0
  0
VERTEX
  5
130
330
12E
100
AcDbEntity
  8
Livello 1
 62
     7
420
 16777215
370
     9
100
AcDbVertex
100
AcDb2dVertex
 10
42.35532870264706
 20
-327.7604445253728
 30
0.0
  0
VERTEX
  5
131
330
12E
100
AcDbEntity
  8
Livello 1
 62
     7
420
 16777215
370
     9
100
AcDbVertex
100
AcDb2dVertex
 10
44.56942370530851
 20
-327.7604445253728
 30
0.0
  0
VERTEX
  5
132
330
12E
100
AcDbEntity
  8
Livello 1
 62
     7
420
 16777215
370
     9
100
AcDbVertex
100
AcDb2dVertex
 10
48.23879241864142
 20
-327.7604445253728
 30
0.0
  0
VERTEX
  5
133
330
12E
100
AcDbEntity
  8
Livello 1
 62
     7
420
 16777215
370
     9
100
AcDbVertex
100
AcDb2dVertex
 10
53.30106596933001
 20
-327.7604445253728
 30
0.0
  0
VERTEX
  5
134
330
12E
100
AcDbEntity
  8
Livello 1
 62
     7
420
 16777215
370
     9
100
AcDbVertex
100
AcDb2dVertex
 10
59.71088517678345
 20
-327.7604445253728
 30
0.0
  0
VERTEX
  5
135
330
12E
100
AcDbEntity
  8
Livello 1
 62
     7
420
 16777215
370
     9
100
AcDbVertex
100
AcDb2dVertex
 10
67.39076144082082
 20
-327.7604445253728
 30
0.0
  0
VERTEX
  5
136
330
12E
100
AcDbEntity
  8
Livello 1
 62
     7
420
 16777215
370
     9
100
AcDbVertex
100
AcDb2dVertex
 10
76.24714145147027
 20
-327.7604445253728
 30
0.0
  0
VERTEX
  5
137
330
12E
100
AcDbEntity
  8
Livello 1
 62
     7
420
 16777215
370
     9
100
AcDbVertex
100
AcDb2dVertex
 10
86.18647189876174
 20
-327.7604445253728
 30
0.0
  0
VERTEX
  5
138
330
12E
100
AcDbEntity
  8
Livello 1
 62
     7
420
 16777215
370
     9
100
AcDbVertex
100
AcDb2dVertex
 10
97.08590500192531
 20
-327.7604445253728
 30
0.0
  0
VERTEX
  5
139
330
12E
100
AcDbEntity
  8
Livello 1
 62
     7
420
 16777215
370
     9
100
AcDbVertex
100
AcDb2dVertex
 10
108.8065282703947
 20
-327.7604445253728
 30
0.0
  0
VERTEX
  5
13A
330
12E
100
AcDbEntity
  8
Livello 1
 62
     7
420
 16777215
370
     9
100
AcDbVertex
100
AcDb2dVertex
 10
121.238723684407
 20
-327.7604445253728
 30
0.0
  0
VERTEX
  5
13B
330
12E
100
AcDbEntity
  8
Livello 1
 62
     7
420
 16777215
370
     9
100
AcDbVertex
100
AcDb2dVertex
 10
134.1982195728042
 20
-327.7604445253728
 30
0.0
  0
VERTEX
  5
13C
330
12E
100
AcDbEntity
  8
Livello 1
 62
     7
420
 16777215
370
     9
100
AcDbVertex
100
AcDb2dVertex
 10
147.5753979158217
 20
-327.7604445253728
 30
0.0
  0
VERTEX
  5
13D
330
12E
100
AcDbEntity
  8
Livello 1
 62
     7
420
 16777215
370
     9
100
AcDbVertex
100
AcDb2dVertex
 10
161.1689773495827
 20
-327.7604445253728
 30
0.0
  0
VERTEX
  5
13E
330
12E
100
AcDbEntity
  8
Livello 1
 62
     7
420
 16777215
370
     9
100
AcDbVertex
100
AcDb2dVertex
 10
174.8551651103871
 20
-327.7604445253728
 30
0.0
  0
VERTEX
  5
13F
330
12E
100
AcDbEntity
  8
Livello 1
 62
     7
420
 16777215
370
     9
100
AcDbVertex
100
AcDb2dVertex
 10
188.4648092539401
 20
-327.7604445253728
 30
0.0
  0
VERTEX
  5
140
330
12E
100
AcDbEntity
  8
Livello 1
 62
     7
420
 16777215
370
     9
100
AcDbVertex
100
AcDb2dVertex
 10
201.8259228871657
 20
-327.7604445253728
 30
0.0
  0
VERTEX
  5
141
330
12E
100
AcDbEntity
  8
Livello 1
 62
     7
420
 16777215
370
     9
100
AcDbVertex
100
AcDb2dVertex
 10
214.8005385024271
 20
-327.7604445253728
 30
0.0
  0
VERTEX
  5
142
330
12E
100
AcDbEntity
  8
Livello 1
 62
     7
420
 16777215
370
     9
100
AcDbVertex
100
AcDb2dVertex
 10
227.2176141895752
 20
-327.7604445253728
 30
0.0
  0
VERTEX
  5
143
330
12E
100
AcDbEntity
  8
Livello 1
 62
     7
420
 16777215
370
     9
100
AcDbVertex
100
AcDb2dVertex
 10
238.9382374580446
 20
-327.7604445253728
 30
0.0
  0
VERTEX
  5
144
330
12E
100
AcDbEntity
  8
Livello 1
 62
     7
420
 16777215
370
     9
100
AcDbVertex
100
AcDb2dVertex
 10
249.8376705612081
 20
-327.7604445253728
 30
0.0
  0
VERTEX
  5
145
330
12E
100
AcDbEntity
  8
Livello 1
 62
     7
420
 16777215
370
     9
100
AcDbVertex
100
AcDb2dVertex
 10
259.7770010084996
 20
-327.7604445253728
 30
0.0
  0
VERTEX
  5
146
330
12E
100
AcDbEntity
  8
Livello 1
 62
     7
420
 16777215
370
     9
100
AcDbVertex
100
AcDb2dVertex
 10
268.6333810191491
 20
-327.7604445253728
 30
0.0
  0
VERTEX
  5
147
330
12E
100
AcDbEntity
  8
Livello 1
 62
     7
420
 16777215
370
     9
100
AcDbVertex
100
AcDb2dVertex
 10
276.3132572831864
 20
-327.7604445253728
 30
0.0
  0
VERTEX
  5
148
330
12E
100
AcDbEntity
  8
Livello 1
 62
     7
420
 16777215
370
     9
100
AcDbVertex
100
AcDb2dVertex
 10
282.7230764906399
 20
-327.7604445253728
 30
0.0
  0
VERTEX
  5
149
330
12E
100
AcDbEntity
  8
Livello 1
 62
     7
420
 16777215
370
     9
100
AcDbVertex
100
AcDb2dVertex
 10
287.7853500413285
 20
-327.7604445253728
 30
0.0
  0
VERTEX
  5
14A
330
12E
100
AcDbEntity
  8
Livello 1
 62
     7
420
 16777215
370
     9
100
AcDbVertex
100
AcDb2dVertex
 10
291.4547187546614
 20
-327.7604445253728
 30
0.0
  0
VERTEX
  5
14B
330
12E
100
AcDbEntity
  8
Livello 1
 62
     7
420
 16777215
370
     9
100
AcDbVertex
100
AcDb2dVertex
 10
293.6688137573228
 20
-327.7604445253728
 30
0.0
  0
VERTEX
  5
14C
330
12E
100
AcDbEntity
  8
Livello 1
 62
     7
420
 16777215
370
     9
100
AcDbVertex
100
AcDb2dVertex
 10
294.4115703395228
 20
-327.7604445253728
 30
0.0
  0
SEQEND
  5
14D
330
12E
100
AcDbEntity
  8
Livello 1
 62
     7
420
 16777215
370
     9
  0
POLYLINE
  5
14E
330
1F
100
AcDbEntity
  8
Livello 1
 62
     7
420
 16777215
370
     9
100
AcDb2dPolyline
 66
     1
 10
0.0
 20
0.0
 30
0.0
  0
VERTEX
  5
14F
330
14E
100
AcDbEntity
  8
Livello 1
 62
     7
420
 16777215
370
     9
100
AcDbVertex
100
AcDb2dVertex
 10
168.0115987385207
 20
-438.7085277627211
 30
0.0
  0
VERTEX
  5
150
330
14E
100
AcDbEntity
  8
Livello 1
 62
     7
420
 16777215
370
     9
100
AcDbVertex
100
AcDb2dVertex
 10
173.3687069630596
 20
-439.2195272815825
 30
0.0
  0
VERTEX
  5
151
330
14E
100
AcDbEntity
  8
Livello 1
 62
     7
420
 16777215
370
     9
100
AcDbVertex
100
AcDb2dVertex
 10
176.0940377303141
 20
-439.8852677550694
 30
0.0
  0
VERTEX
  5
152
330
14E
100
AcDbEntity
  8
Livello 1
 62
     7
420
 16777215
370
     9
100
AcDbVertex
100
AcDb2dVertex
 10
178.8033037877767
 20
-440.8606082606675
 30
0.0
  0
VERTEX
  5
153
330
14E
100
AcDbEntity
  8
Livello 1
 62
     7
420
 16777215
370
     9
100
AcDbVertex
100
AcDb2dVertex
 10
181.4048417913318
 20
-442.0992446348646
 30
0.0
  0
VERTEX
  5
154
330
14E
100
AcDbEntity
  8
Livello 1
 62
     7
420
 16777215
370
     9
100
AcDbVertex
100
AcDb2dVertex
 10
184.5006058667577
 20
-444.0500437689316
 30
0.0
  0
VERTEX
  5
155
330
14E
100
AcDbEntity
  8
Livello 1
 62
     7
420
 16777215
370
     9
100
AcDbVertex
100
AcDb2dVertex
 10
187.8760848891698
 20
-446.9298792450809
 30
0.0
  0
VERTEX
  5
156
330
14E
100
AcDbEntity
  8
Livello 1
 62
     7
420
 16777215
370
     9
100
AcDbVertex
100
AcDb2dVertex
 10
190.78663231051
 20
-450.3515443081469
 30
0.0
  0
VERTEX
  5
157
330
14E
100
AcDbEntity
  8
Livello 1
 62
     7
420
 16777215
370
     9
100
AcDbVertex
100
AcDb2dVertex
 10
192.7380220589084
 20
-453.4634912162328
 30
0.0
  0
VERTEX
  5
158
330
14E
100
AcDbEntity
  8
Livello 1
 62
     7
420
 16777215
370
     9
100
AcDbVertex
100
AcDb2dVertex
 10
193.9457102421793
 20
-456.0181344419361
 30
0.0
  0
VERTEX
  5
159
330
14E
100
AcDbEntity
  8
Livello 1
 62
     7
420
 16777215
370
     9
100
AcDbVertex
100
AcDb2dVertex
 10
194.9209326249138
 20
-458.7276367451304
 30
0.0
  0
VERTEX
  5
15A
330
14E
100
AcDbEntity
  8
Livello 1
 62
     7
420
 16777215
370
     9
100
AcDbVertex
100
AcDb2dVertex
 10
195.5862006069347
 20
-461.4524950209216
 30
0.0
  0
VERTEX
  5
15B
330
14E
100
AcDbEntity
  8
Livello 1
 62
     7
420
 16777215
370
     9
100
AcDbVertex
100
AcDb2dVertex
 10
196.0974363715277
 20
-466.7940110271302
 30
0.0
  0
SEQEND
  5
15C
330
14E
100
AcDbEntity
  8
Livello 1
 62
     7
420
 16777215
370
     9
  0
POLYLINE
  5
15D
330
1F
100
AcDbEntity
  8
Livello 1
 62
     7
420
 16777215
370
     9
100
AcDb2dPolyline
 66
     1
 10
0.0
 20
0.0
 30
0.0
  0
VERTEX
  5
15E
330
15D
100
AcDbEntity
  8
Livello 1
 62
     7
420
 16777215
370
     9
100
AcDbVertex
100
AcDb2dVertex
 10
168.0115987385207
 20
-551.0503426974919
 30
0.0
  0
VERTEX
  5
15F
330
15D
100
AcDbEntity
  8
Livello 1
 62
     7
420
 16777215
370
     9
100
AcDbVertex
100
AcDb2dVertex
 10
162.6554354969103
 20
-550.539461301496
 30
0.0
  0
VERTEX
  5
160
330
15D
100
AcDbEntity
  8
Livello 1
 62
     7
420
 16777215
370
     9
100
AcDbVertex
100
AcDb2dVertex
 10
159.9301047296558
 20
-549.8736027051455
 30
0.0
  0
VERTEX
  5
161
330
15D
100
AcDbEntity
  8
Livello 1
 62
     7
420
 16777215
370
     9
100
AcDbVertex
100
AcDb2dVertex
 10
157.2208386721932
 20
-548.8982621995456
 30
0.0
  0
VERTEX
  5
162
330
15D
100
AcDbEntity
  8
Livello 1
 62
     7
420
 16777215
370
     9
100
AcDbVertex
100
AcDb2dVertex
 10
154.6041809417738
 20
-547.6596258253485
 30
0.0
  0
VERTEX
  5
163
330
15D
100
AcDbEntity
  8
Livello 1
 62
     7
420
 16777215
370
     9
100
AcDbVertex
100
AcDb2dVertex
 10
151.5235365932122
 20
-545.7088266912815
 30
0.0
  0
VERTEX
  5
164
330
15D
100
AcDbEntity
  8
Livello 1
 62
     7
420
 16777215
370
     9
100
AcDbVertex
100
AcDb2dVertex
 10
148.1480575708001
 20
-542.8291093379994
 30
0.0
  0
VERTEX
  5
165
330
15D
100
AcDbEntity
  8
Livello 1
 62
     7
420
 16777215
370
     9
100
AcDbVertex
100
AcDb2dVertex
 10
145.2214454396671
 20
-539.3919701794694
 30
0.0
  0
VERTEX
  5
166
330
15D
100
AcDbEntity
  8
Livello 1
 62
     7
420
 16777215
370
     9
100
AcDbVertex
100
AcDb2dVertex
 10
143.2710006741972
 20
-536.2799051485199
 30
0.0
  0
VERTEX
  5
167
330
15D
100
AcDbEntity
  8
Livello 1
 62
     7
420
 16777215
370
     9
100
AcDbVertex
100
AcDb2dVertex
 10
142.0633124909264
 20
-533.740736018277
 30
0.0
  0
VERTEX
  5
168
330
15D
100
AcDbEntity
  8
Livello 1
 62
     7
420
 16777215
370
     9
100
AcDbVertex
100
AcDb2dVertex
 10
141.1032098350561
 20
-531.0158777424858
 30
0.0
  0
VERTEX
  5
169
330
15D
100
AcDbEntity
  8
Livello 1
 62
     7
420
 16777215
370
     9
100
AcDbVertex
100
AcDb2dVertex
 10
140.4379418530352
 20
-528.2909013438293
 30
0.0
  0
VERTEX
  5
16A
330
15D
100
AcDbEntity
  8
Livello 1
 62
     7
420
 16777215
370
     9
100
AcDbVertex
100
AcDb2dVertex
 10
139.9267060884422
 20
-522.9648594330829
 30
0.0
  0
SEQEND
  5
16B
330
15D
100
AcDbEntity
  8
Livello 1
 62
     7
420
 16777215
370
     9
  0
POLYLINE
  5
16C
330
1F
100
AcDbEntity
  8
Livello 1
 62
     7
420
 16777215
370
     9
100
AcDb2dPolyline
 66
     1
 10
0.0
 20
0.0
 30
0.0
  0
VERTEX
  5
16D
330
16C
100
AcDbEntity
  8
Livello 1
 62
     7
420
 16777215
370
     9
100
AcDbVertex
100
AcDb2dVertex
 10
196.0974363715277
 20
-494.8794942915411
 30
0.0
  0
VERTEX
  5
16E
330
16C
100
AcDbEntity
  8
Livello 1
 62
     7
420
 16777215
370
     9
100
AcDbVertex
100
AcDb2dVertex
 10
196.0974363715277
 20
-522.9648594330829
 30
0.0
  0
SEQEND
  5
16F
330
16C
100
AcDbEntity
  8
Livello 1
 62
     7
420
 16777215
370
     9
  0
POLYLINE
  5
170
330
1F
100
AcDbEntity
  8
Livello 1
 62
     7
420
 16777215
370
     9
100
AcDb2dPolyline
 66
     1
 10
0.0
 20
0.0
 30
0.0
  0
VERTEX
  5
171
330
170
100
AcDbEntity
  8
Livello 1
 62
     7
420
 16777215
370
     9
100
AcDbVertex
100
AcDb2dVertex
 10
139.9267060884422
 20
-466.7940110271302
 30
0.0
  0
VERTEX
  5
172
330
170
100
AcDbEntity
  8
Livello 1
 62
     7
420
 16777215
370
     9
100
AcDbVertex
100
AcDb2dVertex
 10
139.9267060884422
 20
-494.8794942915411
 30
0.0
  0
SEQEND
  5
173
330
170
100
AcDbEntity
  8
Livello 1
 62
     7
420
 16777215
370
     9
  0
POLYLINE
  5
174
330
1F
100
AcDbEntity
  8
Livello 1
 62
     7
420
 16777215
370
     9
100
AcDb2dPolyline
 66
     1
 10
0.0
 20
0.0
 30
0.0
  0
VERTEX
  5
175
330
174
100
AcDbEntity
  8
Livello 1
 62
     7
420
 16777215
370
     9
100
AcDbVertex
100
AcDb2dVertex
 10
168.0115987385207
 20
-438.7085277627211
 30
0.0
  0
VERTEX
  5
176
330
174
100
AcDbEntity
  8
Livello 1
 62
     7
420
 16777215
370
     9
100
AcDbVertex
100
AcDb2dVertex
 10
162.5155780234172
 20
-439.2504754725087
 30
0.0
  0
VERTEX
  5
177
330
174
100
AcDbEntity
  8
Livello 1
 62
     7
420
 16777215
370
     9
100
AcDbVertex
100
AcDb2dVertex
 10
157.2359583990574
 20
-440.8451341652053
 30
0.0
  0
VERTEX
  5
178
330
174
100
AcDbEntity
  8
Livello 1
 62
     7
420
 16777215
370
     9
100
AcDbVertex
100
AcDb2dVertex
 10
152.3900859391115
 20
-443.4461996772989
 30
0.0
  0
VERTEX
  5
179
330
174
100
AcDbEntity
  8
Livello 1
 62
     7
420
 16777215
370
     9
100
AcDbVertex
100
AcDb2dVertex
 10
148.1480575708001
 20
-446.9298792450809
 30
0.0
  0
VERTEX
  5
17A
330
174
100
AcDbEntity
  8
Livello 1
 62
     7
420
 16777215
370
     9
100
AcDbVertex
100
AcDb2dVertex
 10
144.6639055115529
 20
-451.1720257362558
 30
0.0
  0
VERTEX
  5
17B
330
174
100
AcDbEntity
  8
Livello 1
 62
     7
420
 16777215
370
     9
100
AcDbVertex
100
AcDb2dVertex
 10
142.0633124909264
 20
-456.0181344419361
 30
0.0
  0
VERTEX
  5
17C
330
174
100
AcDbEntity
  8
Livello 1
 62
     7
420
 16777215
370
     9
100
AcDbVertex
100
AcDb2dVertex
 10
140.4681813067627
 20
-461.297754066296
 30
0.0
  0
VERTEX
  5
17D
330
174
100
AcDbEntity
  8
Livello 1
 62
     7
420
 16777215
370
     9
100
AcDbVertex
100
AcDb2dVertex
 10
139.9267060884422
 20
-466.7940110271302
 30
0.0
  0
SEQEND
  5
17E
330
174
100
AcDbEntity
  8
Livello 1
 62
     7
420
 16777215
370
     9
  0
POLYLINE
  5
17F
330
1F
100
AcDbEntity
  8
Livello 1
 62
     7
420
 16777215
370
     9
100
AcDb2dPolyline
 66
     1
 10
0.0
 20
0.0
 30
0.0
  0
VERTEX
  5
180
330
17F
100
AcDbEntity
  8
Livello 1
 62
     7
420
 16777215
370
     9
100
AcDbVertex
100
AcDb2dVertex
 10
139.78684861495
 20
-522.9648594330829
 30
0.0
  0
VERTEX
  5
181
330
17F
100
AcDbEntity
  8
Livello 1
 62
     7
420
 16777215
370
     9
100
AcDbVertex
100
AcDb2dVertex
 10
139.9267060884422
 20
-522.9648594330829
 30
0.0
  0
SEQEND
  5
182
330
17F
100
AcDbEntity
  8
Livello 1
 62
     7
420
 16777215
370
     9
  0
POLYLINE
  5
183
330
1F
100
AcDbEntity
  8
Livello 1
 62
     7
420
 16777215
370
     9
100
AcDb2dPolyline
 66
     1
 10
0.0
 20
0.0
 30
0.0
  0
VERTEX
  5
184
330
183
100
AcDbEntity
  8
Livello 1
 62
     7
420
 16777215
370
     9
100
AcDbVertex
100
AcDb2dVertex
 10
139.9267060884422
 20
-522.9648594330829
 30
0.0
  0
VERTEX
  5
185
330
183
100
AcDbEntity
  8
Livello 1
 62
     7
420
 16777215
370
     9
100
AcDbVertex
100
AcDb2dVertex
 10
139.9267060884422
 20
-494.8794942915411
 30
0.0
  0
SEQEND
  5
186
330
183
100
AcDbEntity
  8
Livello 1
 62
     7
420
 16777215
370
     9
  0
POLYLINE
  5
187
330
1F
100
AcDbEntity
  8
Livello 1
 62
     7
420
 16777215
370
     9
100
AcDb2dPolyline
 66
     1
 10
0.0
 20
0.0
 30
0.0
  0
VERTEX
  5
188
330
187
100
AcDbEntity
  8
Livello 1
 62
     7
420
 16777215
370
     9
100
AcDbVertex
100
AcDb2dVertex
 10
168.0115987385207
 20
-551.0503426974919
 30
0.0
  0
VERTEX
  5
189
330
187
100
AcDbEntity
  8
Livello 1
 62
     7
420
 16777215
370
     9
100
AcDbVertex
100
AcDb2dVertex
 10
173.5085644365527
 20
-550.5083949877044
 30
0.0
  0
VERTEX
  5
18A
330
187
100
AcDbEntity
  8
Livello 1
 62
     7
420
 16777215
370
     9
100
AcDbVertex
100
AcDb2dVertex
 10
178.7881840609125
 20
-548.9137362950078
 30
0.0
  0
VERTEX
  5
18B
330
187
100
AcDbEntity
  8
Livello 1
 62
     7
420
 16777215
370
     9
100
AcDbVertex
100
AcDb2dVertex
 10
183.6189367939951
 20
-546.3126707829178
 30
0.0
  0
VERTEX
  5
18C
330
187
100
AcDbEntity
  8
Livello 1
 62
     7
420
 16777215
370
     9
100
AcDbVertex
100
AcDb2dVertex
 10
187.8760848891698
 20
-542.8291093379994
 30
0.0
  0
VERTEX
  5
18D
330
187
100
AcDbEntity
  8
Livello 1
 62
     7
420
 16777215
370
     9
100
AcDbVertex
100
AcDb2dVertex
 10
191.360236948417
 20
-538.5868447239573
 30
0.0
  0
VERTEX
  5
18E
330
187
100
AcDbEntity
  8
Livello 1
 62
     7
420
 16777215
370
     9
100
AcDbVertex
100
AcDb2dVertex
 10
193.9457102421793
 20
-533.740736018277
 30
0.0
  0
VERTEX
  5
18F
330
187
100
AcDbEntity
  8
Livello 1
 62
     7
420
 16777215
370
     9
100
AcDbVertex
100
AcDb2dVertex
 10
195.5559611532071
 20
-528.4612345167843
 30
0.0
  0
VERTEX
  5
190
330
187
100
AcDbEntity
  8
Livello 1
 62
     7
420
 16777215
370
     9
100
AcDbVertex
100
AcDb2dVertex
 10
196.0974363715277
 20
-522.9648594330829
 30
0.0
  0
SEQEND
  5
191
330
187
100
AcDbEntity
  8
Livello 1
 62
     7
420
 16777215
370
     9
  0
POLYLINE
  5
192
330
1F
100
AcDbEntity
  8
Livello 1
 62
     7
420
 16777215
370
     9
100
AcDb2dPolyline
 66
     1
 10
0.0
 20
0.0
 30
0.0
  0
VERTEX
  5
193
330
192
100
AcDbEntity
  8
Livello 1
 62
     7
420
 16777215
370
     9
100
AcDbVertex
100
AcDb2dVertex
 10
196.2372938450198
 20
-466.7940110271302
 30
0.0
  0
VERTEX
  5
194
330
192
100
AcDbEntity
  8
Livello 1
 62
     7
420
 16777215
370
     9
100
AcDbVertex
100
AcDb2dVertex
 10
196.0974363715277
 20
-466.7940110271302
 30
0.0
  0
SEQEND
  5
195
330
192
100
AcDbEntity
  8
Livello 1
 62
     7
420
 16777215
370
     9
  0
POLYLINE
  5
196
330
1F
100
AcDbEntity
  8
Livello 1
 62
     7
420
 16777215
370
     9
100
AcDb2dPolyline
 66
     1
 10
0.0
 20
0.0
 30
0.0
  0
VERTEX
  5
197
330
196
100
AcDbEntity
  8
Livello 1
 62
     7
420
 16777215
370
     9
100
AcDbVertex
100
AcDb2dVertex
 10
196.0974363715277
 20
-494.8794942915411
 30
0.0
  0
VERTEX
  5
198
330
196
100
AcDbEntity
  8
Livello 1
 62
     7
420
 16777215
370
     9
100
AcDbVertex
100
AcDb2dVertex
 10
196.0974363715277
 20
-466.7940110271302
 30
0.0
  0
SEQEND
  5
199
330
196
100
AcDbEntity
  8
Livello 1
 62
     7
420
 16777215
370
     9
  0
POLYLINE
  5
19A
330
1F
100
AcDbEntity
  8
Livello 1
 62
     7
420
 16777215
370
     9
100
AcDb2dPolyline
 66
     1
 10
0.0
 20
0.0
 30
0.0
  0
VERTEX
  5
19B
330
19A
100
AcDbEntity
  8
Livello 1
 62
     7
420
 16777215
370
     9
100
AcDbVertex
100
AcDb2dVertex
 10
139.78684861495
 20
-494.8794942915411
 30
0.0
  0
VERTEX
  5
19C
330
19A
100
AcDbEntity
  8
Livello 1
 62
     7
420
 16777215
370
     9
100
AcDbVertex
100
AcDb2dVertex
 10
139.78684861495
 20
-505.0051044987122
 30
0.0
  0
VERTEX
  5
19D
330
19A
100
AcDbEntity
  8
Livello 1
 62
     7
420
 16777215
370
     9
100
AcDbVertex
100
AcDb2dVertex
 10
139.78684861495
 20
-513.9850410273302
 30
0.0
  0
VERTEX
  5
19E
330
19A
100
AcDbEntity
  8
Livello 1
 62
     7
420
 16777215
370
     9
100
AcDbVertex
100
AcDb2dVertex
 10
139.78684861495
 20
-522.9648594330829
 30
0.0
  0
SEQEND
  5
19F
330
19A
100
AcDbEntity
  8
Livello 1
 62
     7
420
 16777215
370
     9
  0
POLYLINE
  5
1A0
330
1F
100
AcDbEntity
  8
Livello 1
 62
     7
420
 16777215
370
     9
100
AcDb2dPolyline
 66
     1
 10
0.0
 20
0.0
 30
0.0
  0
VERTEX
  5
1A1
330
1A0
100
AcDbEntity
  8
Livello 1
 62
     7
420
 16777215
370
     9
100
AcDbVertex
100
AcDb2dVertex
 10
139.78684861495
 20
-522.9648594330829
 30
0.0
  0
VERTEX
  5
1A2
330
1A0
100
AcDbEntity
  8
Livello 1
 62
     7
420
 16777215
370
     9
100
AcDbVertex
100
AcDb2dVertex
 10
140.1431071791849
 20
-527.454827697391
 30
0.0
  0
VERTEX
  5
1A3
330
1A0
100
AcDbEntity
  8
Livello 1
 62
     7
420
 16777215
370
     9
100
AcDbVertex
100
AcDb2dVertex
 10
141.1958181620985
 20
-531.8210031979997
 30
0.0
  0
VERTEX
  5
1A4
330
1A0
100
AcDbEntity
  8
Livello 1
 62
     7
420
 16777215
370
     9
100
AcDbVertex
100
AcDb2dVertex
 10
143.0697193103179
 20
-536.2180087666693
 30
0.0
  0
VERTEX
  5
1A5
330
1A0
100
AcDbEntity
  8
Livello 1
 62
     7
420
 16777215
370
     9
100
AcDbVertex
100
AcDb2dVertex
 10
145.6551926040811
 20
-540.2280438259077
 30
0.0
  0
VERTEX
  5
1A6
330
1A0
100
AcDbEntity
  8
Livello 1
 62
     7
420
 16777215
370
     9
100
AcDbVertex
100
AcDb2dVertex
 10
148.8596297163422
 20
-543.7580275572127
 30
0.0
  0
VERTEX
  5
1A7
330
1A0
100
AcDbEntity
  8
Livello 1
 62
     7
420
 16777215
370
     9
100
AcDbVertex
100
AcDb2dVertex
 10
152.622551739647
 20
-546.6842853197486
 30
0.0
  0
VERTEX
  5
1A8
330
1A0
100
AcDbEntity
  8
Livello 1
 62
     7
420
 16777215
370
     9
100
AcDbVertex
100
AcDb2dVertex
 10
156.8182759444371
 20
-548.9292103904681
 30
0.0
  0
VERTEX
  5
1A9
330
1A0
100
AcDbEntity
  8
Livello 1
 62
     7
420
 16777215
370
     9
100
AcDbVertex
100
AcDb2dVertex
 10
161.3078898401473
 20
-550.4464986058556
 30
0.0
  0
VERTEX
  5
1AA
330
1A0
100
AcDbEntity
  8
Livello 1
 62
     7
420
 16777215
370
     9
100
AcDbVertex
100
AcDb2dVertex
 10
168.0115987385207
 20
-551.2516240613677
 30
0.0
  0
SEQEND
  5
1AB
330
1A0
100
AcDbEntity
  8
Livello 1
 62
     7
420
 16777215
370
     9
  0
POLYLINE
  5
1AC
330
1F
100
AcDbEntity
  8
Livello 1
 62
     7
420
 16777215
370
     9
100
AcDb2dPolyline
 66
     1
 10
0.0
 20
0.0
 30
0.0
  0
VERTEX
  5
1AD
330
1AC
100
AcDbEntity
  8
Livello 1
 62
     7
420
 16777215
370
     9
100
AcDbVertex
100
AcDb2dVertex
 10
168.0115987385207
 20
-551.2516240613677
 30
0.0
  0
VERTEX
  5
1AE
330
1AC
100
AcDbEntity
  8
Livello 1
 62
     7
420
 16777215
370
     9
100
AcDbVertex
100
AcDb2dVertex
 10
172.4860929073675
 20
-550.8954836199991
 30
0.0
  0
VERTEX
  5
1AF
330
1AC
100
AcDbEntity
  8
Livello 1
 62
     7
420
 16777215
370
     9
100
AcDbVertex
100
AcDb2dVertex
 10
176.867978749171
 20
-549.8271804187589
 30
0.0
  0
VERTEX
  5
1B0
330
1AC
100
AcDbEntity
  8
Livello 1
 62
     7
420
 16777215
370
     9
100
AcDbVertex
100
AcDb2dVertex
 10
181.2337998811818
 20
-547.9538698848683
 30
0.0
  0
VERTEX
  5
1B1
330
1AC
100
AcDbEntity
  8
Livello 1
 62
     7
420
 16777215
370
     9
100
AcDbVertex
100
AcDb2dVertex
 10
185.2282427220935
 20
-545.3682784682405
 30
0.0
  0
VERTEX
  5
1B2
330
1AC
100
AcDbEntity
  8
Livello 1
 62
     7
420
 16777215
370
     9
100
AcDbVertex
100
AcDb2dVertex
 10
188.7275145082049
 20
-542.1633688645143
 30
0.0
  0
VERTEX
  5
1B3
330
1AC
100
AcDbEntity
  8
Livello 1
 62
     7
420
 16777215
370
     9
100
AcDbVertex
100
AcDb2dVertex
 10
191.6541266393388
 20
-538.4165115510041
 30
0.0
  0
VERTEX
  5
1B4
330
1AC
100
AcDbEntity
  8
Livello 1
 62
     7
420
 16777215
370
     9
100
AcDbVertex
100
AcDb2dVertex
 10
193.8994060786572
 20
-534.2362614416743
 30
0.0
  0
VERTEX
  5
1B5
330
1AC
100
AcDbEntity
  8
Livello 1
 62
     7
420
 16777215
370
     9
100
AcDbVertex
100
AcDb2dVertex
 10
195.4161036797141
 20
-529.730819081904
 30
0.0
  0
VERTEX
  5
1B6
330
1AC
100
AcDbEntity
  8
Livello 1
 62
     7
420
 16777215
370
     9
100
AcDbVertex
100
AcDb2dVertex
 10
196.2372938450198
 20
-522.9648594330829
 30
0.0
  0
SEQEND
  5
1B7
330
1AC
100
AcDbEntity
  8
Livello 1
 62
     7
420
 16777215
370
     9
  0
POLYLINE
  5
1B8
330
1F
100
AcDbEntity
  8
Livello 1
 62
     7
420
 16777215
370
     9
100
AcDb2dPolyline
 66
     1
 10
0.0
 20
0.0
 30
0.0
  0
VERTEX
  5
1B9
330
1B8
100
AcDbEntity
  8
Livello 1
 62
     7
420
 16777215
370
     9
100
AcDbVertex
100
AcDb2dVertex
 10
196.2372938450198
 20
-522.9648594330829
 30
0.0
  0
VERTEX
  5
1BA
330
1B8
100
AcDbEntity
  8
Livello 1
 62
     7
420
 16777215
370
     9
100
AcDbVertex
100
AcDb2dVertex
 10
196.2372938450198
 20
-512.8547233213721
 30
0.0
  0
VERTEX
  5
1BB
330
1B8
100
AcDbEntity
  8
Livello 1
 62
     7
420
 16777215
370
     9
100
AcDbVertex
100
AcDb2dVertex
 10
196.2372938450198
 20
-503.8594308201573
 30
0.0
  0
VERTEX
  5
1BC
330
1B8
100
AcDbEntity
  8
Livello 1
 62
     7
420
 16777215
370
     9
100
AcDbVertex
100
AcDb2dVertex
 10
196.2372938450198
 20
-494.8794942915411
 30
0.0
  0
SEQEND
  5
1BD
330
1B8
100
AcDbEntity
  8
Livello 1
 62
     7
420
 16777215
370
     9
  0
POLYLINE
  5
1BE
330
1F
100
AcDbEntity
  8
Livello 1
 62
     7
420
 16777215
370
     9
100
AcDb2dPolyline
 66
     1
 10
0.0
 20
0.0
 30
0.0
  0
VERTEX
  5
1BF
330
1BE
100
AcDbEntity
  8
Livello 1
 62
     7
420
 16777215
370
     9
100
AcDbVertex
100
AcDb2dVertex
 10
196.2372938450198
 20
-494.8794942915411
 30
0.0
  0
VERTEX
  5
1C0
330
1BE
100
AcDbEntity
  8
Livello 1
 62
     7
420
 16777215
370
     9
100
AcDbVertex
100
AcDb2dVertex
 10
196.2372938450198
 20
-484.7693581798285
 30
0.0
  0
VERTEX
  5
1C1
330
1BE
100
AcDbEntity
  8
Livello 1
 62
     7
420
 16777215
370
     9
100
AcDbVertex
100
AcDb2dVertex
 10
196.2372938450198
 20
-475.7739475557501
 30
0.0
  0
VERTEX
  5
1C2
330
1BE
100
AcDbEntity
  8
Livello 1
 62
     7
420
 16777215
370
     9
100
AcDbVertex
100
AcDb2dVertex
 10
196.2372938450198
 20
-466.7940110271302
 30
0.0
  0
SEQEND
  5
1C3
330
1BE
100
AcDbEntity
  8
Livello 1
 62
     7
420
 16777215
370
     9
  0
POLYLINE
  5
1C4
330
1F
100
AcDbEntity
  8
Livello 1
 62
     7
420
 16777215
370
     9
100
AcDb2dPolyline
 66
     1
 10
0.0
 20
0.0
 30
0.0
  0
VERTEX
  5
1C5
330
1C4
100
AcDbEntity
  8
Livello 1
 62
     7
420
 16777215
370
     9
100
AcDbVertex
100
AcDb2dVertex
 10
196.2372938450198
 20
-466.7940110271302
 30
0.0
  0
VERTEX
  5
1C6
330
1C4
100
AcDbEntity
  8
Livello 1
 62
     7
420
 16777215
370
     9
100
AcDbVertex
100
AcDb2dVertex
 10
195.881035280785
 20
-462.3040427628221
 30
0.0
  0
VERTEX
  5
1C7
330
1C4
100
AcDbEntity
  8
Livello 1
 62
     7
420
 16777215
370
     9
100
AcDbVertex
100
AcDb2dVertex
 10
194.8283242978723
 20
-457.9379853850787
 30
0.0
  0
VERTEX
  5
1C8
330
1C4
100
AcDbEntity
  8
Livello 1
 62
     7
420
 16777215
370
     9
100
AcDbVertex
100
AcDb2dVertex
 10
192.954423149652
 20
-453.5408616935456
 30
0.0
  0
VERTEX
  5
1C9
330
1C4
100
AcDbEntity
  8
Livello 1
 62
     7
420
 16777215
370
     9
100
AcDbVertex
100
AcDb2dVertex
 10
190.3689498558888
 20
-449.5309447571708
 30
0.0
  0
VERTEX
  5
1CA
330
1C4
100
AcDbEntity
  8
Livello 1
 62
     7
420
 16777215
370
     9
100
AcDbVertex
100
AcDb2dVertex
 10
187.1484480338349
 20
-446.0163169984644
 30
0.0
  0
VERTEX
  5
1CB
330
1C4
100
AcDbEntity
  8
Livello 1
 62
     7
420
 16777215
370
     9
100
AcDbVertex
100
AcDb2dVertex
 10
183.4015907203229
 20
-443.0747032633335
 30
0.0
  0
VERTEX
  5
1CC
330
1C4
100
AcDbEntity
  8
Livello 1
 62
     7
420
 16777215
370
     9
100
AcDbVertex
100
AcDb2dVertex
 10
179.2058665155328
 20
-440.8296600697449
 30
0.0
  0
VERTEX
  5
1CD
330
1C4
100
AcDbEntity
  8
Livello 1
 62
     7
420
 16777215
370
     9
100
AcDbVertex
100
AcDb2dVertex
 10
174.7001879100299
 20
-439.3123718543575
 30
0.0
  0
VERTEX
  5
1CE
330
1C4
100
AcDbEntity
  8
Livello 1
 62
     7
420
 16777215
370
     9
100
AcDbVertex
100
AcDb2dVertex
 10
168.0115987385207
 20
-438.5073645217108
 30
0.0
  0
SEQEND
  5
1CF
330
1C4
100
AcDbEntity
  8
Livello 1
 62
     7
420
 16777215
370
     9
  0
POLYLINE
  5
1D0
330
1F
100
AcDbEntity
  8
Livello 1
 62
     7
420
 16777215
370
     9
100
AcDb2dPolyline
 66
     1
 10
0.0
 20
0.0
 30
0.0
  0
VERTEX
  5
1D1
330
1D0
100
AcDbEntity
  8
Livello 1
 62
     7
420
 16777215
370
     9
100
AcDbVertex
100
AcDb2dVertex
 10
168.0115987385207
 20
-438.5073645217108
 30
0.0
  0
VERTEX
  5
1D2
330
1D0
100
AcDbEntity
  8
Livello 1
 62
     7
420
 16777215
370
     9
100
AcDbVertex
100
AcDb2dVertex
 10
163.5371045696738
 20
-438.8633868402139
 30
0.0
  0
VERTEX
  5
1D3
330
1D0
100
AcDbEntity
  8
Livello 1
 62
     7
420
 16777215
370
     9
100
AcDbVertex
100
AcDb2dVertex
 10
159.1561637107989
 20
-439.931690041456
 30
0.0
  0
VERTEX
  5
1D4
330
1D0
100
AcDbEntity
  8
Livello 1
 62
     7
420
 16777215
370
     9
100
AcDbVertex
100
AcDb2dVertex
 10
154.7903425787881
 20
-441.8051186982102
 30
0.0
  0
VERTEX
  5
1D5
330
1D0
100
AcDbEntity
  8
Livello 1
 62
     7
420
 16777215
370
     9
100
AcDbVertex
100
AcDb2dVertex
 10
150.7798350280846
 20
-444.3907101148379
 30
0.0
  0
VERTEX
  5
1D6
330
1D0
100
AcDbEntity
  8
Livello 1
 62
     7
420
 16777215
370
     9
100
AcDbVertex
100
AcDb2dVertex
 10
147.2805632419722
 20
-447.595619718566
 30
0.0
  0
VERTEX
  5
1D7
330
1D0
100
AcDbEntity
  8
Livello 1
 62
     7
420
 16777215
370
     9
100
AcDbVertex
100
AcDb2dVertex
 10
144.3700158206311
 20
-451.3423589092108
 30
0.0
  0
VERTEX
  5
1D8
330
1D0
100
AcDbEntity
  8
Livello 1
 62
     7
420
 16777215
370
     9
100
AcDbVertex
100
AcDb2dVertex
 10
142.1247363813127
 20
-455.5382012368682
 30
0.0
  0
VERTEX
  5
1D9
330
1D0
100
AcDbEntity
  8
Livello 1
 62
     7
420
 16777215
370
     9
100
AcDbVertex
100
AcDb2dVertex
 10
140.5919740704639
 20
-460.0436435966385
 30
0.0
  0
VERTEX
  5
1DA
330
1D0
100
AcDbEntity
  8
Livello 1
 62
     7
420
 16777215
370
     9
100
AcDbVertex
100
AcDb2dVertex
 10
139.78684861495
 20
-466.7940110271302
 30
0.0
  0
SEQEND
  5
1DB
330
1D0
100
AcDbEntity
  8
Livello 1
 62
     7
420
 16777215
370
     9
  0
POLYLINE
  5
1DC
330
1F
100
AcDbEntity
  8
Livello 1
 62
     7
420
 16777215
370
     9
100
AcDb2dPolyline
 66
     1
 10
0.0
 20
0.0
 30
0.0
  0
VERTEX
  5
1DD
330
1DC
100
AcDbEntity
  8
Livello 1
 62
     7
420
 16777215
370
     9
100
AcDbVertex
100
AcDb2dVertex
 10
139.78684861495
 20
-466.7940110271302
 30
0.0
  0
VERTEX
  5
1DE
330
1DC
100
AcDbEntity
  8
Livello 1
 62
     7
420
 16777215
370
     9
100
AcDbVertex
100
AcDb2dVertex
 10
139.78684861495
 20
-476.9196212343049
 30
0.0
  0
VERTEX
  5
1DF
330
1DC
100
AcDbEntity
  8
Livello 1
 62
     7
420
 16777215
370
     9
100
AcDbVertex
100
AcDb2dVertex
 10
139.78684861495
 20
-485.8995577629212
 30
0.0
  0
VERTEX
  5
1E0
330
1DC
100
AcDbEntity
  8
Livello 1
 62
     7
420
 16777215
370
     9
100
AcDbVertex
100
AcDb2dVertex
 10
139.78684861495
 20
-494.8794942915411
 30
0.0
  0
SEQEND
  5
1E1
330
1DC
100
AcDbEntity
  8
Livello 1
 62
     7
420
 16777215
370
     9
  0
POLYLINE
  5
1E2
330
1F
100
AcDbEntity
  8
Livello 1
 62
     7
420
 16777215
370
     9
100
AcDb2dPolyline
 66
     1
 10
0.0
 20
0.0
 30
0.0
  0
VERTEX
  5
1E3
330
1E2
100
AcDbEntity
  8
Livello 1
 62
     7
420
 16777215
370
     9
100
AcDbVertex
100
AcDb2dVertex
 10
293.9163992847234
 20
-720.9873315579571
 30
0.0
  0
VERTEX
  5
1E4
330
1E2
100
AcDbEntity
  8
Livello 1
 62
     7
420
 16777215
370
     9
100
AcDbVertex
100
AcDb2dVertex
 10
293.1736427025244
 20
-720.9873315579571
 30
0.0
  0
VERTEX
  5
1E5
330
1E2
100
AcDbEntity
  8
Livello 1
 62
     7
420
 16777215
370
     9
100
AcDbVertex
100
AcDb2dVertex
 10
290.9746674267253
 20
-720.9873315579571
 30
0.0
  0
VERTEX
  5
1E6
330
1E2
100
AcDbEntity
  8
Livello 1
 62
     7
420
 16777215
370
     9
100
AcDbVertex
100
AcDb2dVertex
 10
287.3213634231861
 20
-720.9873315579571
 30
0.0
  0
VERTEX
  5
1E7
330
1E2
100
AcDbEntity
  8
Livello 1
 62
     7
420
 16777215
370
     9
100
AcDbVertex
100
AcDb2dVertex
 10
282.2732646164322
 20
-720.9873315579571
 30
0.0
  0
VERTEX
  5
1E8
330
1E2
100
AcDbEntity
  8
Livello 1
 62
     7
420
 16777215
370
     9
100
AcDbVertex
100
AcDb2dVertex
 10
275.8946298456367
 20
-720.9873315579571
 30
0.0
  0
VERTEX
  5
1E9
330
1E2
100
AcDbEntity
  8
Livello 1
 62
     7
420
 16777215
370
     9
100
AcDbVertex
100
AcDb2dVertex
 10
268.2459380182572
 20
-720.9873315579571
 30
0.0
  0
VERTEX
  5
1EA
330
1E2
100
AcDbEntity
  8
Livello 1
 62
     7
420
 16777215
370
     9
100
AcDbVertex
100
AcDb2dVertex
 10
259.4216874271933
 20
-720.9873315579571
 30
0.0
  0
VERTEX
  5
1EB
330
1E2
100
AcDbEntity
  8
Livello 1
 62
     7
420
 16777215
370
     9
100
AcDbVertex
100
AcDb2dVertex
 10
249.5125964336294
 20
-720.9873315579571
 30
0.0
  0
VERTEX
  5
1EC
330
1E2
100
AcDbEntity
  8
Livello 1
 62
     7
420
 16777215
370
     9
100
AcDbVertex
100
AcDb2dVertex
 10
238.6594674939879
 20
-720.9873315579571
 30
0.0
  0
VERTEX
  5
1ED
330
1E2
100
AcDbEntity
  8
Livello 1
 62
     7
420
 16777215
370
     9
100
AcDbVertex
100
AcDb2dVertex
 10
226.9851483890388
 20
-720.9873315579571
 30
0.0
  0
VERTEX
  5
1EE
330
1E2
100
AcDbEntity
  8
Livello 1
 62
     7
420
 16777215
370
     9
100
AcDbVertex
100
AcDb2dVertex
 10
214.6143768654129
 20
-720.9873315579571
 30
0.0
  0
VERTEX
  5
1EF
330
1E2
100
AcDbEntity
  8
Livello 1
 62
     7
420
 16777215
370
     9
100
AcDbVertex
100
AcDb2dVertex
 10
201.6870103966021
 20
-720.9873315579571
 30
0.0
  0
VERTEX
  5
1F0
330
1E2
100
AcDbEntity
  8
Livello 1
 62
     7
420
 16777215
370
     9
100
AcDbVertex
100
AcDb2dVertex
 10
188.3873206537619
 20
-720.9873315579571
 30
0.0
  0
VERTEX
  5
1F1
330
1E2
100
AcDbEntity
  8
Livello 1
 62
     7
420
 16777215
370
     9
100
AcDbVertex
100
AcDb2dVertex
 10
174.8239806737301
 20
-720.9873315579571
 30
0.0
  0
VERTEX
  5
1F2
330
1E2
100
AcDbEntity
  8
Livello 1
 62
     7
420
 16777215
370
     9
100
AcDbVertex
100
AcDb2dVertex
 10
161.2001617862406
 20
-720.9873315579571
 30
0.0
  0
VERTEX
  5
1F3
330
1E2
100
AcDbEntity
  8
Livello 1
 62
     7
420
 16777215
370
     9
100
AcDbVertex
100
AcDb2dVertex
 10
147.636821806208
 20
-720.9873315579571
 30
0.0
  0
VERTEX
  5
1F4
330
1E2
100
AcDbEntity
  8
Livello 1
 62
     7
420
 16777215
370
     9
100
AcDbVertex
100
AcDb2dVertex
 10
134.3220123365036
 20
-720.9873315579571
 30
0.0
  0
VERTEX
  5
1F5
330
1E2
100
AcDbEntity
  8
Livello 1
 62
     7
420
 16777215
370
     9
100
AcDbVertex
100
AcDb2dVertex
 10
121.409765594557
 20
-720.9873315579571
 30
0.0
  0
VERTEX
  5
1F6
330
1E2
100
AcDbEntity
  8
Livello 1
 62
     7
420
 16777215
370
     9
100
AcDbVertex
100
AcDb2dVertex
 10
109.038994070931
 20
-720.9873315579571
 30
0.0
  0
VERTEX
  5
1F7
330
1E2
100
AcDbEntity
  8
Livello 1
 62
     7
420
 16777215
370
     9
100
AcDbVertex
100
AcDb2dVertex
 10
97.34955523911776
 20
-720.9873315579571
 30
0.0
  0
VERTEX
  5
1F8
330
1E2
100
AcDbEntity
  8
Livello 1
 62
     7
420
 16777215
370
     9
100
AcDbVertex
100
AcDb2dVertex
 10
86.4964262994772
 20
-720.9873315579571
 30
0.0
  0
VERTEX
  5
1F9
330
1E2
100
AcDbEntity
  8
Livello 1
 62
     7
420
 16777215
370
     9
100
AcDbVertex
100
AcDb2dVertex
 10
76.60245503277656
 20
-720.9873315579571
 30
0.0
  0
VERTEX
  5
1FA
330
1E2
100
AcDbEntity
  8
Livello 1
 62
     7
420
 16777215
370
     9
100
AcDbVertex
100
AcDb2dVertex
 10
67.77725945878319
 20
-720.9873315579571
 30
0.0
  0
VERTEX
  5
1FB
330
1E2
100
AcDbEntity
  8
Livello 1
 62
     7
420
 16777215
370
     9
100
AcDbVertex
100
AcDb2dVertex
 10
60.12951261433318
 20
-720.9873315579571
 30
0.0
  0
VERTEX
  5
1FC
330
1E2
100
AcDbEntity
  8
Livello 1
 62
     7
420
 16777215
370
     9
100
AcDbVertex
100
AcDb2dVertex
 10
53.75087784353764
 20
-720.9873315579571
 30
0.0
  0
VERTEX
  5
1FD
330
1E2
100
AcDbEntity
  8
Livello 1
 62
     7
420
 16777215
370
     9
100
AcDbVertex
100
AcDb2dVertex
 10
48.7027790367838
 20
-720.9873315579571
 30
0.0
  0
VERTEX
  5
1FE
330
1E2
100
AcDbEntity
  8
Livello 1
 62
     7
420
 16777215
370
     9
100
AcDbVertex
100
AcDb2dVertex
 10
45.04947503324456
 20
-720.9873315579571
 30
0.0
  0
VERTEX
  5
1FF
330
1E2
100
AcDbEntity
  8
Livello 1
 62
     7
420
 16777215
370
     9
100
AcDbVertex
100
AcDb2dVertex
 10
42.8504997574455
 20
-720.9873315579571
 30
0.0
  0
VERTEX
  5
200
330
1E2
100
AcDbEntity
  8
Livello 1
 62
     7
420
 16777215
370
     9
100
AcDbVertex
100
AcDb2dVertex
 10
42.10774317524647
 20
-720.9873315579571
 30
0.0
  0
SEQEND
  5
201
330
1E2
100
AcDbEntity
  8
Livello 1
 62
     7
420
 16777215
370
     9
  0
POLYLINE
  5
202
330
1F
100
AcDbEntity
  8
Livello 1
 62
     7
420
 16777215
370
     9
100
AcDb2dPolyline
 66
     1
 10
0.0
 20
0.0
 30
0.0
  0
VERTEX
  5
203
330
202
100
AcDbEntity
  8
Livello 1
 62
     7
420
 16777215
370
     9
100
AcDbVertex
100
AcDb2dVertex
 10
517.7951399444773
 20
415.791577054355
 30
0.0
  0
VERTEX
  5
204
330
202
100
AcDbEntity
  8
Livello 1
 62
     7
420
 16777215
370
     9
100
AcDbVertex
100
AcDb2dVertex
 10
519.1105561816548
 20
441.0745953199284
 30
0.0
  0
SEQEND
  5
205
330
202
100
AcDbEntity
  8
Livello 1
 62
     7
420
 16777215
370
     9
  0
POLYLINE
  5
206
330
1F
100
AcDbEntity
  8
Livello 1
 62
     7
420
 16777215
370
     9
100
AcDb2dPolyline
 66
     1
 10
0.0
 20
0.0
 30
0.0
  0
VERTEX
  5
207
330
206
100
AcDbEntity
  8
Livello 1
 62
     7
420
 16777215
370
     9
100
AcDbVertex
100
AcDb2dVertex
 10
-183.0864137216849
 20
441.0745953199284
 30
0.0
  0
VERTEX
  5
208
330
206
100
AcDbEntity
  8
Livello 1
 62
     7
420
 16777215
370
     9
100
AcDbVertex
100
AcDb2dVertex
 10
-181.7709974845084
 20
415.791577054355
 30
0.0
  0
SEQEND
  5
209
330
206
100
AcDbEntity
  8
Livello 1
 62
     7
420
 16777215
370
     9
  0
POLYLINE
  5
20A
330
1F
100
AcDbEntity
  8
Livello 1
 62
     7
420
 16777215
370
     9
100
AcDb2dPolyline
 66
     1
 10
0.0
 20
0.0
 30
0.0
  0
VERTEX
  5
20B
330
20A
100
AcDbEntity
  8
Livello 1
 62
     7
420
 16777215
370
     9
100
AcDbVertex
100
AcDb2dVertex
 10
202.492135852116
 20
359.6206105255378
 30
0.0
  0
VERTEX
  5
20C
330
20A
100
AcDbEntity
  8
Livello 1
 62
     7
420
 16777215
370
     9
100
AcDbVertex
100
AcDb2dVertex
 10
279.3475974682269
 20
411.456467867536
 30
0.0
  0
SEQEND
  5
20D
330
20A
100
AcDbEntity
  8
Livello 1
 62
     7
420
 16777215
370
     9
  0
POLYLINE
  5
20E
330
1F
100
AcDbEntity
  8
Livello 1
 62
     7
420
 16777215
370
     9
100
AcDb2dPolyline
 66
     1
 10
0.0
 20
0.0
 30
0.0
  0
VERTEX
  5
20F
330
20E
100
AcDbEntity
  8
Livello 1
 62
     7
420
 16777215
370
     9
100
AcDbVertex
100
AcDb2dVertex
 10
56.67654499174296
 20
411.456467867536
 30
0.0
  0
VERTEX
  5
210
330
20E
100
AcDbEntity
  8
Livello 1
 62
     7
420
 16777215
370
     9
100
AcDbVertex
100
AcDb2dVertex
 10
133.5320066078539
 20
359.6206105255378
 30
0.0
  0
SEQEND
  5
211
330
20E
100
AcDbEntity
  8
Livello 1
 62
     7
420
 16777215
370
     9
  0
POLYLINE
  5
212
330
1F
100
AcDbEntity
  8
Livello 1
 62
     7
420
 16777215
370
     9
100
AcDb2dPolyline
 66
     1
 10
0.0
 20
0.0
 30
0.0
  0
VERTEX
  5
213
330
212
100
AcDbEntity
  8
Livello 1
 62
     7
420
 16777215
370
     9
100
AcDbVertex
100
AcDb2dVertex
 10
280.3379395778265
 20
413.2833561150392
 30
0.0
  0
VERTEX
  5
214
330
212
100
AcDbEntity
  8
Livello 1
 62
     7
420
 16777215
370
     9
100
AcDbVertex
100
AcDb2dVertex
 10
280.3851887242772
 20
415.791577054355
 30
0.0
  0
SEQEND
  5
215
330
212
100
AcDbEntity
  8
Livello 1
 62
     7
420
 16777215
370
     9
  0
POLYLINE
  5
216
330
1F
100
AcDbEntity
  8
Livello 1
 62
     7
420
 16777215
370
     9
100
AcDb2dPolyline
 66
     1
 10
0.0
 20
0.0
 30
0.0
  0
VERTEX
  5
217
330
216
100
AcDbEntity
  8
Livello 1
 62
     7
420
 16777215
370
     9
100
AcDbVertex
100
AcDb2dVertex
 10
55.63895373569267
 20
415.791577054355
 30
0.0
  0
VERTEX
  5
218
330
216
100
AcDbEntity
  8
Livello 1
 62
     7
420
 16777215
370
     9
100
AcDbVertex
100
AcDb2dVertex
 10
55.68620288214333
 20
413.2833561150392
 30
0.0
  0
SEQEND
  5
219
330
216
100
AcDbEntity
  8
Livello 1
 62
     7
420
 16777215
370
     9
  0
POLYLINE
  5
21A
330
1F
100
AcDbEntity
  8
Livello 1
 62
     7
420
 16777215
370
     9
100
AcDb2dPolyline
 66
     1
 10
0.0
 20
0.0
 30
0.0
  0
VERTEX
  5
21B
330
21A
100
AcDbEntity
  8
Livello 1
 62
     7
420
 16777215
370
     9
100
AcDbVertex
100
AcDb2dVertex
 10
156.771971780915
 20
359.3730249981363
 30
0.0
  0
VERTEX
  5
21C
330
21A
100
AcDbEntity
  8
Livello 1
 62
     7
420
 16777215
370
     9
100
AcDbVertex
100
AcDb2dVertex
 10
156.771971780915
 20
-327.7448523070434
 30
0.0
  0
SEQEND
  5
21D
330
21A
100
AcDbEntity
  8
Livello 1
 62
     7
420
 16777215
370
     9
  0
POLYLINE
  5
21E
330
1F
100
AcDbEntity
  8
Livello 1
 62
     7
420
 16777215
370
     9
100
AcDb2dPolyline
 66
     1
 10
0.0
 20
0.0
 30
0.0
  0
VERTEX
  5
21F
330
21E
100
AcDbEntity
  8
Livello 1
 62
     7
420
 16777215
370
     9
100
AcDbVertex
100
AcDb2dVertex
 10
179.2370509521907
 20
-327.7448523070434
 30
0.0
  0
VERTEX
  5
220
330
21E
100
AcDbEntity
  8
Livello 1
 62
     7
420
 16777215
370
     9
100
AcDbVertex
100
AcDb2dVertex
 10
179.2370509521907
 20
359.3730249981363
 30
0.0
  0
SEQEND
  5
221
330
21E
100
AcDbEntity
  8
Livello 1
 62
     7
420
 16777215
370
     9
  0
POLYLINE
  5
222
330
1F
100
AcDbEntity
  8
Livello 1
 62
     7
420
 16777215
370
     9
100
AcDb2dPolyline
 66
     1
 10
0.0
 20
0.0
 30
0.0
  0
VERTEX
  5
223
330
222
100
AcDbEntity
  8
Livello 1
 62
     7
420
 16777215
370
     9
100
AcDbVertex
100
AcDb2dVertex
 10
42.10774317524647
 20
-720.9873315579571
 30
0.0
  0
VERTEX
  5
224
330
222
100
AcDbEntity
  8
Livello 1
 62
     7
420
 16777215
370
     9
100
AcDbVertex
100
AcDb2dVertex
 10
41.8601576478477
 20
-735.0301322515934
 30
0.0
  0
SEQEND
  5
225
330
222
100
AcDbEntity
  8
Livello 1
 62
     7
420
 16777215
370
     9
  0
POLYLINE
  5
226
330
1F
100
AcDbEntity
  8
Livello 1
 62
     7
420
 16777215
370
     9
100
AcDb2dPolyline
 66
     1
 10
0.0
 20
0.0
 30
0.0
  0
VERTEX
  5
227
330
226
100
AcDbEntity
  8
Livello 1
 62
     7
420
 16777215
370
     9
100
AcDbVertex
100
AcDb2dVertex
 10
294.1639848121222
 20
-735.0301322515934
 30
0.0
  0
VERTEX
  5
228
330
226
100
AcDbEntity
  8
Livello 1
 62
     7
420
 16777215
370
     9
100
AcDbVertex
100
AcDb2dVertex
 10
293.9163992847234
 20
-720.9873315579571
 30
0.0
  0
SEQEND
  5
229
330
226
100
AcDbEntity
  8
Livello 1
 62
     7
420
 16777215
370
     9
  0
POLYLINE
  5
22A
330
1F
100
AcDbEntity
  8
Livello 1
 62
     7
420
 16777215
370
     9
100
AcDb2dPolyline
 66
     1
 10
0.0
 20
0.0
 30
0.0
  0
VERTEX
  5
22B
330
22A
100
AcDbEntity
  8
Livello 1
 62
     7
420
 16777215
370
     9
100
AcDbVertex
100
AcDb2dVertex
 10
41.61257212044711
 20
-327.7604445253728
 30
0.0
  0
VERTEX
  5
22C
330
22A
100
AcDbEntity
  8
Livello 1
 62
     7
420
 16777215
370
     9
100
AcDbVertex
100
AcDb2dVertex
 10
41.61257212044711
 20
-718.1849846819878
 30
0.0
  0
SEQEND
  5
22D
330
22A
100
AcDbEntity
  8
Livello 1
 62
     7
420
 16777215
370
     9
  0
POLYLINE
  5
22E
330
1F
100
AcDbEntity
  8
Livello 1
 62
     7
420
 16777215
370
     9
100
AcDb2dPolyline
 66
     1
 10
0.0
 20
0.0
 30
0.0
  0
VERTEX
  5
22F
330
22E
100
AcDbEntity
  8
Livello 1
 62
     7
420
 16777215
370
     9
100
AcDbVertex
100
AcDb2dVertex
 10
294.4115703395228
 20
-718.1849846819878
 30
0.0
  0
VERTEX
  5
230
330
22E
100
AcDbEntity
  8
Livello 1
 62
     7
420
 16777215
370
     9
100
AcDbVertex
100
AcDb2dVertex
 10
294.4115703395228
 20
-327.7604445253728
 30
0.0
  0
SEQEND
  5
231
330
22E
100
AcDbEntity
  8
Livello 1
 62
     7
420
 16777215
370
     9
  0
ENDSEC
  0
SECTION
  2
OBJECTS
  0
DICTIONARY
  5
C
330
0
100
AcDbDictionary
281
     1
  3
ACAD_GROUP
350
D
  3
ACAD_LAYOUT
350
1A
  3
ACAD_MATERIAL
350
3B
  3
ACAD_MLEADERSTYLE
350
233
  3
ACAD_MLINESTYLE
350
17
  3
ACAD_PLOTSETTINGS
350
19
  3
ACAD_PLOTSTYLENAME
350
E
  3
ACAD_TABLESTYLE
350
232
  3
ACAD_VISUALSTYLE
350
2A
  0
SUN
  5
3F
330
29
100
AcDbSun
 90
        1
290
     0
 63
     7
421
 16777215
 40
1.0
291
     1
 91
  2455826
 92
 54000000
292
     0
 70
     2
 71
   256
280
     1
  0
DICTIONARY
  5
D
102
{ACAD_REACTORS
330
C
102
}
330
C
100
AcDbDictionary
281
     1
  0
DICTIONARY
  5
1A
102
{ACAD_REACTORS
330
C
102
}
330
C
100
AcDbDictionary
281
     1
  3
Layout1
350
1E
  3
Layout2
350
26
  3
Model
350
22
  0
DICTIONARY
  5
3B
102
{ACAD_REACTORS
330
C
102
}
330
C
100
AcDbDictionary
281
     1
  3
ByBlock
350
3D
  3
ByLayer
350
3C
  3
Global
350
3E
  0
DICTIONARY
  5
233
102
{ACAD_REACTORS
330
C
102
}
330
C
100
AcDbDictionary
281
     1
  0
DICTIONARY
  5
17
102
{ACAD_REACTORS
330
C
102
}
330
C
100
AcDbDictionary
281
     1
  3
Standard
350
18
  0
DICTIONARY
  5
19
102
{ACAD_REACTORS
330
C
102
}
330
C
100
AcDbDictionary
281
     1
  0
ACDBDICTIONARYWDFLT
  5
E
102
{ACAD_REACTORS
330
C
102
}
330
C
100
AcDbDictionary
281
     1
  3
Normal
350
F
100
AcDbDictionaryWithDefault
340
F
  0
DICTIONARY
  5
232
102
{ACAD_REACTORS
330
C
102
}
330
C
100
AcDbDictionary
281
     1
  0
DICTIONARY
  5
2A
102
{ACAD_REACTORS
330
C
102
}
330
C
100
AcDbDictionary
281
     1
  3
2dWireframe
350
2F
  3
3D Hidden
350
31
  3
3dWireframe
350
30
  3
Basic
350
32
  3
Brighten
350
36
  3
ColorChange
350
3A
  3
Conceptual
350
34
  3
Dim
350
35
  3
Facepattern
350
39
  3
Flat
350
2B
  3
FlatWithEdges
350
2C
  3
Gouraud
350
2D
  3
GouraudWithEdges
350
2E
  3
Linepattern
350
38
  3
Realistic
350
33
  3
Thicken
350
37
  0
LAYOUT
  5
1E
102
{ACAD_REACTORS
330
1A
102
}
330
1A
100
AcDbPlotSettings
  1

  2
none_device
  4

  6

 40
0.0
 41
0.0
 42
0.0
 43
0.0
 44
0.0
 45
0.0
 46
0.0
 47
0.0
 48
0.0
 49
0.0
140
0.0
141
0.0
142
1.0
143
1.0
 70
   688
 72
     0
 73
     0
 74
     5
  7

 75
    16
 76
     0
 77
     2
 78
   300
147
1.0
148
0.0
149
0.0
100
AcDbLayout
  1
Layout1
 70
     1
 71
     1
 10
0.0
 20
0.0
 11
12.0
 21
9.0
 12
0.0
 22
0.0
 32
0.0
 14
1.000000000000000E+20
 24
1.000000000000000E+20
 34
1.000000000000000E+20
 15
-1.000000000000000E+20
 25
-1.000000000000000E+20
 35
-1.000000000000000E+20
146
0.0
 13
0.0
 23
0.0
 33
0.0
 16
1.0
 26
0.0
 36
0.0
 17
0.0
 27
1.0
 37
0.0
 76
     0
330
1B
  0
LAYOUT
  5
26
102
{ACAD_REACTORS
330
1A
102
}
330
1A
100
AcDbPlotSettings
  1

  2
none_device
  4

  6

 40
0.0
 41
0.0
 42
0.0
 43
0.0
 44
0.0
 45
0.0
 46
0.0
 47
0.0
 48
0.0
 49
0.0
140
0.0
141
0.0
142
1.0
143
1.0
 70
   688
 72
     0
 73
     0
 74
     5
  7

 75
    16
 76
     0
 77
     2
 78
   300
147
1.0
148
0.0
149
0.0
100
AcDbLayout
  1
Layout2
 70
     1
 71
     2
 10
0.0
 20
0.0
 11
0.0
 21
0.0
 12
0.0
 22
0.0
 32
0.0
 14
0.0
 24
0.0
 34
0.0
 15
0.0
 25
0.0
 35
0.0
146
0.0
 13
0.0
 23
0.0
 33
0.0
 16
1.0
 26
0.0
 36
0.0
 17
0.0
 27
1.0
 37
0.0
 76
     0
330
23
  0
LAYOUT
  5
22
102
{ACAD_REACTORS
330
1A
102
}
330
1A
100
AcDbPlotSettings
  1

  2
none_device
  4

  6

 40
0.0
 41
0.0
 42
0.0
 43
0.0
 44
0.0
 45
0.0
 46
0.0
 47
0.0
 48
0.0
 49
0.0
140
0.0
141
0.0
142
1.0
143
1.0
 70
  1712
 72
     0
 73
     0
 74
     0
  7

 75
     0
 76
     0
 77
     2
 78
   300
147
1.0
148
0.0
149
0.0
100
AcDbLayout
  1
Model
 70
     1
 71
     0
 10
0.0
 20
0.0
 11
12.0
 21
9.0
 12
0.0
 22
0.0
 32
0.0
 14
1.000000000000000E+20
 24
1.000000000000000E+20
 34
1.000000000000000E+20
 15
-1.000000000000000E+20
 25
-1.000000000000000E+20
 35
-1.000000000000000E+20
146
0.0
 13
0.0
 23
0.0
 33
0.0
 16
1.0
 26
0.0
 36
0.0
 17
0.0
 27
1.0
 37
0.0
 76
     0
330
1F
331
29
  0
MATERIAL
  5
3D
102
{ACAD_REACTORS
330
3B
102
}
330
3B
100
AcDbMaterial
  1
ByBlock
 72
     1
 94
      127
  0
MATERIAL
  5
3C
102
{ACAD_REACTORS
330
3B
102
}
330
3B
100
AcDbMaterial
  1
ByLayer
 72
     1
 94
      127
  0
MATERIAL
  5
3E
102
{ACAD_REACTORS
330
3B
102
}
330
3B
100
AcDbMaterial
  1
Global
 72
     1
 94
      127
  0
MLINESTYLE
  5
18
102
{ACAD_REACTORS
330
17
102
}
330
17
100
AcDbMlineStyle
  2
Standard
 70
     0
  3

 62
   256
 51
90.0
 52
90.0
 71
     2
 49
0.5
 62
   256
  6
BYLAYER
 49
-0.5
 62
   256
  6
BYLAYER
  0
ACDBPLACEHOLDER
  5
F
102
{ACAD_REACTORS
330
E
102
}
330
E
  0
VISUALSTYLE
  5
2F
102
{ACAD_REACTORS
330
2A
102
}
330
2A
100
AcDbVisualStyle
  2
2dWireframe
 70
     4
177
     2
291
     0
 71
     0
176
     1
 72
     2
176
     1
 73
     0
176
     1
 90
        0
176
     1
 40
-0.6
176
     1
 41
-30.0
176
     1
 62
     5
 63
     7
421
 16777215
176
     1
 74
     1
176
     1
 91
        4
176
     1
 64
     7
176
     1
 65
   257
176
     1
 75
     1
176
     1
175
     1
176
     1
 42
1.0
176
     1
 92
        0
176
     1
 66
   257
176
     1
 43
1.0
176
     1
 76
     1
176
     1
 77
     6
176
     1
 78
     2
176
     1
 67
     7
176
     1
 79
     5
176
     1
170
     0
176
     1
171
     0
176
     1
290
     0
176
     1
 93
        1
176
     1
 44
0.0
176
     1
173
     0
176
     1
  0
VISUALSTYLE
  5
31
102
{ACAD_REACTORS
330
2A
102
}
330
2A
100
AcDbVisualStyle
  2
3D Hidden
 70
     6
177
     2
291
     0
 71
     1
176
     1
 72
     2
176
     1
 73
     2
176
     1
 90
        0
176
     1
 40
-0.6
176
     1
 41
-30.0
176
     1
 62
     5
 63
     7
421
 16777215
176
     1
 74
     2
176
     1
 91
        2
176
     1
 64
     7
176
     1
 65
   257
176
     1
 75
     2
176
     1
175
     1
176
     1
 42
40.0
176
     1
 92
        0
176
     1
 66
   257
176
     1
 43
1.0
176
     1
 76
     1
176
     1
 77
     6
176
     1
 78
     2
176
     1
 67
     7
176
     1
 79
     3
176
     1
170
     0
176
     1
171
     0
176
     1
290
     0
176
     1
 93
        1
176
     1
 44
0.0
176
     1
173
     0
176
     1
  0
VISUALSTYLE
  5
30
102
{ACAD_REACTORS
330
2A
102
}
330
2A
100
AcDbVisualStyle
  2
3dWireframe
 70
     5
177
     2
291
     0
 71
     0
176
     1
 72
     2
176
     1
 73
     0
176
     1
 90
        0
176
     1
 40
-0.6
176
     1
 41
-30.0
176
     1
 62
     5
 63
     7
421
 16777215
176
     1
 74
     1
176
     1
 91
        4
176
     1
 64
     7
176
     1
 65
   257
176
     1
 75
     1
176
     1
175
     1
176
     1
 42
1.0
176
     1
 92
        0
176
     1
 66
   257
176
     1
 43
1.0
176
     1
 76
     1
176
     1
 77
     6
176
     1
 78
     2
176
     1
 67
     7
176
     1
 79
     5
176
     1
170
     0
176
     1
171
     0
176
     1
290
     0
176
     1
 93
        1
176
     1
 44
0.0
176
     1
173
     0
176
     1
  0
VISUALSTYLE
  5
32
102
{ACAD_REACTORS
330
2A
102
}
330
2A
100
AcDbVisualStyle
  2
Basic
 70
     7
177
     2
291
     1
 71
     1
176
     1
 72
     0
176
     1
 73
     1
176
     1
 90
        0
176
     1
 40
-0.6
176
     1
 41
-30.0
176
     1
 62
     5
 63
     7
421
 16777215
176
     1
 74
     0
176
     1
 91
        4
176
     1
 64
     7
176
     1
 65
   257
176
     1
 75
     1
176
     1
175
     1
176
     1
 42
1.0
176
     1
 92
        8
176
     1
 66
     7
176
     1
 43
1.0
176
     1
 76
     1
176
     1
 77
     6
176
     1
 78
     2
176
     1
 67
     7
176
     1
 79
     5
176
     1
170
     0
176
     1
171
     0
176
     1
290
     0
176
     1
 93
        1
176
     1
 44
0.0
176
     1
173
     0
176
     1
  0
VISUALSTYLE
  5
36
102
{ACAD_REACTORS
330
2A
102
}
330
2A
100
AcDbVisualStyle
  2
Brighten
 70
    12
177
     2
291
     1
 71
     2
176
     1
 72
     2
176
     1
 73
     0
176
     1
 90
        0
176
     1
 40
-0.6
176
     1
 41
-30.0
176
     1
 62
     5
 63
     7
421
 16777215
176
     1
 74
     1
176
     1
 91
        4
176
     1
 64
     7
176
     1
 65
   257
176
     1
 75
     1
176
     1
175
     1
176
     1
 42
1.0
176
     1
 92
        8
176
     1
 66
     7
176
     1
 43
1.0
176
     1
 76
     1
176
     1
 77
     6
176
     1
 78
     2
176
     1
 67
     7
176
     1
 79
     5
176
     1
170
     0
176
     1
171
     0
176
     1
290
     0
176
     1
 93
        1
176
     1
 44
50.0
176
     1
173
     0
176
     1
  0
VISUALSTYLE
  5
3A
102
{ACAD_REACTORS
330
2A
102
}
330
2A
100
AcDbVisualStyle
  2
ColorChange
 70
    16
177
     2
291
     1
 71
     2
176
     1
 72
     2
176
     1
 73
     3
176
     1
 90
        0
176
     1
 40
-0.6
176
     1
 41
-30.0
176
     1
 62
     5
 63
     8
421
  8421504
176
     1
 74
     1
176
     1
 91
        4
176
     1
 64
     7
176
     1
 65
   257
176
     1
 75
     1
176
     1
175
     1
176
     1
 42
1.0
176
     1
 92
        8
176
     1
 66
     8
424
  8421504
176
     1
 43
1.0
176
     1
 76
     1
176
     1
 77
     6
176
     1
 78
     2
176
     1
 67
     7
176
     1
 79
     5
176
     1
170
     0
176
     1
171
     0
176
     1
290
     0
176
     1
 93
        1
176
     1
 44
0.0
176
     1
173
     0
176
     1
  0
VISUALSTYLE
  5
34
102
{ACAD_REACTORS
330
2A
102
}
330
2A
100
AcDbVisualStyle
  2
Conceptual
 70
     9
177
     2
291
     0
 71
     3
176
     1
 72
     2
176
     1
 73
     0
176
     1
 90
        0
176
     1
 40
-0.6
176
     1
 41
-30.0
176
     1
 62
     5
 63
     7
421
 16777215
176
     1
 74
     2
176
     1
 91
        2
176
     1
 64
     7
176
     1
 65
   257
176
     1
 75
     1
176
     1
175
     1
176
     1
 42
40.0
176
     1
 92
        8
176
     1
 66
     7
176
     1
 43
1.0
176
     1
 76
     1
176
     1
 77
     6
176
     1
 78
     2
176
     1
 67
     7
176
     1
 79
     3
176
     1
170
     0
176
     1
171
     0
176
     1
290
     0
176
     1
 93
        1
176
     1
 44
0.0
176
     1
173
     0
176
     1
  0
VISUALSTYLE
  5
35
102
{ACAD_REACTORS
330
2A
102
}
330
2A
100
AcDbVisualStyle
  2
Dim
 70
    11
177
     2
291
     1
 71
     2
176
     1
 72
     2
176
     1
 73
     0
176
     1
 90
        0
176
     1
 40
-0.6
176
     1
 41
-30.0
176
     1
 62
     5
 63
     7
421
 16777215
176
     1
 74
     1
176
     1
 91
        4
176
     1
 64
     7
176
     1
 65
   257
176
     1
 75
     1
176
     1
175
     1
176
     1
 42
1.0
176
     1
 92
        8
176
     1
 66
     7
176
     1
 43
1.0
176
     1
 76
     1
176
     1
 77
     6
176
     1
 78
     2
176
     1
 67
     7
176
     1
 79
     5
176
     1
170
     0
176
     1
171
     0
176
     1
290
     0
176
     1
 93
        1
176
     1
 44
-50.0
176
     1
173
     0
176
     1
  0
VISUALSTYLE
  5
39
102
{ACAD_REACTORS
330
2A
102
}
330
2A
100
AcDbVisualStyle
  2
Facepattern
 70
    15
177
     2
291
     1
 71
     2
176
     1
 72
     2
176
     1
 73
     0
176
     1
 90
        0
176
     1
 40
-0.6
176
     1
 41
-30.0
176
     1
 62
     5
 63
     7
421
 16777215
176
     1
 74
     1
176
     1
 91
        4
176
     1
 64
     7
176
     1
 65
   257
176
     1
 75
     1
176
     1
175
     1
176
     1
 42
1.0
176
     1
 92
        8
176
     1
 66
     7
176
     1
 43
1.0
176
     1
 76
     1
176
     1
 77
     6
176
     1
 78
     2
176
     1
 67
     7
176
     1
 79
     5
176
     1
170
     0
176
     1
171
     0
176
     1
290
     0
176
     1
 93
        1
176
     1
 44
0.0
176
     1
173
     0
176
     1
  0
VISUALSTYLE
  5
2B
102
{ACAD_REACTORS
330
2A
102
}
330
2A
100
AcDbVisualStyle
  2
Flat
 70
     0
177
     2
291
     1
 71
     2
176
     1
 72
     1
176
     1
 73
     1
176
     1
 90
        2
176
     1
 40
-0.6
176
     1
 41
30.0
176
     1
 62
     5
 63
     7
421
 16777215
176
     1
 74
     0
176
     1
 91
        4
176
     1
 64
     7
176
     1
 65
   257
176
     1
 75
     1
176
     1
175
     1
176
     1
 42
1.0
176
     1
 92
        8
176
     1
 66
     7
176
     1
 43
1.0
176
     1
 76
     1
176
     1
 77
     6
176
     1
 78
     2
176
     1
 67
     7
176
     1
 79
     5
176
     1
170
     0
176
     1
171
     0
176
     1
290
     0
176
     1
 93
       13
176
     1
 44
0.0
176
     1
173
     0
176
     1
  0
VISUALSTYLE
  5
2C
102
{ACAD_REACTORS
330
2A
102
}
330
2A
100
AcDbVisualStyle
  2
FlatWithEdges
 70
     1
177
     2
291
     1
 71
     2
176
     1
 72
     1
176
     1
 73
     1
176
     1
 90
        2
176
     1
 40
-0.6
176
     1
 41
30.0
176
     1
 62
     5
 63
     7
421
 16777215
176
     1
 74
     1
176
     1
 91
        4
176
     1
 64
     7
176
     1
 65
   257
176
     1
 75
     1
176
     1
175
     1
176
     1
 42
1.0
176
     1
 92
        0
176
     1
 66
   257
176
     1
 43
1.0
176
     1
 76
     1
176
     1
 77
     6
176
     1
 78
     2
176
     1
 67
     7
176
     1
 79
     5
176
     1
170
     0
176
     1
171
     0
176
     1
290
     0
176
     1
 93
       13
176
     1
 44
0.0
176
     1
173
     0
176
     1
  0
VISUALSTYLE
  5
2D
102
{ACAD_REACTORS
330
2A
102
}
330
2A
100
AcDbVisualStyle
  2
Gouraud
 70
     2
177
     2
291
     1
 71
     2
176
     1
 72
     2
176
     1
 73
     1
176
     1
 90
        2
176
     1
 40
-0.6
176
     1
 41
30.0
176
     1
 62
     5
 63
     7
421
 16777215
176
     1
 74
     0
176
     1
 91
        4
176
     1
 64
     7
176
     1
 65
   257
176
     1
 75
     1
176
     1
175
     1
176
     1
 42
1.0
176
     1
 92
        0
176
     1
 66
     7
176
     1
 43
1.0
176
     1
 76
     1
176
     1
 77
     6
176
     1
 78
     2
176
     1
 67
     7
176
     1
 79
     5
176
     1
170
     0
176
     1
171
     0
176
     1
290
     0
176
     1
 93
       13
176
     1
 44
0.0
176
     1
173
     0
176
     1
  0
VISUALSTYLE
  5
2E
102
{ACAD_REACTORS
330
2A
102
}
330
2A
100
AcDbVisualStyle
  2
GouraudWithEdges
 70
     3
177
     2
291
     1
 71
     2
176
     1
 72
     2
176
     1
 73
     1
176
     1
 90
        2
176
     1
 40
-0.6
176
     1
 41
30.0
176
     1
 62
     5
 63
     7
421
 16777215
176
     1
 74
     1
176
     1
 91
        4
176
     1
 64
     7
176
     1
 65
   257
176
     1
 75
     1
176
     1
175
     1
176
     1
 42
1.0
176
     1
 92
        0
176
     1
 66
   257
176
     1
 43
1.0
176
     1
 76
     1
176
     1
 77
     6
176
     1
 78
     2
176
     1
 67
     7
176
     1
 79
     5
176
     1
170
     0
176
     1
171
     0
176
     1
290
     0
176
     1
 93
       13
176
     1
 44
0.0
176
     1
173
     0
176
     1
  0
VISUALSTYLE
  5
38
102
{ACAD_REACTORS
330
2A
102
}
330
2A
100
AcDbVisualStyle
  2
Linepattern
 70
    14
177
     2
291
     1
 71
     2
176
     1
 72
     2
176
     1
 73
     0
176
     1
 90
        0
176
     1
 40
-0.6
176
     1
 41
-30.0
176
     1
 62
     5
 63
     7
421
 16777215
176
     1
 74
     1
176
     1
 91
        4
176
     1
 64
     7
176
     1
 65
   257
176
     1
 75
     7
176
     1
175
     7
176
     1
 42
1.0
176
     1
 92
        8
176
     1
 66
     7
176
     1
 43
1.0
176
     1
 76
     1
176
     1
 77
     6
176
     1
 78
     2
176
     1
 67
     7
176
     1
 79
     5
176
     1
170
     0
176
     1
171
     0
176
     1
290
     0
176
     1
 93
        1
176
     1
 44
0.0
176
     1
173
     0
176
     1
  0
VISUALSTYLE
  5
33
102
{ACAD_REACTORS
330
2A
102
}
330
2A
100
AcDbVisualStyle
  2
Realistic
 70
     8
177
     2
291
     0
 71
     2
176
     1
 72
     2
176
     1
 73
     0
176
     1
 90
        0
176
     1
 40
-0.6
176
     1
 41
-30.0
176
     1
 62
     5
 63
     7
421
 16777215
176
     1
 74
     1
176
     1
 91
        0
176
     1
 64
     7
176
     1
 65
   257
176
     1
 75
     1
176
     1
175
     1
176
     1
 42
1.0
176
     1
 92
        8
176
     1
 66
     8
424
  7895160
176
     1
 43
1.0
176
     1
 76
     1
176
     1
 77
     6
176
     1
 78
     2
176
     1
 67
     7
176
     1
 79
     5
176
     1
170
     0
176
     1
171
     0
176
     1
290
     0
176
     1
 93
       13
176
     1
 44
0.0
176
     1
173
     0
176
     1
  0
VISUALSTYLE
  5
37
102
{ACAD_REACTORS
330
2A
102
}
330
2A
100
AcDbVisualStyle
  2
Thicken
 70
    13
177
     2
291
     1
 71
     2
176
     1
 72
     2
176
     1
 73
     0
176
     1
 90
        0
176
     1
 40
-0.6
176
     1
 41
-30.0
176
     1
 62
     5
 63
     7
421
 16777215
176
     1
 74
     1
176
     1
 91
        4
176
     1
 64
     7
176
     1
 65
   257
176
     1
 75
     1
176
     1
175
     1
176
     1
 42
1.0
176
     1
 92
       12
176
     1
 66
     7
176
     1
 43
1.0
176
     1
 76
     1
176
     1
 77
     6
176
     1
 78
     2
176
     1
 67
     7
176
     1
 79
     5
176
     1
170
     0
176
     1
171
     0
176
     1
290
     0
176
     1
 93
        1
176
     1
 44
0.0
176
     1
173
     0
176
     1
  0
ENDSEC
  0
EOF
