  0
SECTION
  2
HEADER
  9
$ACADVER
  1
AC1015
  9
$ACADMAINTVER
 70
    20
  9
$DWGCODEPAGE
  3
ANSI_1252
  9
$INSBASE
 10
0.0
 20
0.0
 30
0.0
  9
$EXTMIN
 10
-81.65000000000006
 20
-83.8517180130275
 30
0.0
  9
$EXTMAX
 10
467.2034254693882
 20
1929.676348405147
 30
0.0
  9
$LIMMIN
 10
0.0
 20
0.0
  9
$LIMMAX
 10
0.0
 20
0.0
  9
$ORTHOMODE
 70
     0
  9
$REGENMODE
 70
     1
  9
$FILLMODE
 70
     1
  9
$QTEXTMODE
 70
     0
  9
$MIRRTEXT
 70
     1
  9
$LTSCALE
 40
1.0
  9
$ATTMODE
 70
     1
  9
$TEXTSIZE
 40
0.0
  9
$TRACEWID
 40
0.05
  9
$TEXTSTYLE
  7
STANDARD
  9
$CLAYER
  8
0
  9
$CELTYPE
  6
CONTINUOUS
  9
$CECOLOR
 62
   256
  9
$CELTSCALE
 40
1.0
  9
$DISPSILH
 70
     0
  9
$DIMSCALE
 40
1.0
  9
$DIMASZ
 40
6.0
  9
$DIMEXO
 40
1.0
  9
$DIMDLI
 40
0.38
  9
$DIMRND
 40
0.0
  9
$DIMDLE
 40
1.0
  9
$DIMEXE
 40
0.18
  9
$DIMTP
 40
0.0
  9
$DIMTM
 40
0.0
  9
$DIMTXT
 40
3.5
  9
$DIMCEN
 40
0.09
  9
$DIMTSZ
 40
0.0
  9
$DIMTOL
 70
     0
  9
$DIMLIM
 70
     0
  9
$DIMTIH
 70
     1
  9
$DIMTOH
 70
     1
  9
$DIMSE1
 70
     0
  9
$DIMSE2
 70
     0
  9
$DIMTAD
 70
     1
  9
$DIMZIN
 70
     0
  9
$DIMBLK
  1

  9
$DIMASO
 70
     1
  9
$DIMSHO
 70
     1
  9
$DIMPOST
  1

  9
$DIMAPOST
  1

  9
$DIMALT
 70
     0
  9
$DIMALTD
 70
     2
  9
$DIMALTF
 40
0.0394
  9
$DIMLFAC
 40
1.0
  9
$DIMTOFL
 70
     0
  9
$DIMTVP
 40
0.0
  9
$DIMTIX
 70
     0
  9
$DIMSOXD
 70
     0
  9
$DIMSAH
 70
     0
  9
$DIMBLK1
  1

  9
$DIMBLK2
  1

  9
$DIMSTYLE
  2
STANDARD
  9
$DIMCLRD
 70
     0
  9
$DIMCLRE
 70
     0
  9
$DIMCLRT
 70
     0
  9
$DIMTFAC
 40
1.0
  9
$DIMGAP
 40
1.0
  9
$DIMJUST
 70
     0
  9
$DIMSD1
 70
     0
  9
$DIMSD2
 70
     0
  9
$DIMTOLJ
 70
     1
  9
$DIMTZIN
 70
     0
  9
$DIMALTZ
 70
     0
  9
$DIMALTTZ
 70
     0
  9
$DIMUPT
 70
     0
  9
$DIMDEC
 70
     4
  9
$DIMTDEC
 70
     4
  9
$DIMALTU
 70
     2
  9
$DIMALTTD
 70
     2
  9
$DIMTXSTY
  7
STANDARD
  9
$DIMAUNIT
 70
     0
  9
$DIMADEC
 70
     0
  9
$DIMALTRND
 40
0.0
  9
$DIMAZIN
 70
     0
  9
$DIMDSEP
 70
    46
  9
$DIMATFIT
 70
     3
  9
$DIMFRAC
 70
     0
  9
$DIMLDRBLK
  1

  9
$DIMLUNIT
 70
     2
  9
$DIMLWD
 70
    -2
  9
$DIMLWE
 70
    -2
  9
$DIMTMOVE
 70
     0
  9
$LUNITS
 70
     2
  9
$LUPREC
 70
     2
  9
$SKETCHINC
 40
0.1
  9
$FILLETRAD
 40
0.0
  9
$AUNITS
 70
     0
  9
$AUPREC
 70
     2
  9
$MENU
  1
acad
  9
$ELEVATION
 40
0.0
  9
$PELEVATION
 40
0.0
  9
$THICKNESS
 40
0.0
  9
$LIMCHECK
 70
     0
  9
$CHAMFERA
 40
0.0
  9
$CHAMFERB
 40
0.0
  9
$CHAMFERC
 40
0.0
  9
$CHAMFERD
 40
0.0
  9
$SKPOLY
 70
     0
  9
$TDCREATE
 40
2444972.083333333
  9
$TDUCREATE
 40
2444972.000000000
  9
$TDUPDATE
 40
2453917.589112408
  9
$TDUUPDATE
 40
2453917.505779074
  9
$TDINDWG
 40
0.0002340046
  9
$TDUSRTIMER
 40
0.0002340046
  9
$USRTIMER
 70
     1
  9
$ANGBASE
 50
0.0
  9
$ANGDIR
 70
     0
  9
$PDMODE
 70
     0
  9
$PDSIZE
 40
-1.0
  9
$PLINEWID
 40
0.0
  9
$SPLFRAME
 70
     0
  9
$SPLINETYPE
 70
     6
  9
$SPLINESEGS
 70
     8
  9
$HANDSEED
  5
16A
  9
$SURFTAB1
 70
     6
  9
$SURFTAB2
 70
     6
  9
$SURFTYPE
 70
     6
  9
$SURFU
 70
     6
  9
$SURFV
 70
     6
  9
$UCSBASE
  2

  9
$UCSNAME
  2

  9
$UCSORG
 10
0.0
 20
0.0
 30
0.0
  9
$UCSXDIR
 10
1.0
 20
0.0
 30
0.0
  9
$UCSYDIR
 10
0.0
 20
1.0
 30
0.0
  9
$UCSORTHOREF
  2

  9
$UCSORTHOVIEW
 70
     0
  9
$UCSORGTOP
 10
0.0
 20
0.0
 30
0.0
  9
$UCSORGBOTTOM
 10
0.0
 20
0.0
 30
0.0
  9
$UCSORGLEFT
 10
0.0
 20
0.0
 30
0.0
  9
$UCSORGRIGHT
 10
0.0
 20
0.0
 30
0.0
  9
$UCSORGFRONT
 10
0.0
 20
0.0
 30
0.0
  9
$UCSORGBACK
 10
0.0
 20
0.0
 30
0.0
  9
$PUCSBASE
  2

  9
$PUCSNAME
  2

  9
$PUCSORG
 10
0.0
 20
0.0
 30
0.0
  9
$PUCSXDIR
 10
1.0
 20
0.0
 30
0.0
  9
$PUCSYDIR
 10
0.0
 20
1.0
 30
0.0
  9
$PUCSORTHOREF
  2

  9
$PUCSORTHOVIEW
 70
     0
  9
$PUCSORGTOP
 10
0.0
 20
0.0
 30
0.0
  9
$PUCSORGBOTTOM
 10
0.0
 20
0.0
 30
0.0
  9
$PUCSORGLEFT
 10
0.0
 20
0.0
 30
0.0
  9
$PUCSORGRIGHT
 10
0.0
 20
0.0
 30
0.0
  9
$PUCSORGFRONT
 10
0.0
 20
0.0
 30
0.0
  9
$PUCSORGBACK
 10
0.0
 20
0.0
 30
0.0
  9
$USERI1
 70
     0
  9
$USERI2
 70
     0
  9
$USERI3
 70
     0
  9
$USERI4
 70
     0
  9
$USERI5
 70
     0
  9
$USERR1
 40
0.0
  9
$USERR2
 40
0.0
  9
$USERR3
 40
0.0
  9
$USERR4
 40
0.0
  9
$USERR5
 40
0.0
  9
$WORLDVIEW
 70
     1
  9
$SHADEDGE
 70
     3
  9
$SHADEDIF
 70
    70
  9
$TILEMODE
 70
     1
  9
$MAXACTVP
 70
    16
  9
$PINSBASE
 10
0.0
 20
0.0
 30
0.0
  9
$PLIMCHECK
 70
     0
  9
$PEXTMIN
 10
1.000000000000000E+20
 20
1.000000000000000E+20
 30
1.000000000000000E+20
  9
$PEXTMAX
 10
-1.000000000000000E+20
 20
-1.000000000000000E+20
 30
-1.000000000000000E+20
  9
$PLIMMIN
 10
0.0
 20
0.0
  9
$PLIMMAX
 10
12.0
 20
9.0
  9
$UNITMODE
 70
     0
  9
$VISRETAIN
 70
     0
  9
$PLINEGEN
 70
     1
  9
$PSLTSCALE
 70
     1
  9
$TREEDEPTH
 70
  3020
  9
$CMLSTYLE
  2
STANDARD
  9
$CMLJUST
 70
     0
  9
$CMLSCALE
 40
1.0
  9
$PROXYGRAPHICS
 70
     0
  9
$MEASUREMENT
 70
     0
  9
$CELWEIGHT
370
    -1
  9
$ENDCAPS
280
     0
  9
$JOINSTYLE
280
     0
  9
$LWDISPLAY
290
     0
  9
$INSUNITS
 70
     0
  9
$HYPERLINKBASE
  1

  9
$STYLESHEET
  1

  9
$XEDIT
290
     1
  9
$CEPSNTYPE
380
     0
  9
$PSTYLEMODE
290
     1
  9
$FINGERPRINTGUID
  2
{CA67BDEF-4AB7-4324-9DED-D26DC0D77653}
  9
$VERSIONGUID
  2
{DA81B786-EEA6-474C-8CF3-45B65F6C00A9}
  9
$EXTNAMES
290
     1
  9
$PSVPSCALE
 40
0.0
  9
$OLESTARTUP
290
     0
  0
ENDSEC
  0
SECTION
  2
CLASSES
  0
CLASS
  1
IMAGE
  2
AcDbRasterImage
  3
ISM
 90
    32895
280
     0
281
     1
  0
CLASS
  1
DICTIONARYVAR
  2
AcDbDictionaryVar
  3
ObjectDBX Classes
 90
        0
280
     0
281
     0
  0
CLASS
  1
RASTERVARIABLES
  2
AcDbRasterVariables
  3
ISM
 90
    32768
280
     0
281
     0
  0
CLASS
  1
IMAGEDEF
  2
AcDbRasterImageDef
  3
ISM
 90
    32768
280
     0
281
     0
  0
CLASS
  1
IMAGEDEF_REACTOR
  2
AcDbRasterImageDefReactor
  3
ISM
 90
    32769
280
     0
281
     0
  0
CLASS
  1
IDBUFFER
  2
AcDbIdBuffer
  3
ObjectDBX Classes
 90
    32768
280
     0
281
     0
  0
CLASS
  1
SPATIAL_FILTER
  2
AcDbSpatialFilter
  3
ObjectDBX Classes
 90
    32768
280
     0
281
     0
  0
CLASS
  1
SORTENTSTABLE
  2
AcDbSortentsTable
  3
ObjectDBX Classes
 90
    32768
280
     0
281
     0
  0
CLASS
  1
LAYER_INDEX
  2
AcDbLayerIndex
  3
ObjectDBX Classes
 90
    32768
280
     0
281
     0
  0
CLASS
  1
SPATIAL_INDEX
  2
AcDbSpatialIndex
  3
ObjectDBX Classes
 90
    32768
280
     0
281
     0
  0
CLASS
  1
OBJECT_PTR
  2
CAseDLPNTableRecord
  3
ASE-LPNTableRecord
 90
    32769
280
     0
281
     0
  0
CLASS
  1
LAYOUT
  2
AcDbLayout
  3
ObjectDBX Classes
 90
        0
280
     0
281
     0
  0
CLASS
  1
PLOTSETTINGS
  2
AcDbPlotSettings
  3
ObjectDBX Classes
 90
    32768
280
     0
281
     0
  0
CLASS
  1
ACDBDICTIONARYWDFLT
  2
AcDbDictionaryWithDefault
  3
ObjectDBX Classes
 90
        0
280
     0
281
     0
  0
CLASS
  1
ACDBPLACEHOLDER
  2
AcDbPlaceHolder
  3
ObjectDBX Classes
 90
        0
280
     0
281
     0
  0
CLASS
  1
VBA_PROJECT
  2
AcDbVbaProject
  3
acad
 90
    32768
280
     0
281
     0
  0
CLASS
  1
WIPEOUT
  2
AcDbWipeout
  3
"WipeOut|Product Desc: Object Enabler for WipeOut entity^I^I^I^I^I^I|Company: Autodesk, Inc.^I^I^I^I^I^I|WEB Address: www.autodesk.com"
 90
    32895
280
     0
281
     1
  0
CLASS
  1
WIPEOUTVARIABLES
  2
AcDbWipeoutVariables
  3
"WipeOut|Product Desc:     WipeOut Dbx Application|Company:          Autodesk, Inc.|WEB Address:      www.autodesk.com"
 90
    32768
280
     0
281
     0
  0
CLASS
  1
RTEXT
  2
RText
  3
RText|AutoCAD Express Tool|expresstools@autodesk.com
 90
    32768
280
     0
281
     1
  0
CLASS
  1
ARCALIGNEDTEXT
  2
AcDbArcAlignedText
  3
ATEXT|AutoCAD Express Tool|expresstools@autodesk.com
 90
    32768
280
     0
281
     1
  0
CLASS
  1
TABLESTYLE
  2
AcDbTableStyle
  3
ObjectDBX Classes
 90
     2047
280
     0
281
     0
  0
ENDSEC
  0
SECTION
  2
TABLES
  0
TABLE
  2
VPORT
  5
7
330
0
100
AcDbSymbolTable
 70
     3
  0
VPORT
  5
164
330
7
100
AcDbSymbolTableRecord
100
AcDbViewportTableRecord
  2
*Active
 70
     0
 10
0.0
 20
0.0
 11
1.0
 21
1.0
 12
225.7192664617567
 22
107.95
 13
0.0
 23
0.0
 14
1.0
 24
1.0
 15
0.0
 25
0.0
 16
0.0
 26
0.0
 36
1.0
 17
0.0
 27
0.0
 37
0.0
 40
215.9
 41
1.569570871261378
 42
50.0
 43
0.0
 44
0.0
 50
0.0
 51
0.0
 71
     0
 72
  2000
 73
     1
 74
     1
 75
     0
 76
     0
 77
     0
 78
     0
281
     0
 65
     1
110
0.0
120
0.0
130
0.0
111
1.0
121
0.0
131
0.0
112
0.0
122
1.0
132
0.0
 79
     0
146
0.0
  0
ENDTAB
  0
TABLE
  2
LTYPE
  5
4
330
0
100
AcDbSymbolTable
 70
     6
  0
LTYPE
  5
11
330
4
100
AcDbSymbolTableRecord
100
AcDbLinetypeTableRecord
  2
BYBLOCK
 70
     0
  3

 72
    65
 73
     0
 40
0.0
  0
LTYPE
  5
12
330
4
100
AcDbSymbolTableRecord
100
AcDbLinetypeTableRecord
  2
BYLAYER
 70
     0
  3

 72
    65
 73
     0
 40
0.0
  0
LTYPE
  5
13
330
4
100
AcDbSymbolTableRecord
100
AcDbLinetypeTableRecord
  2
CONTINUOUS
 70
     0
  3
Solid line
 72
    65
 73
     0
 40
0.0
  0
LTYPE
  5
1E
330
4
100
AcDbSymbolTableRecord
100
AcDbLinetypeTableRecord
  2
HIDDEN
 70
     0
  3
Hidden __ __ __ __ __ __ __ __ __ __ __ __ __ __
 72
    65
 73
     2
 40
1.905
 49
1.27
 74
     0
 49
-0.635
 74
     0
  0
LTYPE
  5
1F
330
4
100
AcDbSymbolTableRecord
100
AcDbLinetypeTableRecord
  2
PHANTOM
 70
     0
  3
Phantom ______  __  __  ______  __  __  ______
 72
    65
 73
     6
 40
12.7
 49
6.349999999999999
 74
     0
 49
-1.27
 74
     0
 49
1.27
 74
     0
 49
-1.27
 74
     0
 49
1.27
 74
     0
 49
-1.27
 74
     0
  0
LTYPE
  5
20
330
4
100
AcDbSymbolTableRecord
100
AcDbLinetypeTableRecord
  2
CENTER
 70
     0
  3
Center ____ _ ____ _ ____ _ ____ _ ____ _ ____
 72
    65
 73
     4
 40
10.16
 49
6.349999999999999
 74
     0
 49
-1.27
 74
     0
 49
1.27
 74
     0
 49
-1.27
 74
     0
  0
LTYPE
  5
21
330
4
100
AcDbSymbolTableRecord
100
AcDbLinetypeTableRecord
  2
CENTERX2
 70
     0
  3
Center (2x) ________  __  ________  __  _____
 72
    65
 73
     4
 40
20.32
 49
12.7
 74
     0
 49
-2.54
 74
     0
 49
2.54
 74
     0
 49
-2.54
 74
     0
  0
LTYPE
  5
22
330
4
100
AcDbSymbolTableRecord
100
AcDbLinetypeTableRecord
  2
DOT2
 70
     0
  3
Dot (.5x) ........................................
 72
    65
 73
     2
 40
0.635
 49
0.0
 74
     0
 49
-0.635
 74
     0
  0
ENDTAB
  0
TABLE
  2
LAYER
  5
2
330
0
100
AcDbSymbolTable
 70
     2
  0
LAYER
  5
14
330
2
100
AcDbSymbolTableRecord
100
AcDbLayerTableRecord
  2
0
 70
     0
 62
     7
  6
CONTINUOUS
370
    -3
390
147
  0
LAYER
  5
26
330
2
100
AcDbSymbolTableRecord
100
AcDbLayerTableRecord
  2
DEFPOINTS
 70
     0
 62
     7
  6
CONTINUOUS
290
     0
370
    -3
390
147
  0
ENDTAB
  0
TABLE
  2
STYLE
  5
3
330
0
100
AcDbSymbolTable
 70
     1
  0
STYLE
  5
17
330
3
100
AcDbSymbolTableRecord
100
AcDbTextStyleTableRecord
  2
STANDARD
 70
     0
 40
0.0
 41
1.0
 50
0.0
 71
     0
 42
0.0
  3
Century Gothic
  4

  0
ENDTAB
  0
TABLE
  2
VIEW
  5
5
330
0
100
AcDbSymbolTable
 70
     0
  0
ENDTAB
  0
TABLE
  2
UCS
  5
6
330
0
100
AcDbSymbolTable
 70
     0
  0
ENDTAB
  0
TABLE
  2
APPID
  5
8
330
0
100
AcDbSymbolTable
 70
     2
  0
APPID
  5
16
330
8
100
AcDbSymbolTableRecord
100
AcDbRegAppTableRecord
  2
ACAD
 70
     0
  0
APPID
  5
154
330
8
100
AcDbSymbolTableRecord
100
AcDbRegAppTableRecord
  2
DCO15
 70
     0
  0
ENDTAB
  0
TABLE
  2
DIMSTYLE
  5
9
330
0
100
AcDbSymbolTable
 70
     1
100
AcDbDimStyleTable
 71
     0
  0
DIMSTYLE
105
18
330
9
100
AcDbSymbolTableRecord
100
AcDbDimStyleTableRecord
  2
STANDARD
 70
     0
289
     0
340
17
  0
ENDTAB
  0
TABLE
  2
BLOCK_RECORD
  5
1
330
0
100
AcDbSymbolTable
 70
    10
  0
BLOCK_RECORD
  5
A
330
1
100
AcDbSymbolTableRecord
100
AcDbBlockTableRecord
  2
*MODEL_SPACE
340
14E
  0
BLOCK_RECORD
  5
B
330
1
100
AcDbSymbolTableRecord
100
AcDbBlockTableRecord
  2
*PAPER_SPACE
340
14F
  0
BLOCK_RECORD
  5
44
330
1
100
AcDbSymbolTableRecord
100
AcDbBlockTableRecord
  2
SW_CENTERMARK0
340
0
102
{BLKREFS
331
4C
102
}
  0
BLOCK_RECORD
  5
4D
330
1
100
AcDbSymbolTableRecord
100
AcDbBlockTableRecord
  2
SW_CENTERMARK1
340
0
102
{BLKREFS
331
55
102
}
  0
BLOCK_RECORD
  5
56
330
1
100
AcDbSymbolTableRecord
100
AcDbBlockTableRecord
  2
SW_CENTERMARK2
340
0
102
{BLKREFS
331
5E
102
}
  0
BLOCK_RECORD
  5
5F
330
1
100
AcDbSymbolTableRecord
100
AcDbBlockTableRecord
  2
SW_CENTERMARK3
340
0
102
{BLKREFS
331
67
102
}
  0
BLOCK_RECORD
  5
A4
330
1
100
AcDbSymbolTableRecord
100
AcDbBlockTableRecord
  2
SW_CENTERMARK4
340
0
102
{BLKREFS
331
AC
102
}
  0
BLOCK_RECORD
  5
AD
330
1
100
AcDbSymbolTableRecord
100
AcDbBlockTableRecord
  2
SW_CENTERMARK5
340
0
102
{BLKREFS
331
B5
102
}
  0
BLOCK_RECORD
  5
B6
330
1
100
AcDbSymbolTableRecord
100
AcDbBlockTableRecord
  2
SW_CENTERMARK6
340
0
102
{BLKREFS
331
BE
102
}
  0
BLOCK_RECORD
  5
BF
330
1
100
AcDbSymbolTableRecord
100
AcDbBlockTableRecord
  2
SW_CENTERMARK7
340
0
102
{BLKREFS
331
C7
102
}
  0
BLOCK_RECORD
  5
C8
330
1
100
AcDbSymbolTableRecord
100
AcDbBlockTableRecord
  2
SW_CENTERMARK8
340
0
102
{BLKREFS
331
D0
102
}
  0
BLOCK_RECORD
  5
D1
330
1
100
AcDbSymbolTableRecord
100
AcDbBlockTableRecord
  2
SW_CENTERMARK9
340
0
102
{BLKREFS
331
D9
102
}
  0
ENDTAB
  0
ENDSEC
  0
SECTION
  2
BLOCKS
  0
BLOCK
  5
D
330
A
100
AcDbEntity
  8
0
100
AcDbBlockBegin
  2
*MODEL_SPACE
 70
     0
 10
0.0
 20
0.0
 30
0.0
  3
*MODEL_SPACE
  1

  0
ENDBLK
  5
E
330
A
100
AcDbEntity
  8
0
100
AcDbBlockEnd
  0
BLOCK
  5
F
330
B
100
AcDbEntity
 67
     1
  8
0
100
AcDbBlockBegin
  2
*PAPER_SPACE
 70
     0
 10
0.0
 20
0.0
 30
0.0
  3
*PAPER_SPACE
  1

  0
ENDBLK
  5
10
330
B
100
AcDbEntity
 67
     1
  8
0
100
AcDbBlockEnd
  0
BLOCK
  5
45
330
44
100
AcDbEntity
  8
0
 62
     0
100
AcDbBlockBegin
  2
SW_CENTERMARK0
 70
     0
 10
0.0
 20
0.0
 30
0.0
  3
SW_CENTERMARK0
  1

  0
LINE
  5
46
330
44
100
AcDbEntity
  8
0
  6
Continuous
 62
     7
100
AcDbLine
 10
69.84999999999996
 20
1927.176348405146
 30
0.0
 11
69.84999999999996
 21
1929.676348405147
 31
0.0
  0
LINE
  5
47
330
44
100
AcDbEntity
  8
0
  6
Continuous
 62
     7
100
AcDbLine
 10
69.84999999999996
 20
1927.176348405146
 30
0.0
 11
67.34999999999996
 21
1927.176348405146
 31
0.0
  0
LINE
  5
48
330
44
100
AcDbEntity
  8
0
  6
Continuous
 62
     7
100
AcDbLine
 10
69.84999999999996
 20
1927.176348405146
 30
0.0
 11
69.84999999999996
 21
1924.676348405147
 31
0.0
  0
LINE
  5
49
330
44
100
AcDbEntity
  8
0
  6
Continuous
 62
     7
100
AcDbLine
 10
69.84999999999996
 20
1927.176348405146
 30
0.0
 11
72.34999999999996
 21
1927.176348405146
 31
0.0
  0
ENDBLK
  5
4B
330
44
100
AcDbEntity
  8
0
100
AcDbBlockEnd
  0
BLOCK
  5
4E
330
4D
100
AcDbEntity
  8
0
 62
     0
100
AcDbBlockBegin
  2
SW_CENTERMARK1
 70
     0
 10
0.0
 20
0.0
 30
0.0
  3
SW_CENTERMARK1
  1

  0
LINE
  5
4F
330
4D
100
AcDbEntity
  8
0
  6
Continuous
 62
     7
100
AcDbLine
 10
69.84999999999996
 20
1640.176348405146
 30
0.0
 11
69.84999999999996
 21
1642.676348405147
 31
0.0
  0
LINE
  5
50
330
4D
100
AcDbEntity
  8
0
  6
Continuous
 62
     7
100
AcDbLine
 10
69.84999999999996
 20
1640.176348405146
 30
0.0
 11
67.34999999999996
 21
1640.176348405146
 31
0.0
  0
LINE
  5
51
330
4D
100
AcDbEntity
  8
0
  6
Continuous
 62
     7
100
AcDbLine
 10
69.84999999999996
 20
1640.176348405146
 30
0.0
 11
69.84999999999996
 21
1637.676348405147
 31
0.0
  0
LINE
  5
52
330
4D
100
AcDbEntity
  8
0
  6
Continuous
 62
     7
100
AcDbLine
 10
69.84999999999996
 20
1640.176348405146
 30
0.0
 11
72.34999999999996
 21
1640.176348405146
 31
0.0
  0
ENDBLK
  5
54
330
4D
100
AcDbEntity
  8
0
100
AcDbBlockEnd
  0
BLOCK
  5
57
330
56
100
AcDbEntity
  8
0
 62
     0
100
AcDbBlockBegin
  2
SW_CENTERMARK2
 70
     0
 10
0.0
 20
0.0
 30
0.0
  3
SW_CENTERMARK2
  1

  0
LINE
  5
58
330
56
100
AcDbEntity
  8
0
  6
Continuous
 62
     7
100
AcDbLine
 10
218.85
 20
148.6000010464205
 30
0.0
 11
218.85
 21
151.1000010464205
 31
0.0
  0
LINE
  5
59
330
56
100
AcDbEntity
  8
0
  6
Continuous
 62
     7
100
AcDbLine
 10
218.85
 20
148.6000010464205
 30
0.0
 11
216.35
 21
148.6000010464205
 31
0.0
  0
LINE
  5
5A
330
56
100
AcDbEntity
  8
0
  6
Continuous
 62
     7
100
AcDbLine
 10
218.85
 20
148.6000010464205
 30
0.0
 11
218.85
 21
146.1000010464205
 31
0.0
  0
LINE
  5
5B
330
56
100
AcDbEntity
  8
0
  6
Continuous
 62
     7
100
AcDbLine
 10
218.85
 20
148.6000010464205
 30
0.0
 11
221.35
 21
148.6000010464205
 31
0.0
  0
ENDBLK
  5
5D
330
56
100
AcDbEntity
  8
0
100
AcDbBlockEnd
  0
BLOCK
  5
60
330
5F
100
AcDbEntity
  8
0
 62
     0
100
AcDbBlockBegin
  2
SW_CENTERMARK3
 70
     0
 10
0.0
 20
0.0
 30
0.0
  3
SW_CENTERMARK3
  1

  0
LINE
  5
61
330
5F
100
AcDbEntity
  8
0
  6
Continuous
 62
     7
100
AcDbLine
 10
-79.15000000000005
 20
148.6000010464205
 30
0.0
 11
-79.15000000000005
 21
151.1000010464205
 31
0.0
  0
LINE
  5
62
330
5F
100
AcDbEntity
  8
0
  6
Continuous
 62
     7
100
AcDbLine
 10
-79.15000000000005
 20
148.6000010464205
 30
0.0
 11
-81.65000000000006
 21
148.6000010464205
 31
0.0
  0
LINE
  5
63
330
5F
100
AcDbEntity
  8
0
  6
Continuous
 62
     7
100
AcDbLine
 10
-79.15000000000005
 20
148.6000010464205
 30
0.0
 11
-79.15000000000005
 21
146.1000010464205
 31
0.0
  0
LINE
  5
64
330
5F
100
AcDbEntity
  8
0
  6
Continuous
 62
     7
100
AcDbLine
 10
-79.15000000000005
 20
148.6000010464205
 30
0.0
 11
-76.65000000000005
 21
148.6000010464205
 31
0.0
  0
ENDBLK
  5
66
330
5F
100
AcDbEntity
  8
0
100
AcDbBlockEnd
  0
BLOCK
  5
A5
330
A4
100
AcDbEntity
  8
0
 62
     0
100
AcDbBlockBegin
  2
SW_CENTERMARK4
 70
     0
 10
0.0
 20
0.0
 30
0.0
  3
SW_CENTERMARK4
  1

  0
LINE
  5
A6
330
A4
100
AcDbEntity
  8
0
  6
Continuous
 62
     7
100
AcDbLine
 10
169.8499999999999
 20
74.14828198697865
 30
0.0
 11
169.8499999999999
 21
76.64828198697865
 31
0.0
  0
LINE
  5
A7
330
A4
100
AcDbEntity
  8
0
  6
Continuous
 62
     7
100
AcDbLine
 10
169.8499999999999
 20
74.14828198697865
 30
0.0
 11
167.3499999999999
 21
74.14828198697865
 31
0.0
  0
LINE
  5
A8
330
A4
100
AcDbEntity
  8
0
  6
Continuous
 62
     7
100
AcDbLine
 10
169.8499999999999
 20
74.14828198697865
 30
0.0
 11
169.8499999999999
 21
71.64828198697865
 31
0.0
  0
LINE
  5
A9
330
A4
100
AcDbEntity
  8
0
  6
Continuous
 62
     7
100
AcDbLine
 10
169.8499999999999
 20
74.14828198697865
 30
0.0
 11
172.3499999999999
 21
74.14828198697865
 31
0.0
  0
ENDBLK
  5
AB
330
A4
100
AcDbEntity
  8
0
100
AcDbBlockEnd
  0
BLOCK
  5
AE
330
AD
100
AcDbEntity
  8
0
 62
     0
100
AcDbBlockBegin
  2
SW_CENTERMARK5
 70
     0
 10
0.0
 20
0.0
 30
0.0
  3
SW_CENTERMARK5
  1

  0
LINE
  5
AF
330
AD
100
AcDbEntity
  8
0
  6
Continuous
 62
     7
100
AcDbLine
 10
-30.15000000000002
 20
74.14828198697865
 30
0.0
 11
-30.15000000000002
 21
76.64828198697865
 31
0.0
  0
LINE
  5
B0
330
AD
100
AcDbEntity
  8
0
  6
Continuous
 62
     7
100
AcDbLine
 10
-30.15000000000002
 20
74.14828198697865
 30
0.0
 11
-32.65000000000003
 21
74.14828198697865
 31
0.0
  0
LINE
  5
B1
330
AD
100
AcDbEntity
  8
0
  6
Continuous
 62
     7
100
AcDbLine
 10
-30.15000000000002
 20
74.14828198697865
 30
0.0
 11
-30.15000000000002
 21
71.64828198697865
 31
0.0
  0
LINE
  5
B2
330
AD
100
AcDbEntity
  8
0
  6
Continuous
 62
     7
100
AcDbLine
 10
-30.15000000000002
 20
74.14828198697865
 30
0.0
 11
-27.65000000000002
 21
74.14828198697865
 31
0.0
  0
ENDBLK
  5
B4
330
AD
100
AcDbEntity
  8
0
100
AcDbBlockEnd
  0
BLOCK
  5
B7
330
B6
100
AcDbEntity
  8
0
 62
     0
100
AcDbBlockBegin
  2
SW_CENTERMARK6
 70
     0
 10
0.0
 20
0.0
 30
0.0
  3
SW_CENTERMARK6
  1

  0
LINE
  5
B8
330
B6
100
AcDbEntity
  8
0
  6
Continuous
 62
     7
100
AcDbLine
 10
-79.14999999999999
 20
63.14828198697851
 30
0.0
 11
-79.14999999999999
 21
65.64828198697852
 31
0.0
  0
LINE
  5
B9
330
B6
100
AcDbEntity
  8
0
  6
Continuous
 62
     7
100
AcDbLine
 10
-79.14999999999999
 20
63.14828198697851
 30
0.0
 11
-81.65
 21
63.14828198697851
 31
0.0
  0
LINE
  5
BA
330
B6
100
AcDbEntity
  8
0
  6
Continuous
 62
     7
100
AcDbLine
 10
-79.14999999999999
 20
63.14828198697851
 30
0.0
 11
-79.14999999999999
 21
60.64828198697851
 31
0.0
  0
LINE
  5
BB
330
B6
100
AcDbEntity
  8
0
  6
Continuous
 62
     7
100
AcDbLine
 10
-79.14999999999999
 20
63.14828198697851
 30
0.0
 11
-76.64999999999999
 21
63.14828198697851
 31
0.0
  0
ENDBLK
  5
BD
330
B6
100
AcDbEntity
  8
0
100
AcDbBlockEnd
  0
BLOCK
  5
C0
330
BF
100
AcDbEntity
  8
0
 62
     0
100
AcDbBlockBegin
  2
SW_CENTERMARK7
 70
     0
 10
0.0
 20
0.0
 30
0.0
  3
SW_CENTERMARK7
  1

  0
LINE
  5
C1
330
BF
100
AcDbEntity
  8
0
  6
Continuous
 62
     7
100
AcDbLine
 10
218.85
 20
63.14828198697851
 30
0.0
 11
218.85
 21
65.64828198697852
 31
0.0
  0
LINE
  5
C2
330
BF
100
AcDbEntity
  8
0
  6
Continuous
 62
     7
100
AcDbLine
 10
218.85
 20
63.14828198697851
 30
0.0
 11
216.3499999999999
 21
63.14828198697851
 31
0.0
  0
LINE
  5
C3
330
BF
100
AcDbEntity
  8
0
  6
Continuous
 62
     7
100
AcDbLine
 10
218.85
 20
63.14828198697851
 30
0.0
 11
218.85
 21
60.64828198697851
 31
0.0
  0
LINE
  5
C4
330
BF
100
AcDbEntity
  8
0
  6
Continuous
 62
     7
100
AcDbLine
 10
218.85
 20
63.14828198697851
 30
0.0
 11
221.35
 21
63.14828198697851
 31
0.0
  0
ENDBLK
  5
C6
330
BF
100
AcDbEntity
  8
0
100
AcDbBlockEnd
  0
BLOCK
  5
C9
330
C8
100
AcDbEntity
  8
0
 62
     0
100
AcDbBlockBegin
  2
SW_CENTERMARK8
 70
     0
 10
0.0
 20
0.0
 30
0.0
  3
SW_CENTERMARK8
  1

  0
LINE
  5
CA
330
C8
100
AcDbEntity
  8
0
  6
Continuous
 62
     7
100
AcDbLine
 10
218.8499999999986
 20
-81.35171801302748
 30
0.0
 11
218.8499999999986
 21
-78.85171801302748
 31
0.0
  0
LINE
  5
CB
330
C8
100
AcDbEntity
  8
0
  6
Continuous
 62
     7
100
AcDbLine
 10
218.8499999999986
 20
-81.35171801302748
 30
0.0
 11
216.3499999999986
 21
-81.35171801302748
 31
0.0
  0
LINE
  5
CC
330
C8
100
AcDbEntity
  8
0
  6
Continuous
 62
     7
100
AcDbLine
 10
218.8499999999986
 20
-81.35171801302748
 30
0.0
 11
218.8499999999986
 21
-83.8517180130275
 31
0.0
  0
LINE
  5
CD
330
C8
100
AcDbEntity
  8
0
  6
Continuous
 62
     7
100
AcDbLine
 10
218.8499999999986
 20
-81.35171801302748
 30
0.0
 11
221.3499999999986
 21
-81.35171801302748
 31
0.0
  0
ENDBLK
  5
CF
330
C8
100
AcDbEntity
  8
0
100
AcDbBlockEnd
  0
BLOCK
  5
D2
330
D1
100
AcDbEntity
  8
0
 62
     0
100
AcDbBlockBegin
  2
SW_CENTERMARK9
 70
     0
 10
0.0
 20
0.0
 30
0.0
  3
SW_CENTERMARK9
  1

  0
LINE
  5
D3
330
D1
100
AcDbEntity
  8
0
  6
Continuous
 62
     7
100
AcDbLine
 10
-79.14999999999867
 20
-81.35171801302748
 30
0.0
 11
-79.14999999999867
 21
-78.85171801302748
 31
0.0
  0
LINE
  5
D4
330
D1
100
AcDbEntity
  8
0
  6
Continuous
 62
     7
100
AcDbLine
 10
-79.14999999999867
 20
-81.35171801302748
 30
0.0
 11
-81.64999999999867
 21
-81.35171801302748
 31
0.0
  0
LINE
  5
D5
330
D1
100
AcDbEntity
  8
0
  6
Continuous
 62
     7
100
AcDbLine
 10
-79.14999999999867
 20
-81.35171801302748
 30
0.0
 11
-79.14999999999867
 21
-83.8517180130275
 31
0.0
  0
LINE
  5
D6
330
D1
100
AcDbEntity
  8
0
  6
Continuous
 62
     7
100
AcDbLine
 10
-79.14999999999867
 20
-81.35171801302748
 30
0.0
 11
-76.64999999999867
 21
-81.35171801302748
 31
0.0
  0
ENDBLK
  5
D8
330
D1
100
AcDbEntity
  8
0
100
AcDbBlockEnd
  0
ENDSEC
  0
SECTION
  2
ENTITIES
  0
ARC
  5
27
330
A
100
AcDbEntity
  8
0
  6
Continuous
 62
     7
100
AcDbCircle
 10
218.85
 20
148.6000010464205
 30
0.0
 40
1.0
100
AcDbArc
 50
275.7045978193172
 51
0.0
  0
ARC
  5
28
330
A
100
AcDbEntity
  8
0
  6
Continuous
 62
     7
100
AcDbCircle
 10
-79.15000000000005
 20
148.6000010464205
 30
0.0
 40
1.0
100
AcDbArc
 50
180.0000000000004
 51
264.2954021806836
  0
LINE
  5
29
330
A
100
AcDbEntity
  8
0
  6
Continuous
 62
     7
100
AcDbLine
 10
-80.15000000000005
 20
148.6000010464205
 30
0.0
 11
-80.15000000000002
 21
183.6167709888775
 31
0.0
  0
LWPOLYLINE
  5
2A
330
A
100
AcDbEntity
  8
0
  6
Continuous
 62
     7
100
AcDbPolyline
 90
        6
 70
   128
 43
0.0
 10
-80.15000000000002
 20
183.6167709888775
 10
-80.09394806254782
 20
183.6119496978851
 10
-79.93224853255426
 20
183.5980513319893
 10
-79.68285988305268
 20
183.5766455446552
 10
-79.37297726844133
 20
183.5500974398944
 10
-79.15000000000005
 20
183.5310289665864
  0
ARC
  5
32
330
A
100
AcDbEntity
  8
0
  6
Continuous
 62
     7
100
AcDbCircle
 10
69.84999999999996
 20
1927.176348405146
 30
0.0
 40
1750.0
100
AcDbArc
 50
265.1157602388502
 51
274.8842397611515
  0
LINE
  5
33
330
A
100
AcDbEntity
  8
0
  6
Continuous
 62
     7
100
AcDbLine
 10
219.85
 20
183.6167709888775
 30
0.0
 11
219.85
 21
148.6000010464205
 31
0.0
  0
LWPOLYLINE
  5
34
330
A
100
AcDbEntity
  8
0
  6
Continuous
 62
     7
100
AcDbPolyline
 90
        6
 70
   128
 43
0.0
 10
218.85
 20
183.5310289665867
 10
219.1819203756662
 20
183.5594244344844
 10
219.4764191790812
 20
183.5846718123599
 10
219.6996941009867
 20
183.6038465636433
 10
219.826384781611
 20
183.61473951149
 10
219.85
 20
183.6167709888776
  0
ARC
  5
3C
330
A
100
AcDbEntity
  8
0
  6
Continuous
 62
     7
100
AcDbCircle
 10
69.84999999999996
 20
1640.176348405146
 30
0.0
 40
1500.0
100
AcDbArc
 50
264.2954021806839
 51
275.7045978193177
  0
LINE
  5
3D
330
A
100
AcDbEntity
  8
0
  6
PHANTOM
 62
     7
100
AcDbLine
 10
219.85
 20
148.6000010464205
 30
0.0
 11
218.85
 21
148.6000010464205
 31
0.0
  0
LINE
  5
3E
330
A
100
AcDbEntity
  8
0
  6
PHANTOM
 62
     7
100
AcDbLine
 10
218.9493995997331
 20
147.6049534497836
 30
0.0
 11
218.85
 21
148.6000010464205
 31
0.0
  0
LINE
  5
3F
330
A
100
AcDbEntity
  8
0
  6
PHANTOM
 62
     7
100
AcDbLine
 10
-79.15000000000005
 20
148.6000010464205
 30
0.0
 11
-80.15000000000005
 21
148.6000010464205
 31
0.0
  0
LINE
  5
40
330
A
100
AcDbEntity
  8
0
  6
PHANTOM
 62
     7
100
AcDbLine
 10
-79.15000000000005
 20
148.6000010464205
 30
0.0
 11
-79.24939959973321
 21
147.6049534497836
 31
0.0
  0
LINE
  5
41
330
A
100
AcDbEntity
  8
0
  6
PHANTOM
 62
     7
100
AcDbLine
 10
-79.15000000000005
 20
183.5310289665862
 30
0.0
 11
-79.15000000000005
 21
148.6000010464205
 31
0.0
  0
LINE
  5
42
330
A
100
AcDbEntity
  8
0
  6
PHANTOM
 62
     7
100
AcDbLine
 10
218.85
 20
148.6000010464205
 30
0.0
 11
218.85
 21
183.5310289665862
 31
0.0
  0
ARC
  5
43
330
A
100
AcDbEntity
  8
0
  6
PHANTOM
 62
     7
100
AcDbCircle
 10
69.84999999999996
 20
1640.176348405146
 30
0.0
 40
1499.0
100
AcDbArc
 50
264.2954021806839
 51
275.7045978193177
  0
INSERT
  5
4C
330
A
100
AcDbEntity
  8
0
100
AcDbBlockReference
  2
SW_CENTERMARK0
 10
0.0
 20
0.0
 30
0.0
  0
INSERT
  5
55
330
A
100
AcDbEntity
  8
0
100
AcDbBlockReference
  2
SW_CENTERMARK1
 10
0.0
 20
0.0
 30
0.0
  0
INSERT
  5
5E
330
A
100
AcDbEntity
  8
0
100
AcDbBlockReference
  2
SW_CENTERMARK2
 10
0.0
 20
0.0
 30
0.0
  0
INSERT
  5
67
330
A
100
AcDbEntity
  8
0
100
AcDbBlockReference
  2
SW_CENTERMARK3
 10
0.0
 20
0.0
 30
0.0
  0
LINE
  5
68
330
A
100
AcDbEntity
  8
0
  6
Continuous
 62
     7
100
AcDbLine
 10
19.84999999999996
 20
-2.351718013021301
 30
0.0
 11
119.8499999999999
 21
-2.351718013021301
 31
0.0
  0
LINE
  5
69
330
A
100
AcDbEntity
  8
0
  6
Continuous
 62
     7
100
AcDbLine
 10
119.8499999999999
 20
15.64828198697868
 30
0.0
 11
19.84999999999996
 21
15.64828198697868
 31
0.0
  0
LINE
  5
6A
330
A
100
AcDbEntity
  8
0
  6
Continuous
 62
     7
100
AcDbLine
 10
219.85
 20
63.14828198697861
 30
0.0
 11
219.85
 21
-81.35171801302139
 31
0.0
  0
LINE
  5
6B
330
A
100
AcDbEntity
  8
0
  6
Continuous
 62
     7
100
AcDbLine
 10
218.85
 20
-82.35171801302138
 30
0.0
 11
-79.15000000000005
 21
-82.35171801302138
 31
0.0
  0
LINE
  5
6C
330
A
100
AcDbEntity
  8
0
  6
Continuous
 62
     7
100
AcDbLine
 10
-80.15000000000002
 20
63.14828198697861
 30
0.0
 11
-80.15000000000002
 21
-81.35171801302139
 31
0.0
  0
LINE
  5
6D
330
A
100
AcDbEntity
  8
0
  6
Continuous
 62
     7
100
AcDbLine
 10
-79.15000000000005
 20
64.14828198697861
 30
0.0
 11
218.85
 21
64.14828198697861
 31
0.0
  0
LINE
  5
6E
330
A
100
AcDbEntity
  8
0
  6
Continuous
 62
     7
100
AcDbLine
 10
214.85
 20
59.14828198697861
 30
0.0
 11
-75.15000000000002
 21
59.14828198697861
 31
0.0
  0
LINE
  5
6F
330
A
100
AcDbEntity
  8
0
  6
Continuous
 62
     7
100
AcDbLine
 10
-75.15000000000002
 20
59.14828198697861
 30
0.0
 11
-75.15000000000002
 21
-77.35171801302136
 31
0.0
  0
LINE
  5
70
330
A
100
AcDbEntity
  8
0
  6
Continuous
 62
     7
100
AcDbLine
 10
-75.15000000000002
 20
-77.35171801302136
 30
0.0
 11
214.85
 21
-77.35171801302136
 31
0.0
  0
LINE
  5
71
330
A
100
AcDbEntity
  8
0
  6
Continuous
 62
     7
100
AcDbLine
 10
214.85
 20
-77.35171801302136
 30
0.0
 11
214.85
 21
59.14828198697861
 31
0.0
  0
LWPOLYLINE
  5
72
330
A
100
AcDbEntity
  8
0
  6
Continuous
 62
     7
100
AcDbPolyline
 90
        6
 70
   128
 43
0.0
 10
-80.15000000000002
 20
-81.35171801302139
 10
-80.09394806254782
 20
-81.68181202267959
 10
-79.93224853255426
 20
-81.97468449150699
 10
-79.68285988305268
 20
-82.19792150216163
 10
-79.37297726844133
 20
-82.32654165746096
 10
-79.15000000000005
 20
-82.35171801302138
  0
LWPOLYLINE
  5
7A
330
A
100
AcDbEntity
  8
0
  6
Continuous
 62
     7
100
AcDbPolyline
 90
        6
 70
   128
 43
0.0
 10
219.85
 20
63.14828198697861
 10
219.7939480625478
 20
63.4783759966368
 10
219.6322485325542
 20
63.77124846546418
 10
219.3828598830527
 20
63.99448547611882
 10
219.0729772684413
 20
64.12310563141815
 10
218.85
 20
64.14828198697861
  0
LWPOLYLINE
  5
82
330
A
100
AcDbEntity
  8
0
  6
Continuous
 62
     7
100
AcDbPolyline
 90
        6
 70
   128
 43
0.0
 10
218.85
 20
-82.35171801302138
 10
219.1819203756662
 20
-82.29502542008317
 10
219.4764191790812
 20
-82.13120439011801
 10
219.6996941009867
 20
-81.87899396994366
 10
219.826384781611
 20
-81.56775680175726
 10
219.85
 20
-81.35171801302139
  0
LWPOLYLINE
  5
8A
330
A
100
AcDbEntity
  8
0
  6
Continuous
 62
     7
100
AcDbPolyline
 90
        6
 70
   128
 43
0.0
 10
-79.15000000000002
 20
64.14828198697861
 10
-79.48192037566624
 20
64.09158939404036
 10
-79.77641917908123
 20
63.92776836407521
 10
-79.99969410098678
 20
63.67555794390087
 10
-80.12638478161099
 20
63.36432077571449
 10
-80.15000000000002
 20
63.14828198697861
  0
ARC
  5
92
330
A
100
AcDbEntity
  8
0
  6
Continuous
 62
     7
100
AcDbCircle
 10
-30.15000000000002
 20
74.14828198697865
 30
0.0
 40
9.999999999999992
100
AcDbArc
 50
270.0000000000008
 51
0.0
  0
ARC
  5
93
330
A
100
AcDbEntity
  8
0
  6
Continuous
 62
     7
100
AcDbCircle
 10
169.8499999999999
 20
74.14828198697865
 30
0.0
 40
10.0
100
AcDbArc
 50
180.0000000000004
 51
270.0000000000008
  0
LINE
  5
94
330
A
100
AcDbEntity
  8
0
  6
Continuous
 62
     7
100
AcDbLine
 10
-17.65000000000003
 20
94.14828198697863
 30
0.0
 11
157.3499999999999
 21
94.14828198697863
 31
0.0
  0
LINE
  5
95
330
A
100
AcDbEntity
  8
0
  6
Continuous
 62
     7
100
AcDbLine
 10
-20.15000000000003
 20
74.14828198697865
 30
0.0
 11
-20.15000000000003
 21
94.14828198697867
 31
0.0
  0
LINE
  5
96
330
A
100
AcDbEntity
  8
0
  6
Continuous
 62
     7
100
AcDbLine
 10
-20.15000000000003
 20
94.14828198697867
 30
0.0
 11
-17.65000000000003
 21
94.14828198697863
 31
0.0
  0
LINE
  5
97
330
A
100
AcDbEntity
  8
0
  6
Continuous
 62
     7
100
AcDbLine
 10
159.8499999999999
 20
94.14828198697867
 30
0.0
 11
159.8499999999999
 21
74.14828198697865
 31
0.0
  0
LINE
  5
98
330
A
100
AcDbEntity
  8
0
  6
Continuous
 62
     7
100
AcDbLine
 10
157.3499999999999
 20
94.14828198697863
 30
0.0
 11
159.8499999999999
 21
94.14828198697867
 31
0.0
  0
LINE
  5
99
330
A
100
AcDbEntity
  8
0
  6
Continuous
 62
     7
100
AcDbLine
 10
144.8499999999999
 20
22.64828198697865
 30
0.0
 11
144.8499999999999
 21
-77.35171801302135
 31
0.0
  0
LINE
  5
9A
330
A
100
AcDbEntity
  8
0
  6
Continuous
 62
     7
100
AcDbLine
 10
-5.150000000000029
 20
22.64828198697865
 30
0.0
 11
144.8499999999999
 21
22.64828198697865
 31
0.0
  0
LINE
  5
9B
330
A
100
AcDbEntity
  8
0
  6
Continuous
 62
     7
100
AcDbLine
 10
-5.150000000000029
 20
22.64828198697865
 30
0.0
 11
-5.150000000000029
 21
-77.35171801302135
 31
0.0
  0
LINE
  5
9C
330
A
100
AcDbEntity
  8
0
  6
Continuous
 62
     7
100
AcDbLine
 10
119.8499999999999
 20
15.64828198697868
 30
0.0
 11
119.8499999999999
 21
-2.351718013021301
 31
0.0
  0
LINE
  5
9D
330
A
100
AcDbEntity
  8
0
  6
Continuous
 62
     7
100
AcDbLine
 10
19.84999999999996
 20
15.64828198697868
 30
0.0
 11
19.84999999999996
 21
-2.351718013021301
 31
0.0
  0
ARC
  5
9E
330
A
100
AcDbEntity
  8
0
  6
PHANTOM
 62
     7
100
AcDbCircle
 10
-30.15000000000002
 20
74.14828198697865
 30
0.0
 40
12.5
100
AcDbArc
 50
306.8698976458449
 51
0.0
  0
LINE
  5
9F
330
A
100
AcDbEntity
  8
0
  6
PHANTOM
 62
     7
100
AcDbLine
 10
-17.65000000000003
 20
74.14828198697865
 30
0.0
 11
-20.15000000000003
 21
74.14828198697865
 31
0.0
  0
ARC
  5
A0
330
A
100
AcDbEntity
  8
0
  6
PHANTOM
 62
     7
100
AcDbCircle
 10
169.8499999999999
 20
74.14828198697865
 30
0.0
 40
12.5
100
AcDbArc
 50
180.0000000000004
 51
233.1301023541568
  0
LINE
  5
A1
330
A
100
AcDbEntity
  8
0
  6
PHANTOM
 62
     7
100
AcDbLine
 10
159.8499999999999
 20
74.14828198697865
 30
0.0
 11
157.3499999999999
 21
74.14828198697865
 31
0.0
  0
LINE
  5
A2
330
A
100
AcDbEntity
  8
0
  6
PHANTOM
 62
     7
100
AcDbLine
 10
157.3499999999999
 20
74.14828198697865
 30
0.0
 11
157.3499999999999
 21
94.14828198697863
 31
0.0
  0
LINE
  5
A3
330
A
100
AcDbEntity
  8
0
  6
PHANTOM
 62
     7
100
AcDbLine
 10
-17.65000000000003
 20
94.14828198697863
 30
0.0
 11
-17.65000000000003
 21
74.14828198697865
 31
0.0
  0
INSERT
  5
AC
330
A
100
AcDbEntity
  8
0
100
AcDbBlockReference
  2
SW_CENTERMARK4
 10
0.0
 20
0.0
 30
0.0
  0
INSERT
  5
B5
330
A
100
AcDbEntity
  8
0
100
AcDbBlockReference
  2
SW_CENTERMARK5
 10
0.0
 20
0.0
 30
0.0
  0
INSERT
  5
BE
330
A
100
AcDbEntity
  8
0
100
AcDbBlockReference
  2
SW_CENTERMARK6
 10
0.0
 20
0.0
 30
0.0
  0
INSERT
  5
C7
330
A
100
AcDbEntity
  8
0
100
AcDbBlockReference
  2
SW_CENTERMARK7
 10
0.0
 20
0.0
 30
0.0
  0
INSERT
  5
D0
330
A
100
AcDbEntity
  8
0
100
AcDbBlockReference
  2
SW_CENTERMARK8
 10
0.0
 20
0.0
 30
0.0
  0
INSERT
  5
D9
330
A
100
AcDbEntity
  8
0
100
AcDbBlockReference
  2
SW_CENTERMARK9
 10
0.0
 20
0.0
 30
0.0
  0
LINE
  5
DA
330
A
100
AcDbEntity
  8
0
  6
Continuous
 62
     7
100
AcDbLine
 10
291.4963186882019
 20
140.1763484051468
 30
0.0
 11
465.9963186882017
 21
140.1763484051469
 31
0.0
  0
ARC
  5
DB
330
A
100
AcDbEntity
  8
0
  6
Continuous
 62
     7
100
AcDbCircle
 10
465.9963186882017
 20
141.1763484051468
 30
0.0
 40
1.0
100
AcDbArc
 50
270.0000000000008
 51
0.0
  0
ARC
  5
DC
330
A
100
AcDbEntity
  8
0
  6
Continuous
 62
     7
100
AcDbCircle
 10
291.4963186882019
 20
141.1763484051468
 30
0.0
 40
1.0
100
AcDbArc
 50
180.0000000000004
 51
270.0000000000008
  0
LINE
  5
DD
330
A
100
AcDbEntity
  8
0
  6
Continuous
 62
     7
100
AcDbLine
 10
321.4963186882024
 20
183.6167709888775
 30
0.0
 11
465.9963186882023
 21
183.6167709888775
 31
0.0
  0
LINE
  5
DE
330
A
100
AcDbEntity
  8
0
  6
Continuous
 62
     7
100
AcDbLine
 10
320.4963186882023
 20
148.6000010464205
 30
0.0
 11
320.4963186882023
 21
183.5310289665862
 31
0.0
  0
LWPOLYLINE
  5
DF
330
A
100
AcDbEntity
  8
0
  6
Continuous
 62
     7
100
AcDbPolyline
 90
        6
 70
   128
 43
0.0
 10
320.4963186882023
 20
183.5310289665867
 10
320.5530112811405
 20
183.5594244344844
 10
320.7168323111057
 20
183.5846718123599
 10
320.9690427312801
 20
183.6038465636433
 10
321.2802798994665
 20
183.61473951149
 10
321.4963186882024
 20
183.6167709888776
  0
LWPOLYLINE
  5
E7
330
A
100
AcDbEntity
  8
0
  6
Continuous
 62
     7
100
AcDbPolyline
 90
        6
 70
   128
 43
0.0
 10
465.9963186882023
 20
183.6167709888775
 10
466.3264126978606
 20
183.6119496978851
 10
466.6192851666878
 20
183.5980513319893
 10
466.8425221773425
 20
183.5766455446552
 10
466.9711423326419
 20
183.5500974398944
 10
466.9963186882023
 20
183.5310289665864
  0
LINE
  5
EF
330
A
100
AcDbEntity
  8
0
  6
Continuous
 62
     7
100
AcDbLine
 10
466.9963186882023
 20
183.5310289665862
 30
0.0
 11
466.9963186882023
 21
148.6000010464205
 31
0.0
  0
LINE
  5
F0
330
A
100
AcDbEntity
  8
0
  6
Continuous
 62
     7
100
AcDbLine
 10
310.4963186882021
 20
142.8225398161624
 30
0.0
 11
291.4963186882022
 21
142.8225398161623
 31
0.0
  0
LWPOLYLINE
  5
F1
330
A
100
AcDbEntity
  8
0
  6
Continuous
 62
     7
100
AcDbPolyline
 90
        6
 70
   128
 43
0.0
 10
321.2530965022279
 20
143.3744450115194
 10
321.2233652326608
 20
143.35691500243
 10
319.8139625394238
 20
143.1381772244277
 10
317.3585191688811
 20
142.9674918280447
 10
314.1324024606668
 20
142.8594700908546
 10
310.4963186882021
 20
142.8225398161624
  0
LINE
  5
F9
330
A
100
AcDbEntity
  8
0
  6
Continuous
 62
     7
100
AcDbLine
 10
320.4963186882022
 20
144.5156248451544
 30
0.0
 11
320.4963186882023
 21
148.6000010464205
 31
0.0
  0
LINE
  5
FA
330
A
100
AcDbEntity
  8
0
  6
Continuous
 62
     7
100
AcDbLine
 10
466.9963186882023
 20
148.6000010464205
 30
0.0
 11
466.9963186882017
 21
141.1763484051468
 31
0.0
  0
LINE
  5
FB
330
A
100
AcDbEntity
  8
0
  6
Continuous
 62
     7
100
AcDbLine
 10
310.4963186882021
 20
170.1763484051469
 30
0.0
 11
320.4963186882022
 21
170.1763484051469
 31
0.0
  0
LWPOLYLINE
  5
FC
330
A
100
AcDbEntity
  8
0
  6
Continuous
 62
     7
100
AcDbPolyline
 90
        7
 70
   128
 43
0.0
 10
290.49810263979
 20
143.8207756885549
 10
290.5508706274807
 20
143.5520152552687
 10
290.6619131411981
 20
143.3203790443656
 10
290.8898172248076
 20
143.0632377333905
 10
291.2636904456622
 20
142.8637600033975
 10
291.4918458068068
 20
142.8228154651479
 10
291.4963186882022
 20
142.8225398161622
  0
LINE
  5
105
330
A
100
AcDbEntity
  8
0
  6
Continuous
 62
     7
100
AcDbLine
 10
290.4963186882021
 20
143.8805888709568
 30
0.0
 11
290.49810263979
 21
143.8207756885549
 31
0.0
  0
LINE
  5
106
330
A
100
AcDbEntity
  8
0
  6
Continuous
 62
     7
100
AcDbLine
 10
290.4963186882021
 20
143.8805888709568
 30
0.0
 11
290.4963186882021
 21
167.6763484051469
 31
0.0
  0
LINE
  5
107
330
A
100
AcDbEntity
  8
0
  6
Continuous
 62
     7
100
AcDbLine
 10
290.4963186882018
 20
141.1763484051477
 30
0.0
 11
290.4963186882021
 21
143.8805888709568
 31
0.0
  0
LINE
  5
108
330
A
100
AcDbEntity
  8
0
  6
Continuous
 62
     7
100
AcDbLine
 10
290.4963186882021
 20
167.6763484051469
 30
0.0
 11
290.4963186882021
 21
170.1763484051469
 31
0.0
  0
LINE
  5
109
330
A
100
AcDbEntity
  8
0
  6
Continuous
 62
     7
100
AcDbLine
 10
290.4963186882021
 20
170.1763484051469
 30
0.0
 11
310.4963186882021
 21
170.1763484051469
 31
0.0
  0
LINE
  5
10A
330
A
100
AcDbEntity
  8
0
  6
PHANTOM
 62
     7
100
AcDbLine
 10
465.9963186882023
 20
148.6000010464205
 30
0.0
 11
465.9963186882023
 21
183.6167709888775
 31
0.0
  0
LINE
  5
10B
330
A
100
AcDbEntity
  8
0
  6
PHANTOM
 62
     7
100
AcDbLine
 10
321.4963186882024
 20
148.6000010464205
 30
0.0
 11
465.9963186882023
 21
148.6000010464205
 31
0.0
  0
LINE
  5
10C
330
A
100
AcDbEntity
  8
0
  6
PHANTOM
 62
     7
100
AcDbLine
 10
321.4963186882024
 20
183.6167709888775
 30
0.0
 11
321.4963186882024
 21
148.6000010464205
 31
0.0
  0
LINE
  5
10D
330
A
100
AcDbEntity
  8
0
  6
PHANTOM
 62
     7
100
AcDbLine
 10
465.9963186882023
 20
147.6049534497836
 30
0.0
 11
465.9963186882023
 21
148.6000010464205
 31
0.0
  0
LINE
  5
10E
330
A
100
AcDbEntity
  8
0
  6
PHANTOM
 62
     7
100
AcDbLine
 10
465.9963186882023
 20
147.6049534497836
 30
0.0
 11
321.4963186882024
 21
147.6049534497836
 31
0.0
  0
LINE
  5
10F
330
A
100
AcDbEntity
  8
0
  6
PHANTOM
 62
     7
100
AcDbLine
 10
321.4963186882024
 20
148.6000010464205
 30
0.0
 11
321.4963186882024
 21
147.6049534497836
 31
0.0
  0
LINE
  5
110
330
A
100
AcDbEntity
  8
0
  6
PHANTOM
 62
     7
100
AcDbLine
 10
321.4963186882024
 20
148.6000010464205
 30
0.0
 11
320.4963186882023
 21
148.6000010464205
 31
0.0
  0
LWPOLYLINE
  5
111
330
A
100
AcDbEntity
  8
0
  6
PHANTOM
 62
     7
100
AcDbPolyline
 90
        9
 70
   128
 43
0.0
 10
321.4963186882024
 20
147.6049534497836
 10
321.3012283661862
 20
147.6240730103384
 10
321.1136352558373
 20
147.6806969380131
 10
320.9407484551827
 20
147.7726492070222
 10
320.7892119070158
 20
147.8963961432351
 10
320.6648490758998
 20
148.0471822212913
 10
320.5724391556911
 20
148.2192128167728
 10
320.5155334077991
 20
148.4058768903712
 10
320.4963186882023
 20
148.6000010464205
  0
LINE
  5
11C
330
A
100
AcDbEntity
  8
0
  6
PHANTOM
 62
     7
100
AcDbLine
 10
466.9963186882023
 20
148.6000010464205
 30
0.0
 11
465.9963186882023
 21
148.6000010464205
 31
0.0
  0
LWPOLYLINE
  5
11D
330
A
100
AcDbEntity
  8
0
  6
PHANTOM
 62
     7
100
AcDbPolyline
 90
        9
 70
   128
 43
0.0
 10
466.9963186882023
 20
148.6000010464205
 10
466.9771039686056
 20
148.4058768903712
 10
466.9201982207136
 20
148.2192128167728
 10
466.8277883005049
 20
148.0471822212913
 10
466.7034254693889
 20
147.8963961432351
 10
466.5518889212219
 20
147.7726492070222
 10
466.3790021205674
 20
147.6806969380131
 10
466.1914090102184
 20
147.6240730103383
 10
465.9963186882023
 20
147.6049534497836
  0
LINE
  5
128
330
A
100
AcDbEntity
  8
0
  6
PHANTOM
 62
     7
100
AcDbLine
 10
465.9963186882017
 20
140.1763484051469
 30
0.0
 11
465.9963186882023
 21
147.6049534497836
 31
0.0
  0
LINE
  5
129
330
A
100
AcDbEntity
  8
0
  6
PHANTOM
 62
     7
100
AcDbLine
 10
291.4963186882022
 20
142.8225398161623
 30
0.0
 11
291.4963186882019
 21
140.1763484051475
 31
0.0
  0
LINE
  5
12A
330
A
100
AcDbEntity
  8
0
  6
PHANTOM
 62
     7
100
AcDbLine
 10
321.4963186882022
 20
143.5178525145607
 30
0.0
 11
321.2530965022279
 21
143.3744450115194
 31
0.0
  0
LINE
  5
12B
330
A
100
AcDbEntity
  8
0
  6
PHANTOM
 62
     7
100
AcDbLine
 10
321.4963186882024
 20
147.6049534497836
 30
0.0
 11
321.4963186882022
 21
143.5178525145607
 31
0.0
  0
LWPOLYLINE
  5
12C
330
A
100
AcDbEntity
  8
0
  6
PHANTOM
 62
     7
100
AcDbPolyline
 90
        9
 70
   128
 43
0.0
 10
321.4963186882022
 20
143.5178525145607
 10
321.301228366186
 20
143.5370244301145
 10
321.1136352558371
 20
143.5938034108128
 10
320.9407484551825
 20
143.6860074722694
 10
320.7892119070156
 20
143.8100932641113
 10
320.6648490758997
 20
143.9612922389459
 10
320.5724391556909
 20
144.1337939049639
 10
320.5155334077989
 20
144.3209691198801
 10
320.4963186882022
 20
144.5156248451544
  0
LINE
  5
137
330
A
100
AcDbEntity
  8
0
  6
PHANTOM
 62
     7
100
AcDbLine
 10
310.4963186882021
 20
143.8207756885549
 30
0.0
 11
310.4963186882021
 21
142.8225398161624
 31
0.0
  0
LWPOLYLINE
  5
138
330
A
100
AcDbEntity
  8
0
  6
PHANTOM
 62
     7
100
AcDbPolyline
 90
        6
 70
   128
 43
0.0
 10
310.4963186882021
 20
143.8207756885549
 10
313.8018493904427
 20
143.8576813430641
 10
316.7346827615467
 20
143.9656310657625
 10
318.9669040074945
 20
144.1362026718813
 10
320.2481791831646
 20
144.3547946246984
 10
320.4963186882022
 20
144.5156248451547
  0
LINE
  5
140
330
A
100
AcDbEntity
  8
0
  6
PHANTOM
 62
     7
100
AcDbLine
 10
310.4963186882021
 20
143.8207756885549
 30
0.0
 11
310.4963186882021
 21
167.6763484051469
 31
0.0
  0
LINE
  5
141
330
A
100
AcDbEntity
  8
0
  6
PHANTOM
 62
     7
100
AcDbLine
 10
320.4963186882022
 20
167.6763484051469
 30
0.0
 11
310.4963186882021
 21
167.6763484051469
 31
0.0
  0
LINE
  5
142
330
A
100
AcDbEntity
  8
0
  6
PHANTOM
 62
     7
100
AcDbLine
 10
310.4963186882021
 20
170.1763484051469
 30
0.0
 11
310.4963186882021
 21
167.6763484051469
 31
0.0
  0
LINE
  5
143
330
A
100
AcDbEntity
  8
0
  6
PHANTOM
 62
     7
100
AcDbLine
 10
290.49810263979
 20
143.8207756885549
 30
0.0
 11
310.4963186882021
 21
143.8207756885549
 31
0.0
  0
LINE
  5
144
330
A
100
AcDbEntity
  8
0
  6
PHANTOM
 62
     7
100
AcDbLine
 10
310.4963186882021
 20
167.6763484051469
 30
0.0
 11
290.4963186882021
 21
167.6763484051469
 31
0.0
  0
ENDSEC
  0
SECTION
  2
OBJECTS
  0
DICTIONARY
  5
19
330
0
100
AcDbDictionary
281
     1
  3
ACAD_COLOR
350
149
  3
ACAD_GROUP
350
1A
  3
ACAD_LAYOUT
350
14C
  3
ACAD_MATERIAL
350
148
  3
ACAD_MLINESTYLE
350
1B
  3
ACAD_PLOTSETTINGS
350
14D
  3
ACAD_PLOTSTYLENAME
350
146
  3
ACAD_TABLESTYLE
350
14A
  3
ACDBHEADERROUNDTRIPXREC
350
165
  3
AcDbVariableDictionary
350
160
  3
ASE_INDEX_DICTIONARY
350
153
  0
DICTIONARY
  5
149
102
{ACAD_REACTORS
330
19
102
}
330
19
100
AcDbDictionary
281
     1
  0
DICTIONARY
  5
1A
102
{ACAD_REACTORS
330
19
102
}
330
19
100
AcDbDictionary
281
     1
  0
DICTIONARY
  5
14C
102
{ACAD_REACTORS
330
19
102
}
330
19
100
AcDbDictionary
281
     1
  3
Layout1
350
14F
  3
Model
350
14E
  0
DICTIONARY
  5
148
102
{ACAD_REACTORS
330
19
102
}
330
19
100
AcDbDictionary
281
     1
  0
DICTIONARY
  5
1B
102
{ACAD_REACTORS
330
19
102
}
330
19
100
AcDbDictionary
281
     1
  3
STANDARD
350
1C
  0
DICTIONARY
  5
14D
102
{ACAD_REACTORS
330
19
102
}
330
19
100
AcDbDictionary
281
     1
  0
ACDBDICTIONARYWDFLT
  5
146
102
{ACAD_REACTORS
330
19
102
}
330
19
100
AcDbDictionary
281
     1
  3
Normal
350
147
100
AcDbDictionaryWithDefault
340
147
  0
DICTIONARY
  5
14A
102
{ACAD_REACTORS
330
19
102
}
330
19
100
AcDbDictionary
281
     1
  3
Standard
350
14B
  0
DICTIONARY
  5
165
102
{ACAD_REACTORS
330
19
102
}
330
19
100
AcDbDictionary
281
     1
  0
DICTIONARY
  5
160
102
{ACAD_REACTORS
330
19
102
}
330
19
100
AcDbDictionary
281
     1
  3
CTABLESTYLE
350
161
  3
DIMASSOC
350
162
  3
PROJECTNAME
350
163
  0
DICTIONARY
  5
153
102
{ACAD_REACTORS
330
19
102
}
330
19
100
AcDbDictionary
281
     1
  3
ASEBlockHierarchyIndexRecord
350
155
1001
DCO15
1040
1565082195.312
  0
LAYOUT
  5
14F
102
{ACAD_XDICTIONARY
360
168
102
}
102
{ACAD_REACTORS
330
14C
102
}
330
14C
100
AcDbPlotSettings
  1

  2
Epson Stylus Photo 1200 ESC/P 2 (Kopie 2)
  4

  6

 40
0.0
 41
0.0
 42
0.0
 43
0.0
 44
0.0
 45
0.0
 46
0.0
 47
0.0
 48
0.0
 49
0.0
140
0.0
141
0.0
142
1.0
143
1.0
 70
   688
 72
     0
 73
     0
 74
     5
  7

 75
    16
147
1.0
148
0.0
149
0.0
100
AcDbLayout
  1
Layout1
 70
     1
 71
     1
 10
0.0
 20
0.0
 11
12.0
 21
9.0
 12
0.0
 22
0.0
 32
0.0
 14
1.000000000000000E+20
 24
1.000000000000000E+20
 34
1.000000000000000E+20
 15
-1.000000000000000E+20
 25
-1.000000000000000E+20
 35
-1.000000000000000E+20
146
0.0
 13
0.0
 23
0.0
 33
0.0
 16
1.0
 26
0.0
 36
0.0
 17
0.0
 27
1.0
 37
0.0
 76
     0
330
B
  0
LAYOUT
  5
14E
102
{ACAD_XDICTIONARY
360
166
102
}
102
{ACAD_REACTORS
330
14C
102
}
330
14C
100
AcDbPlotSettings
  1

  2
Epson Stylus Photo 1200 ESC/P 2 (Kopie 2)
  4

  6

 40
0.0
 41
0.0
 42
0.0
 43
0.0
 44
0.0
 45
0.0
 46
0.0
 47
0.0
 48
0.0
 49
0.0
140
0.0
141
0.0
142
1.0
143
1.0
 70
  1712
 72
     0
 73
     0
 74
     0
  7

 75
     0
147
1.0
148
0.0
149
0.0
100
AcDbLayout
  1
Model
 70
     1
 71
     0
 10
0.0
 20
0.0
 11
12.0
 21
9.0
 12
0.0
 22
0.0
 32
0.0
 14
0.0
 24
0.0
 34
0.0
 15
0.0
 25
0.0
 35
0.0
146
0.0
 13
0.0
 23
0.0
 33
0.0
 16
1.0
 26
0.0
 36
0.0
 17
0.0
 27
1.0
 37
0.0
 76
     0
330
A
  0
MLINESTYLE
  5
1C
102
{ACAD_REACTORS
330
1B
102
}
330
1B
100
AcDbMlineStyle
  2
STANDARD
 70
     0
  3

 62
     0
 51
90.0
 52
90.0
 71
     2
 49
0.5
 62
   256
  6
BYLAYER
 49
-0.5
 62
   256
  6
BYLAYER
  0
ACDBPLACEHOLDER
  5
147
102
{ACAD_REACTORS
330
146
102
}
330
146
  0
TABLESTYLE
  5
14B
102
{ACAD_REACTORS
330
14A
102
}
330
14A
100
AcDbTableStyle
  3
Standard
 70
     0
 71
     0
 40
0.06
 41
0.06
280
     0
281
     0
  7
STANDARD
140
0.18
170
     2
 62
     0
 63
     7
283
     0
274
    -2
284
     1
 64
     0
275
    -2
285
     1
 65
     0
276
    -2
286
     1
 66
     0
277
    -2
287
     1
 67
     0
278
    -2
288
     1
 68
     0
279
    -2
289
     1
 69
     0
  7
STANDARD
140
0.25
170
     5
 62
     0
 63
     7
283
     0
274
    -2
284
     1
 64
     0
275
    -2
285
     1
 65
     0
276
    -2
286
     1
 66
     0
277
    -2
287
     1
 67
     0
278
    -2
288
     1
 68
     0
279
    -2
289
     1
 69
     0
  7
STANDARD
140
0.18
170
     5
 62
     0
 63
     7
283
     0
274
    -2
284
     1
 64
     0
275
    -2
285
     1
 65
     0
276
    -2
286
     1
 66
     0
277
    -2
287
     1
 67
     0
278
    -2
288
     1
 68
     0
279
    -2
289
     1
 69
     0
  0
DICTIONARYVAR
  5
161
102
{ACAD_REACTORS
330
160
102
}
330
160
100
DictionaryVariables
280
     0
  1
STANDARD
  0
DICTIONARYVAR
  5
162
102
{ACAD_REACTORS
330
160
102
}
330
160
100
DictionaryVariables
280
     0
  1
1
  0
DICTIONARYVAR
  5
163
102
{ACAD_REACTORS
330
160
102
}
330
160
100
DictionaryVariables
280
     0
  1

  0
XRECORD
  5
155
102
{ACAD_REACTORS
330
153
102
}
330
153
100
AcDbXrecord
280
     1
330
4C
330
55
330
5E
330
67
330
AC
330
B5
330
BE
330
C7
330
D0
330
D9
  0
DICTIONARY
  5
168
330
14F
100
AcDbDictionary
280
     1
281
     1
  3
ACAD_XREC_ROUNDTRIP
360
169
  0
DICTIONARY
  5
166
330
14E
100
AcDbDictionary
280
     1
281
     1
  3
ACAD_XREC_ROUNDTRIP
360
167
  0
XRECORD
  5
169
102
{ACAD_REACTORS
330
168
102
}
330
168
100
AcDbXrecord
280
     1
102
SHADEPLOT
 70
     0
102
SHADEPLOTRESLEVEL
 70
     2
102
SHADEPLOTCUSTOMDPI
 70
   300
  0
XRECORD
  5
167
102
{ACAD_REACTORS
330
166
102
}
330
166
100
AcDbXrecord
280
     1
102
SHADEPLOT
 70
     0
102
SHADEPLOTRESLEVEL
 70
     2
102
SHADEPLOTCUSTOMDPI
 70
   300
  0
ENDSEC
  0
EOF
