  0
SECTION
  2
HEADER
  9
$ACADVER
  1
AC1018
  9
$ACADMAINTVER
 70
     0
  9
$DWGCODEPAGE
  3
ANSI_1252
  9
$INSBASE
 10
0.0
 20
0.0
 30
0.0
  9
$EXTMIN
 10
1476.0
 20
0.0000000003836362
 30
0.0
  9
$EXTMAX
 10
3326.950030046176
 20
1921.104939354655
 30
0.0
  9
$LIMMIN
 10
0.0
 20
0.0
  9
$LIMMAX
 10
12.0
 20
9.0
  9
$ORTHOMODE
 70
     0
  9
$REGENMODE
 70
     1
  9
$FILLMODE
 70
     1
  9
$QTEXTMODE
 70
     0
  9
$MIRRTEXT
 70
     1
  9
$LTSCALE
 40
1.0
  9
$ATTMODE
 70
     1
  9
$TEXTSIZE
 40
0.2
  9
$TRACEWID
 40
0.05
  9
$TEXTSTYLE
  7
Standard
  9
$CLAYER
  8
Predefinito
  9
$CELTYPE
  6
ByLayer
  9
$CECOLOR
 62
   256
  9
$CELTSCALE
 40
1.0
  9
$DISPSILH
 70
     0
  9
$DIMSCALE
 40
1.0
  9
$DIMASZ
 40
0.18
  9
$DIMEXO
 40
0.0625
  9
$DIMDLI
 40
0.38
  9
$DIMRND
 40
0.0
  9
$DIMDLE
 40
0.0
  9
$DIMEXE
 40
0.18
  9
$DIMTP
 40
0.0
  9
$DIMTM
 40
0.0
  9
$DIMTXT
 40
0.18
  9
$DIMCEN
 40
0.09
  9
$DIMTSZ
 40
0.0
  9
$DIMTOL
 70
     0
  9
$DIMLIM
 70
     0
  9
$DIMTIH
 70
     1
  9
$DIMTOH
 70
     1
  9
$DIMSE1
 70
     0
  9
$DIMSE2
 70
     0
  9
$DIMTAD
 70
     0
  9
$DIMZIN
 70
     0
  9
$DIMBLK
  1

  9
$DIMASO
 70
     1
  9
$DIMSHO
 70
     1
  9
$DIMPOST
  1

  9
$DIMAPOST
  1

  9
$DIMALT
 70
     0
  9
$DIMALTD
 70
     2
  9
$DIMALTF
 40
25.4
  9
$DIMLFAC
 40
1.0
  9
$DIMTOFL
 70
     0
  9
$DIMTVP
 40
0.0
  9
$DIMTIX
 70
     0
  9
$DIMSOXD
 70
     0
  9
$DIMSAH
 70
     0
  9
$DIMBLK1
  1

  9
$DIMBLK2
  1

  9
$DIMSTYLE
  2
Standard
  9
$DIMCLRD
 70
     0
  9
$DIMCLRE
 70
     0
  9
$DIMCLRT
 70
     0
  9
$DIMTFAC
 40
1.0
  9
$DIMGAP
 40
0.09
  9
$DIMJUST
 70
     0
  9
$DIMSD1
 70
     0
  9
$DIMSD2
 70
     0
  9
$DIMTOLJ
 70
     1
  9
$DIMTZIN
 70
     0
  9
$DIMALTZ
 70
     0
  9
$DIMALTTZ
 70
     0
  9
$DIMUPT
 70
     0
  9
$DIMDEC
 70
     4
  9
$DIMTDEC
 70
     4
  9
$DIMALTU
 70
     2
  9
$DIMALTTD
 70
     2
  9
$DIMTXSTY
  7
Standard
  9
$DIMAUNIT
 70
     0
  9
$DIMADEC
 70
     0
  9
$DIMALTRND
 40
0.0
  9
$DIMAZIN
 70
     0
  9
$DIMDSEP
 70
    46
  9
$DIMATFIT
 70
     3
  9
$DIMFRAC
 70
     0
  9
$DIMLDRBLK
  1

  9
$DIMLUNIT
 70
     2
  9
$DIMLWD
 70
    -2
  9
$DIMLWE
 70
    -2
  9
$DIMTMOVE
 70
     2
  9
$LUNITS
 70
     2
  9
$LUPREC
 70
     3
  9
$SKETCHINC
 40
0.1
  9
$FILLETRAD
 40
0.5
  9
$AUNITS
 70
     0
  9
$AUPREC
 70
     0
  9
$MENU
  1
.
  9
$ELEVATION
 40
0.0
  9
$PELEVATION
 40
0.0
  9
$THICKNESS
 40
0.0
  9
$LIMCHECK
 70
     0
  9
$CHAMFERA
 40
0.5
  9
$CHAMFERB
 40
0.5
  9
$CHAMFERC
 40
1.0
  9
$CHAMFERD
 40
0.0
  9
$SKPOLY
 70
     0
  9
$TDCREATE
 40
2457904.743445671
  9
$TDUCREATE
 40
2457904.660112338
  9
$TDUPDATE
 40
2457904.743445683
  9
$TDUUPDATE
 40
2457904.660112349
  9
$TDINDWG
 40
0.0000000116
  9
$TDUSRTIMER
 40
0.0000000116
  9
$USRTIMER
 70
     1
  9
$ANGBASE
 50
0.0
  9
$ANGDIR
 70
     0
  9
$PDMODE
 70
     0
  9
$PDSIZE
 40
0.0
  9
$PLINEWID
 40
0.0
  9
$SPLFRAME
 70
     0
  9
$SPLINETYPE
 70
     6
  9
$SPLINESEGS
 70
     8
  9
$HANDSEED
  5
D3
  9
$SURFTAB1
 70
     6
  9
$SURFTAB2
 70
     6
  9
$SURFTYPE
 70
     6
  9
$SURFU
 70
     6
  9
$SURFV
 70
     6
  9
$UCSBASE
  2

  9
$UCSNAME
  2

  9
$UCSORG
 10
0.0
 20
0.0
 30
0.0
  9
$UCSXDIR
 10
1.0
 20
0.0
 30
0.0
  9
$UCSYDIR
 10
0.0
 20
1.0
 30
0.0
  9
$UCSORTHOREF
  2

  9
$UCSORTHOVIEW
 70
     0
  9
$UCSORGTOP
 10
0.0
 20
0.0
 30
0.0
  9
$UCSORGBOTTOM
 10
0.0
 20
0.0
 30
0.0
  9
$UCSORGLEFT
 10
0.0
 20
0.0
 30
0.0
  9
$UCSORGRIGHT
 10
0.0
 20
0.0
 30
0.0
  9
$UCSORGFRONT
 10
0.0
 20
0.0
 30
0.0
  9
$UCSORGBACK
 10
0.0
 20
0.0
 30
0.0
  9
$PUCSBASE
  2

  9
$PUCSNAME
  2

  9
$PUCSORG
 10
0.0
 20
0.0
 30
0.0
  9
$PUCSXDIR
 10
1.0
 20
0.0
 30
0.0
  9
$PUCSYDIR
 10
0.0
 20
1.0
 30
0.0
  9
$PUCSORTHOREF
  2

  9
$PUCSORTHOVIEW
 70
     0
  9
$PUCSORGTOP
 10
0.0
 20
0.0
 30
0.0
  9
$PUCSORGBOTTOM
 10
0.0
 20
0.0
 30
0.0
  9
$PUCSORGLEFT
 10
0.0
 20
0.0
 30
0.0
  9
$PUCSORGRIGHT
 10
0.0
 20
0.0
 30
0.0
  9
$PUCSORGFRONT
 10
0.0
 20
0.0
 30
0.0
  9
$PUCSORGBACK
 10
0.0
 20
0.0
 30
0.0
  9
$USERI1
 70
     0
  9
$USERI2
 70
     0
  9
$USERI3
 70
     0
  9
$USERI4
 70
     0
  9
$USERI5
 70
     0
  9
$USERR1
 40
0.0
  9
$USERR2
 40
0.0
  9
$USERR3
 40
0.0
  9
$USERR4
 40
0.0
  9
$USERR5
 40
0.0
  9
$WORLDVIEW
 70
     1
  9
$SHADEDGE
 70
     3
  9
$SHADEDIF
 70
    70
  9
$TILEMODE
 70
     1
  9
$MAXACTVP
 70
    64
  9
$PINSBASE
 10
0.0
 20
0.0
 30
0.0
  9
$PLIMCHECK
 70
     0
  9
$PEXTMIN
 10
1.000000000000000E+20
 20
1.000000000000000E+20
 30
1.000000000000000E+20
  9
$PEXTMAX
 10
-1.000000000000000E+20
 20
-1.000000000000000E+20
 30
-1.000000000000000E+20
  9
$PLIMMIN
 10
0.0
 20
0.0
  9
$PLIMMAX
 10
12.0
 20
9.0
  9
$UNITMODE
 70
     0
  9
$VISRETAIN
 70
     1
  9
$PLINEGEN
 70
     0
  9
$PSLTSCALE
 70
     1
  9
$TREEDEPTH
 70
  3020
  9
$CMLSTYLE
  2
Standard
  9
$CMLJUST
 70
     0
  9
$CMLSCALE
 40
1.0
  9
$PROXYGRAPHICS
 70
     1
  9
$MEASUREMENT
 70
     0
  9
$CELWEIGHT
370
    -1
  9
$ENDCAPS
280
     0
  9
$JOINSTYLE
280
     0
  9
$LWDISPLAY
290
     0
  9
$INSUNITS
 70
     4
  9
$HYPERLINKBASE
  1

  9
$STYLESHEET
  1

  9
$XEDIT
290
     1
  9
$CEPSNTYPE
380
     0
  9
$PSTYLEMODE
290
     1
  9
$FINGERPRINTGUID
  2
{FD445F09-ACFF-400F-BEC2-C755EB5E3E39}
  9
$VERSIONGUID
  2
{FAEB1C32-E019-11D5-929B-00C0DF256EC4}
  9
$EXTNAMES
290
     1
  9
$PSVPSCALE
 40
0.0
  9
$OLESTARTUP
290
     0
  9
$SORTENTS
280
   127
  9
$INDEXCTL
280
     0
  9
$HIDETEXT
280
     1
  9
$XCLIPFRAME
290
     0
  9
$HALOGAP
280
     0
  9
$OBSCOLOR
 70
   257
  9
$OBSLTYPE
280
     0
  9
$INTERSECTIONDISPLAY
280
     0
  9
$INTERSECTIONCOLOR
 70
   257
  9
$DIMASSOC
280
     2
  9
$PROJECTNAME
  1

  0
ENDSEC
  0
SECTION
  2
CLASSES
  0
CLASS
  1
ACDBDICTIONARYWDFLT
  2
AcDbDictionaryWithDefault
  3
ObjectDBX Classes
 90
        0
 91
        4
280
     0
281
     0
  0
CLASS
  1
VISUALSTYLE
  2
AcDbVisualStyle
  3
ObjectDBX Classes
 90
     4095
 91
        4
280
     0
281
     0
  0
ENDSEC
  0
SECTION
  2
TABLES
  0
TABLE
  2
VPORT
  5
8
330
0
100
AcDbSymbolTable
 70
     1
  0
VPORT
  5
29
330
8
100
AcDbSymbolTableRecord
100
AcDbViewportTableRecord
  2
*Active
 70
     0
 10
0.0
 20
0.0
 11
1.0
 21
1.0
 12
2401.475015023088
 22
960.5524696775195
 13
0.0
 23
0.0
 14
0.5
 24
0.5
 15
0.5
 25
0.5
 16
0.0
 26
0.0
 36
1.0
 17
0.0
 27
0.0
 37
0.0
 40
1959.527038141357
 41
0.9634820004514295
 42
50.0
 43
0.0
 44
0.0
 50
0.0
 51
0.0
 71
     0
 72
   100
 73
     1
 74
     3
 75
     0
 76
     0
 77
     0
 78
     0
281
     0
 65
     1
110
0.0
120
0.0
130
0.0
111
1.0
121
0.0
131
0.0
112
0.0
122
1.0
132
0.0
 79
     0
146
0.0
  0
ENDTAB
  0
TABLE
  2
LTYPE
  5
5
330
0
100
AcDbSymbolTable
 70
     1
  0
LTYPE
  5
14
330
5
100
AcDbSymbolTableRecord
100
AcDbLinetypeTableRecord
  2
ByBlock
 70
     0
  3

 72
    65
 73
     0
 40
0.0
  0
LTYPE
  5
15
330
5
100
AcDbSymbolTableRecord
100
AcDbLinetypeTableRecord
  2
ByLayer
 70
     0
  3

 72
    65
 73
     0
 40
0.0
  0
LTYPE
  5
16
330
5
100
AcDbSymbolTableRecord
100
AcDbLinetypeTableRecord
  2
Continuous
 70
     0
  3
Solid line
 72
    65
 73
     0
 40
0.0
  0
ENDTAB
  0
TABLE
  2
LAYER
  5
2
330
0
100
AcDbSymbolTable
 70
     2
  0
LAYER
  5
10
330
2
100
AcDbSymbolTableRecord
100
AcDbLayerTableRecord
  2
0
 70
     0
 62
     7
  6
Continuous
370
    -3
390
F
  0
LAYER
  5
3B
330
2
100
AcDbSymbolTableRecord
100
AcDbLayerTableRecord
  2
Predefinito
 70
     0
 62
     7
  6
Continuous
370
    -3
390
F
  0
ENDTAB
  0
TABLE
  2
STYLE
  5
3
330
0
100
AcDbSymbolTable
 70
     1
  0
STYLE
  5
11
330
3
100
AcDbSymbolTableRecord
100
AcDbTextStyleTableRecord
  2
Standard
 70
     0
 40
0.0
 41
1.0
 50
0.0
 71
     0
 42
0.2
  3
txt
  4

  0
ENDTAB
  0
TABLE
  2
VIEW
  5
6
330
0
100
AcDbSymbolTable
 70
     0
  0
ENDTAB
  0
TABLE
  2
UCS
  5
7
330
0
100
AcDbSymbolTable
 70
     0
  0
ENDTAB
  0
TABLE
  2
APPID
  5
9
330
0
100
AcDbSymbolTable
 70
     1
  0
APPID
  5
12
330
9
100
AcDbSymbolTableRecord
100
AcDbRegAppTableRecord
  2
ACAD
 70
     0
  0
ENDTAB
  0
TABLE
  2
DIMSTYLE
  5
A
330
0
100
AcDbSymbolTable
 70
     1
100
AcDbDimStyleTable
  0
DIMSTYLE
105
27
330
A
100
AcDbSymbolTableRecord
100
AcDbDimStyleTableRecord
  2
Standard
 70
     0
340
11
  0
ENDTAB
  0
TABLE
  2
BLOCK_RECORD
  5
1
330
0
100
AcDbSymbolTable
 70
     1
  0
BLOCK_RECORD
  5
1F
330
1
100
AcDbSymbolTableRecord
100
AcDbBlockTableRecord
  2
*Model_Space
340
22
  0
BLOCK_RECORD
  5
1B
330
1
100
AcDbSymbolTableRecord
100
AcDbBlockTableRecord
  2
*Paper_Space
340
1E
  0
BLOCK_RECORD
  5
23
330
1
100
AcDbSymbolTableRecord
100
AcDbBlockTableRecord
  2
*Paper_Space0
340
26
  0
ENDTAB
  0
ENDSEC
  0
SECTION
  2
BLOCKS
  0
BLOCK
  5
20
330
1F
100
AcDbEntity
  8
0
100
AcDbBlockBegin
  2
*Model_Space
 70
     0
 10
0.0
 20
0.0
 30
0.0
  3
*Model_Space
  1

  0
ENDBLK
  5
21
330
1F
100
AcDbEntity
  8
0
100
AcDbBlockEnd
  0
BLOCK
  5
1C
330
1B
100
AcDbEntity
 67
     1
  8
0
100
AcDbBlockBegin
  2
*Paper_Space
 70
     0
 10
0.0
 20
0.0
 30
0.0
  3
*Paper_Space
  1

  0
ENDBLK
  5
1D
330
1B
100
AcDbEntity
 67
     1
  8
0
100
AcDbBlockEnd
  0
BLOCK
  5
24
330
23
100
AcDbEntity
  8
0
100
AcDbBlockBegin
  2
*Paper_Space0
 70
     0
 10
0.0
 20
0.0
 30
0.0
  3
*Paper_Space0
  1

  0
ENDBLK
  5
25
330
23
100
AcDbEntity
  8
0
100
AcDbBlockEnd
  0
ENDSEC
  0
SECTION
  2
ENTITIES
  0
SPLINE
  5
3C
330
1F
100
AcDbEntity
  8
Predefinito
100
AcDbSpline
210
0.0
220
0.0
230
1.0
 70
    24
 71
     2
 72
     6
 73
     3
 74
     0
 42
0.0000000001
 43
0.0000000001
 40
0.0
 40
0.0
 40
0.0
 40
1.00060954429882
 40
1.00060954429882
 40
1.00060954429882
 10
3312.950030046176
 20
1804.41002670567
 30
0.0
 10
3313.450030046176
 20
1804.427487090416
 30
0.0
 10
3313.950030046176
 20
1804.444947475162
 30
0.0
  0
SPLINE
  5
3D
330
1F
100
AcDbEntity
  8
Predefinito
100
AcDbSpline
210
0.0
220
0.0
230
1.0
 70
    24
 71
     2
 72
     6
 73
     3
 74
     0
 42
0.0000000001
 43
0.0000000001
 40
0.0
 40
0.0
 40
0.0
 40
1.482539615254154
 40
1.482539615254154
 40
1.482539615254154
 10
1503.0
 20
1786.31002670567
 30
0.0
 10
1503.0
 20
1785.568756898043
 30
0.0
 10
1503.0
 20
1784.827487090416
 30
0.0
  0
SPLINE
  5
3E
330
1F
100
AcDbEntity
  8
Predefinito
100
AcDbSpline
210
0.0
220
0.0
230
1.0
 70
    24
 71
     2
 72
     6
 73
     3
 74
     0
 42
0.0000000001
 43
0.0000000001
 40
0.0
 40
0.0
 40
0.0
 40
1.482539615254154
 40
1.482539615254154
 40
1.482539615254154
 10
1476.0
 20
1784.827487090416
 30
0.0
 10
1476.0
 20
1785.568756898043
 30
0.0
 10
1476.0
 20
1786.31002670567
 30
0.0
  0
SPLINE
  5
3F
330
1F
100
AcDbEntity
  8
Predefinito
100
AcDbSpline
210
0.0
220
0.0
230
1.0
 70
    24
 71
     2
 72
     6
 73
     3
 74
     0
 42
0.0000000001
 43
0.0000000001
 40
0.0
 40
0.0
 40
0.0
 40
114.2774522642408
 40
114.2774522642408
 40
114.2774522642408
 10
1484.7
 20
1804.827487090416
 30
0.0
 10
1484.7
 20
1861.966213222536
 30
0.0
 10
1484.7
 20
1919.104939354656
 30
0.0
  0
SPLINE
  5
40
330
1F
100
AcDbEntity
  8
Predefinito
100
AcDbSpline
210
0.0
220
0.0
230
1.0
 70
    24
 71
     2
 72
     6
 73
     3
 74
     0
 42
0.0000000001
 43
0.0000000001
 40
0.0
 40
0.0
 40
0.0
 40
491.8555144668474
 40
491.8555144668474
 40
491.8555144668474
 10
1484.7
 20
1292.971972623568
 30
0.0
 10
1484.7
 20
1538.899729856992
 30
0.0
 10
1484.7
 20
1784.827487090415
 30
0.0
  0
SPLINE
  5
41
330
1F
100
AcDbEntity
  8
Predefinito
100
AcDbSpline
210
0.0
220
0.0
230
1.0
 70
    24
 71
     2
 72
     6
 73
     3
 74
     0
 42
0.0000000001
 43
0.0000000001
 40
0.0
 40
0.0
 40
0.0
 40
491.8555144939787
 40
491.8555144939787
 40
491.8555144939787
 10
1494.7
 20
1784.827487090415
 30
0.0
 10
1494.7
 20
1538.899729843426
 30
0.0
 10
1494.7
 20
1292.971972596437
 30
0.0
  0
SPLINE
  5
42
330
1F
100
AcDbEntity
  8
Predefinito
100
AcDbSpline
210
0.0
220
0.0
230
1.0
 70
    24
 71
     2
 72
     6
 73
     3
 74
     0
 42
0.0000000001
 43
0.0000000001
 40
0.0
 40
0.0
 40
0.0
 40
114.2774522642408
 40
114.2774522642408
 40
114.2774522642408
 10
1494.7
 20
1919.104939354656
 30
0.0
 10
1494.7
 20
1861.966213222536
 30
0.0
 10
1494.7
 20
1804.827487090416
 30
0.0
  0
SPLINE
  5
43
330
1F
100
AcDbEntity
  8
Predefinito
100
AcDbSpline
210
0.0
220
0.0
230
1.0
 70
    24
 71
     2
 72
     6
 73
     3
 74
     0
 42
0.0000000001
 43
0.0000000001
 40
0.0
 40
0.0
 40
0.0
 40
1.504584607607058
 40
1.504584607607058
 40
1.504584607607058
 10
1494.673715953112
 20
1920.610751392338
 30
0.0
 10
1494.686845264158
 20
1919.858573666296
 30
0.0
 10
1494.699974575204
 20
1919.106395940255
 30
0.0
  0
SPLINE
  5
44
330
1F
100
AcDbEntity
  8
Predefinito
100
AcDbSpline
210
0.0
220
0.0
230
1.0
 70
    12
 71
     2
 72
     6
 73
     3
 74
     0
 42
0.0000000001
 43
0.0000000001
 40
0.0
 40
0.0
 40
0.0
 40
0.7795931826398595
 40
0.7795931826398595
 40
0.7795931826398595
 10
1484.726288420821
 20
1920.610232184898
 30
0.0
 41
1.0
 10
1484.732705899807
 20
1921.103744768526
 30
0.0
 41
0.7125386693955486
 10
1485.226258761414
 20
1921.104939354654
 30
0.0
 41
1.0
  0
SPLINE
  5
45
330
1F
100
AcDbEntity
  8
Predefinito
100
AcDbSpline
210
0.0
220
0.0
230
1.0
 70
    24
 71
     2
 72
     6
 73
     3
 74
     0
 42
0.0000000001
 43
0.0000000001
 40
0.0
 40
0.0
 40
0.0
 40
1.504584607607058
 40
1.504584607607058
 40
1.504584607607058
 10
1484.700025424796
 20
1919.106395940255
 30
0.0
 10
1484.713154735842
 20
1919.858573666296
 30
0.0
 10
1484.726284046887
 20
1920.610751392338
 30
0.0
  0
SPLINE
  5
46
330
1F
100
AcDbEntity
  8
Predefinito
100
AcDbSpline
210
0.0
220
0.0
230
1.0
 70
    12
 71
     2
 72
     6
 73
     3
 74
     0
 42
0.0000000001
 43
0.0000000001
 40
0.0
 40
0.0
 40
0.0
 40
0.7794250556141299
 40
0.7794250556141299
 40
0.7794250556141299
 10
1494.173742011084
 20
1921.104939354654
 30
0.0
 41
1.0
 10
1494.666930490195
 20
1921.103393558594
 30
0.0
 41
0.7130504976111417
 10
1494.673710934312
 20
1920.610249268359
 30
0.0
 41
1.0
  0
SPLINE
  5
47
330
1F
100
AcDbEntity
  8
Predefinito
100
AcDbSpline
210
0.0
220
0.0
230
1.0
 70
    24
 71
     2
 72
     6
 73
     3
 74
     0
 42
0.0000000001
 43
0.0000000001
 40
0.0
 40
0.0
 40
0.0
 40
13.27214779106703
 40
13.27214779106703
 40
13.27214779106703
 10
1493.699999999994
 20
1197.027487090414
 30
0.0
 10
1493.699999999994
 20
1190.39141319488
 30
0.0
 10
1493.699999999994
 20
1183.755339299347
 30
0.0
  0
SPLINE
  5
48
330
1F
100
AcDbEntity
  8
Predefinito
100
AcDbSpline
210
0.0
220
0.0
230
1.0
 70
    24
 71
     2
 72
     6
 73
     3
 74
     0
 42
0.0000000001
 43
0.0000000001
 40
0.0
 40
0.0
 40
0.0
 40
13.27214779051587
 40
13.27214779051587
 40
13.27214779051587
 10
1485.699999999994
 20
1183.755339299898
 30
0.0
 10
1485.699999999994
 20
1190.391413195156
 30
0.0
 10
1485.699999999994
 20
1197.027487090414
 30
0.0
  0
SPLINE
  5
49
330
1F
100
AcDbEntity
  8
Predefinito
100
AcDbSpline
210
0.0
220
0.0
230
1.0
 70
    24
 71
     2
 72
     6
 73
     3
 74
     0
 42
0.0000000001
 43
0.0000000001
 40
0.0
 40
0.0
 40
0.0
 40
15.99999999999977
 40
15.99999999999977
 40
15.99999999999977
 10
1493.699999999994
 20
1213.027487090413
 30
0.0
 10
1493.699999999994
 20
1205.027487090414
 30
0.0
 10
1493.699999999994
 20
1197.027487090414
 30
0.0
  0
SPLINE
  5
4A
330
1F
100
AcDbEntity
  8
Predefinito
100
AcDbSpline
210
0.0
220
0.0
230
1.0
 70
    24
 71
     2
 72
     6
 73
     3
 74
     0
 42
0.0000000001
 43
0.0000000001
 40
0.0
 40
0.0
 40
0.0
 40
15.99999999999977
 40
15.99999999999977
 40
15.99999999999977
 10
1485.699999999994
 20
1197.027487090414
 30
0.0
 10
1485.699999999994
 20
1205.027487090414
 30
0.0
 10
1485.699999999994
 20
1213.027487090413
 30
0.0
  0
SPLINE
  5
4B
330
1F
100
AcDbEntity
  8
Predefinito
100
AcDbSpline
210
0.0
220
0.0
230
1.0
 70
    24
 71
     2
 72
     6
 73
     3
 74
     0
 42
0.0000000001
 43
0.0000000001
 40
0.0
 40
0.0
 40
0.0
 40
0.305386257712503
 40
0.305386257712503
 40
0.305386257712503
 10
1476.31464869448
 20
1804.827487090416
 30
0.0
 10
1476.161955565624
 20
1804.827487090416
 30
0.0
 10
1476.009262436768
 20
1804.827487090416
 30
0.0
  0
SPLINE
  5
4C
330
1F
100
AcDbEntity
  8
Predefinito
100
AcDbSpline
210
0.0
220
0.0
230
1.0
 70
    24
 71
     2
 72
     6
 73
     3
 74
     0
 42
0.0000000001
 43
0.0000000001
 40
0.0
 40
0.0
 40
0.0
 40
18.51746038474585
 40
18.51746038474585
 40
18.51746038474585
 10
1476.009262436768
 20
1786.31002670567
 30
0.0
 10
1476.009262436768
 20
1795.568756898043
 30
0.0
 10
1476.009262436768
 20
1804.827487090416
 30
0.0
  0
SPLINE
  5
4D
330
1F
100
AcDbEntity
  8
Predefinito
100
AcDbSpline
210
0.0
220
0.0
230
1.0
 70
    24
 71
     2
 72
     6
 73
     3
 74
     0
 42
0.0000000001
 43
0.0000000001
 40
0.0
 40
0.0
 40
0.0
 40
18.51746038474585
 40
18.51746038474585
 40
18.51746038474585
 10
1502.990737563232
 20
1804.827487090416
 30
0.0
 10
1502.990737563232
 20
1795.568756898043
 30
0.0
 10
1502.990737563232
 20
1786.31002670567
 30
0.0
  0
SPLINE
  5
4E
330
1F
100
AcDbEntity
  8
Predefinito
100
AcDbSpline
210
0.0
220
0.0
230
1.0
 70
    24
 71
     2
 72
     6
 73
     3
 74
     0
 42
0.0000000001
 43
0.0000000001
 40
0.0
 40
0.0
 40
0.0
 40
0.2675853367707219
 40
0.2675853367707219
 40
0.2675853367707219
 10
1494.348941505312
 20
1919.104939354656
 30
0.0
 10
1494.482734173697
 20
1919.104939354656
 30
0.0
 10
1494.616526842083
 20
1919.104939354656
 30
0.0
  0
SPLINE
  5
4F
330
1F
100
AcDbEntity
  8
Predefinito
100
AcDbSpline
210
0.0
220
0.0
230
1.0
 70
    12
 71
     2
 72
     8
 73
     5
 74
     0
 42
0.0000000001
 43
0.0000000001
 40
0.0
 40
0.0
 40
0.0
 40
0.0830347775694786
 40
0.0830347775694786
 40
7.110371082170778
 40
7.110371082170778
 40
7.110371082170778
 10
1484.809293538984
 20
1920.609302520752
 30
0.0
 41
1.0
 10
1484.767776150199
 20
1920.609302520752
 30
0.0
 41
1.0
 10
1484.726258761414
 20
1920.609302520751
 30
0.0
 41
1.0
 10
1484.726258761414
 20
1920.609302456264
 30
0.0
 41
0.707106781186548
 10
1489.7
 20
1920.609302456264
 30
0.0
 41
1.0
  0
SPLINE
  5
50
330
1F
100
AcDbEntity
  8
Predefinito
100
AcDbSpline
210
0.0
220
0.0
230
1.0
 70
    24
 71
     2
 72
     6
 73
     3
 74
     0
 42
0.0000000001
 43
0.0000000001
 40
0.0
 40
0.0
 40
0.0
 40
4.39905377680795
 40
4.39905377680795
 40
4.39905377680795
 10
1489.7
 20
1921.104939354655
 30
0.0
 10
1487.500473111596
 20
1921.104939354655
 30
0.0
 10
1485.300946223192
 20
1921.104939354655
 30
0.0
  0
SPLINE
  5
51
330
1F
100
AcDbEntity
  8
Predefinito
100
AcDbSpline
210
0.0
220
0.0
230
1.0
 70
    24
 71
     2
 72
     6
 73
     3
 74
     0
 42
0.0000000001
 43
0.0000000001
 40
0.0
 40
0.0
 40
0.0
 40
4.890706461016237
 40
4.890706461016237
 40
4.890706461016237
 10
1489.7
 20
1920.609302456264
 30
0.0
 10
1492.145353230508
 20
1920.609302456264
 30
0.0
 10
1494.590706461016
 20
1920.609302456264
 30
0.0
  0
SPLINE
  5
52
330
1F
100
AcDbEntity
  8
Predefinito
100
AcDbSpline
210
0.0
220
0.0
230
1.0
 70
    28
 71
     2
 72
     8
 73
     5
 74
     0
 42
0.0000000001
 43
0.0000000001
 40
6.148919266526137
 40
6.148919266526137
 40
6.148919266526137
 40
7.0273363046013
 40
7.0273363046013
 40
14.0546726092026
 40
14.0546726092026
 40
14.0546726092026
 10
1494.099053776808
 20
1921.104939354655
 30
0.0
 41
0.9359296083845574
 10
1494.173741238585
 20
1921.104939354655
 30
0.0
 41
0.9633883476483185
 10
1494.173741238586
 20
1921.104939354655
 30
0.0
 41
1.0
 10
1494.173741238585
 20
1921.104939354655
 30
0.0
 41
0.707106781186548
 10
1489.7
 20
1921.104939354655
 30
0.0
 41
1.0
  0
SPLINE
  5
53
330
1F
100
AcDbEntity
  8
Predefinito
100
AcDbSpline
210
0.0
220
0.0
230
1.0
 70
    24
 71
     2
 72
     6
 73
     3
 74
     0
 42
0.0000000001
 43
0.0000000001
 40
0.0
 40
0.0
 40
0.0
 40
4.916526842082874
 40
4.916526842082874
 40
4.916526842082874
 10
1489.7
 20
1919.104939354655
 30
0.0
 10
1487.241736578958
 20
1919.104939354655
 30
0.0
 10
1484.783473157917
 20
1919.104939354654
 30
0.0
  0
SPLINE
  5
54
330
1F
100
AcDbEntity
  8
Predefinito
100
AcDbSpline
210
0.0
220
0.0
230
1.0
 70
    24
 71
     2
 72
     6
 73
     3
 74
     0
 42
0.0000000001
 43
0.0000000001
 40
0.0
 40
0.0
 40
0.0
 40
4.648941505312148
 40
4.648941505312148
 40
4.648941505312148
 10
1494.348941505312
 20
1919.104939354655
 30
0.0
 10
1492.024470752656
 20
1919.104939354655
 30
0.0
 10
1489.7
 20
1919.104939354655
 30
0.0
  0
SPLINE
  5
55
330
1F
100
AcDbEntity
  8
Predefinito
100
AcDbSpline
210
0.0
220
0.0
230
1.0
 70
    12
 71
     2
 72
     8
 73
     5
 74
     0
 42
0.0000000001
 43
0.0000000001
 40
0.0
 40
0.0
 40
0.0
 40
5.497787143781967
 40
5.497787143781967
 40
10.99557428756408
 40
10.99557428756408
 40
10.99557428756408
 10
1486.199999999994
 20
1183.027487090414
 30
0.0
 41
1.0
 10
1486.199999999995
 20
1186.527487090414
 30
0.0
 41
0.7071067811865785
 10
1489.699999999994
 20
1186.527487090413
 30
0.0
 41
1.0
 10
1493.199999999994
 20
1186.527487090414
 30
0.0
 41
0.7071067811865503
 10
1493.199999999994
 20
1183.027487090414
 30
0.0
 41
1.0
  0
SPLINE
  5
56
330
1F
100
AcDbEntity
  8
Predefinito
100
AcDbSpline
210
0.0
220
0.0
230
1.0
 70
    12
 71
     2
 72
     8
 73
     5
 74
     0
 42
0.0000000001
 43
0.0000000001
 40
0.0
 40
0.0
 40
0.0
 40
5.497787143781974
 40
5.497787143781974
 40
10.99557428756399
 40
10.99557428756399
 40
10.99557428756399
 10
1493.199999999994
 20
1183.027487090414
 30
0.0
 41
1.0
 10
1493.199999999994
 20
1179.527487090414
 30
0.0
 41
0.7071067811865797
 10
1489.699999999994
 20
1179.527487090414
 30
0.0
 41
1.0
 10
1486.199999999994
 20
1179.527487090414
 30
0.0
 41
0.7071067811865243
 10
1486.199999999995
 20
1183.027487090414
 30
0.0
 41
1.0
  0
SPLINE
  5
57
330
1F
100
AcDbEntity
  8
Predefinito
100
AcDbSpline
210
0.0
220
0.0
230
1.0
 70
    12
 71
     2
 72
     8
 73
     5
 74
     0
 42
0.0000000001
 43
0.0000000001
 40
0.0
 40
0.0
 40
0.0
 40
6.283185307179586
 40
6.283185307179586
 40
12.56637061435914
 40
12.56637061435914
 40
12.56637061435914
 10
1493.699999999994
 20
1183.027487090414
 30
0.0
 41
1.0
 10
1493.699999999994
 20
1179.027487090414
 30
0.0
 41
0.7071067811865476
 10
1489.699999999994
 20
1179.027487090414
 30
0.0
 41
1.0
 10
1485.699999999994
 20
1179.027487090414
 30
0.0
 41
0.7071067811865192
 10
1485.699999999995
 20
1183.027487090414
 30
0.0
 41
1.0
  0
SPLINE
  5
58
330
1F
100
AcDbEntity
  8
Predefinito
100
AcDbSpline
210
0.0
220
0.0
230
1.0
 70
    12
 71
     2
 72
     8
 73
     5
 74
     0
 42
0.0000000001
 43
0.0000000001
 40
0.0
 40
0.0
 40
0.0
 40
6.283185307179538
 40
6.283185307179538
 40
12.56637061435915
 40
12.56637061435915
 40
12.56637061435915
 10
1485.699999999994
 20
1183.027487090414
 30
0.0
 41
1.0
 10
1485.699999999994
 20
1187.027487090414
 30
0.0
 41
0.7071067811865401
 10
1489.699999999994
 20
1187.027487090414
 30
0.0
 41
1.0
 10
1493.699999999995
 20
1187.027487090414
 30
0.0
 41
0.7071067811865142
 10
1493.699999999994
 20
1183.027487090414
 30
0.0
 41
1.0
  0
SPLINE
  5
59
330
1F
100
AcDbEntity
  8
Predefinito
100
AcDbSpline
210
0.0
220
0.0
230
1.0
 70
    24
 71
     2
 72
     6
 73
     3
 74
     0
 42
0.0000000001
 43
0.0000000001
 40
0.0
 40
0.0
 40
0.0
 40
0.1437530634072104
 40
0.1437530634072104
 40
0.1437530634072104
 10
1476.202056115383
 20
1213.027487090414
 30
0.0
 10
1476.130179583679
 20
1213.027487090414
 30
0.0
 10
1476.058303051976
 20
1213.027487090414
 30
0.0
  0
SPLINE
  5
5A
330
1F
100
AcDbEntity
  8
Predefinito
100
AcDbSpline
210
0.0
220
0.0
230
1.0
 70
    24
 71
     2
 72
     6
 73
     3
 74
     0
 42
0.0000000001
 43
0.0000000001
 40
0.0
 40
0.0
 40
0.0
 40
79.76846916745103
 40
79.76846916745103
 40
79.76846916745103
 10
1476.202056115383
 20
1292.795956257865
 30
0.0
 10
1476.202056115383
 20
1252.911721674139
 30
0.0
 10
1476.202056115383
 20
1213.027487090414
 30
0.0
  0
SPLINE
  5
5B
330
1F
100
AcDbEntity
  8
Predefinito
100
AcDbSpline
210
0.0
220
0.0
230
1.0
 70
    24
 71
     2
 72
     6
 73
     3
 74
     0
 42
0.0000000001
 43
0.0000000001
 40
0.0
 40
0.0
 40
0.0
 40
26.99588776922256
 40
26.99588776922256
 40
26.99588776922256
 10
1476.202056115383
 20
1213.027487090414
 30
0.0
 10
1489.699999999994
 20
1213.027487090414
 30
0.0
 10
1503.197943884606
 20
1213.027487090414
 30
0.0
  0
SPLINE
  5
5C
330
1F
100
AcDbEntity
  8
Predefinito
100
AcDbSpline
210
0.0
220
0.0
230
1.0
 70
    24
 71
     2
 72
     6
 73
     3
 74
     0
 42
0.0000000001
 43
0.0000000001
 40
0.0
 40
0.0
 40
0.0
 40
79.76846916745103
 40
79.76846916745103
 40
79.76846916745103
 10
1503.197943884606
 20
1292.795956257865
 30
0.0
 10
1503.197943884606
 20
1252.911721674139
 30
0.0
 10
1503.197943884606
 20
1213.027487090414
 30
0.0
  0
SPLINE
  5
5D
330
1F
100
AcDbEntity
  8
Predefinito
100
AcDbSpline
210
0.0
220
0.0
230
1.0
 70
    24
 71
     2
 72
     6
 73
     3
 74
     0
 42
0.0000000001
 43
0.0000000001
 40
0.0
 40
0.0
 40
0.0
 40
0.1437530634072388
 40
0.1437530634072388
 40
0.1437530634072388
 10
1503.197943884606
 20
1213.027487090414
 30
0.0
 10
1503.269820416309
 20
1213.027487090414
 30
0.0
 10
1503.341696948013
 20
1213.027487090414
 30
0.0
  0
SPLINE
  5
5E
330
1F
100
AcDbEntity
  8
Predefinito
100
AcDbSpline
210
0.0
220
0.0
230
1.0
 70
    24
 71
     2
 72
     6
 73
     3
 74
     0
 42
0.0000000001
 43
0.0000000001
 40
0.0
 40
0.0
 40
0.0
 40
10.0
 40
10.0
 40
10.0
 10
1503.341696948013
 20
1223.027487090414
 30
0.0
 10
1503.341696948013
 20
1218.027487090414
 30
0.0
 10
1503.341696948013
 20
1213.027487090414
 30
0.0
  0
SPLINE
  5
5F
330
1F
100
AcDbEntity
  8
Predefinito
100
AcDbSpline
210
0.0
220
0.0
230
1.0
 70
    24
 71
     2
 72
     6
 73
     3
 74
     0
 42
0.0000000001
 43
0.0000000001
 40
0.0
 40
0.0
 40
0.0
 40
9.624716104043955
 40
9.624716104043955
 40
9.624716104043955
 10
1503.341696948013
 20
1292.652203194458
 30
0.0
 10
1503.341696948013
 20
1287.839845142435
 30
0.0
 10
1503.341696948013
 20
1283.027487090414
 30
0.0
  0
SPLINE
  5
60
330
1F
100
AcDbEntity
  8
Predefinito
100
AcDbSpline
210
0.0
220
0.0
230
1.0
 70
    24
 71
     2
 72
     6
 73
     3
 74
     0
 42
0.0000000001
 43
0.0000000001
 40
0.0
 40
0.0
 40
0.0
 40
10.0
 40
10.0
 40
10.0
 10
1476.058303051976
 20
1213.027487090414
 30
0.0
 10
1476.058303051976
 20
1218.027487090414
 30
0.0
 10
1476.058303051976
 20
1223.027487090414
 30
0.0
  0
SPLINE
  5
61
330
1F
100
AcDbEntity
  8
Predefinito
100
AcDbSpline
210
0.0
220
0.0
230
1.0
 70
    24
 71
     2
 72
     6
 73
     3
 74
     0
 42
0.0000000001
 43
0.0000000001
 40
0.0
 40
0.0
 40
0.0
 40
9.624716104043955
 40
9.624716104043955
 40
9.624716104043955
 10
1476.058303051976
 20
1283.027487090414
 30
0.0
 10
1476.058303051976
 20
1287.839845142435
 30
0.0
 10
1476.058303051976
 20
1292.652203194458
 30
0.0
  0
SPLINE
  5
62
330
1F
100
AcDbEntity
  8
Predefinito
100
AcDbSpline
210
0.0
220
0.0
230
1.0
 70
    24
 71
     2
 72
     6
 73
     3
 74
     0
 42
0.0000000001
 43
0.0000000001
 40
0.0
 40
0.0
 40
0.0
 40
60.0
 40
60.0
 40
60.0
 10
1476.058303051976
 20
1223.027487090414
 30
0.0
 10
1476.058303051976
 20
1253.027487090414
 30
0.0
 10
1476.058303051976
 20
1283.027487090414
 30
0.0
  0
SPLINE
  5
63
330
1F
100
AcDbEntity
  8
Predefinito
100
AcDbSpline
210
0.0
220
0.0
230
1.0
 70
    24
 71
     2
 72
     6
 73
     3
 74
     0
 42
0.0000000001
 43
0.0000000001
 40
0.0
 40
0.0
 40
0.0
 40
60.0
 40
60.0
 40
60.0
 10
1503.341696948013
 20
1283.027487090414
 30
0.0
 10
1503.341696948013
 20
1253.027487090414
 30
0.0
 10
1503.341696948013
 20
1223.027487090414
 30
0.0
  0
SPLINE
  5
64
330
1F
100
AcDbEntity
  8
Predefinito
100
AcDbSpline
210
0.0
220
0.0
230
1.0
 70
    24
 71
     2
 72
     6
 73
     3
 74
     0
 42
0.0000000001
 43
0.0000000001
 40
0.0
 40
0.0
 40
0.0
 40
0.203297531903061
 40
0.203297531903061
 40
0.203297531903061
 10
1476.202056115383
 20
1292.795956257865
 30
0.0
 10
1476.130179583679
 20
1292.724079726161
 30
0.0
 10
1476.058303051976
 20
1292.652203194458
 30
0.0
  0
SPLINE
  5
65
330
1F
100
AcDbEntity
  8
Predefinito
100
AcDbSpline
210
0.0
220
0.0
230
1.0
 70
    24
 71
     2
 72
     6
 73
     3
 74
     0
 42
0.0000000001
 43
0.0000000001
 40
0.0
 40
0.0
 40
0.0
 40
0.2032975319030861
 40
0.2032975319030861
 40
0.2032975319030861
 10
1503.341696948013
 20
1292.652203194458
 30
0.0
 10
1503.269820416309
 20
1292.724079726161
 30
0.0
 10
1503.197943884606
 20
1292.795956257865
 30
0.0
  0
SPLINE
  5
66
330
1F
100
AcDbEntity
  8
Predefinito
100
AcDbSpline
210
0.0
220
0.0
230
1.0
 70
     8
 71
     3
 72
    12
 73
     8
 74
     0
 42
0.0000000001
 43
0.0000000001
 40
0.0
 40
0.0
 40
0.0
 40
0.0
 40
3.290663096709506
 40
12.45615892127252
 40
22.63233008323542
 40
25.62885762095276
 40
26.91561821987891
 40
26.91561821987891
 40
26.91561821987891
 40
26.91561821987891
 10
1503.197943884606
 20
1292.795956257865
 30
0.0
 10
1502.108649609198
 20
1292.902707409484
 30
0.0
 10
1497.953574911823
 20
1292.955148373733
 30
0.0
 10
1490.412092094813
 20
1292.999104214557
 30
0.0
 10
1482.964208401184
 20
1292.972447135643
 30
0.0
 10
1478.145694032962
 20
1292.9088523269
 30
0.0
 10
1476.718055497299
 20
1292.859056117048
 30
0.0
 10
1476.291153091443
 20
1292.818308521062
 30
0.0
  0
SPLINE
  5
67
330
1F
100
AcDbEntity
  8
Predefinito
100
AcDbSpline
210
0.0
220
0.0
230
1.0
 70
    24
 71
     2
 72
     6
 73
     3
 74
     0
 42
0.0000000001
 43
0.0000000001
 40
0.0
 40
0.0
 40
0.0
 40
26.6760888687516
 40
26.6760888687516
 40
26.6760888687516
 10
1476.31464869448
 20
1804.827487090416
 30
0.0
 10
1489.652693128856
 20
1804.827487090416
 30
0.0
 10
1502.990737563232
 20
1804.827487090416
 30
0.0
  0
SPLINE
  5
68
330
1F
100
AcDbEntity
  8
Predefinito
100
AcDbSpline
210
0.0
220
0.0
230
1.0
 70
    24
 71
     2
 72
     6
 73
     3
 74
     0
 42
0.0000000001
 43
0.0000000001
 40
0.0
 40
0.0
 40
0.0
 40
26.99999999999996
 40
26.99999999999996
 40
26.99999999999996
 10
1476.0
 20
1784.827487090416
 30
0.0
 10
1489.5
 20
1784.827487090416
 30
0.0
 10
1503.0
 20
1784.827487090416
 30
0.0
  0
SPLINE
  5
69
330
1F
100
AcDbEntity
  8
Predefinito
100
AcDbSpline
210
0.0
220
0.0
230
1.0
 70
    24
 71
     2
 72
     6
 73
     3
 74
     0
 42
0.0000000001
 43
0.0000000001
 40
0.0
 40
0.0
 40
0.0
 40
1.699999999999818
 40
1.699999999999818
 40
1.699999999999818
 10
3274.472127255727
 20
1283.027487090414
 30
0.0
 10
3274.472127255727
 20
1282.177487090414
 30
0.0
 10
3274.472127255727
 20
1281.327487090414
 30
0.0
  0
SPLINE
  5
6A
330
1F
100
AcDbEntity
  8
Predefinito
100
AcDbSpline
210
0.0
220
0.0
230
1.0
 70
    24
 71
     2
 72
     6
 73
     3
 74
     0
 42
0.0000000001
 43
0.0000000001
 40
0.0
 40
0.0
 40
0.0
 40
18.51746038474585
 40
18.51746038474585
 40
18.51746038474585
 10
3326.950030046176
 20
1804.827487090416
 30
0.0
 10
3326.950030046176
 20
1795.568756898043
 30
0.0
 10
3326.950030046176
 20
1786.31002670567
 30
0.0
  0
SPLINE
  5
6B
330
1F
100
AcDbEntity
  8
Predefinito
100
AcDbSpline
210
0.0
220
0.0
230
1.0
 70
    24
 71
     2
 72
     6
 73
     3
 74
     0
 42
0.0000000001
 43
0.0000000001
 40
0.0
 40
0.0
 40
0.0
 40
1.482539615254154
 40
1.482539615254154
 40
1.482539615254154
 10
3326.950030046176
 20
1786.31002670567
 30
0.0
 10
3326.950030046176
 20
1785.568756898043
 30
0.0
 10
3326.950030046176
 20
1784.827487090416
 30
0.0
  0
SPLINE
  5
6C
330
1F
100
AcDbEntity
  8
Predefinito
100
AcDbSpline
210
0.0
220
0.0
230
1.0
 70
    24
 71
     2
 72
     6
 73
     3
 74
     0
 42
0.0000000001
 43
0.0000000001
 40
0.0
 40
0.0
 40
0.0
 40
18.51746038474585
 40
18.51746038474585
 40
18.51746038474585
 10
2619.950030046176
 20
1786.31002670567
 30
0.0
 10
2619.950030046176
 20
1795.568756898043
 30
0.0
 10
2619.950030046176
 20
1804.827487090416
 30
0.0
  0
SPLINE
  5
6D
330
1F
100
AcDbEntity
  8
Predefinito
100
AcDbSpline
210
0.0
220
0.0
230
1.0
 70
    24
 71
     2
 72
     6
 73
     3
 74
     0
 42
0.0000000001
 43
0.0000000001
 40
0.0
 40
0.0
 40
0.0
 40
1.482539615254154
 40
1.482539615254154
 40
1.482539615254154
 10
2619.950030046176
 20
1784.827487090416
 30
0.0
 10
2619.950030046176
 20
1785.568756898043
 30
0.0
 10
2619.950030046176
 20
1786.31002670567
 30
0.0
  0
SPLINE
  5
6E
330
1F
100
AcDbEntity
  8
Predefinito
100
AcDbSpline
210
0.0
220
0.0
230
1.0
 70
    24
 71
     2
 72
     6
 73
     3
 74
     0
 42
0.0000000001
 43
0.0000000001
 40
0.0
 40
0.0
 40
0.0
 40
0.6598872323781181
 40
0.6598872323781181
 40
0.6598872323781181
 10
3307.505516518894
 20
1186.994097827247
 30
0.0
 10
3307.73882188731
 20
1186.76079245883
 30
0.0
 10
3307.972127255727
 20
1186.527487090414
 30
0.0
  0
SPLINE
  5
6F
330
1F
100
AcDbEntity
  8
Predefinito
100
AcDbSpline
210
0.0
220
0.0
230
1.0
 70
    24
 71
     2
 72
     6
 73
     3
 74
     0
 42
0.0000000001
 43
0.0000000001
 40
0.0
 40
0.0
 40
0.0
 40
0.6598872323781181
 40
0.6598872323781181
 40
0.6598872323781181
 10
3307.972127255727
 20
1179.527487090414
 30
0.0
 10
3307.73882188731
 20
1179.294181721997
 30
0.0
 10
3307.505516518894
 20
1179.060876353581
 30
0.0
  0
SPLINE
  5
70
330
1F
100
AcDbEntity
  8
Predefinito
100
AcDbSpline
210
0.0
220
0.0
230
1.0
 70
    24
 71
     2
 72
     6
 73
     3
 74
     0
 42
0.0000000001
 43
0.0000000001
 40
0.0
 40
0.0
 40
0.0
 40
30.5
 40
30.5
 40
30.5
 10
3276.972127255727
 20
1187.027487090414
 30
0.0
 10
3292.222127255727
 20
1187.027487090414
 30
0.0
 10
3307.472127255727
 20
1187.027487090414
 30
0.0
  0
SPLINE
  5
71
330
1F
100
AcDbEntity
  8
Predefinito
100
AcDbSpline
210
0.0
220
0.0
230
1.0
 70
    24
 71
     2
 72
     6
 73
     3
 74
     0
 42
0.0000000001
 43
0.0000000001
 40
0.0
 40
0.0
 40
0.0
 40
30.5
 40
30.5
 40
30.5
 10
3307.472127255727
 20
1179.027487090414
 30
0.0
 10
3292.222127255727
 20
1179.027487090414
 30
0.0
 10
3276.972127255727
 20
1179.027487090414
 30
0.0
  0
SPLINE
  5
72
330
1F
100
AcDbEntity
  8
Predefinito
100
AcDbSpline
210
0.0
220
0.0
230
1.0
 70
    12
 71
     2
 72
     6
 73
     3
 74
     0
 42
0.0000000001
 43
0.0000000001
 40
0.0
 40
0.0
 40
0.0
 40
15.70751848811656
 40
15.70751848811656
 40
15.70751848811656
 10
3266.972127255727
 20
1197.027487090414
 30
0.0
 41
1.0
 10
3266.973163528302
 20
1187.028523362989
 30
0.0
 41
0.707180060519322
 10
3276.972127255727
 20
1187.027487090414
 30
0.0
 41
1.0
  0
SPLINE
  5
73
330
1F
100
AcDbEntity
  8
Predefinito
100
AcDbSpline
210
0.0
220
0.0
230
1.0
 70
    24
 71
     2
 72
     6
 73
     3
 74
     0
 42
0.0000000001
 43
0.0000000001
 40
0.0
 40
0.0
 40
0.0
 40
31.03387286480597
 40
31.03387286480597
 40
31.03387286480597
 10
3258.972127255727
 20
1221.993614225608
 30
0.0
 10
3258.972127255727
 20
1237.510550658011
 30
0.0
 10
3258.972127255727
 20
1253.027487090414
 30
0.0
  0
SPLINE
  5
74
330
1F
100
AcDbEntity
  8
Predefinito
100
AcDbSpline
210
0.0
220
0.0
230
1.0
 70
    24
 71
     2
 72
     6
 73
     3
 74
     0
 42
0.0000000001
 43
0.0000000001
 40
0.0
 40
0.0
 40
0.0
 40
15.99999999999977
 40
15.99999999999977
 40
15.99999999999977
 10
3258.972127255727
 20
1197.027487090414
 30
0.0
 10
3258.972127255727
 20
1205.027487090414
 30
0.0
 10
3258.972127255727
 20
1213.027487090413
 30
0.0
  0
SPLINE
  5
75
330
1F
100
AcDbEntity
  8
Predefinito
100
AcDbSpline
210
0.0
220
0.0
230
1.0
 70
    24
 71
     2
 72
     6
 73
     3
 74
     0
 42
0.0000000001
 43
0.0000000001
 40
0.0
 40
0.0
 40
0.0
 40
4.999843884692926
 40
4.999843884692926
 40
4.999843884692926
 10
3250.059402580368
 20
1253.027487090414
 30
0.0
 10
3250.015772926568
 20
1255.52702828254
 30
0.0
 10
3249.972143272769
 20
1258.026569474666
 30
0.0
  0
SPLINE
  5
76
330
1F
100
AcDbEntity
  8
Predefinito
100
AcDbSpline
210
0.0
220
0.0
230
1.0
 70
    24
 71
     2
 72
     6
 73
     3
 74
     0
 42
0.0000000001
 43
0.0000000001
 40
0.0
 40
0.0
 40
0.0
 40
4.999843884692926
 40
4.999843884692926
 40
4.999843884692926
 10
3275.972111238684
 20
1258.026569474666
 30
0.0
 10
3275.928481584885
 20
1255.52702828254
 30
0.0
 10
3275.884851931086
 20
1253.027487090414
 30
0.0
  0
SPLINE
  5
77
330
1F
100
AcDbEntity
  8
Predefinito
100
AcDbSpline
210
0.0
220
0.0
230
1.0
 70
    24
 71
     2
 72
     6
 73
     3
 74
     0
 42
0.0000000001
 43
0.0000000001
 40
0.0
 40
0.0
 40
0.0
 40
1.0
 40
1.0
 40
1.0
 10
3251.472127255727
 20
1258.027487090414
 30
0.0
 10
3251.472127255727
 20
1258.527487090414
 30
0.0
 10
3251.472127255727
 20
1259.027487090414
 30
0.0
  0
SPLINE
  5
78
330
1F
100
AcDbEntity
  8
Predefinito
100
AcDbSpline
210
0.0
220
0.0
230
1.0
 70
    24
 71
     2
 72
     6
 73
     3
 74
     0
 42
0.0000000001
 43
0.0000000001
 40
0.0
 40
0.0
 40
0.0
 40
79.95519657810723
 40
79.95519657810723
 40
79.95519657810723
 10
3310.058286558592
 20
1292.982683668521
 30
0.0
 10
3310.058286558592
 20
1253.005085379467
 30
0.0
 10
3310.058286558592
 20
1213.027487090414
 30
0.0
  0
SPLINE
  5
79
330
1F
100
AcDbEntity
  8
Predefinito
100
AcDbSpline
210
0.0
220
0.0
230
1.0
 70
    24
 71
     2
 72
     6
 73
     3
 74
     0
 42
0.0000000001
 43
0.0000000001
 40
0.0
 40
0.0
 40
0.0
 40
8.645799151171559
 40
8.645799151171559
 40
8.645799151171559
 10
3249.77904805555
 20
1213.027487090414
 30
0.0
 10
3249.77904805555
 20
1217.350386665999
 30
0.0
 10
3249.77904805555
 20
1221.673286241585
 30
0.0
  0
SPLINE
  5
7A
330
1F
100
AcDbEntity
  8
Predefinito
100
AcDbSpline
210
0.0
220
0.0
230
1.0
 70
    24
 71
     2
 72
     6
 73
     3
 74
     0
 42
0.0000000001
 43
0.0000000001
 40
0.0
 40
0.0
 40
0.0
 40
8.947821978106731
 40
8.947821978106731
 40
8.947821978106731
 10
3249.77904805555
 20
1283.027487090414
 30
0.0
 10
3249.77904805555
 20
1287.501398079467
 30
0.0
 10
3249.77904805555
 20
1291.97530906852
 30
0.0
  0
SPLINE
  5
7B
330
1F
100
AcDbEntity
  8
Predefinito
100
AcDbSpline
210
0.0
220
0.0
230
1.0
 70
    24
 71
     2
 72
     6
 73
     3
 74
     0
 42
0.0000000001
 43
0.0000000001
 40
0.0
 40
0.0
 40
0.0
 40
23.0
 40
23.0
 40
23.0
 10
3251.472127255727
 20
1281.327487090414
 30
0.0
 10
3262.972127255727
 20
1281.327487090414
 30
0.0
 10
3274.472127255727
 20
1281.327487090414
 30
0.0
  0
SPLINE
  5
7C
330
1F
100
AcDbEntity
  8
Predefinito
100
AcDbSpline
210
0.0
220
0.0
230
1.0
 70
    24
 71
     2
 72
     6
 73
     3
 74
     0
 42
0.0000000001
 43
0.0000000001
 40
0.0
 40
0.0
 40
0.0
 40
1.699999999999818
 40
1.699999999999818
 40
1.699999999999818
 10
3251.472127255727
 20
1283.027487090414
 30
0.0
 10
3251.472127255727
 20
1282.177487090414
 30
0.0
 10
3251.472127255727
 20
1281.327487090414
 30
0.0
  0
SPLINE
  5
7D
330
1F
100
AcDbEntity
  8
Predefinito
100
AcDbSpline
210
0.0
220
0.0
230
1.0
 70
    24
 71
     2
 72
     6
 73
     3
 74
     0
 42
0.0000000001
 43
0.0000000001
 40
0.0
 40
0.0
 40
0.0
 40
18.48253961525415
 40
18.48253961525415
 40
18.48253961525415
 10
3313.950030046176
 20
1786.344947475161
 30
0.0
 10
3313.950030046176
 20
1795.586217282789
 30
0.0
 10
3313.950030046176
 20
1804.827487090416
 30
0.0
  0
SPLINE
  5
7E
330
1F
100
AcDbEntity
  8
Predefinito
100
AcDbSpline
210
0.0
220
0.0
230
1.0
 70
    24
 71
     2
 72
     6
 73
     3
 74
     0
 42
0.0000000001
 43
0.0000000001
 40
0.0
 40
0.0
 40
0.0
 40
0.4999994741190221
 40
0.4999994741190221
 40
0.4999994741190221
 10
3313.450030572057
 20
1786.31002670567
 30
0.0
 10
3313.700030309116
 20
1786.31002670567
 30
0.0
 10
3313.950030046176
 20
1786.31002670567
 30
0.0
  0
SPLINE
  5
7F
330
1F
100
AcDbEntity
  8
Predefinito
100
AcDbSpline
210
0.0
220
0.0
230
1.0
 70
    24
 71
     2
 72
     6
 73
     3
 74
     0
 42
0.0000000001
 43
0.0000000001
 40
0.0
 40
0.0
 40
0.0
 40
0.5000000000002274
 40
0.5000000000002274
 40
0.5000000000002274
 10
3312.950030046176
 20
1786.31002670567
 30
0.0
 10
3313.200030046176
 20
1786.31002670567
 30
0.0
 10
3313.450030046176
 20
1786.31002670567
 30
0.0
  0
SPLINE
  5
80
330
1F
100
AcDbEntity
  8
Predefinito
100
AcDbSpline
210
0.0
220
0.0
230
1.0
 70
    24
 71
     2
 72
     6
 73
     3
 74
     0
 42
0.0000000001
 43
0.0000000001
 40
0.0
 40
0.0
 40
0.0
 40
18.51746038474585
 40
18.51746038474585
 40
18.51746038474585
 10
2633.950030046176
 20
1804.827487090416
 30
0.0
 10
2633.950030046176
 20
1795.568756898043
 30
0.0
 10
2633.950030046176
 20
1786.31002670567
 30
0.0
  0
SPLINE
  5
81
330
1F
100
AcDbEntity
  8
Predefinito
100
AcDbSpline
210
0.0
220
0.0
230
1.0
 70
    24
 71
     2
 72
     6
 73
     3
 74
     0
 42
0.0000000001
 43
0.0000000001
 40
0.0
 40
0.0
 40
0.0
 40
679.0
 40
679.0
 40
679.0
 10
3312.950030046176
 20
1784.827487090416
 30
0.0
 10
2973.450030046176
 20
1784.827487090416
 30
0.0
 10
2633.950030046176
 20
1784.827487090416
 30
0.0
  0
SPLINE
  5
82
330
1F
100
AcDbEntity
  8
Predefinito
100
AcDbSpline
210
0.0
220
0.0
230
1.0
 70
    24
 71
     2
 72
     6
 73
     3
 74
     0
 42
0.0000000001
 43
0.0000000001
 40
0.0
 40
0.0
 40
0.0
 40
18.50873019237292
 40
18.50873019237292
 40
18.50873019237292
 10
3312.950030046176
 20
1786.318756898043
 30
0.0
 10
3312.950030046176
 20
1795.573121994229
 30
0.0
 10
3312.950030046176
 20
1804.827487090416
 30
0.0
  0
SPLINE
  5
83
330
1F
100
AcDbEntity
  8
Predefinito
100
AcDbSpline
210
0.0
220
0.0
230
1.0
 70
    24
 71
     2
 72
     6
 73
     3
 74
     0
 42
0.0000000001
 43
0.0000000001
 40
0.0
 40
0.0
 40
0.0
 40
679.0
 40
679.0
 40
679.0
 10
3312.950030046176
 20
1804.827487090416
 30
0.0
 10
2973.450030046176
 20
1804.827487090416
 30
0.0
 10
2633.950030046176
 20
1804.827487090416
 30
0.0
  0
SPLINE
  5
84
330
1F
100
AcDbEntity
  8
Predefinito
100
AcDbSpline
210
0.0
220
0.0
230
1.0
 70
    24
 71
     2
 72
     6
 73
     3
 74
     0
 42
0.0000000001
 43
0.0000000001
 40
0.0
 40
0.0
 40
0.0
 40
1.00060954429882
 40
1.00060954429882
 40
1.00060954429882
 10
2633.950030046176
 20
1804.41002670567
 30
0.0
 10
2633.450030046176
 20
1804.427487090416
 30
0.0
 10
2632.950030046176
 20
1804.444947475162
 30
0.0
  0
SPLINE
  5
85
330
1F
100
AcDbEntity
  8
Predefinito
100
AcDbSpline
210
0.0
220
0.0
230
1.0
 70
    12
 71
     2
 72
     8
 73
     5
 74
     0
 42
0.0000000001
 43
0.0000000001
 40
0.0
 40
0.0
 40
0.0
 40
0.0525035152227247
 40
0.0525035152227247
 40
20.75813954449052
 40
20.75813954449052
 40
20.75813954449052
 10
2620.002533561399
 20
1804.827486991882
 30
0.0
 41
1.0
 10
2619.976281803787
 20
1804.827486991883
 30
0.0
 41
1.0
 10
2619.950030046176
 20
1804.827486991883
 30
0.0
 41
1.0
 10
2619.950030046176
 20
1804.827487090416
 30
0.0
 41
0.720082299823107
 10
2632.950030046176
 20
1804.827487090416
 30
0.0
 41
1.0
  0
SPLINE
  5
86
330
1F
100
AcDbEntity
  8
Predefinito
100
AcDbSpline
210
0.0
220
0.0
230
1.0
 70
    24
 71
     2
 72
     6
 73
     3
 74
     0
 42
0.0000000001
 43
0.0000000001
 40
0.0
 40
0.0
 40
0.0
 40
18.51746038474585
 40
18.51746038474585
 40
18.51746038474585
 10
2632.950030046176
 20
1804.827487090416
 30
0.0
 10
2632.950030046176
 20
1795.568756898043
 30
0.0
 10
2632.950030046176
 20
1786.31002670567
 30
0.0
  0
SPLINE
  5
87
330
1F
100
AcDbEntity
  8
Predefinito
100
AcDbSpline
210
0.0
220
0.0
230
1.0
 70
    24
 71
     2
 72
     6
 73
     3
 74
     0
 42
0.0000000001
 43
0.0000000001
 40
0.0
 40
0.0
 40
0.0
 40
0.5
 40
0.5
 40
0.5
 10
2633.450030046176
 20
1784.827487090416
 30
0.0
 10
2633.700030046176
 20
1784.827487090416
 30
0.0
 10
2633.950030046176
 20
1784.827487090416
 30
0.0
  0
SPLINE
  5
88
330
1F
100
AcDbEntity
  8
Predefinito
100
AcDbSpline
210
0.0
220
0.0
230
1.0
 70
    12
 71
     2
 72
    10
 73
     7
 74
     0
 42
0.0000000001
 43
0.0000000001
 40
0.0
 40
0.0
 40
0.0
 40
0.0525035152222699
 40
0.0525035152222699
 40
20.75813954449007
 40
20.75813954449007
 40
21.20009735271054
 40
21.20009735271054
 40
21.20009735271054
 10
2620.002533561398
 20
1784.827486991882
 30
0.0
 41
1.0
 10
2619.976281803787
 20
1784.827486991883
 30
0.0
 41
1.0
 10
2619.950030046176
 20
1784.827486991883
 30
0.0
 41
1.0
 10
2619.950030046176
 20
1784.827487090416
 30
0.0
 41
0.720082299823107
 10
2632.950030046175
 20
1784.827487090416
 30
0.0
 41
1.0
 10
2633.170878187208
 20
1784.827487090416
 30
0.0
 41
0.9998484066276038
 10
2633.391875907113
 20
1784.827487090416
 30
0.0
 41
0.9999647434605937
  0
SPLINE
  5
89
330
1F
100
AcDbEntity
  8
Predefinito
100
AcDbSpline
210
0.0
220
0.0
230
1.0
 70
    24
 71
     2
 72
     6
 73
     3
 74
     0
 42
0.0000000001
 43
0.0000000001
 40
0.0
 40
0.0
 40
0.0
 40
0.5000000006518803
 40
0.5000000006518803
 40
0.5000000006518803
 10
2633.450030045524
 20
1786.31002670567
 30
0.0
 10
2633.70003004585
 20
1786.31002670567
 30
0.0
 10
2633.950030046176
 20
1786.31002670567
 30
0.0
  0
SPLINE
  5
8A
330
1F
100
AcDbEntity
  8
Predefinito
100
AcDbSpline
210
0.0
220
0.0
230
1.0
 70
    24
 71
     2
 72
     6
 73
     3
 74
     0
 42
0.0000000001
 43
0.0000000001
 40
0.0
 40
0.0
 40
0.0
 40
0.4999994741190221
 40
0.4999994741190221
 40
0.4999994741190221
 10
2632.950030046176
 20
1786.31002670567
 30
0.0
 10
2633.200029783236
 20
1786.31002670567
 30
0.0
 10
2633.450029520295
 20
1786.31002670567
 30
0.0
  0
SPLINE
  5
8B
330
1F
100
AcDbEntity
  8
Predefinito
100
AcDbSpline
210
0.0
220
0.0
230
1.0
 70
    24
 71
     2
 72
     6
 73
     3
 74
     0
 42
0.0000000001
 43
0.0000000001
 40
0.0
 40
0.0
 40
0.0
 40
114.277452264241
 40
114.277452264241
 40
114.277452264241
 10
3291.527537148733
 20
1804.827487090416
 30
0.0
 10
3291.527537148733
 20
1861.966213222536
 30
0.0
 10
3291.527537148733
 20
1919.104939354657
 30
0.0
  0
SPLINE
  5
8C
330
1F
100
AcDbEntity
  8
Predefinito
100
AcDbSpline
210
0.0
220
0.0
230
1.0
 70
    24
 71
     2
 72
     6
 73
     3
 74
     0
 42
0.0000000001
 43
0.0000000001
 40
0.0
 40
0.0
 40
0.0
 40
492.12168530128
 40
492.12168530128
 40
492.12168530128
 10
3291.527537148733
 20
1292.705801789136
 30
0.0
 10
3291.527537148733
 20
1538.766644439776
 30
0.0
 10
3291.527537148733
 20
1784.827487090416
 30
0.0
  0
SPLINE
  5
8D
330
1F
100
AcDbEntity
  8
Predefinito
100
AcDbSpline
210
0.0
220
0.0
230
1.0
 70
    24
 71
     2
 72
     6
 73
     3
 74
     0
 42
0.0000000001
 43
0.0000000001
 40
0.0
 40
0.0
 40
0.0
 40
491.9507360522136
 40
491.9507360522136
 40
491.9507360522136
 10
3301.527537148733
 20
1784.827487090416
 30
0.0
 10
3301.527537148733
 20
1538.852119064309
 30
0.0
 10
3301.527537148733
 20
1292.876751038202
 30
0.0
  0
SPLINE
  5
8E
330
1F
100
AcDbEntity
  8
Predefinito
100
AcDbSpline
210
0.0
220
0.0
230
1.0
 70
    24
 71
     2
 72
     6
 73
     3
 74
     0
 42
0.0000000001
 43
0.0000000001
 40
0.0
 40
0.0
 40
0.0
 40
114.277452264241
 40
114.277452264241
 40
114.277452264241
 10
3301.527537148733
 20
1919.104939354657
 30
0.0
 10
3301.527537148733
 20
1861.966213222536
 30
0.0
 10
3301.527537148733
 20
1804.827487090416
 30
0.0
  0
SPLINE
  5
8F
330
1F
100
AcDbEntity
  8
Predefinito
100
AcDbSpline
210
0.0
220
0.0
230
1.0
 70
    24
 71
     2
 72
     6
 73
     3
 74
     0
 42
0.0000000001
 43
0.0000000001
 40
0.0
 40
0.0
 40
0.0
 40
0.2675853367709351
 40
0.2675853367709351
 40
0.2675853367709351
 10
3301.176478654045
 20
1919.104939354657
 30
0.0
 10
3301.31027132243
 20
1919.104939354657
 30
0.0
 10
3301.444063990816
 20
1919.104939354657
 30
0.0
  0
SPLINE
  5
90
330
1F
100
AcDbEntity
  8
Predefinito
100
AcDbSpline
210
0.0
220
0.0
230
1.0
 70
    24
 71
     2
 72
     6
 73
     3
 74
     0
 42
0.0000000001
 43
0.0000000001
 40
0.0
 40
0.0
 40
0.0
 40
9.86437218284891
 40
9.86437218284891
 40
9.86437218284891
 10
3291.636868128259
 20
1920.609302456264
 30
0.0
 10
3296.569054219683
 20
1920.609302456264
 30
0.0
 10
3301.501240311108
 20
1920.609302456264
 30
0.0
  0
SPLINE
  5
91
330
1F
100
AcDbEntity
  8
Predefinito
100
AcDbSpline
210
0.0
220
0.0
230
1.0
 70
    24
 71
     2
 72
     6
 73
     3
 74
     0
 42
0.0000000001
 43
0.0000000001
 40
0.0
 40
0.0
 40
0.0
 40
8.872795015394331
 40
8.872795015394331
 40
8.872795015394331
 10
3300.926590925541
 20
1921.104939354655
 30
0.0
 10
3296.490193417844
 20
1921.104939354655
 30
0.0
 10
3292.053795910147
 20
1921.104939354655
 30
0.0
  0
SPLINE
  5
92
330
1F
100
AcDbEntity
  8
Predefinito
100
AcDbSpline
210
0.0
220
0.0
230
1.0
 70
    24
 71
     2
 72
     6
 73
     3
 74
     0
 42
0.0000000001
 43
0.0000000001
 40
0.0
 40
0.0
 40
0.0
 40
1.503134003819978
 40
1.503134003819978
 40
1.503134003819978
 10
3301.527511650161
 20
1919.106398051392
 30
0.0
 10
3301.514375980634
 20
1919.857850253828
 30
0.0
 10
3301.501240311108
 20
1920.609302456264
 30
0.0
  0
SPLINE
  5
93
330
1F
100
AcDbEntity
  8
Predefinito
100
AcDbSpline
210
0.0
220
0.0
230
1.0
 70
    24
 71
     2
 72
     6
 73
     3
 74
     0
 42
0.0000000001
 43
0.0000000001
 40
0.0
 40
0.0
 40
0.0
 40
1.504592923402556
 40
1.504592923402556
 40
1.504592923402556
 10
3291.553833986358
 20
1920.609302456264
 30
0.0
 10
3291.540685567546
 20
1919.857120905459
 30
0.0
 10
3291.527537148733
 20
1919.104939354655
 30
0.0
  0
SPLINE
  5
94
330
1F
100
AcDbEntity
  8
Predefinito
100
AcDbSpline
210
0.0
220
0.0
230
1.0
 70
    12
 71
     2
 72
     8
 73
     5
 74
     0
 42
0.0000000001
 43
0.0000000001
 40
0.0
 40
0.0
 40
0.0
 40
0.3913077913782159
 40
0.3913077913782159
 40
0.7826155827564317
 40
0.7826155827564317
 40
0.7826155827564317
 10
3291.553833986358
 20
1920.609302456264
 30
0.0
 41
1.0
 10
3291.554088286262
 20
1920.815766101362
 30
0.0
 41
0.9232828773490946
 10
3291.700713067185
 20
1920.96112247389
 30
0.0
 41
1.0
 10
3291.847337848109
 20
1921.106478846418
 30
0.0
 41
0.9232828773490946
 10
3292.053795910147
 20
1921.104939354655
 30
0.0
 41
1.0
  0
SPLINE
  5
95
330
1F
100
AcDbEntity
  8
Predefinito
100
AcDbSpline
210
0.0
220
0.0
230
1.0
 70
    12
 71
     2
 72
     8
 73
     5
 74
     0
 42
0.0000000001
 43
0.0000000001
 40
0.0
 40
0.0
 40
0.0
 40
0.3913077913782416
 40
0.3913077913782416
 40
0.7826155827564831
 40
0.7826155827564831
 40
0.7826155827564831
 10
3301.001278387319
 20
1921.104939354655
 30
0.0
 41
1.0
 10
3301.207736449357
 20
1921.106478846418
 30
0.0
 41
0.9232828773490946
 10
3301.35436123028
 20
1920.96112247389
 30
0.0
 41
1.0
 10
3301.500986011204
 20
1920.815766101362
 30
0.0
 41
0.9232828773490946
 10
3301.501240311108
 20
1920.609302456264
 30
0.0
 41
1.0
  0
SPLINE
  5
96
330
1F
100
AcDbEntity
  8
Predefinito
100
AcDbSpline
210
0.0
220
0.0
230
1.0
 70
    24
 71
     2
 72
     6
 73
     3
 74
     0
 42
0.0000000001
 43
0.0000000001
 40
0.0
 40
0.0
 40
0.0
 40
9.648941505311996
 40
9.648941505311996
 40
9.648941505311996
 10
3301.176478654045
 20
1919.104939354655
 30
0.0
 10
3296.352007901389
 20
1919.104939354655
 30
0.0
 10
3291.527537148733
 20
1919.104939354655
 30
0.0
  0
SPLINE
  5
97
330
1F
100
AcDbEntity
  8
Predefinito
100
AcDbSpline
210
0.0
220
0.0
230
1.0
 70
    24
 71
     2
 72
     6
 73
     3
 74
     0
 42
0.0000000001
 43
0.0000000001
 40
0.0
 40
0.0
 40
0.0
 40
3.441568789457961
 40
3.441568789457961
 40
3.441568789457961
 10
3307.972127255727
 20
1183.027487090414
 30
0.0
 10
3307.972127255727
 20
1184.748271485143
 30
0.0
 10
3307.972127255727
 20
1186.469055879872
 30
0.0
  0
SPLINE
  5
98
330
1F
100
AcDbEntity
  8
Predefinito
100
AcDbSpline
210
0.0
220
0.0
230
1.0
 70
    12
 71
     2
 72
     8
 73
     5
 74
     0
 42
0.0000000001
 43
0.0000000001
 40
0.0
 40
0.0
 40
0.0
 40
0.0584312105418121
 40
0.0584312105418121
 40
5.55621835432395
 40
5.55621835432395
 40
5.55621835432395
 10
3307.972126960754
 20
1179.585918300955
 30
0.0
 41
1.0
 10
3307.972126960754
 20
1179.556702695685
 30
0.0
 41
1.0
 10
3307.972126960754
 20
1179.527487090414
 30
0.0
 41
1.0
 10
3307.972127255726
 20
1179.527487090414
 30
0.0
 41
0.7071067811865476
 10
3307.972127255727
 20
1183.027487090414
 30
0.0
 41
1.0
  0
SPLINE
  5
99
330
1F
100
AcDbEntity
  8
Predefinito
100
AcDbSpline
210
0.0
220
0.0
230
1.0
 70
    28
 71
     2
 72
     8
 73
     5
 74
     0
 42
0.0000000001
 43
0.0000000001
 40
18.06415775814131
 40
18.06415775814131
 40
18.06415775814131
 40
18.84955592153876
 40
18.84955592153876
 40
25.13274122871834
 40
25.13274122871834
 40
25.13274122871834
 10
3307.472127255726
 20
1179.094265616747
 30
0.0
 41
0.9359296083845572
 10
3307.472127255727
 20
1179.027487090414
 30
0.0
 41
0.9633883476483184
 10
3307.472127255727
 20
1179.027487090414
 30
0.0
 41
1.0
 10
3307.472127255727
 20
1179.027487090414
 30
0.0
 41
0.7071067811865476
 10
3307.472127255727
 20
1183.027487090414
 30
0.0
 41
1.0
  0
SPLINE
  5
9A
330
1F
100
AcDbEntity
  8
Predefinito
100
AcDbSpline
210
0.0
220
0.0
230
1.0
 70
    24
 71
     2
 72
     6
 73
     3
 74
     0
 42
0.0000000001
 43
0.0000000001
 40
0.0
 40
0.0
 40
0.0
 40
3.933221473666435
 40
3.933221473666435
 40
3.933221473666435
 10
3307.472127255727
 20
1183.027487090414
 30
0.0
 10
3307.472127255727
 20
1184.994097827247
 30
0.0
 10
3307.472127255727
 20
1186.96070856408
 30
0.0
  0
SPLINE
  5
9B
330
1F
100
AcDbEntity
  8
Predefinito
100
AcDbSpline
210
0.0
220
0.0
230
1.0
 70
    12
 71
     2
 72
     6
 73
     3
 74
     0
 42
0.0000000001
 43
0.0000000001
 40
0.0
 40
0.0
 40
0.0
 40
28.27433388230785
 40
28.27433388230785
 40
28.27433388230785
 10
3276.972127255727
 20
1179.027487090414
 30
0.0
 41
1.0
 10
3258.972127255727
 20
1179.027487090414
 30
0.0
 41
0.7071067811865743
 10
3258.972127255727
 20
1197.027487090414
 30
0.0
 41
1.0
  0
SPLINE
  5
9C
330
1F
100
AcDbEntity
  8
Predefinito
100
AcDbSpline
210
0.0
220
0.0
230
1.0
 70
    24
 71
     2
 72
     6
 73
     3
 74
     0
 42
0.0000000001
 43
0.0000000001
 40
0.0
 40
0.0
 40
0.0
 40
30.75380529322638
 40
30.75380529322638
 40
30.75380529322638
 10
3266.972127255727
 20
1222.273681797187
 30
0.0
 10
3266.972127255727
 20
1237.6505844438
 30
0.0
 10
3266.972127255727
 20
1253.027487090414
 30
0.0
  0
SPLINE
  5
9D
330
1F
100
AcDbEntity
  8
Predefinito
100
AcDbSpline
210
0.0
220
0.0
230
1.0
 70
    24
 71
     2
 72
     6
 73
     3
 74
     0
 42
0.0000000001
 43
0.0000000001
 40
0.0
 40
0.0
 40
0.0
 40
16.0
 40
16.0
 40
16.0
 10
3266.972127255727
 20
1197.027487090414
 30
0.0
 10
3266.972127255727
 20
1205.027487090414
 30
0.0
 10
3266.972127255727
 20
1213.027487090414
 30
0.0
  0
SPLINE
  5
9E
330
1F
100
AcDbEntity
  8
Predefinito
100
AcDbSpline
210
0.0
220
0.0
230
1.0
 70
    24
 71
     2
 72
     6
 73
     3
 74
     0
 42
0.0000000001
 43
0.0000000001
 40
0.0
 40
0.0
 40
0.0
 40
12.94741381196741
 40
12.94741381196741
 40
12.94741381196741
 10
3262.972127255727
 20
1258.027487090414
 30
0.0
 10
3256.498420349743
 20
1258.027487090414
 30
0.0
 10
3250.02471344376
 20
1258.027487090414
 30
0.0
  0
SPLINE
  5
9F
330
1F
100
AcDbEntity
  8
Predefinito
100
AcDbSpline
210
0.0
220
0.0
230
1.0
 70
    12
 71
     2
 72
     8
 73
     5
 74
     0
 42
0.0000000001
 43
0.0000000001
 40
0.0
 40
0.0
 40
0.0
 40
0.052586188032592
 40
0.052586188032592
 40
20.47293843636625
 40
20.47293843636625
 40
20.47293843636625
 10
3275.919541067694
 20
1258.027486801147
 30
0.0
 41
1.0
 10
3275.945834161711
 20
1258.027486801148
 30
0.0
 41
1.0
 10
3275.972127255727
 20
1258.027486801148
 30
0.0
 41
1.0
 10
3275.972127255727
 20
1258.027487090414
 30
0.0
 41
0.7071067811865476
 10
3262.972127255727
 20
1258.027487090414
 30
0.0
 41
1.0
  0
SPLINE
  5
A0
330
1F
100
AcDbEntity
  8
Predefinito
100
AcDbSpline
210
0.0
220
0.0
230
1.0
 70
    24
 71
     2
 72
     6
 73
     3
 74
     0
 42
0.0000000001
 43
0.0000000001
 40
0.0
 40
0.0
 40
0.0
 40
12.86049152399028
 40
12.86049152399028
 40
12.86049152399028
 10
3262.972127255727
 20
1253.027487090414
 30
0.0
 10
3269.402373017722
 20
1253.027487090414
 30
0.0
 10
3275.832618779717
 20
1253.027487090414
 30
0.0
  0
SPLINE
  5
A1
330
1F
100
AcDbEntity
  8
Predefinito
100
AcDbSpline
210
0.0
220
0.0
230
1.0
 70
    12
 71
     2
 72
     8
 73
     5
 74
     0
 42
0.0000000001
 43
0.0000000001
 40
0.0
 40
0.0
 40
0.0
 40
0.0522331513684549
 40
0.0522331513684549
 40
20.33549364033604
 40
20.33549364033604
 40
20.33549364033604
 10
3250.111635731736
 20
1253.027487039566
 30
0.0
 41
1.0
 10
3250.085519156052
 20
1253.027487039567
 30
0.0
 41
1.0
 10
3250.059402580368
 20
1253.027487039567
 30
0.0
 41
1.0
 10
3250.059402580368
 20
1253.027487090414
 30
0.0
 41
0.7071067811865476
 10
3262.972127255727
 20
1253.027487090414
 30
0.0
 41
1.0
  0
SPLINE
  5
A2
330
1F
100
AcDbEntity
  8
Predefinito
100
AcDbSpline
210
0.0
220
0.0
230
1.0
 70
    24
 71
     2
 72
     6
 73
     3
 74
     0
 42
0.0000000001
 43
0.0000000001
 40
0.0
 40
0.0
 40
0.0
 40
1.0
 40
1.0
 40
1.0
 10
3274.472127255727
 20
1258.027487090414
 30
0.0
 10
3274.472127255727
 20
1258.527487090414
 30
0.0
 10
3274.472127255727
 20
1259.027487090414
 30
0.0
  0
SPLINE
  5
A3
330
1F
100
AcDbEntity
  8
Predefinito
100
AcDbSpline
210
0.0
220
0.0
230
1.0
 70
    24
 71
     2
 72
     6
 73
     3
 74
     0
 42
0.0000000001
 43
0.0000000001
 40
0.0
 40
0.0
 40
0.0
 40
0.8020354987331757
 40
0.8020354987331757
 40
0.8020354987331757
 10
3252.349255010236
 20
1259.027487090414
 30
0.0
 10
3251.948237260869
 20
1259.027487090414
 30
0.0
 10
3251.547219511502
 20
1259.027487090414
 30
0.0
  0
SPLINE
  5
A4
330
1F
100
AcDbEntity
  8
Predefinito
100
AcDbSpline
210
0.0
220
0.0
230
1.0
 70
    24
 71
     2
 72
     6
 73
     3
 74
     0
 42
0.0000000001
 43
0.0000000001
 40
0.0
 40
0.0
 40
0.0
 40
22.12287224549141
 40
22.12287224549141
 40
22.12287224549141
 10
3274.472127255727
 20
1259.027487090414
 30
0.0
 10
3263.410691132981
 20
1259.027487090414
 30
0.0
 10
3252.349255010236
 20
1259.027487090414
 30
0.0
  0
SPLINE
  5
A5
330
1F
100
AcDbEntity
  8
Predefinito
100
AcDbSpline
210
0.0
220
0.0
230
1.0
 70
    24
 71
     2
 72
     6
 73
     3
 74
     0
 42
0.0000000001
 43
0.0000000001
 40
0.0
 40
0.0
 40
0.0
 40
8.235607486905792
 40
8.235607486905792
 40
8.235607486905792
 10
3296.793894045495
 20
1213.027487090414
 30
0.0
 10
3292.676090302042
 20
1213.027487090414
 30
0.0
 10
3288.558286558589
 20
1213.027487090414
 30
0.0
  0
SPLINE
  5
A6
330
1F
100
AcDbEntity
  8
Predefinito
100
AcDbSpline
210
0.0
220
0.0
230
1.0
 70
    24
 71
     2
 72
     6
 73
     3
 74
     0
 42
0.0000000001
 43
0.0000000001
 40
0.0
 40
0.0
 40
0.0
 40
13.21077680642884
 40
13.21077680642884
 40
13.21077680642884
 10
3296.793894045495
 20
1213.027487090414
 30
0.0
 10
3303.399282448709
 20
1213.027487090414
 30
0.0
 10
3310.004670851923
 20
1213.027487090414
 30
0.0
  0
SPLINE
  5
A7
330
1F
100
AcDbEntity
  8
Predefinito
100
AcDbSpline
210
0.0
220
0.0
230
1.0
 70
    12
 71
     2
 72
     8
 73
     5
 74
     0
 42
0.0000000001
 43
0.0000000001
 40
0.0
 40
0.0
 40
0.0
 40
0.0523967603301116
 40
0.0523967603301116
 40
20.54577443656039
 40
20.54577443656039
 40
20.54577443656039
 10
3249.83144481588
 20
1213.027486801147
 30
0.0
 41
1.0
 10
3249.805246435715
 20
1213.027486801147
 30
0.0
 41
1.0
 10
3249.77904805555
 20
1213.027486801147
 30
0.0
 41
1.0
 10
3249.77904805555
 20
1213.027487090414
 30
0.0
 41
0.7132504491541918
 10
3262.741876275365
 20
1213.027487090414
 30
0.0
 41
1.0
  0
SPLINE
  5
A8
330
1F
100
AcDbEntity
  8
Predefinito
100
AcDbSpline
210
0.0
220
0.0
230
1.0
 70
    12
 71
     2
 72
     6
 73
     3
 74
     0
 42
0.0000000001
 43
0.0000000001
 40
0.0
 40
0.0
 40
0.0
 40
12.89603313226828
 40
12.89603313226828
 40
12.89603313226828
 10
3262.741876275365
 20
1222.12595817781
 30
0.0
 41
1.0
 10
3256.297950534748
 20
1221.896278406008
 30
0.0
 41
0.9999997454534588
 10
3249.853703598829
 20
1221.675794445002
 30
0.0
 41
1.0
  0
SPLINE
  5
A9
330
1F
100
AcDbEntity
  8
Predefinito
100
AcDbSpline
210
0.0
220
0.0
230
1.0
 70
    12
 71
     2
 72
     8
 73
     5
 74
     0
 42
0.0000000001
 43
0.0000000001
 40
0.0
 40
0.0
 40
0.0
 40
0.0523967603301116
 40
0.0523967603301116
 40
20.54577443656039
 40
20.54577443656039
 40
20.54577443656039
 10
3249.83144481588
 20
1283.027487039566
 30
0.0
 41
1.0
 10
3249.805246435715
 20
1283.027487039566
 30
0.0
 41
1.0
 10
3249.77904805555
 20
1283.027487039567
 30
0.0
 41
1.0
 10
3249.77904805555
 20
1283.027487090414
 30
0.0
 41
0.7132504491541918
 10
3262.741876275365
 20
1283.027487090414
 30
0.0
 41
1.0
  0
SPLINE
  5
AA
330
1F
100
AcDbEntity
  8
Predefinito
100
AcDbSpline
210
0.0
220
0.0
230
1.0
 70
    24
 71
     2
 72
     6
 73
     3
 74
     0
 42
0.0000000001
 43
0.0000000001
 40
0.0
 40
0.0
 40
0.0
 40
25.81641028322429
 40
25.81641028322429
 40
25.81641028322429
 10
3262.741876275365
 20
1213.027487090414
 30
0.0
 10
3275.650081416977
 20
1213.027487090414
 30
0.0
 10
3288.558286558589
 20
1213.027487090414
 30
0.0
  0
SPLINE
  5
AB
330
1F
100
AcDbEntity
  8
Predefinito
100
AcDbSpline
210
0.0
220
0.0
230
1.0
 70
    24
 71
     2
 72
     6
 73
     3
 74
     0
 42
0.0000000001
 43
0.0000000001
 40
0.0
 40
0.0
 40
0.0
 40
25.832146528903
 40
25.832146528903
 40
25.832146528903
 10
3288.558286558563
 20
1223.027487090414
 30
0.0
 10
3275.650081416964
 20
1222.576722634112
 30
0.0
 10
3262.741876275365
 20
1222.12595817781
 30
0.0
  0
SPLINE
  5
AC
330
1F
100
AcDbEntity
  8
Predefinito
100
AcDbSpline
210
0.0
220
0.0
230
1.0
 70
    24
 71
     2
 72
     6
 73
     3
 74
     0
 42
0.0000000001
 43
0.0000000001
 40
0.0
 40
0.0
 40
0.0
 40
10.00000000000045
 40
10.00000000000045
 40
10.00000000000045
 10
3288.558286558589
 20
1213.027487090414
 30
0.0
 10
3288.558286558576
 20
1218.027487090414
 30
0.0
 10
3288.558286558563
 20
1223.027487090414
 30
0.0
  0
SPLINE
  5
AD
330
1F
100
AcDbEntity
  8
Predefinito
100
AcDbSpline
210
0.0
220
0.0
230
1.0
 70
    24
 71
     2
 72
     6
 73
     3
 74
     0
 42
0.0000000001
 43
0.0000000001
 40
0.0
 40
0.0
 40
0.0
 40
9.624716104044182
 40
9.624716104044182
 40
9.624716104044182
 10
3288.558286558547
 20
1283.027487090414
 30
0.0
 10
3288.558286558568
 20
1287.839845142436
 30
0.0
 10
3288.558286558589
 20
1292.652203194458
 30
0.0
  0
SPLINE
  5
AE
330
1F
100
AcDbEntity
  8
Predefinito
100
AcDbSpline
210
0.0
220
0.0
230
1.0
 70
    24
 71
     2
 72
     6
 73
     3
 74
     0
 42
0.0000000001
 43
0.0000000001
 40
0.0
 40
0.0
 40
0.0
 40
25.81641028318313
 40
25.81641028318313
 40
25.81641028318313
 10
3262.741876275365
 20
1283.027487090414
 30
0.0
 10
3275.650081416956
 20
1283.027487090414
 30
0.0
 10
3288.558286558547
 20
1283.027487090414
 30
0.0
  0
SPLINE
  5
AF
330
1F
100
AcDbEntity
  8
Predefinito
100
AcDbSpline
210
0.0
220
0.0
230
1.0
 70
    24
 71
     2
 72
     6
 73
     3
 74
     0
 42
0.0000000001
 43
0.0000000001
 40
0.0
 40
0.0
 40
0.0
 40
59.99999999999955
 40
59.99999999999955
 40
59.99999999999955
 10
3288.558286558563
 20
1223.027487090414
 30
0.0
 10
3288.558286558556
 20
1253.027487090414
 30
0.0
 10
3288.558286558547
 20
1283.027487090414
 30
0.0
  0
SPLINE
  5
B0
330
1F
100
AcDbEntity
  8
Predefinito
100
AcDbSpline
210
0.0
220
0.0
230
1.0
 70
    24
 71
     2
 72
     6
 73
     3
 74
     0
 42
0.0000000001
 43
0.0000000001
 40
0.0
 40
0.0
 40
0.0
 40
8.236862000884662
 40
8.236862000884662
 40
8.236862000884662
 10
3296.793894045495
 20
1292.795956257865
 30
0.0
 10
3292.676090302042
 20
1292.724079726161
 30
0.0
 10
3288.558286558589
 20
1292.652203194458
 30
0.0
  0
SPLINE
  5
B1
330
1F
100
AcDbEntity
  8
Predefinito
100
AcDbSpline
210
0.0
220
0.0
230
1.0
 70
    24
 71
     2
 72
     6
 73
     3
 74
     0
 42
0.0000000001
 43
0.0000000001
 40
0.0
 40
0.0
 40
0.0
 40
25.82034284650345
 40
25.82034284650345
 40
25.82034284650345
 10
3288.558286558589
 20
1292.652203194458
 30
0.0
 10
3275.650081416977
 20
1292.426889635604
 30
0.0
 10
3262.741876275365
 20
1292.201576076751
 30
0.0
  0
SPLINE
  5
B2
330
1F
100
AcDbEntity
  8
Predefinito
100
AcDbSpline
210
0.0
220
0.0
230
1.0
 70
    12
 71
     2
 72
     6
 73
     3
 74
     0
 42
0.0000000001
 43
0.0000000001
 40
0.0
 40
0.0
 40
0.0
 40
12.90801025433181
 40
12.90801025433181
 40
12.90801025433181
 10
3262.741876275365
 20
1292.201576076752
 30
0.0
 41
1.0
 10
3256.288742744199
 20
1292.095382558907
 30
0.0
 41
0.9999995093029211
 10
3249.835832280976
 20
1291.976403620002
 30
0.0
 41
1.0
  0
SPLINE
  5
B3
330
1F
100
AcDbEntity
  8
Predefinito
100
AcDbSpline
210
0.0
220
0.0
230
1.0
 70
    12
 71
     3
 72
    12
 73
     8
 74
     0
 42
0.0000000001
 43
0.0000000001
 40
41.08759184408889
 40
41.08759184408889
 40
41.08759184408889
 40
41.08759184408889
 40
42.41792361404213
 40
42.41792361404213
 40
53.05496284573775
 40
53.05496284573775
 40
63.36130530156846
 40
63.36130530156846
 40
63.36130530156846
 40
63.36130530156846
 10
3309.992437887328
 20
1292.982683668521
 30
0.0
 41
1.0
 10
3310.036207424213
 20
1292.983186606153
 30
0.0
 41
1.0
 10
3310.058388730394
 20
1292.983437470038
 30
0.0
 41
1.0
 10
3310.057466294884
 20
1292.983426586364
 30
0.0
 41
1.0
 10
3308.632048851184
 20
1292.967301210981
 30
0.0
 41
1.0
 10
3303.721218056408
 20
1292.903821405559
 30
0.0
 41
1.0
 10
3300.317065642218
 20
1292.857453446839
 30
0.0
 41
1.0
 10
3296.793894045495
 20
1292.795956257865
 30
0.0
 41
1.0
  0
SPLINE
  5
B4
330
1F
100
AcDbEntity
  8
Predefinito
100
AcDbSpline
210
0.0
220
0.0
230
1.0
 70
    24
 71
     2
 72
     6
 73
     3
 74
     0
 42
0.0000000001
 43
0.0000000001
 40
0.0
 40
0.0
 40
0.0
 40
12.9474964847775
 40
12.9474964847775
 40
12.9474964847775
 10
3313.950030046176
 20
1804.827487090416
 30
0.0
 10
3320.423778288565
 20
1804.827487090416
 30
0.0
 10
3326.897526530953
 20
1804.827487090416
 30
0.0
  0
SPLINE
  5
B5
330
1F
100
AcDbEntity
  8
Predefinito
100
AcDbSpline
210
0.0
220
0.0
230
1.0
 70
    24
 71
     2
 72
     6
 73
     3
 74
     0
 42
0.0000000001
 43
0.0000000001
 40
0.0
 40
0.0
 40
0.0
 40
13.38934234571639
 40
13.38934234571639
 40
13.38934234571639
 10
3313.508184185237
 20
1784.827487090416
 30
0.0
 10
3320.202855358095
 20
1784.827487090416
 30
0.0
 10
3326.897526530953
 20
1784.827487090416
 30
0.0
  0
SPLINE
  5
B6
330
1F
100
AcDbEntity
  8
Predefinito
100
AcDbSpline
210
0.0
220
0.0
230
1.0
 70
    24
 71
     2
 72
     6
 73
     3
 74
     0
 42
0.0000000001
 43
0.0000000001
 40
0.0
 40
0.0
 40
0.0
 40
0.5
 40
0.5
 40
0.5
 10
3312.950030046176
 20
1784.827487090416
 30
0.0
 10
3313.200030046176
 20
1784.827487090416
 30
0.0
 10
3313.450030046176
 20
1784.827487090416
 30
0.0
  0
SPLINE
  5
B7
330
1F
100
AcDbEntity
  8
Predefinito
100
AcDbSpline
210
0.0
220
0.0
230
1.0
 70
    24
 71
     2
 72
     6
 73
     3
 74
     0
 42
0.0000000001
 43
0.0000000001
 40
0.0
 40
0.0
 40
0.0
 40
0.4999997692735688
 40
0.4999997692735688
 40
0.4999997692735688
 10
3313.450029814842
 20
26.99999999141337
 30
0.0
 10
3313.200029930509
 20
26.99998767086295
 30
0.0
 10
3312.950030046175
 20
26.99997535031254
 30
0.0
  0
SPLINE
  5
B8
330
1F
100
AcDbEntity
  8
Predefinito
100
AcDbSpline
210
0.0
220
0.0
230
1.0
 70
    12
 71
     2
 72
     6
 73
     3
 74
     0
 42
0.0000000001
 43
0.0000000001
 40
0.0
 40
0.0
 40
0.0
 40
0.5001144529023108
 40
0.5001144529023108
 40
0.5001144529023108
 10
3313.950030046175
 20
26.99073375453331
 30
0.0
 41
1.0
 10
3313.70011587422
 20
26.99999809660164
 30
0.0
 41
0.9998284582914874
 10
3313.450030046204
 20
26.99999999141162
 30
0.0
 41
1.0
  0
SPLINE
  5
B9
330
1F
100
AcDbEntity
  8
Predefinito
100
AcDbSpline
210
0.0
220
0.0
230
1.0
 70
    12
 71
     2
 72
     6
 73
     3
 74
     0
 42
0.0000000001
 43
0.0000000001
 40
0.0
 40
0.0
 40
0.0
 40
0.500113785933599
 40
0.500113785933599
 40
0.500113785933599
 10
3313.450030572057
 20
0.0000000003836362
 30
0.0
 41
1.0
 10
3313.700116066317
 20
-0.0000018856369347
 30
0.0
 41
0.9998284596908874
 10
3313.950030046175
 20
0.0092586280692085
 30
0.0
 41
1.0
  0
SPLINE
  5
BA
330
1F
100
AcDbEntity
  8
Predefinito
100
AcDbSpline
210
0.0
220
0.0
230
1.0
 70
    24
 71
     2
 72
     6
 73
     3
 74
     0
 42
0.0000000001
 43
0.0000000001
 40
0.0
 40
0.0
 40
0.0
 40
0.5000000000430852
 40
0.5000000000430852
 40
0.5000000000430852
 10
3312.950030046175
 20
0.000003769842543
 30
0.0
 10
3313.20003004619
 20
0.0000018851150718
 30
0.0
 10
3313.450030046204
 20
0.0000000003876006
 30
0.0
  0
SPLINE
  5
BB
330
1F
100
AcDbEntity
  8
Predefinito
100
AcDbSpline
210
0.0
220
0.0
230
1.0
 70
    24
 71
     2
 72
     6
 73
     3
 74
     0
 42
0.0000000001
 43
0.0000000001
 40
0.0
 40
0.0
 40
0.0
 40
679.0000000000126
 40
679.0000000000126
 40
679.0000000000126
 10
3312.950030046175
 20
0.0036741777569773
 30
0.0
 10
2973.450030046175
 20
0.0036084994274184
 30
0.0
 10
2633.950030046175
 20
0.0035428210978594
 30
0.0
  0
SPLINE
  5
BC
330
1F
100
AcDbEntity
  8
Predefinito
100
AcDbSpline
210
0.0
220
0.0
230
1.0
 70
    24
 71
     2
 72
     6
 73
     3
 74
     0
 42
0.0000000001
 43
0.0000000001
 40
0.0
 40
0.0
 40
0.0
 40
1.591593173815731
 40
1.591593173815731
 40
1.591593173815731
 10
3312.950030046175
 20
1.595267351572708
 30
0.0
 10
3312.950030046175
 20
0.7994707646648429
 30
0.0
 10
3312.950030046175
 20
0.0036741777569773
 30
0.0
  0
SPLINE
  5
BD
330
1F
100
AcDbEntity
  8
Predefinito
100
AcDbSpline
210
0.0
220
0.0
230
1.0
 70
    24
 71
     2
 72
     6
 73
     3
 74
     0
 42
0.0000000001
 43
0.0000000001
 40
0.0
 40
0.0
 40
0.0
 40
23.80466560627355
 40
23.80466560627355
 40
23.80466560627355
 10
3312.950030046175
 20
25.40466179757516
 30
0.0
 10
3312.950030046175
 20
13.50232899443838
 30
0.0
 10
3312.950030046175
 20
1.599996191301607
 30
0.0
  0
SPLINE
  5
BE
330
1F
100
AcDbEntity
  8
Predefinito
100
AcDbSpline
210
0.0
220
0.0
230
1.0
 70
    24
 71
     2
 72
     6
 73
     3
 74
     0
 42
0.0000000001
 43
0.0000000001
 40
0.0
 40
0.0
 40
0.0
 40
1.595220636662468
 40
1.595220636662468
 40
1.595220636662468
 10
3312.950030046175
 20
26.99991724816208
 30
0.0
 10
3312.950030046175
 20
26.20230692983084
 30
0.0
 10
3312.950030046175
 20
25.40469661149961
 30
0.0
  0
SPLINE
  5
BF
330
1F
100
AcDbEntity
  8
Predefinito
100
AcDbSpline
210
0.0
220
0.0
230
1.0
 70
    24
 71
     2
 72
     6
 73
     3
 74
     0
 42
0.0000000001
 43
0.0000000001
 40
0.0
 40
0.0
 40
0.0
 40
679.0
 40
679.0
 40
679.0
 10
2633.950030046175
 20
26.99992514247603
 30
0.0
 10
2973.450030046175
 20
26.99992119531905
 30
0.0
 10
3312.950030046175
 20
26.99991724816208
 30
0.0
  0
SPLINE
  5
C0
330
1F
100
AcDbEntity
  8
Predefinito
100
AcDbSpline
210
0.0
220
0.0
230
1.0
 70
    24
 71
     2
 72
     6
 73
     3
 74
     0
 42
0.0000000001
 43
0.0000000001
 40
0.0
 40
0.0
 40
0.0
 40
1.595220005117522
 40
1.595220005117522
 40
1.595220005117522
 10
2633.950030046175
 20
25.40470513735851
 30
0.0
 10
2633.950030046175
 20
26.20231513991727
 30
0.0
 10
2633.950030046175
 20
26.99992514247603
 30
0.0
  0
SPLINE
  5
C1
330
1F
100
AcDbEntity
  8
Predefinito
100
AcDbSpline
210
0.0
220
0.0
230
1.0
 70
    24
 71
     2
 72
     6
 73
     3
 74
     0
 42
0.0000000001
 43
0.0000000001
 40
0.0
 40
0.0
 40
0.0
 40
23.80466388080204
 40
23.80466388080204
 40
23.80466388080204
 10
2633.950030046175
 20
1.599996191301607
 30
0.0
 10
2633.950030046175
 20
13.50232813170263
 30
0.0
 10
2633.950030046175
 20
25.40466007210365
 30
0.0
  0
SPLINE
  5
C2
330
1F
100
AcDbEntity
  8
Predefinito
100
AcDbSpline
210
0.0
220
0.0
230
1.0
 70
    24
 71
     2
 72
     6
 73
     3
 74
     0
 42
0.0000000001
 43
0.0000000001
 40
0.0
 40
0.0
 40
0.0
 40
1.591733056333844
 40
1.591733056333844
 40
1.591733056333844
 10
2633.950030046175
 20
0.0035428210978594
 30
0.0
 10
2633.950030046175
 20
0.7994093492647812
 30
0.0
 10
2633.950030046175
 20
1.595275877431703
 30
0.0
  0
SPLINE
  5
C3
330
1F
100
AcDbEntity
  8
Predefinito
100
AcDbSpline
210
0.0
220
0.0
230
1.0
 70
    24
 71
     2
 72
     6
 73
     3
 74
     0
 42
0.0000000001
 43
0.0000000001
 40
0.0
 40
0.0
 40
0.0
 40
1.000609544298824
 40
1.000609544298824
 40
1.000609544298824
 10
2632.950030046175
 20
26.61745657604711
 30
0.0
 10
2633.450030046175
 20
26.59999619130121
 30
0.0
 10
2633.950030046175
 20
26.58253580655531
 30
0.0
  0
SPLINE
  5
C4
330
1F
100
AcDbEntity
  8
Predefinito
100
AcDbSpline
210
0.0
220
0.0
230
1.0
 70
    24
 71
     2
 72
     6
 73
     3
 74
     0
 42
0.0000000001
 43
0.0000000001
 40
0.0
 40
0.0
 40
0.0
 40
1.000609544298824
 40
1.000609544298824
 40
1.000609544298824
 10
2633.950030046175
 20
0.4174565760471083
 30
0.0
 10
2633.450030046175
 20
0.3999961913012058
 30
0.0
 10
2632.950030046175
 20
0.3825358065553033
 30
0.0
  0
SPLINE
  5
C5
330
1F
100
AcDbEntity
  8
Predefinito
100
AcDbSpline
210
0.0
220
0.0
230
1.0
 70
    12
 71
     2
 72
     8
 73
     5
 74
     0
 42
0.0000000001
 43
0.0000000001
 40
0.0
 40
0.0
 40
0.0
 40
20.70563602926715
 40
20.70563602926715
 40
41.41127205853462
 40
41.41127205853462
 40
41.41127205853462
 10
2632.950030046175
 20
26.99073375453327
 30
0.0
 41
1.0
 10
2619.950030046175
 20
26.50892169870292
 30
0.0
 41
0.7200822998231042
 10
2619.950030046176
 20
13.49999619130114
 30
0.0
 41
1.0
 10
2619.950030046175
 20
0.4910706838988529
 30
0.0
 41
0.720082299823079
 10
2632.950030046175
 20
0.0092586280693361
 30
0.0
 41
1.0
  0
SPLINE
  5
C6
330
1F
100
AcDbEntity
  8
Predefinito
100
AcDbSpline
210
0.0
220
0.0
230
1.0
 70
    24
 71
     2
 72
     6
 73
     3
 74
     0
 42
0.0000000001
 43
0.0000000001
 40
0.0
 40
0.0
 40
0.0
 40
26.9704742884282
 40
26.9704742884282
 40
26.9704742884282
 10
2632.950030046175
 20
26.9797329164974
 30
0.0
 10
2632.950030046175
 20
13.4944957722833
 30
0.0
 10
2632.950030046175
 20
0.0092586280692046
 30
0.0
  0
SPLINE
  5
C7
330
1F
100
AcDbEntity
  8
Predefinito
100
AcDbSpline
210
0.0
220
0.0
230
1.0
 70
    12
 71
     2
 72
     8
 73
     5
 74
     0
 42
0.0000000001
 43
0.0000000001
 40
0.0
 40
0.0
 40
0.0
 40
0.5001137859335988
 40
0.5001137859335988
 40
1.000113785934097
 40
1.000113785934097
 40
1.000113785934097
 10
2632.950030046175
 20
0.0092586280692064
 30
0.0
 41
1.0
 10
2633.199944026034
 20
-0.0000018856369183
 30
0.0
 41
0.9998284596908887
 10
2633.450029520294
 20
0.0000000003836375
 30
0.0
 41
1.0
 10
2633.700029783235
 20
0.0000018851130363
 30
0.0
 41
1.0
 10
2633.950030046175
 20
0.000003769842543
 30
0.0
 41
1.0
  0
SPLINE
  5
C8
330
1F
100
AcDbEntity
  8
Predefinito
100
AcDbSpline
210
0.0
220
0.0
230
1.0
 70
    12
 71
     2
 72
     8
 73
     5
 74
     0
 42
0.0000000001
 43
0.0000000001
 40
-83.3917666057222
 40
-83.3917666057222
 40
-83.3917666057222
 40
-82.8917666057222
 40
-82.8917666057222
 40
-82.39193419535353
 40
-82.39193419535353
 40
-82.39193419535353
 10
2633.950030046175
 20
26.99997535031244
 30
0.0
 41
1.0
 10
2633.700030045849
 20
26.99998955749643
 30
0.0
 41
1.0
 10
2633.450030045523
 20
27.00000376468033
 30
0.0
 41
1.0
 10
2633.200085287175
 20
27.00000376209126
 30
0.0
 41
0.999828651961361
 10
2632.950311824422
 20
26.99075176067315
 30
0.0
 41
1.0
  0
SPLINE
  5
C9
330
1F
100
AcDbEntity
  8
Predefinito
100
AcDbSpline
210
0.0
220
0.0
230
1.0
 70
    12
 71
     2
 72
     8
 73
     5
 74
     0
 42
0.0000000001
 43
0.0000000001
 40
0.0
 40
0.0
 40
0.0
 40
7.812704563038334
 40
7.812704563038334
 40
15.62540912607669
 40
15.62540912607669
 40
15.62540912607669
 10
3291.553833986357
 20
13.69999619130101
 30
0.0
 41
1.0
 10
3291.553814948325
 20
8.726273990894228
 30
0.0
 41
0.7071067811969958
 10
3296.527537148732
 20
8.726254952715395
 30
0.0
 41
1.0
 10
3301.501259349139
 20
8.726273990894354
 30
0.0
 41
0.7071067811970234
 10
3301.501240311107
 20
13.69999619130101
 30
0.0
 41
1.0
  0
SPLINE
  5
CA
330
1F
100
AcDbEntity
  8
Predefinito
100
AcDbSpline
210
0.0
220
0.0
230
1.0
 70
    12
 71
     2
 72
     8
 73
     5
 74
     0
 42
0.0000000001
 43
0.0000000001
 40
0.0
 40
0.0
 40
0.0
 40
7.027336304601525
 40
7.027336304601525
 40
14.05467260920271
 40
14.05467260920271
 40
14.05467260920271
 10
3301.001278387319
 20
13.69999619130101
 30
0.0
 41
1.0
 10
3301.001278387318
 20
9.226254952715454
 30
0.0
 41
0.7071067811866141
 10
3296.527537148732
 20
9.226254952715227
 30
0.0
 41
1.0
 10
3292.053795910147
 20
9.226254952715523
 30
0.0
 41
0.7071067811865818
 10
3292.053795910147
 20
13.69999619130101
 30
0.0
 41
1.0
  0
SPLINE
  5
CB
330
1F
100
AcDbEntity
  8
Predefinito
100
AcDbSpline
210
0.0
220
0.0
230
1.0
 70
    12
 71
     2
 72
     8
 73
     5
 74
     0
 42
0.0000000001
 43
0.0000000001
 40
0.0
 40
0.0
 40
0.0
 40
7.812704563039104
 40
7.812704563039104
 40
15.62540912607741
 40
15.62540912607741
 40
15.62540912607741
 10
3301.501240311108
 20
13.69999619130101
 30
0.0
 41
1.0
 10
3301.501259349141
 20
18.67371839170921
 30
0.0
 41
0.7071067811968141
 10
3296.527537148732
 20
18.67373742988668
 30
0.0
 41
1.0
 10
3291.553814948325
 20
18.67371839170766
 30
0.0
 41
0.707106781197017
 10
3291.553833986357
 20
13.69999619130101
 30
0.0
 41
1.0
  0
SPLINE
  5
CC
330
1F
100
AcDbEntity
  8
Predefinito
100
AcDbSpline
210
0.0
220
0.0
230
1.0
 70
    12
 71
     2
 72
     8
 73
     5
 74
     0
 42
0.0000000001
 43
0.0000000001
 40
0.0
 40
0.0
 40
0.0
 40
7.027336304601228
 40
7.027336304601228
 40
14.05467260920289
 40
14.05467260920289
 40
14.05467260920289
 10
3292.053795910147
 20
13.69999619130101
 30
0.0
 41
1.0
 10
3292.053795910147
 20
18.17373742988653
 30
0.0
 41
0.7071067811865811
 10
3296.527537148732
 20
18.17373742988676
 30
0.0
 41
1.0
 10
3301.001278387318
 20
18.17373742988696
 30
0.0
 41
0.7071067811865495
 10
3301.001278387319
 20
13.69999619130101
 30
0.0
 41
1.0
  0
SPLINE
  5
CD
330
1F
100
AcDbEntity
  8
Predefinito
100
AcDbSpline
210
0.0
220
0.0
230
1.0
 70
    12
 71
     2
 72
     8
 73
     5
 74
     0
 42
0.0000000001
 43
0.0000000001
 40
26.9814751264641
 40
26.9814751264641
 40
26.9814751264641
 40
47.6871111557319
 40
47.6871111557319
 40
68.3927471849998
 40
68.3927471849998
 40
68.3927471849998
 10
3313.950030046175
 20
0.0092586280692046
 30
0.0
 41
1.0
 10
3326.950030046175
 20
0.4910706838993062
 30
0.0
 41
0.720082299823107
 10
3326.950030046175
 20
13.49999619130125
 30
0.0
 41
1.0
 10
3326.950030046175
 20
26.50892169870311
 30
0.0
 41
0.720082299823107
 10
3313.950030046175
 20
26.99073375453331
 30
0.0
 41
1.0
  0
SPLINE
  5
CE
330
1F
100
AcDbEntity
  8
Predefinito
100
AcDbSpline
210
0.0
220
0.0
230
1.0
 70
    24
 71
     2
 72
     6
 73
     3
 74
     0
 42
0.0000000001
 43
0.0000000001
 40
0.0
 40
0.0
 40
0.0
 40
1.00060954429882
 40
1.00060954429882
 40
1.00060954429882
 10
3312.950030046175
 20
26.58253580655541
 30
0.0
 10
3313.450030046175
 20
26.59999619130126
 30
0.0
 10
3313.950030046175
 20
26.61745657604711
 30
0.0
  0
SPLINE
  5
CF
330
1F
100
AcDbEntity
  8
Predefinito
100
AcDbSpline
210
0.0
220
0.0
230
1.0
 70
    24
 71
     2
 72
     6
 73
     3
 74
     0
 42
0.0000000001
 43
0.0000000001
 40
0.0
 40
0.0
 40
0.0
 40
1.00060954429882
 40
1.00060954429882
 40
1.00060954429882
 10
3313.950030046175
 20
0.3825358065554099
 30
0.0
 10
3313.450030046175
 20
0.3999961913012591
 30
0.0
 10
3312.950030046175
 20
0.4174565760471083
 30
0.0
  0
SPLINE
  5
D0
330
1F
100
AcDbEntity
  8
Predefinito
100
AcDbSpline
210
0.0
220
0.0
230
1.0
 70
    24
 71
     2
 72
     6
 73
     3
 74
     0
 42
0.0000000001
 43
0.0000000001
 40
0.0
 40
0.0
 40
0.0
 40
26.9814751264641
 40
26.9814751264641
 40
26.9814751264641
 10
3313.950030046175
 20
26.99073375453331
 30
0.0
 10
3313.950030046175
 20
13.49999619130126
 30
0.0
 10
3313.950030046175
 20
0.0092586280692046
 30
0.0
  0
ENDSEC
  0
SECTION
  2
OBJECTS
  0
DICTIONARY
  5
C
330
0
100
AcDbDictionary
281
     1
  3
ACAD_GROUP
350
D
  3
ACAD_LAYOUT
350
1A
  3
ACAD_MLEADERSTYLE
350
D2
  3
ACAD_MLINESTYLE
350
17
  3
ACAD_PLOTSETTINGS
350
19
  3
ACAD_PLOTSTYLENAME
350
E
  3
ACAD_TABLESTYLE
350
D1
  3
ACAD_VISUALSTYLE
350
2A
  0
DICTIONARY
  5
D
102
{ACAD_REACTORS
330
C
102
}
330
C
100
AcDbDictionary
281
     1
  0
DICTIONARY
  5
1A
102
{ACAD_REACTORS
330
C
102
}
330
C
100
AcDbDictionary
281
     1
  3
Layout1
350
1E
  3
Layout2
350
26
  3
Model
350
22
  0
DICTIONARY
  5
D2
102
{ACAD_REACTORS
330
C
102
}
330
C
100
AcDbDictionary
281
     1
  0
DICTIONARY
  5
17
102
{ACAD_REACTORS
330
C
102
}
330
C
100
AcDbDictionary
281
     1
  3
Standard
350
18
  0
DICTIONARY
  5
19
102
{ACAD_REACTORS
330
C
102
}
330
C
100
AcDbDictionary
281
     1
  0
ACDBDICTIONARYWDFLT
  5
E
102
{ACAD_REACTORS
330
C
102
}
330
C
100
AcDbDictionary
281
     1
  3
Normal
350
F
100
AcDbDictionaryWithDefault
340
F
  0
DICTIONARY
  5
D1
102
{ACAD_REACTORS
330
C
102
}
330
C
100
AcDbDictionary
281
     1
  0
DICTIONARY
  5
2A
102
{ACAD_REACTORS
330
C
102
}
330
C
100
AcDbDictionary
281
     1
  3
2dWireframe
350
2F
  3
3D Hidden
350
31
  3
3dWireframe
350
30
  3
Basic
350
32
  3
Brighten
350
36
  3
ColorChange
350
3A
  3
Conceptual
350
34
  3
Dim
350
35
  3
Facepattern
350
39
  3
Flat
350
2B
  3
FlatWithEdges
350
2C
  3
Gouraud
350
2D
  3
GouraudWithEdges
350
2E
  3
Linepattern
350
38
  3
Realistic
350
33
  3
Thicken
350
37
  0
LAYOUT
  5
1E
102
{ACAD_REACTORS
330
1A
102
}
330
1A
100
AcDbPlotSettings
  1

  2
none_device
  4

  6

 40
0.0
 41
0.0
 42
0.0
 43
0.0
 44
0.0
 45
0.0
 46
0.0
 47
0.0
 48
0.0
 49
0.0
140
0.0
141
0.0
142
1.0
143
1.0
 70
   688
 72
     0
 73
     0
 74
     5
  7

 75
    16
 76
     0
 77
     2
 78
   300
147
1.0
148
0.0
149
0.0
100
AcDbLayout
  1
Layout1
 70
     1
 71
     1
 10
0.0
 20
0.0
 11
12.0
 21
9.0
 12
0.0
 22
0.0
 32
0.0
 14
1.000000000000000E+20
 24
1.000000000000000E+20
 34
1.000000000000000E+20
 15
-1.000000000000000E+20
 25
-1.000000000000000E+20
 35
-1.000000000000000E+20
146
0.0
 13
0.0
 23
0.0
 33
0.0
 16
1.0
 26
0.0
 36
0.0
 17
0.0
 27
1.0
 37
0.0
 76
     0
330
1B
  0
LAYOUT
  5
26
102
{ACAD_REACTORS
330
1A
102
}
330
1A
100
AcDbPlotSettings
  1

  2
none_device
  4

  6

 40
0.0
 41
0.0
 42
0.0
 43
0.0
 44
0.0
 45
0.0
 46
0.0
 47
0.0
 48
0.0
 49
0.0
140
0.0
141
0.0
142
1.0
143
1.0
 70
   688
 72
     0
 73
     0
 74
     5
  7

 75
    16
 76
     0
 77
     2
 78
   300
147
1.0
148
0.0
149
0.0
100
AcDbLayout
  1
Layout2
 70
     1
 71
     2
 10
0.0
 20
0.0
 11
0.0
 21
0.0
 12
0.0
 22
0.0
 32
0.0
 14
0.0
 24
0.0
 34
0.0
 15
0.0
 25
0.0
 35
0.0
146
0.0
 13
0.0
 23
0.0
 33
0.0
 16
1.0
 26
0.0
 36
0.0
 17
0.0
 27
1.0
 37
0.0
 76
     0
330
23
  0
LAYOUT
  5
22
102
{ACAD_REACTORS
330
1A
102
}
330
1A
100
AcDbPlotSettings
  1

  2
none_device
  4

  6

 40
0.0
 41
0.0
 42
0.0
 43
0.0
 44
0.0
 45
0.0
 46
0.0
 47
0.0
 48
0.0
 49
0.0
140
0.0
141
0.0
142
1.0
143
1.0
 70
  1712
 72
     0
 73
     0
 74
     0
  7

 75
     0
 76
     0
 77
     2
 78
   300
147
1.0
148
0.0
149
0.0
100
AcDbLayout
  1
Model
 70
     1
 71
     0
 10
0.0
 20
0.0
 11
12.0
 21
9.0
 12
0.0
 22
0.0
 32
0.0
 14
1476.0
 24
0.0000000003836362
 34
0.0
 15
3326.950030046176
 25
1921.104939354655
 35
0.0
146
0.0
 13
0.0
 23
0.0
 33
0.0
 16
1.0
 26
0.0
 36
0.0
 17
0.0
 27
1.0
 37
0.0
 76
     0
330
1F
331
29
  0
MLINESTYLE
  5
18
102
{ACAD_REACTORS
330
17
102
}
330
17
100
AcDbMlineStyle
  2
Standard
 70
     0
  3

 62
   256
 51
90.0
 52
90.0
 71
     2
 49
0.5
 62
   256
  6
BYLAYER
 49
-0.5
 62
   256
  6
BYLAYER
  0
ACDBPLACEHOLDER
  5
F
102
{ACAD_REACTORS
330
E
102
}
330
E
  0
VISUALSTYLE
  5
2F
102
{ACAD_REACTORS
330
2A
102
}
330
2A
100
AcDbVisualStyle
  2
2dWireframe
 70
     4
 71
     0
 72
     2
 73
     0
 90
        0
 40
-0.6
 41
-30.0
 62
     5
 63
     7
421
 16777215
 74
     1
 91
        4
 64
     7
 65
   257
 75
     1
175
     1
 42
1.0
 92
        0
 66
   257
 43
1.0
 76
     1
 77
     6
 78
     2
 67
     7
 79
     5
170
     0
171
     0
290
     0
174
     0
 93
        1
 44
0.0
173
     0
291
     0
 45
0.0
1001
ACAD
1000
AcDbSavedByObjectVersion
1070
     0
  0
VISUALSTYLE
  5
31
102
{ACAD_REACTORS
330
2A
102
}
330
2A
100
AcDbVisualStyle
  2
3D Hidden
 70
     6
 71
     1
 72
     2
 73
     2
 90
        0
 40
-0.6
 41
-30.0
 62
     5
 63
     7
421
 16777215
 74
     2
 91
        2
 64
     7
 65
   257
 75
     2
175
     1
 42
40.0
 92
        0
 66
   257
 43
1.0
 76
     1
 77
     6
 78
     2
 67
     7
 79
     3
170
     0
171
     0
290
     0
174
     0
 93
        1
 44
0.0
173
     0
291
     0
 45
0.0
1001
ACAD
1000
AcDbSavedByObjectVersion
1070
     0
  0
VISUALSTYLE
  5
30
102
{ACAD_REACTORS
330
2A
102
}
330
2A
100
AcDbVisualStyle
  2
3dWireframe
 70
     5
 71
     0
 72
     2
 73
     0
 90
        0
 40
-0.6
 41
-30.0
 62
     5
 63
     7
421
 16777215
 74
     1
 91
        4
 64
     7
 65
   257
 75
     1
175
     1
 42
1.0
 92
        0
 66
   257
 43
1.0
 76
     1
 77
     6
 78
     2
 67
     7
 79
     5
170
     0
171
     0
290
     0
174
     0
 93
        1
 44
0.0
173
     0
291
     0
 45
0.0
1001
ACAD
1000
AcDbSavedByObjectVersion
1070
     0
  0
VISUALSTYLE
  5
32
102
{ACAD_REACTORS
330
2A
102
}
330
2A
100
AcDbVisualStyle
  2
Basic
 70
     7
 71
     1
 72
     0
 73
     1
 90
        0
 40
-0.6
 41
-30.0
 62
     5
 63
     7
421
 16777215
 74
     0
 91
        4
 64
     7
 65
   257
 75
     1
175
     1
 42
1.0
 92
        8
 66
     7
 43
1.0
 76
     1
 77
     6
 78
     2
 67
     7
 79
     5
170
     0
171
     0
290
     0
174
     0
 93
        1
 44
0.0
173
     0
291
     1
 45
0.0
1001
ACAD
1000
AcDbSavedByObjectVersion
1070
     0
  0
VISUALSTYLE
  5
36
102
{ACAD_REACTORS
330
2A
102
}
330
2A
100
AcDbVisualStyle
  2
Brighten
 70
    12
 71
     2
 72
     2
 73
     0
 90
        0
 40
-0.6
 41
-30.0
 62
     5
 63
     7
421
 16777215
 74
     1
 91
        4
 64
     7
 65
   257
 75
     1
175
     1
 42
1.0
 92
        8
 66
     7
 43
1.0
 76
     1
 77
     6
 78
     2
 67
     7
 79
     5
170
     0
171
     0
290
     0
174
     0
 93
        1
 44
50.0
173
     0
291
     1
 45
0.0
1001
ACAD
1000
AcDbSavedByObjectVersion
1070
     0
  0
VISUALSTYLE
  5
3A
102
{ACAD_REACTORS
330
2A
102
}
330
2A
100
AcDbVisualStyle
  2
ColorChange
 70
    16
 71
     2
 72
     2
 73
     3
 90
        0
 40
-0.6
 41
-30.0
 62
     5
 63
     8
421
  8421504
 74
     1
 91
        4
 64
     7
 65
   257
 75
     1
175
     1
 42
1.0
 92
        8
 66
     8
424
  8421504
 43
1.0
 76
     1
 77
     6
 78
     2
 67
     7
 79
     5
170
     0
171
     0
290
     0
174
     0
 93
        1
 44
0.0
173
     0
291
     1
 45
0.0
1001
ACAD
1000
AcDbSavedByObjectVersion
1070
     0
  0
VISUALSTYLE
  5
34
102
{ACAD_REACTORS
330
2A
102
}
330
2A
100
AcDbVisualStyle
  2
Conceptual
 70
     9
 71
     3
 72
     2
 73
     0
 90
        0
 40
-0.6
 41
-30.0
 62
     5
 63
     7
421
 16777215
 74
     2
 91
        2
 64
     7
 65
   257
 75
     1
175
     1
 42
40.0
 92
        8
 66
     7
 43
1.0
 76
     1
 77
     6
 78
     2
 67
     7
 79
     3
170
     0
171
     0
290
     0
174
     0
 93
        1
 44
0.0
173
     0
291
     0
 45
0.0
1001
ACAD
1000
AcDbSavedByObjectVersion
1070
     0
  0
VISUALSTYLE
  5
35
102
{ACAD_REACTORS
330
2A
102
}
330
2A
100
AcDbVisualStyle
  2
Dim
 70
    11
 71
     2
 72
     2
 73
     0
 90
        0
 40
-0.6
 41
-30.0
 62
     5
 63
     7
421
 16777215
 74
     1
 91
        4
 64
     7
 65
   257
 75
     1
175
     1
 42
1.0
 92
        8
 66
     7
 43
1.0
 76
     1
 77
     6
 78
     2
 67
     7
 79
     5
170
     0
171
     0
290
     0
174
     0
 93
        1
 44
-50.0
173
     0
291
     1
 45
0.0
1001
ACAD
1000
AcDbSavedByObjectVersion
1070
     0
  0
VISUALSTYLE
  5
39
102
{ACAD_REACTORS
330
2A
102
}
330
2A
100
AcDbVisualStyle
  2
Facepattern
 70
    15
 71
     2
 72
     2
 73
     0
 90
        0
 40
-0.6
 41
-30.0
 62
     5
 63
     7
421
 16777215
 74
     1
 91
        4
 64
     7
 65
   257
 75
     1
175
     1
 42
1.0
 92
        8
 66
     7
 43
1.0
 76
     1
 77
     6
 78
     2
 67
     7
 79
     5
170
     0
171
     0
290
     0
174
     0
 93
        1
 44
0.0
173
     0
291
     1
 45
0.0
1001
ACAD
1000
AcDbSavedByObjectVersion
1070
     0
  0
VISUALSTYLE
  5
2B
102
{ACAD_REACTORS
330
2A
102
}
330
2A
100
AcDbVisualStyle
  2
Flat
 70
     0
 71
     2
 72
     1
 73
     1
 90
        2
 40
-0.6
 41
30.0
 62
     5
 63
     7
421
 16777215
 74
     0
 91
        4
 64
     7
 65
   257
 75
     1
175
     1
 42
1.0
 92
        8
 66
     7
 43
1.0
 76
     1
 77
     6
 78
     2
 67
     7
 79
     5
170
     0
171
     0
290
     0
174
     0
 93
       13
 44
0.0
173
     0
291
     1
 45
0.0
1001
ACAD
1000
AcDbSavedByObjectVersion
1070
     0
  0
VISUALSTYLE
  5
2C
102
{ACAD_REACTORS
330
2A
102
}
330
2A
100
AcDbVisualStyle
  2
FlatWithEdges
 70
     1
 71
     2
 72
     1
 73
     1
 90
        2
 40
-0.6
 41
30.0
 62
     5
 63
     7
421
 16777215
 74
     1
 91
        4
 64
     7
 65
   257
 75
     1
175
     1
 42
1.0
 92
        0
 66
   257
 43
1.0
 76
     1
 77
     6
 78
     2
 67
     7
 79
     5
170
     0
171
     0
290
     0
174
     0
 93
       13
 44
0.0
173
     0
291
     1
 45
0.0
1001
ACAD
1000
AcDbSavedByObjectVersion
1070
     0
  0
VISUALSTYLE
  5
2D
102
{ACAD_REACTORS
330
2A
102
}
330
2A
100
AcDbVisualStyle
  2
Gouraud
 70
     2
 71
     2
 72
     2
 73
     1
 90
        2
 40
-0.6
 41
30.0
 62
     5
 63
     7
421
 16777215
 74
     0
 91
        4
 64
     7
 65
   257
 75
     1
175
     1
 42
1.0
 92
        0
 66
     7
 43
1.0
 76
     1
 77
     6
 78
     2
 67
     7
 79
     5
170
     0
171
     0
290
     0
174
     0
 93
       13
 44
0.0
173
     0
291
     1
 45
0.0
1001
ACAD
1000
AcDbSavedByObjectVersion
1070
     0
  0
VISUALSTYLE
  5
2E
102
{ACAD_REACTORS
330
2A
102
}
330
2A
100
AcDbVisualStyle
  2
GouraudWithEdges
 70
     3
 71
     2
 72
     2
 73
     1
 90
        2
 40
-0.6
 41
30.0
 62
     5
 63
     7
421
 16777215
 74
     1
 91
        4
 64
     7
 65
   257
 75
     1
175
     1
 42
1.0
 92
        0
 66
   257
 43
1.0
 76
     1
 77
     6
 78
     2
 67
     7
 79
     5
170
     0
171
     0
290
     0
174
     0
 93
       13
 44
0.0
173
     0
291
     1
 45
0.0
1001
ACAD
1000
AcDbSavedByObjectVersion
1070
     0
  0
VISUALSTYLE
  5
38
102
{ACAD_REACTORS
330
2A
102
}
330
2A
100
AcDbVisualStyle
  2
Linepattern
 70
    14
 71
     2
 72
     2
 73
     0
 90
        0
 40
-0.6
 41
-30.0
 62
     5
 63
     7
421
 16777215
 74
     1
 91
        4
 64
     7
 65
   257
 75
     7
175
     7
 42
1.0
 92
        8
 66
     7
 43
1.0
 76
     1
 77
     6
 78
     2
 67
     7
 79
     5
170
     0
171
     0
290
     0
174
     0
 93
        1
 44
0.0
173
     0
291
     1
 45
0.0
1001
ACAD
1000
AcDbSavedByObjectVersion
1070
     0
  0
VISUALSTYLE
  5
33
102
{ACAD_REACTORS
330
2A
102
}
330
2A
100
AcDbVisualStyle
  2
Realistic
 70
     8
 71
     2
 72
     2
 73
     0
 90
        0
 40
-0.6
 41
-30.0
 62
     5
 63
     7
421
 16777215
 74
     1
 91
        0
 64
     7
 65
   257
 75
     1
175
     1
 42
1.0
 92
        8
 66
     8
424
  7895160
 43
1.0
 76
     1
 77
     6
 78
     2
 67
     7
 79
     5
170
     0
171
     0
290
     0
174
     0
 93
       13
 44
0.0
173
     0
291
     0
 45
0.0
1001
ACAD
1000
AcDbSavedByObjectVersion
1070
     0
  0
VISUALSTYLE
  5
37
102
{ACAD_REACTORS
330
2A
102
}
330
2A
100
AcDbVisualStyle
  2
Thicken
 70
    13
 71
     2
 72
     2
 73
     0
 90
        0
 40
-0.6
 41
-30.0
 62
     5
 63
     7
421
 16777215
 74
     1
 91
        4
 64
     7
 65
   257
 75
     1
175
     1
 42
1.0
 92
       12
 66
     7
 43
1.0
 76
     1
 77
     6
 78
     2
 67
     7
 79
     5
170
     0
171
     0
290
     0
174
     0
 93
        1
 44
0.0
173
     0
291
     1
 45
0.0
1001
ACAD
1000
AcDbSavedByObjectVersion
1070
     0
  0
ENDSEC
  0
EOF
