  0
SECTION
  2
HEADER
  9
$ACADVER
  1
AC1018
  9
$ACADMAINTVER
 70
     0
  9
$DWGCODEPAGE
  3
ANSI_1252
  9
$INSBASE
 10
0.0
 20
0.0
 30
0.0
  9
$EXTMIN
 10
1900.0
 20
0.0882473981206729
 30
0.0
  9
$EXTMAX
 10
3855.773744390965
 20
1858.018753491736
 30
0.0
  9
$LIMMIN
 10
0.0
 20
0.0
  9
$LIMMAX
 10
12.0
 20
9.0
  9
$ORTHOMODE
 70
     0
  9
$REGENMODE
 70
     1
  9
$FILLMODE
 70
     1
  9
$QTEXTMODE
 70
     0
  9
$MIRRTEXT
 70
     1
  9
$LTSCALE
 40
1.0
  9
$ATTMODE
 70
     1
  9
$TEXTSIZE
 40
0.2
  9
$TRACEWID
 40
0.05
  9
$TEXTSTYLE
  7
Standard
  9
$CLAYER
  8
Predefinito
  9
$CELTYPE
  6
ByLayer
  9
$CECOLOR
 62
   256
  9
$CELTSCALE
 40
1.0
  9
$DISPSILH
 70
     0
  9
$DIMSCALE
 40
1.0
  9
$DIMASZ
 40
0.18
  9
$DIMEXO
 40
0.0625
  9
$DIMDLI
 40
0.38
  9
$DIMRND
 40
0.0
  9
$DIMDLE
 40
0.0
  9
$DIMEXE
 40
0.18
  9
$DIMTP
 40
0.0
  9
$DIMTM
 40
0.0
  9
$DIMTXT
 40
0.18
  9
$DIMCEN
 40
0.09
  9
$DIMTSZ
 40
0.0
  9
$DIMTOL
 70
     0
  9
$DIMLIM
 70
     0
  9
$DIMTIH
 70
     1
  9
$DIMTOH
 70
     1
  9
$DIMSE1
 70
     0
  9
$DIMSE2
 70
     0
  9
$DIMTAD
 70
     0
  9
$DIMZIN
 70
     0
  9
$DIMBLK
  1

  9
$DIMASO
 70
     1
  9
$DIMSHO
 70
     1
  9
$DIMPOST
  1

  9
$DIMAPOST
  1

  9
$DIMALT
 70
     0
  9
$DIMALTD
 70
     2
  9
$DIMALTF
 40
25.4
  9
$DIMLFAC
 40
1.0
  9
$DIMTOFL
 70
     0
  9
$DIMTVP
 40
0.0
  9
$DIMTIX
 70
     0
  9
$DIMSOXD
 70
     0
  9
$DIMSAH
 70
     0
  9
$DIMBLK1
  1

  9
$DIMBLK2
  1

  9
$DIMSTYLE
  2
Standard
  9
$DIMCLRD
 70
     0
  9
$DIMCLRE
 70
     0
  9
$DIMCLRT
 70
     0
  9
$DIMTFAC
 40
1.0
  9
$DIMGAP
 40
0.09
  9
$DIMJUST
 70
     0
  9
$DIMSD1
 70
     0
  9
$DIMSD2
 70
     0
  9
$DIMTOLJ
 70
     1
  9
$DIMTZIN
 70
     0
  9
$DIMALTZ
 70
     0
  9
$DIMALTTZ
 70
     0
  9
$DIMUPT
 70
     0
  9
$DIMDEC
 70
     4
  9
$DIMTDEC
 70
     4
  9
$DIMALTU
 70
     2
  9
$DIMALTTD
 70
     2
  9
$DIMTXSTY
  7
Standard
  9
$DIMAUNIT
 70
     0
  9
$DIMADEC
 70
     0
  9
$DIMALTRND
 40
0.0
  9
$DIMAZIN
 70
     0
  9
$DIMDSEP
 70
    46
  9
$DIMATFIT
 70
     3
  9
$DIMFRAC
 70
     0
  9
$DIMLDRBLK
  1

  9
$DIMLUNIT
 70
     2
  9
$DIMLWD
 70
    -2
  9
$DIMLWE
 70
    -2
  9
$DIMTMOVE
 70
     2
  9
$LUNITS
 70
     2
  9
$LUPREC
 70
     3
  9
$SKETCHINC
 40
0.1
  9
$FILLETRAD
 40
0.5
  9
$AUNITS
 70
     0
  9
$AUPREC
 70
     0
  9
$MENU
  1
.
  9
$ELEVATION
 40
0.0
  9
$PELEVATION
 40
0.0
  9
$THICKNESS
 40
0.0
  9
$LIMCHECK
 70
     0
  9
$CHAMFERA
 40
0.5
  9
$CHAMFERB
 40
0.5
  9
$CHAMFERC
 40
1.0
  9
$CHAMFERD
 40
0.0
  9
$SKPOLY
 70
     0
  9
$TDCREATE
 40
2457904.75719412
  9
$TDUCREATE
 40
2457904.673860787
  9
$TDUPDATE
 40
2457904.757194132
  9
$TDUUPDATE
 40
2457904.673860799
  9
$TDINDWG
 40
0.0000000116
  9
$TDUSRTIMER
 40
0.0000000116
  9
$USRTIMER
 70
     1
  9
$ANGBASE
 50
0.0
  9
$ANGDIR
 70
     0
  9
$PDMODE
 70
     0
  9
$PDSIZE
 40
0.0
  9
$PLINEWID
 40
0.0
  9
$SPLFRAME
 70
     0
  9
$SPLINETYPE
 70
     6
  9
$SPLINESEGS
 70
     8
  9
$HANDSEED
  5
CA
  9
$SURFTAB1
 70
     6
  9
$SURFTAB2
 70
     6
  9
$SURFTYPE
 70
     6
  9
$SURFU
 70
     6
  9
$SURFV
 70
     6
  9
$UCSBASE
  2

  9
$UCSNAME
  2

  9
$UCSORG
 10
0.0
 20
0.0
 30
0.0
  9
$UCSXDIR
 10
1.0
 20
0.0
 30
0.0
  9
$UCSYDIR
 10
0.0
 20
1.0
 30
0.0
  9
$UCSORTHOREF
  2

  9
$UCSORTHOVIEW
 70
     0
  9
$UCSORGTOP
 10
0.0
 20
0.0
 30
0.0
  9
$UCSORGBOTTOM
 10
0.0
 20
0.0
 30
0.0
  9
$UCSORGLEFT
 10
0.0
 20
0.0
 30
0.0
  9
$UCSORGRIGHT
 10
0.0
 20
0.0
 30
0.0
  9
$UCSORGFRONT
 10
0.0
 20
0.0
 30
0.0
  9
$UCSORGBACK
 10
0.0
 20
0.0
 30
0.0
  9
$PUCSBASE
  2

  9
$PUCSNAME
  2

  9
$PUCSORG
 10
0.0
 20
0.0
 30
0.0
  9
$PUCSXDIR
 10
1.0
 20
0.0
 30
0.0
  9
$PUCSYDIR
 10
0.0
 20
1.0
 30
0.0
  9
$PUCSORTHOREF
  2

  9
$PUCSORTHOVIEW
 70
     0
  9
$PUCSORGTOP
 10
0.0
 20
0.0
 30
0.0
  9
$PUCSORGBOTTOM
 10
0.0
 20
0.0
 30
0.0
  9
$PUCSORGLEFT
 10
0.0
 20
0.0
 30
0.0
  9
$PUCSORGRIGHT
 10
0.0
 20
0.0
 30
0.0
  9
$PUCSORGFRONT
 10
0.0
 20
0.0
 30
0.0
  9
$PUCSORGBACK
 10
0.0
 20
0.0
 30
0.0
  9
$USERI1
 70
     0
  9
$USERI2
 70
     0
  9
$USERI3
 70
     0
  9
$USERI4
 70
     0
  9
$USERI5
 70
     0
  9
$USERR1
 40
0.0
  9
$USERR2
 40
0.0
  9
$USERR3
 40
0.0
  9
$USERR4
 40
0.0
  9
$USERR5
 40
0.0
  9
$WORLDVIEW
 70
     1
  9
$SHADEDGE
 70
     3
  9
$SHADEDIF
 70
    70
  9
$TILEMODE
 70
     1
  9
$MAXACTVP
 70
    64
  9
$PINSBASE
 10
0.0
 20
0.0
 30
0.0
  9
$PLIMCHECK
 70
     0
  9
$PEXTMIN
 10
1.000000000000000E+20
 20
1.000000000000000E+20
 30
1.000000000000000E+20
  9
$PEXTMAX
 10
-1.000000000000000E+20
 20
-1.000000000000000E+20
 30
-1.000000000000000E+20
  9
$PLIMMIN
 10
0.0
 20
0.0
  9
$PLIMMAX
 10
12.0
 20
9.0
  9
$UNITMODE
 70
     0
  9
$VISRETAIN
 70
     1
  9
$PLINEGEN
 70
     0
  9
$PSLTSCALE
 70
     1
  9
$TREEDEPTH
 70
  3020
  9
$CMLSTYLE
  2
Standard
  9
$CMLJUST
 70
     0
  9
$CMLSCALE
 40
1.0
  9
$PROXYGRAPHICS
 70
     1
  9
$MEASUREMENT
 70
     0
  9
$CELWEIGHT
370
    -1
  9
$ENDCAPS
280
     0
  9
$JOINSTYLE
280
     0
  9
$LWDISPLAY
290
     0
  9
$INSUNITS
 70
     4
  9
$HYPERLINKBASE
  1

  9
$STYLESHEET
  1

  9
$XEDIT
290
     1
  9
$CEPSNTYPE
380
     0
  9
$PSTYLEMODE
290
     1
  9
$FINGERPRINTGUID
  2
{47BD9F06-F267-4965-8EE9-45A5BD6F399E}
  9
$VERSIONGUID
  2
{FAEB1C32-E019-11D5-929B-00C0DF256EC4}
  9
$EXTNAMES
290
     1
  9
$PSVPSCALE
 40
0.0
  9
$OLESTARTUP
290
     0
  9
$SORTENTS
280
   127
  9
$INDEXCTL
280
     0
  9
$HIDETEXT
280
     1
  9
$XCLIPFRAME
290
     0
  9
$HALOGAP
280
     0
  9
$OBSCOLOR
 70
   257
  9
$OBSLTYPE
280
     0
  9
$INTERSECTIONDISPLAY
280
     0
  9
$INTERSECTIONCOLOR
 70
   257
  9
$DIMASSOC
280
     2
  9
$PROJECTNAME
  1

  0
ENDSEC
  0
SECTION
  2
CLASSES
  0
CLASS
  1
ACDBDICTIONARYWDFLT
  2
AcDbDictionaryWithDefault
  3
ObjectDBX Classes
 90
        0
 91
        4
280
     0
281
     0
  0
CLASS
  1
VISUALSTYLE
  2
AcDbVisualStyle
  3
ObjectDBX Classes
 90
     4095
 91
        4
280
     0
281
     0
  0
ENDSEC
  0
SECTION
  2
TABLES
  0
TABLE
  2
VPORT
  5
8
330
0
100
AcDbSymbolTable
 70
     1
  0
VPORT
  5
29
330
8
100
AcDbSymbolTableRecord
100
AcDbViewportTableRecord
  2
*Active
 70
     0
 10
0.0
 20
0.0
 11
1.0
 21
1.0
 12
2877.886872195483
 22
929.0535004449283
 13
0.0
 23
0.0
 14
0.5
 24
0.5
 15
0.5
 25
0.5
 16
0.0
 26
0.0
 36
1.0
 17
0.0
 27
0.0
 37
0.0
 40
1895.089116215487
 41
1.052662485478572
 42
50.0
 43
0.0
 44
0.0
 50
0.0
 51
0.0
 71
     0
 72
   100
 73
     1
 74
     3
 75
     0
 76
     0
 77
     0
 78
     0
281
     0
 65
     1
110
0.0
120
0.0
130
0.0
111
1.0
121
0.0
131
0.0
112
0.0
122
1.0
132
0.0
 79
     0
146
0.0
  0
ENDTAB
  0
TABLE
  2
LTYPE
  5
5
330
0
100
AcDbSymbolTable
 70
     1
  0
LTYPE
  5
14
330
5
100
AcDbSymbolTableRecord
100
AcDbLinetypeTableRecord
  2
ByBlock
 70
     0
  3

 72
    65
 73
     0
 40
0.0
  0
LTYPE
  5
15
330
5
100
AcDbSymbolTableRecord
100
AcDbLinetypeTableRecord
  2
ByLayer
 70
     0
  3

 72
    65
 73
     0
 40
0.0
  0
LTYPE
  5
16
330
5
100
AcDbSymbolTableRecord
100
AcDbLinetypeTableRecord
  2
Continuous
 70
     0
  3
Solid line
 72
    65
 73
     0
 40
0.0
  0
ENDTAB
  0
TABLE
  2
LAYER
  5
2
330
0
100
AcDbSymbolTable
 70
     4
  0
LAYER
  5
10
330
2
100
AcDbSymbolTableRecord
100
AcDbLayerTableRecord
  2
0
 70
     0
 62
     7
  6
Continuous
370
    -3
390
F
  0
LAYER
  5
3B
330
2
100
AcDbSymbolTableRecord
100
AcDbLayerTableRecord
  2
Predefinito - Visibile
 70
     0
 62
     7
  6
Continuous
370
    -3
390
F
  0
LAYER
  5
3D
330
2
100
AcDbSymbolTableRecord
100
AcDbLayerTableRecord
  2
Predefinito
 70
     0
 62
     7
  6
Continuous
370
    -3
390
F
  0
LAYER
  5
5B
330
2
100
AcDbSymbolTableRecord
100
AcDbLayerTableRecord
  2
Predefinito - VisibleTangent
 70
     0
 62
     7
  6
Continuous
370
    -3
390
F
  0
ENDTAB
  0
TABLE
  2
STYLE
  5
3
330
0
100
AcDbSymbolTable
 70
     1
  0
STYLE
  5
11
330
3
100
AcDbSymbolTableRecord
100
AcDbTextStyleTableRecord
  2
Standard
 70
     0
 40
0.0
 41
1.0
 50
0.0
 71
     0
 42
0.2
  3
txt
  4

  0
ENDTAB
  0
TABLE
  2
VIEW
  5
6
330
0
100
AcDbSymbolTable
 70
     0
  0
ENDTAB
  0
TABLE
  2
UCS
  5
7
330
0
100
AcDbSymbolTable
 70
     0
  0
ENDTAB
  0
TABLE
  2
APPID
  5
9
330
0
100
AcDbSymbolTable
 70
     1
  0
APPID
  5
12
330
9
100
AcDbSymbolTableRecord
100
AcDbRegAppTableRecord
  2
ACAD
 70
     0
  0
ENDTAB
  0
TABLE
  2
DIMSTYLE
  5
A
330
0
100
AcDbSymbolTable
 70
     1
100
AcDbDimStyleTable
  0
DIMSTYLE
105
27
330
A
100
AcDbSymbolTableRecord
100
AcDbDimStyleTableRecord
  2
Standard
 70
     0
340
11
  0
ENDTAB
  0
TABLE
  2
BLOCK_RECORD
  5
1
330
0
100
AcDbSymbolTable
 70
     1
  0
BLOCK_RECORD
  5
1F
330
1
100
AcDbSymbolTableRecord
100
AcDbBlockTableRecord
  2
*Model_Space
340
22
  0
BLOCK_RECORD
  5
1B
330
1
100
AcDbSymbolTableRecord
100
AcDbBlockTableRecord
  2
*Paper_Space
340
1E
  0
BLOCK_RECORD
  5
23
330
1
100
AcDbSymbolTableRecord
100
AcDbBlockTableRecord
  2
*Paper_Space0
340
26
  0
ENDTAB
  0
ENDSEC
  0
SECTION
  2
BLOCKS
  0
BLOCK
  5
20
330
1F
100
AcDbEntity
  8
0
100
AcDbBlockBegin
  2
*Model_Space
 70
     0
 10
0.0
 20
0.0
 30
0.0
  3
*Model_Space
  1

  0
ENDBLK
  5
21
330
1F
100
AcDbEntity
  8
0
100
AcDbBlockEnd
  0
BLOCK
  5
1C
330
1B
100
AcDbEntity
 67
     1
  8
0
100
AcDbBlockBegin
  2
*Paper_Space
 70
     0
 10
0.0
 20
0.0
 30
0.0
  3
*Paper_Space
  1

  0
ENDBLK
  5
1D
330
1B
100
AcDbEntity
 67
     1
  8
0
100
AcDbBlockEnd
  0
BLOCK
  5
24
330
23
100
AcDbEntity
  8
0
100
AcDbBlockBegin
  2
*Paper_Space0
 70
     0
 10
0.0
 20
0.0
 30
0.0
  3
*Paper_Space0
  1

  0
ENDBLK
  5
25
330
23
100
AcDbEntity
  8
0
100
AcDbBlockEnd
  0
ENDSEC
  0
SECTION
  2
ENTITIES
  0
SPLINE
  5
3C
330
1F
100
AcDbEntity
  8
Predefinito - Visibile
100
AcDbSpline
210
0.0
220
0.0
230
1.0
 70
    24
 71
     2
 72
     6
 73
     3
 74
     0
 42
0.0000000001
 43
0.0000000001
 40
0.0
 40
0.0
 40
0.0
 40
1.00060954429882
 40
1.00060954429882
 40
1.00060954429882
 10
3790.196237524435
 20
1741.32384084275
 30
0.0
 10
3790.696237524435
 20
1741.341301227496
 30
0.0
 10
3791.196237524435
 20
1741.358761612242
 30
0.0
  0
POLYLINE
  5
3E
330
1F
100
AcDbEntity
  8
Predefinito
100
AcDb2dPolyline
 66
     1
 10
0.0
 20
0.0
 30
0.0
  0
VERTEX
  5
3F
330
3E
100
AcDbEntity
  8
Predefinito
100
AcDbVertex
100
AcDb2dVertex
 10
2063.790538984836
 20
1168.018753491736
 30
0.0
  0
VERTEX
  5
40
330
3E
100
AcDbEntity
  8
Predefinito
100
AcDbVertex
100
AcDb2dVertex
 10
2063.702517005843
 20
1168.018753491736
 30
0.0
  0
SEQEND
  5
41
330
3E
100
AcDbEntity
  8
Predefinito
  0
SPLINE
  5
42
330
1F
100
AcDbEntity
  8
Predefinito - Visibile
100
AcDbSpline
210
0.0
220
0.0
230
1.0
 70
    24
 71
     2
 72
     6
 73
     3
 74
     0
 42
0.0000000001
 43
0.0000000001
 40
0.0
 40
0.0
 40
0.0
 40
1.000009144931028
 40
1.000009144931028
 40
1.000009144931028
 10
2022.000040821445
 20
1148.318744346805
 30
0.0
 10
2022.000040821445
 20
1148.818748919271
 30
0.0
 10
2022.000040821445
 20
1149.318753491736
 30
0.0
  0
SPLINE
  5
43
330
1F
100
AcDbEntity
  8
Predefinito - Visibile
100
AcDbSpline
210
0.0
220
0.0
230
1.0
 70
    24
 71
     2
 72
     6
 73
     3
 74
     0
 42
0.0000000001
 43
0.0000000001
 40
0.0
 40
0.0
 40
0.0
 40
1.482539615254154
 40
1.482539615254154
 40
1.482539615254154
 10
1995.299999763975
 20
1723.22384084275
 30
0.0
 10
1995.299999763975
 20
1722.482571035123
 30
0.0
 10
1995.299999763975
 20
1721.741301227496
 30
0.0
  0
SPLINE
  5
44
330
1F
100
AcDbEntity
  8
Predefinito - Visibile
100
AcDbSpline
210
0.0
220
0.0
230
1.0
 70
    24
 71
     2
 72
     6
 73
     3
 74
     0
 42
0.0000000001
 43
0.0000000001
 40
0.0
 40
0.0
 40
0.0
 40
1.482539615254154
 40
1.482539615254154
 40
1.482539615254154
 10
1968.299999763975
 20
1721.741301227496
 30
0.0
 10
1968.299999763975
 20
1722.482571035123
 30
0.0
 10
1968.299999763975
 20
1723.22384084275
 30
0.0
  0
SPLINE
  5
45
330
1F
100
AcDbEntity
  8
Predefinito - Visibile
100
AcDbSpline
210
0.0
220
0.0
230
1.0
 70
    24
 71
     2
 72
     6
 73
     3
 74
     0
 42
0.0000000001
 43
0.0000000001
 40
0.0
 40
0.0
 40
0.0
 40
1.504584607605239
 40
1.504584607605239
 40
1.504584607605239
 10
1986.973715717087
 20
1857.524565529419
 30
0.0
 10
1986.986845028133
 20
1856.772387803378
 30
0.0
 10
1986.999974339178
 20
1856.020210077337
 30
0.0
  0
SPLINE
  5
46
330
1F
100
AcDbEntity
  8
Predefinito - Visibile
100
AcDbSpline
210
0.0
220
0.0
230
1.0
 70
    12
 71
     2
 72
     6
 73
     3
 74
     0
 42
0.0000000001
 43
0.0000000001
 40
0.0
 40
0.0
 40
0.0
 40
0.7795931826398989
 40
0.7795931826398989
 40
0.7795931826398989
 10
1977.026288184795
 20
1857.524046321978
 30
0.0
 41
1.0
 10
1977.032705663782
 20
1858.017558905607
 30
0.0
 41
0.7125386693960387
 10
1977.526258525389
 20
1858.018753491735
 30
0.0
 41
1.0
  0
SPLINE
  5
47
330
1F
100
AcDbEntity
  8
Predefinito - Visibile
100
AcDbSpline
210
0.0
220
0.0
230
1.0
 70
    24
 71
     2
 72
     6
 73
     3
 74
     0
 42
0.0000000001
 43
0.0000000001
 40
0.0
 40
0.0
 40
0.0
 40
1.504584607605011
 40
1.504584607605011
 40
1.504584607605011
 10
1977.000025188771
 20
1856.020210077337
 30
0.0
 10
1977.013154499817
 20
1856.772387803378
 30
0.0
 10
1977.026283810862
 20
1857.524565529419
 30
0.0
  0
SPLINE
  5
48
330
1F
100
AcDbEntity
  8
Predefinito - Visibile
100
AcDbSpline
210
0.0
220
0.0
230
1.0
 70
    12
 71
     2
 72
     6
 73
     3
 74
     0
 42
0.0000000001
 43
0.0000000001
 40
0.0
 40
0.0
 40
0.0
 40
0.7794250556138503
 40
0.7794250556138503
 40
0.7794250556138503
 10
1986.473741775058
 20
1858.018753491735
 30
0.0
 41
1.0
 10
1986.966930254169
 20
1858.017207695675
 30
0.0
 41
0.7130504976120794
 10
1986.973710698287
 20
1857.52406340544
 30
0.0
 41
1.0
  0
SPLINE
  5
49
330
1F
100
AcDbEntity
  8
Predefinito - Visibile
100
AcDbSpline
210
0.0
220
0.0
230
1.0
 70
    24
 71
     2
 72
     6
 73
     3
 74
     0
 42
0.0000000001
 43
0.0000000001
 40
0.0
 40
0.0
 40
0.0
 40
553.7225477357601
 40
553.7225477357601
 40
553.7225477357601
 10
1986.999999763975
 20
1721.741301227496
 30
0.0
 10
1986.999999763975
 20
1444.880027359616
 30
0.0
 10
1986.999999763975
 20
1168.018753491736
 30
0.0
  0
SPLINE
  5
4A
330
1F
100
AcDbEntity
  8
Predefinito - Visibile
100
AcDbSpline
210
0.0
220
0.0
230
1.0
 70
    24
 71
     2
 72
     6
 73
     3
 74
     0
 42
0.0000000001
 43
0.0000000001
 40
0.0
 40
0.0
 40
0.0
 40
114.2774522642408
 40
114.2774522642408
 40
114.2774522642408
 10
1986.999999763975
 20
1856.018753491737
 30
0.0
 10
1986.999999763975
 20
1798.880027359617
 30
0.0
 10
1986.999999763975
 20
1741.741301227496
 30
0.0
  0
SPLINE
  5
4B
330
1F
100
AcDbEntity
  8
Predefinito - Visibile
100
AcDbSpline
210
0.0
220
0.0
230
1.0
 70
    24
 71
     2
 72
     6
 73
     3
 74
     0
 42
0.0000000001
 43
0.0000000001
 40
0.0
 40
0.0
 40
0.0
 40
114.2774522642408
 40
114.2774522642408
 40
114.2774522642408
 10
1976.999999763975
 20
1741.741301227496
 30
0.0
 10
1976.999999763975
 20
1798.880027359617
 30
0.0
 10
1976.999999763975
 20
1856.018753491737
 30
0.0
  0
SPLINE
  5
4C
330
1F
100
AcDbEntity
  8
Predefinito - Visibile
100
AcDbSpline
210
0.0
220
0.0
230
1.0
 70
    24
 71
     2
 72
     6
 73
     3
 74
     0
 42
0.0000000001
 43
0.0000000001
 40
0.0
 40
0.0
 40
0.0
 40
553.7225477357601
 40
553.7225477357601
 40
553.7225477357601
 10
1976.999999763975
 20
1168.018753491736
 30
0.0
 10
1976.999999763975
 20
1444.880027359616
 30
0.0
 10
1976.999999763975
 20
1721.741301227496
 30
0.0
  0
SPLINE
  5
4D
330
1F
100
AcDbEntity
  8
Predefinito - Visibile
100
AcDbSpline
210
0.0
220
0.0
230
1.0
 70
    24
 71
     2
 72
     6
 73
     3
 74
     0
 42
0.0000000001
 43
0.0000000001
 40
0.0
 40
0.0
 40
0.0
 40
1.000009144931028
 40
1.000009144931028
 40
1.000009144931028
 10
1929.000040821445
 20
1149.318753491736
 30
0.0
 10
1929.000040821445
 20
1148.818748919271
 30
0.0
 10
1929.000040821445
 20
1148.318744346805
 30
0.0
  0
SPLINE
  5
4E
330
1F
100
AcDbEntity
  8
Predefinito - Visibile
100
AcDbSpline
210
0.0
220
0.0
230
1.0
 70
    24
 71
     2
 72
     6
 73
     3
 74
     0
 42
0.0000000001
 43
0.0000000001
 40
0.0
 40
0.0
 40
0.0
 40
1.000009144931028
 40
1.000009144931028
 40
1.000009144931028
 10
1911.000040821445
 20
1148.318744346805
 30
0.0
 10
1911.000040821445
 20
1148.818748919271
 30
0.0
 10
1911.000040821445
 20
1149.318753491736
 30
0.0
  0
SPLINE
  5
4F
330
1F
100
AcDbEntity
  8
Predefinito - Visibile
100
AcDbSpline
210
0.0
220
0.0
230
1.0
 70
    24
 71
     2
 72
     6
 73
     3
 74
     0
 42
0.0000000001
 43
0.0000000001
 40
0.0
 40
0.0
 40
0.0
 40
1.000009144931028
 40
1.000009144931028
 40
1.000009144931028
 10
1960.000040821445
 20
1149.318753491736
 30
0.0
 10
1960.000040821445
 20
1148.818748919271
 30
0.0
 10
1960.000040821445
 20
1148.318744346805
 30
0.0
  0
SPLINE
  5
50
330
1F
100
AcDbEntity
  8
Predefinito - Visibile
100
AcDbSpline
210
0.0
220
0.0
230
1.0
 70
    24
 71
     2
 72
     6
 73
     3
 74
     0
 42
0.0000000001
 43
0.0000000001
 40
0.0
 40
0.0
 40
0.0
 40
1.000009144931028
 40
1.000009144931028
 40
1.000009144931028
 10
1942.000040821445
 20
1148.318744346805
 30
0.0
 10
1942.000040821445
 20
1148.818748919271
 30
0.0
 10
1942.000040821445
 20
1149.318753491736
 30
0.0
  0
SPLINE
  5
51
330
1F
100
AcDbEntity
  8
Predefinito - Visibile
100
AcDbSpline
210
0.0
220
0.0
230
1.0
 70
    24
 71
     2
 72
     6
 73
     3
 74
     0
 42
0.0000000001
 43
0.0000000001
 40
0.0
 40
0.0
 40
0.0
 40
1.000009144931028
 40
1.000009144931028
 40
1.000009144931028
 10
2004.000040821445
 20
1148.318744346805
 30
0.0
 10
2004.000040821445
 20
1148.818748919271
 30
0.0
 10
2004.000040821445
 20
1149.318753491736
 30
0.0
  0
SPLINE
  5
52
330
1F
100
AcDbEntity
  8
Predefinito - Visibile
100
AcDbSpline
210
0.0
220
0.0
230
1.0
 70
    24
 71
     2
 72
     6
 73
     3
 74
     0
 42
0.0000000001
 43
0.0000000001
 40
0.0
 40
0.0
 40
0.0
 40
1.000009144931028
 40
1.000009144931028
 40
1.000009144931028
 10
2053.000040821445
 20
1149.318753491736
 30
0.0
 10
2053.000040821445
 20
1148.818748919271
 30
0.0
 10
2053.000040821445
 20
1148.318744346805
 30
0.0
  0
SPLINE
  5
53
330
1F
100
AcDbEntity
  8
Predefinito - Visibile
100
AcDbSpline
210
0.0
220
0.0
230
1.0
 70
    24
 71
     2
 72
     6
 73
     3
 74
     0
 42
0.0000000001
 43
0.0000000001
 40
0.0
 40
0.0
 40
0.0
 40
1.000009144931028
 40
1.000009144931028
 40
1.000009144931028
 10
2035.000040821445
 20
1148.318744346805
 30
0.0
 10
2035.000040821445
 20
1148.818748919271
 30
0.0
 10
2035.000040821445
 20
1149.318753491736
 30
0.0
  0
SPLINE
  5
54
330
1F
100
AcDbEntity
  8
Predefinito - Visibile
100
AcDbSpline
210
0.0
220
0.0
230
1.0
 70
    24
 71
     2
 72
     6
 73
     3
 74
     0
 42
0.0000000001
 43
0.0000000001
 40
0.0
 40
0.0
 40
0.0
 40
6.699560900233685
 40
6.699560900233685
 40
6.699560900233685
 10
2055.921413817293
 20
1156.018059293219
 30
0.0
 10
2055.892181839284
 20
1152.668406392478
 30
0.0
 10
2055.862949861274
 20
1149.318753491736
 30
0.0
  0
SPLINE
  5
55
330
1F
100
AcDbEntity
  8
Predefinito - Visibile
100
AcDbSpline
210
0.0
220
0.0
230
1.0
 70
    24
 71
     2
 72
     6
 73
     3
 74
     0
 42
0.0000000001
 43
0.0000000001
 40
0.0
 40
0.0
 40
0.0
 40
6.699560900233685
 40
6.699560900233685
 40
6.699560900233685
 10
1908.137049666675
 20
1149.318753491736
 30
0.0
 10
1908.107817688666
 20
1152.668406392478
 30
0.0
 10
1908.078585710656
 20
1156.018059293219
 30
0.0
  0
SPLINE
  5
56
330
1F
100
AcDbEntity
  8
Predefinito - Visibile
100
AcDbSpline
210
0.0
220
0.0
230
1.0
 70
    24
 71
     2
 72
     6
 73
     3
 74
     0
 42
0.0000000001
 43
0.0000000001
 40
0.0
 40
0.0
 40
0.0
 40
12.00181441259944
 40
12.00181441259944
 40
12.00181441259944
 10
1900.0
 20
1156.018767013604
 30
0.0
 10
1900.104730271556
 20
1162.01876025267
 30
0.0
 10
1900.209460543113
 20
1168.018753491736
 30
0.0
  0
SPLINE
  5
57
330
1F
100
AcDbEntity
  8
Predefinito - Visibile
100
AcDbSpline
210
0.0
220
0.0
230
1.0
 70
    24
 71
     2
 72
     6
 73
     3
 74
     0
 42
0.0000000001
 43
0.0000000001
 40
0.0
 40
0.0
 40
0.0
 40
12.00181441259899
 40
12.00181441259899
 40
12.00181441259899
 10
2063.790538984836
 20
1168.018753491736
 30
0.0
 10
2063.895269256393
 20
1162.01876025267
 30
0.0
 10
2063.99999952795
 20
1156.018767013604
 30
0.0
  0
SPLINE
  5
58
330
1F
100
AcDbEntity
  8
Predefinito - Visibile
100
AcDbSpline
210
0.0
220
0.0
230
1.0
 70
    24
 71
     2
 72
     6
 73
     3
 74
     0
 42
0.0000000001
 43
0.0000000001
 40
0.0
 40
0.0
 40
0.0
 40
0.305386257712513
 40
0.305386257712513
 40
0.305386257712513
 10
1968.614648458455
 20
1741.741301227496
 30
0.0
 10
1968.461955329599
 20
1741.741301227496
 30
0.0
 10
1968.309262200743
 20
1741.741301227496
 30
0.0
  0
SPLINE
  5
59
330
1F
100
AcDbEntity
  8
Predefinito - Visibile
100
AcDbSpline
210
0.0
220
0.0
230
1.0
 70
    24
 71
     2
 72
     6
 73
     3
 74
     0
 42
0.0000000001
 43
0.0000000001
 40
0.0
 40
0.0
 40
0.0
 40
18.51746038474585
 40
18.51746038474585
 40
18.51746038474585
 10
1968.309262200743
 20
1723.22384084275
 30
0.0
 10
1968.309262200743
 20
1732.482571035123
 30
0.0
 10
1968.309262200743
 20
1741.741301227496
 30
0.0
  0
SPLINE
  5
5A
330
1F
100
AcDbEntity
  8
Predefinito - Visibile
100
AcDbSpline
210
0.0
220
0.0
230
1.0
 70
    24
 71
     2
 72
     6
 73
     3
 74
     0
 42
0.0000000001
 43
0.0000000001
 40
0.0
 40
0.0
 40
0.0
 40
18.51746038474585
 40
18.51746038474585
 40
18.51746038474585
 10
1995.290737327207
 20
1741.741301227496
 30
0.0
 10
1995.290737327207
 20
1732.482571035123
 30
0.0
 10
1995.290737327207
 20
1723.22384084275
 30
0.0
  0
SPLINE
  5
5C
330
1F
100
AcDbEntity
  8
Predefinito - VisibleTangent
100
AcDbSpline
210
0.0
220
0.0
230
1.0
 70
    12
 71
     2
 72
     8
 73
     5
 74
     0
 42
0.0000000001
 43
0.0000000001
 40
0.0
 40
0.0
 40
0.0
 40
0.0830347775694804
 40
0.0830347775694804
 40
7.110371082170781
 40
7.110371082170781
 40
7.110371082170781
 10
1977.109293302958
 20
1857.523116588593
 30
0.0
 41
1.0
 10
1977.067775914174
 20
1857.523116588592
 30
0.0
 41
1.0
 10
1977.026258525389
 20
1857.523116588591
 30
0.0
 41
1.0
 10
1977.026258525389
 20
1857.523116593345
 30
0.0
 41
0.707106781186548
 10
1981.999999763975
 20
1857.523116593345
 30
0.0
 41
1.0
  0
SPLINE
  5
5D
330
1F
100
AcDbEntity
  8
Predefinito - Visibile
100
AcDbSpline
210
0.0
220
0.0
230
1.0
 70
    24
 71
     2
 72
     6
 73
     3
 74
     0
 42
0.0000000001
 43
0.0000000001
 40
0.0
 40
0.0
 40
0.0
 40
4.399053776807946
 40
4.399053776807946
 40
4.399053776807946
 10
1981.999999763975
 20
1858.018753491735
 30
0.0
 10
1979.800472875571
 20
1858.018753491735
 30
0.0
 10
1977.600945987167
 20
1858.018753491735
 30
0.0
  0
SPLINE
  5
5E
330
1F
100
AcDbEntity
  8
Predefinito - Visibile
100
AcDbSpline
210
0.0
220
0.0
230
1.0
 70
    24
 71
     2
 72
     6
 73
     3
 74
     0
 42
0.0000000001
 43
0.0000000001
 40
0.0
 40
0.0
 40
0.0
 40
4.890706461016237
 40
4.890706461016237
 40
4.890706461016237
 10
1981.999999763975
 20
1857.523116593345
 30
0.0
 10
1984.445352994483
 20
1857.523116593345
 30
0.0
 10
1986.890706224991
 20
1857.523116593345
 30
0.0
  0
SPLINE
  5
5F
330
1F
100
AcDbEntity
  8
Predefinito - Visibile
100
AcDbSpline
210
0.0
220
0.0
230
1.0
 70
    28
 71
     2
 72
     8
 73
     5
 74
     0
 42
0.0000000001
 43
0.0000000001
 40
6.148919266526137
 40
6.148919266526137
 40
6.148919266526137
 40
7.0273363046013
 40
7.0273363046013
 40
14.0546726092026
 40
14.0546726092026
 40
14.0546726092026
 10
1986.399053540782
 20
1858.018753491735
 30
0.0
 41
0.9359296083845574
 10
1986.47374100256
 20
1858.018753491735
 30
0.0
 41
0.9633883476483185
 10
1986.47374100256
 20
1858.018753491735
 30
0.0
 41
1.0
 10
1986.47374100256
 20
1858.018753491735
 30
0.0
 41
0.707106781186548
 10
1981.999999763975
 20
1858.018753491735
 30
0.0
 41
1.0
  0
SPLINE
  5
60
330
1F
100
AcDbEntity
  8
Predefinito - Visibile
100
AcDbSpline
210
0.0
220
0.0
230
1.0
 70
    24
 71
     2
 72
     6
 73
     3
 74
     0
 42
0.0000000001
 43
0.0000000001
 40
0.0
 40
0.0
 40
0.0
 40
0.133792673374046
 40
0.133792673374046
 40
0.133792673374046
 10
1977.217265595266
 20
1856.018753491735
 30
0.0
 10
1977.150369258579
 20
1856.018753491735
 30
0.0
 10
1977.083472921892
 20
1856.018753491735
 30
0.0
  0
SPLINE
  5
61
330
1F
100
AcDbEntity
  8
Predefinito - Visibile
100
AcDbSpline
210
0.0
220
0.0
230
1.0
 70
    24
 71
     2
 72
     6
 73
     3
 74
     0
 42
0.0000000001
 43
0.0000000001
 40
0.0
 40
0.0
 40
0.0
 40
4.782734171190341
 40
4.782734171190341
 40
4.782734171190341
 10
1977.217265592784
 20
1856.018753491737
 30
0.0
 10
1979.60863267838
 20
1856.018753491737
 30
0.0
 10
1981.999999763975
 20
1856.018753491737
 30
0.0
  0
SPLINE
  5
62
330
1F
100
AcDbEntity
  8
Predefinito - Visibile
100
AcDbSpline
210
0.0
220
0.0
230
1.0
 70
    24
 71
     2
 72
     6
 73
     3
 74
     0
 42
0.0000000001
 43
0.0000000001
 40
0.0
 40
0.0
 40
0.0
 40
4.91652684208286
 40
4.91652684208286
 40
4.91652684208286
 10
1981.999999763975
 20
1856.018753491737
 30
0.0
 10
1984.458263185016
 20
1856.018753491737
 30
0.0
 10
1986.916526606057
 20
1856.018753491737
 30
0.0
  0
SPLINE
  5
63
330
1F
100
AcDbEntity
  8
Predefinito - Visibile
100
AcDbSpline
210
0.0
220
0.0
230
1.0
 70
    24
 71
     2
 72
     6
 73
     3
 74
     0
 42
0.0000000001
 43
0.0000000001
 40
0.0
 40
0.0
 40
0.0
 40
9.0
 40
9.0
 40
9.0
 10
1929.000040821445
 20
1148.318744346805
 30
0.0
 10
1924.500040821445
 20
1148.318744346805
 30
0.0
 10
1920.000040821445
 20
1148.318744346805
 30
0.0
  0
SPLINE
  5
64
330
1F
100
AcDbEntity
  8
Predefinito - Visibile
100
AcDbSpline
210
0.0
220
0.0
230
1.0
 70
    24
 71
     2
 72
     6
 73
     3
 74
     0
 42
0.0000000001
 43
0.0000000001
 40
0.0
 40
0.0
 40
0.0
 40
9.0
 40
9.0
 40
9.0
 10
1920.000040821445
 20
1148.318744346805
 30
0.0
 10
1915.500040821445
 20
1148.318744346805
 30
0.0
 10
1911.000040821445
 20
1148.318744346805
 30
0.0
  0
SPLINE
  5
65
330
1F
100
AcDbEntity
  8
Predefinito - Visibile
100
AcDbSpline
210
0.0
220
0.0
230
1.0
 70
    24
 71
     2
 72
     6
 73
     3
 74
     0
 42
0.0000000001
 43
0.0000000001
 40
0.0
 40
0.0
 40
0.0
 40
9.0
 40
9.0
 40
9.0
 10
1960.000040821445
 20
1148.318744346805
 30
0.0
 10
1955.500040821445
 20
1148.318744346805
 30
0.0
 10
1951.000040821445
 20
1148.318744346805
 30
0.0
  0
SPLINE
  5
66
330
1F
100
AcDbEntity
  8
Predefinito - Visibile
100
AcDbSpline
210
0.0
220
0.0
230
1.0
 70
    24
 71
     2
 72
     6
 73
     3
 74
     0
 42
0.0000000001
 43
0.0000000001
 40
0.0
 40
0.0
 40
0.0
 40
9.0
 40
9.0
 40
9.0
 10
1951.000040821445
 20
1148.318744346805
 30
0.0
 10
1946.500040821445
 20
1148.318744346805
 30
0.0
 10
1942.000040821445
 20
1148.318744346805
 30
0.0
  0
SPLINE
  5
67
330
1F
100
AcDbEntity
  8
Predefinito - Visibile
100
AcDbSpline
210
0.0
220
0.0
230
1.0
 70
    24
 71
     2
 72
     6
 73
     3
 74
     0
 42
0.0000000001
 43
0.0000000001
 40
0.0
 40
0.0
 40
0.0
 40
9.0
 40
9.0
 40
9.0
 10
2022.000040821445
 20
1148.318744346805
 30
0.0
 10
2017.500040821445
 20
1148.318744346805
 30
0.0
 10
2013.000040821445
 20
1148.318744346805
 30
0.0
  0
SPLINE
  5
68
330
1F
100
AcDbEntity
  8
Predefinito - Visibile
100
AcDbSpline
210
0.0
220
0.0
230
1.0
 70
    24
 71
     2
 72
     6
 73
     3
 74
     0
 42
0.0000000001
 43
0.0000000001
 40
0.0
 40
0.0
 40
0.0
 40
9.0
 40
9.0
 40
9.0
 10
2013.000040821445
 20
1148.318744346805
 30
0.0
 10
2008.500040821445
 20
1148.318744346805
 30
0.0
 10
2004.000040821445
 20
1148.318744346805
 30
0.0
  0
SPLINE
  5
69
330
1F
100
AcDbEntity
  8
Predefinito - Visibile
100
AcDbSpline
210
0.0
220
0.0
230
1.0
 70
    24
 71
     2
 72
     6
 73
     3
 74
     0
 42
0.0000000001
 43
0.0000000001
 40
0.0
 40
0.0
 40
0.0
 40
9.0
 40
9.0
 40
9.0
 10
2053.000040821445
 20
1148.318744346805
 30
0.0
 10
2048.500040821445
 20
1148.318744346805
 30
0.0
 10
2044.000040821445
 20
1148.318744346805
 30
0.0
  0
SPLINE
  5
6A
330
1F
100
AcDbEntity
  8
Predefinito - Visibile
100
AcDbSpline
210
0.0
220
0.0
230
1.0
 70
    24
 71
     2
 72
     6
 73
     3
 74
     0
 42
0.0000000001
 43
0.0000000001
 40
0.0
 40
0.0
 40
0.0
 40
9.0
 40
9.0
 40
9.0
 10
2044.000040821445
 20
1148.318744346805
 30
0.0
 10
2039.500040821445
 20
1148.318744346805
 30
0.0
 10
2035.000040821445
 20
1148.318744346805
 30
0.0
  0
SPLINE
  5
6B
330
1F
100
AcDbEntity
  8
Predefinito - Visibile
100
AcDbSpline
210
0.0
220
0.0
230
1.0
 70
    28
 71
     2
 72
     6
 73
     3
 74
     0
 42
0.0000000001
 43
0.0000000001
 40
-44.27682146153114
 40
-44.27682146153114
 40
-44.27682146153114
 40
0.0
 40
0.0
 40
0.0
 10
2063.999224860634
 20
1156.018753491736
 30
0.0
 41
0.8678548172931494
 10
2064.095576500101
 20
1156.018753491736
 30
0.0
 41
0.8993179560328757
 10
2053.014082874299
 20
1156.018753491736
 30
0.0
 41
1.0
  0
SPLINE
  5
6C
330
1F
100
AcDbEntity
  8
Predefinito - Visibile
100
AcDbSpline
210
0.0
220
0.0
230
1.0
 70
    24
 71
     2
 72
     6
 73
     3
 74
     0
 42
0.0000000001
 43
0.0000000001
 40
0.0
 40
0.0
 40
0.0
 40
153.0133082069835
 40
153.0133082069835
 40
153.0133082069835
 10
2053.014082874299
 20
1156.018753491736
 30
0.0
 10
1976.507428770807
 20
1156.018753491736
 30
0.0
 10
1900.000774667315
 20
1156.018753491736
 30
0.0
  0
SPLINE
  5
6D
330
1F
100
AcDbEntity
  8
Predefinito - Visibile
100
AcDbSpline
210
0.0
220
0.0
230
1.0
 70
    28
 71
     2
 72
     6
 73
     3
 74
     0
 42
0.0000000001
 43
0.0000000001
 40
192.1641714703388
 40
192.1641714703388
 40
192.1641714703388
 40
232.047301398145
 40
232.047301398145
 40
232.047301398145
 10
2055.862251853386
 20
1149.318753491736
 30
0.0
 41
0.8678548172931494
 10
2055.94904229653
 20
1149.318753491736
 30
0.0
 41
0.8993179560328757
 10
2045.967190946698
 20
1149.318753491736
 30
0.0
 41
1.0
  0
SPLINE
  5
6E
330
1F
100
AcDbEntity
  8
Predefinito - Visibile
100
AcDbSpline
210
0.0
220
0.0
230
1.0
 70
    24
 71
     2
 72
     6
 73
     3
 74
     0
 42
0.0000000001
 43
0.0000000001
 40
0.0
 40
0.0
 40
0.0
 40
137.8294432721353
 40
137.8294432721353
 40
137.8294432721353
 10
2045.967190946698
 20
1149.318753491736
 30
0.0
 10
1977.05246931063
 20
1149.318753491736
 30
0.0
 10
1908.137747674563
 20
1149.318753491736
 30
0.0
  0
SPLINE
  5
6F
330
1F
100
AcDbEntity
  8
Predefinito - Visibile
100
AcDbSpline
210
0.0
220
0.0
230
1.0
 70
    24
 71
     2
 72
     6
 73
     3
 74
     0
 42
0.0000000001
 43
0.0000000001
 40
0.0
 40
0.0
 40
0.0
 40
10.86983248737516
 40
10.86983248737516
 40
10.86983248737516
 10
2052.832684518468
 20
1168.018753491736
 30
0.0
 10
2058.267600762156
 20
1168.018753491736
 30
0.0
 10
2063.702517005843
 20
1168.018753491736
 30
0.0
  0
SPLINE
  5
70
330
1F
100
AcDbEntity
  8
Predefinito - Visibile
100
AcDbSpline
210
0.0
220
0.0
230
1.0
 70
    28
 71
     2
 72
     8
 73
     5
 74
     0
 42
0.0000000001
 43
0.0000000001
 40
-216.8037200948113
 40
-216.8037200948113
 40
-216.8037200948113
 40
-128.476278574703
 40
-128.476278574703
 40
0.0
 40
0.0
 40
0.0
 10
1900.297482522106
 20
1168.018753491736
 30
0.0
 41
0.8741474450410947
 10
1897.988322179698
 20
1168.018753491736
 30
0.0
 41
0.7986359120657515
 10
1941.104730153544
 20
1168.018753491736
 30
0.0
 41
1.0
 10
2011.937414908037
 20
1168.018753491736
 30
0.0
 41
0.7071067811865476
 10
2052.832684518468
 20
1168.018753491736
 30
0.0
 41
1.0
  0
SPLINE
  5
71
330
1F
100
AcDbEntity
  8
Predefinito - Visibile
100
AcDbSpline
210
0.0
220
0.0
230
1.0
 70
    24
 71
     2
 72
     6
 73
     3
 74
     0
 42
0.0000000001
 43
0.0000000001
 40
0.0
 40
0.0
 40
0.0
 40
26.67608886875159
 40
26.67608886875159
 40
26.67608886875159
 10
1968.614648458455
 20
1741.741301227496
 30
0.0
 10
1981.952692892831
 20
1741.741301227496
 30
0.0
 10
1995.290737327207
 20
1741.741301227496
 30
0.0
  0
SPLINE
  5
72
330
1F
100
AcDbEntity
  8
Predefinito - Visibile
100
AcDbSpline
210
0.0
220
0.0
230
1.0
 70
    24
 71
     2
 72
     6
 73
     3
 74
     0
 42
0.0000000001
 43
0.0000000001
 40
0.0
 40
0.0
 40
0.0
 40
26.99999999999996
 40
26.99999999999996
 40
26.99999999999996
 10
1968.299999763975
 20
1721.741301227496
 30
0.0
 10
1981.799999763975
 20
1721.741301227496
 30
0.0
 10
1995.299999763975
 20
1721.741301227496
 30
0.0
  0
SPLINE
  5
73
330
1F
100
AcDbEntity
  8
Predefinito - Visibile
100
AcDbSpline
210
0.0
220
0.0
230
1.0
 70
    24
 71
     2
 72
     6
 73
     3
 74
     0
 42
0.0000000001
 43
0.0000000001
 40
0.0
 40
0.0
 40
0.0
 40
18.51746038474585
 40
18.51746038474585
 40
18.51746038474585
 10
3804.196237524435
 20
1741.741301227496
 30
0.0
 10
3804.196237524435
 20
1732.482571035123
 30
0.0
 10
3804.196237524435
 20
1723.22384084275
 30
0.0
  0
SPLINE
  5
74
330
1F
100
AcDbEntity
  8
Predefinito - Visibile
100
AcDbSpline
210
0.0
220
0.0
230
1.0
 70
    24
 71
     2
 72
     6
 73
     3
 74
     0
 42
0.0000000001
 43
0.0000000001
 40
0.0
 40
0.0
 40
0.0
 40
1.482539615254154
 40
1.482539615254154
 40
1.482539615254154
 10
3804.196237524435
 20
1723.22384084275
 30
0.0
 10
3804.196237524435
 20
1722.482571035123
 30
0.0
 10
3804.196237524435
 20
1721.741301227496
 30
0.0
  0
SPLINE
  5
75
330
1F
100
AcDbEntity
  8
Predefinito - Visibile
100
AcDbSpline
210
0.0
220
0.0
230
1.0
 70
    24
 71
     2
 72
     6
 73
     3
 74
     0
 42
0.0000000001
 43
0.0000000001
 40
0.0
 40
0.0
 40
0.0
 40
18.51746038474585
 40
18.51746038474585
 40
18.51746038474585
 10
3097.196237524435
 20
1723.22384084275
 30
0.0
 10
3097.196237524435
 20
1732.482571035123
 30
0.0
 10
3097.196237524435
 20
1741.741301227496
 30
0.0
  0
SPLINE
  5
76
330
1F
100
AcDbEntity
  8
Predefinito - Visibile
100
AcDbSpline
210
0.0
220
0.0
230
1.0
 70
    24
 71
     2
 72
     6
 73
     3
 74
     0
 42
0.0000000001
 43
0.0000000001
 40
0.0
 40
0.0
 40
0.0
 40
1.482539615254154
 40
1.482539615254154
 40
1.482539615254154
 10
3097.196237524435
 20
1721.741301227496
 30
0.0
 10
3097.196237524435
 20
1722.482571035123
 30
0.0
 10
3097.196237524435
 20
1723.22384084275
 30
0.0
  0
SPLINE
  5
77
330
1F
100
AcDbEntity
  8
Predefinito - Visibile
100
AcDbSpline
210
0.0
220
0.0
230
1.0
 70
    24
 71
     2
 72
     6
 73
     3
 74
     0
 42
0.0000000001
 43
0.0000000001
 40
0.0
 40
0.0
 40
0.0
 40
553.7225477357601
 40
553.7225477357601
 40
553.7225477357601
 10
3778.773744626992
 20
1721.741301227496
 30
0.0
 10
3778.773744626992
 20
1444.880027359616
 30
0.0
 10
3778.773744626992
 20
1168.018753491736
 30
0.0
  0
SPLINE
  5
78
330
1F
100
AcDbEntity
  8
Predefinito - Visibile
100
AcDbSpline
210
0.0
220
0.0
230
1.0
 70
    24
 71
     2
 72
     6
 73
     3
 74
     0
 42
0.0000000001
 43
0.0000000001
 40
0.0
 40
0.0
 40
0.0
 40
114.2774522642408
 40
114.2774522642408
 40
114.2774522642408
 10
3778.773744626992
 20
1856.018753491737
 30
0.0
 10
3778.773744626992
 20
1798.880027359617
 30
0.0
 10
3778.773744626992
 20
1741.741301227496
 30
0.0
  0
SPLINE
  5
79
330
1F
100
AcDbEntity
  8
Predefinito - Visibile
100
AcDbSpline
210
0.0
220
0.0
230
1.0
 70
    24
 71
     2
 72
     6
 73
     3
 74
     0
 42
0.0000000001
 43
0.0000000001
 40
0.0
 40
0.0
 40
0.0
 40
1.000009144931028
 40
1.000009144931028
 40
1.000009144931028
 10
3782.773730800236
 20
1149.318753491736
 30
0.0
 10
3782.773730800236
 20
1148.818748919271
 30
0.0
 10
3782.773730800236
 20
1148.318744346805
 30
0.0
  0
SPLINE
  5
7A
330
1F
100
AcDbEntity
  8
Predefinito - Visibile
100
AcDbSpline
210
0.0
220
0.0
230
1.0
 70
    24
 71
     2
 72
     6
 73
     3
 74
     0
 42
0.0000000001
 43
0.0000000001
 40
0.0
 40
0.0
 40
0.0
 40
1.000009144931028
 40
1.000009144931028
 40
1.000009144931028
 10
3729.080155765601
 20
1149.318753491736
 30
0.0
 10
3729.080155765601
 20
1148.818748919271
 30
0.0
 10
3729.080155765601
 20
1148.318744346805
 30
0.0
  0
SPLINE
  5
7B
330
1F
100
AcDbEntity
  8
Predefinito - Visibile
100
AcDbSpline
210
0.0
220
0.0
230
1.0
 70
    24
 71
     2
 72
     6
 73
     3
 74
     0
 42
0.0000000001
 43
0.0000000001
 40
0.0
 40
0.0
 40
0.0
 40
1.000009144931028
 40
1.000009144931028
 40
1.000009144931028
 10
3836.467305834871
 20
1149.318753491736
 30
0.0
 10
3836.467305834871
 20
1148.818748919271
 30
0.0
 10
3836.467305834871
 20
1148.318744346805
 30
0.0
  0
SPLINE
  5
7C
330
1F
100
AcDbEntity
  8
Predefinito - Visibile
100
AcDbSpline
210
0.0
220
0.0
230
1.0
 70
    24
 71
     2
 72
     6
 73
     3
 74
     0
 42
0.0000000001
 43
0.0000000001
 40
0.0
 40
0.0
 40
0.0
 40
6.699560900233001
 40
6.699560900233001
 40
6.699560900233001
 10
3699.910794529693
 20
1149.318753491736
 30
0.0
 10
3699.881562551683
 20
1152.668406392477
 30
0.0
 10
3699.852330573673
 20
1156.018059293219
 30
0.0
  0
SPLINE
  5
7D
330
1F
100
AcDbEntity
  8
Predefinito - Visibile
100
AcDbSpline
210
0.0
220
0.0
230
1.0
 70
    24
 71
     2
 72
     6
 73
     3
 74
     0
 42
0.0000000001
 43
0.0000000001
 40
0.0
 40
0.0
 40
0.0
 40
6.699560900233683
 40
6.699560900233683
 40
6.699560900233683
 10
3847.695158680311
 20
1156.018059293219
 30
0.0
 10
3847.665926702301
 20
1152.668406392478
 30
0.0
 10
3847.636694724291
 20
1149.318753491736
 30
0.0
  0
SPLINE
  5
7E
330
1F
100
AcDbEntity
  8
Predefinito - Visibile
100
AcDbSpline
210
0.0
220
0.0
230
1.0
 70
    24
 71
     2
 72
     6
 73
     3
 74
     0
 42
0.0000000001
 43
0.0000000001
 40
0.0
 40
0.0
 40
0.0
 40
12.00181441259923
 40
12.00181441259923
 40
12.00181441259923
 10
3855.564283847853
 20
1168.018753491736
 30
0.0
 10
3855.66901411941
 20
1162.01876025267
 30
0.0
 10
3855.773744390967
 20
1156.018767013604
 30
0.0
  0
SPLINE
  5
7F
330
1F
100
AcDbEntity
  8
Predefinito - Visibile
100
AcDbSpline
210
0.0
220
0.0
230
1.0
 70
    24
 71
     2
 72
     6
 73
     3
 74
     0
 42
0.0000000001
 43
0.0000000001
 40
0.0
 40
0.0
 40
0.0
 40
12.00181441259923
 40
12.00181441259923
 40
12.00181441259923
 10
3691.773744863017
 20
1156.018767013604
 30
0.0
 10
3691.878475134574
 20
1162.01876025267
 30
0.0
 10
3691.983205406131
 20
1168.018753491736
 30
0.0
  0
SPLINE
  5
80
330
1F
100
AcDbEntity
  8
Predefinito - Visibile
100
AcDbSpline
210
0.0
220
0.0
230
1.0
 70
    24
 71
     2
 72
     6
 73
     3
 74
     0
 42
0.0000000001
 43
0.0000000001
 40
0.0
 40
0.0
 40
0.0
 40
18.48253961525415
 40
18.48253961525415
 40
18.48253961525415
 10
3791.196237524435
 20
1723.258761612242
 30
0.0
 10
3791.196237524435
 20
1732.500031419869
 30
0.0
 10
3791.196237524435
 20
1741.741301227496
 30
0.0
  0
SPLINE
  5
81
330
1F
100
AcDbEntity
  8
Predefinito - Visibile
100
AcDbSpline
210
0.0
220
0.0
230
1.0
 70
    24
 71
     2
 72
     6
 73
     3
 74
     0
 42
0.0000000001
 43
0.0000000001
 40
0.0
 40
0.0
 40
0.0
 40
0.4999994741192495
 40
0.4999994741192495
 40
0.4999994741192495
 10
3790.696238050316
 20
1723.22384084275
 30
0.0
 10
3790.946237787375
 20
1723.22384084275
 30
0.0
 10
3791.196237524435
 20
1723.22384084275
 30
0.0
  0
SPLINE
  5
82
330
1F
100
AcDbEntity
  8
Predefinito - Visibile
100
AcDbSpline
210
0.0
220
0.0
230
1.0
 70
    24
 71
     2
 72
     6
 73
     3
 74
     0
 42
0.0000000001
 43
0.0000000001
 40
0.0
 40
0.0
 40
0.0
 40
0.5
 40
0.5
 40
0.5
 10
3790.196237524435
 20
1723.22384084275
 30
0.0
 10
3790.446237524435
 20
1723.22384084275
 30
0.0
 10
3790.696237524435
 20
1723.22384084275
 30
0.0
  0
SPLINE
  5
83
330
1F
100
AcDbEntity
  8
Predefinito - Visibile
100
AcDbSpline
210
0.0
220
0.0
230
1.0
 70
    24
 71
     2
 72
     6
 73
     3
 74
     0
 42
0.0000000001
 43
0.0000000001
 40
0.0
 40
0.0
 40
0.0
 40
18.51746038474585
 40
18.51746038474585
 40
18.51746038474585
 10
3111.196237524435
 20
1741.741301227496
 30
0.0
 10
3111.196237524435
 20
1732.482571035123
 30
0.0
 10
3111.196237524435
 20
1723.22384084275
 30
0.0
  0
SPLINE
  5
84
330
1F
100
AcDbEntity
  8
Predefinito - Visibile
100
AcDbSpline
210
0.0
220
0.0
230
1.0
 70
    24
 71
     2
 72
     6
 73
     3
 74
     0
 42
0.0000000001
 43
0.0000000001
 40
0.0
 40
0.0
 40
0.0
 40
679.0
 40
679.0
 40
679.0
 10
3790.196237524435
 20
1721.741301227496
 30
0.0
 10
3450.696237524435
 20
1721.741301227496
 30
0.0
 10
3111.196237524435
 20
1721.741301227496
 30
0.0
  0
SPLINE
  5
85
330
1F
100
AcDbEntity
  8
Predefinito - Visibile
100
AcDbSpline
210
0.0
220
0.0
230
1.0
 70
    24
 71
     2
 72
     6
 73
     3
 74
     0
 42
0.0000000001
 43
0.0000000001
 40
0.0
 40
0.0
 40
0.0
 40
18.50873019237292
 40
18.50873019237292
 40
18.50873019237292
 10
3790.196237524435
 20
1723.232571035123
 30
0.0
 10
3790.196237524435
 20
1732.486936131309
 30
0.0
 10
3790.196237524435
 20
1741.741301227496
 30
0.0
  0
SPLINE
  5
86
330
1F
100
AcDbEntity
  8
Predefinito - Visibile
100
AcDbSpline
210
0.0
220
0.0
230
1.0
 70
    24
 71
     2
 72
     6
 73
     3
 74
     0
 42
0.0000000001
 43
0.0000000001
 40
0.0
 40
0.0
 40
0.0
 40
679.0
 40
679.0
 40
679.0
 10
3790.196237524435
 20
1741.741301227496
 30
0.0
 10
3450.696237524435
 20
1741.741301227496
 30
0.0
 10
3111.196237524435
 20
1741.741301227496
 30
0.0
  0
SPLINE
  5
87
330
1F
100
AcDbEntity
  8
Predefinito - Visibile
100
AcDbSpline
210
0.0
220
0.0
230
1.0
 70
    24
 71
     2
 72
     6
 73
     3
 74
     0
 42
0.0000000001
 43
0.0000000001
 40
0.0
 40
0.0
 40
0.0
 40
1.00060954429882
 40
1.00060954429882
 40
1.00060954429882
 10
3111.196237524435
 20
1741.32384084275
 30
0.0
 10
3110.696237524435
 20
1741.341301227496
 30
0.0
 10
3110.196237524435
 20
1741.358761612242
 30
0.0
  0
SPLINE
  5
88
330
1F
100
AcDbEntity
  8
Predefinito - Visibile
100
AcDbSpline
210
0.0
220
0.0
230
1.0
 70
    12
 71
     2
 72
     8
 73
     5
 74
     0
 42
0.0000000001
 43
0.0000000001
 40
0.0
 40
0.0
 40
0.0
 40
0.0525035152224973
 40
0.0525035152224973
 40
20.75813954449029
 40
20.75813954449029
 40
20.75813954449029
 10
3097.248741039658
 20
1741.741301298141
 30
0.0
 41
1.0
 10
3097.222489282047
 20
1741.741301298142
 30
0.0
 41
1.0
 10
3097.196237524435
 20
1741.741301298142
 30
0.0
 41
1.0
 10
3097.196237524435
 20
1741.741301227496
 30
0.0
 41
0.720082299823107
 10
3110.196237524435
 20
1741.741301227496
 30
0.0
 41
1.0
  0
SPLINE
  5
89
330
1F
100
AcDbEntity
  8
Predefinito - Visibile
100
AcDbSpline
210
0.0
220
0.0
230
1.0
 70
    24
 71
     2
 72
     6
 73
     3
 74
     0
 42
0.0000000001
 43
0.0000000001
 40
0.0
 40
0.0
 40
0.0
 40
18.51746038474585
 40
18.51746038474585
 40
18.51746038474585
 10
3110.196237524435
 20
1741.741301227496
 30
0.0
 10
3110.196237524435
 20
1732.482571035123
 30
0.0
 10
3110.196237524435
 20
1723.22384084275
 30
0.0
  0
SPLINE
  5
8A
330
1F
100
AcDbEntity
  8
Predefinito - Visibile
100
AcDbSpline
210
0.0
220
0.0
230
1.0
 70
    24
 71
     2
 72
     6
 73
     3
 74
     0
 42
0.0000000001
 43
0.0000000001
 40
0.0
 40
0.0
 40
0.0
 40
0.5
 40
0.5
 40
0.5
 10
3110.696237524435
 20
1721.741301227496
 30
0.0
 10
3110.946237524435
 20
1721.741301227496
 30
0.0
 10
3111.196237524435
 20
1721.741301227496
 30
0.0
  0
SPLINE
  5
8B
330
1F
100
AcDbEntity
  8
Predefinito - Visibile
100
AcDbSpline
210
0.0
220
0.0
230
1.0
 70
    12
 71
     2
 72
    10
 73
     7
 74
     0
 42
0.0000000001
 43
0.0000000001
 40
0.0
 40
0.0
 40
0.0
 40
0.0525035152222699
 40
0.0525035152222699
 40
20.75813954449007
 40
20.75813954449007
 40
21.19998540542918
 40
21.19998540542918
 40
21.19998540542918
 10
3097.248741039657
 20
1721.74130153656
 30
0.0
 41
1.0
 10
3097.222489282046
 20
1721.74130153656
 30
0.0
 41
1.0
 10
3097.196237524435
 20
1721.741301536561
 30
0.0
 41
1.0
 10
3097.196237524435
 20
1721.741301227496
 30
0.0
 41
0.720082299823107
 10
3110.196237524434
 20
1721.741301227496
 30
0.0
 41
1.0
 10
3110.417160454904
 20
1721.741302490235
 30
0.0
 41
1.0
 10
3110.638083385373
 20
1721.741302490235
 30
0.0
 41
1.0
  0
SPLINE
  5
8C
330
1F
100
AcDbEntity
  8
Predefinito - Visibile
100
AcDbSpline
210
0.0
220
0.0
230
1.0
 70
    24
 71
     2
 72
     6
 73
     3
 74
     0
 42
0.0000000001
 43
0.0000000001
 40
0.0
 40
0.0
 40
0.0
 40
0.5000000006521077
 40
0.5000000006521077
 40
0.5000000006521077
 10
3110.696237523783
 20
1723.22384084275
 30
0.0
 10
3110.946237524109
 20
1723.22384084275
 30
0.0
 10
3111.196237524435
 20
1723.22384084275
 30
0.0
  0
SPLINE
  5
8D
330
1F
100
AcDbEntity
  8
Predefinito - Visibile
100
AcDbSpline
210
0.0
220
0.0
230
1.0
 70
    24
 71
     2
 72
     6
 73
     3
 74
     0
 42
0.0000000001
 43
0.0000000001
 40
0.0
 40
0.0
 40
0.0
 40
0.4999994741187948
 40
0.4999994741187948
 40
0.4999994741187948
 10
3110.196237524435
 20
1723.22384084275
 30
0.0
 10
3110.446237261494
 20
1723.22384084275
 30
0.0
 10
3110.696236998554
 20
1723.22384084275
 30
0.0
  0
SPLINE
  5
8E
330
1F
100
AcDbEntity
  8
Predefinito - VisibleTangent
100
AcDbSpline
210
0.0
220
0.0
230
1.0
 70
    24
 71
     2
 72
     6
 73
     3
 74
     0
 42
0.0000000001
 43
0.0000000001
 40
0.0
 40
0.0
 40
0.0
 40
9.864372182868465
 40
9.864372182868465
 40
9.864372182868465
 10
3768.883075606498
 20
1857.523116593345
 30
0.0
 10
3773.815261697932
 20
1857.523116593345
 30
0.0
 10
3778.747447789367
 20
1857.523116593345
 30
0.0
  0
SPLINE
  5
8F
330
1F
100
AcDbEntity
  8
Predefinito - Visibile
100
AcDbSpline
210
0.0
220
0.0
230
1.0
 70
    24
 71
     2
 72
     6
 73
     3
 74
     0
 42
0.0000000001
 43
0.0000000001
 40
0.0
 40
0.0
 40
0.0
 40
8.872795015394331
 40
8.872795015394331
 40
8.872795015394331
 10
3778.1727984038
 20
1858.018753491735
 30
0.0
 10
3773.736400896103
 20
1858.018753491735
 30
0.0
 10
3769.300003388406
 20
1858.018753491735
 30
0.0
  0
SPLINE
  5
90
330
1F
100
AcDbEntity
  8
Predefinito - Visibile
100
AcDbSpline
210
0.0
220
0.0
230
1.0
 70
    24
 71
     2
 72
     6
 73
     3
 74
     0
 42
0.0000000001
 43
0.0000000001
 40
0.0
 40
0.0
 40
0.0
 40
1.504592923402787
 40
1.504592923402787
 40
1.504592923402787
 10
3778.773744626992
 20
1856.018753491735
 30
0.0
 10
3778.760596208179
 20
1856.77093504254
 30
0.0
 10
3778.747447789367
 20
1857.523116593345
 30
0.0
  0
SPLINE
  5
91
330
1F
100
AcDbEntity
  8
Predefinito - Visibile
100
AcDbSpline
210
0.0
220
0.0
230
1.0
 70
    24
 71
     2
 72
     6
 73
     3
 74
     0
 42
0.0000000001
 43
0.0000000001
 40
0.0
 40
0.0
 40
0.0
 40
1.503134003818159
 40
1.503134003818159
 40
1.503134003818159
 10
3768.800041464617
 20
1857.523116593345
 30
0.0
 10
3768.78690579509
 20
1856.771664390909
 30
0.0
 10
3768.773770125564
 20
1856.020212188474
 30
0.0
  0
SPLINE
  5
92
330
1F
100
AcDbEntity
  8
Predefinito - Visibile
100
AcDbSpline
210
0.0
220
0.0
230
1.0
 70
    12
 71
     2
 72
     8
 73
     5
 74
     0
 42
0.0000000001
 43
0.0000000001
 40
0.0
 40
0.0
 40
0.0
 40
0.391307791378151
 40
0.391307791378151
 40
0.7826155827563019
 40
0.7826155827563019
 40
0.7826155827563019
 10
3768.800041464617
 20
1857.523116593345
 30
0.0
 41
1.0
 10
3768.80029576452
 20
1857.729580238442
 30
0.0
 41
0.9232828773490503
 10
3768.946920545444
 20
1857.87493661097
 30
0.0
 41
1.0
 10
3769.093545326368
 20
1858.020292983498
 30
0.0
 41
0.9232828773490503
 10
3769.300003388406
 20
1858.018753491735
 30
0.0
 41
1.0
  0
SPLINE
  5
93
330
1F
100
AcDbEntity
  8
Predefinito - Visibile
100
AcDbSpline
210
0.0
220
0.0
230
1.0
 70
    12
 71
     2
 72
     8
 73
     5
 74
     0
 42
0.0000000001
 43
0.0000000001
 40
0.0
 40
0.0
 40
0.0
 40
0.3913077913782134
 40
0.3913077913782134
 40
0.7826155827564267
 40
0.7826155827564267
 40
0.7826155827564267
 10
3778.247485865578
 20
1858.018753491735
 30
0.0
 41
1.0
 10
3778.453943927616
 20
1858.020292983498
 30
0.0
 41
0.9232828773488295
 10
3778.60056870854
 20
1857.87493661097
 30
0.0
 41
1.0
 10
3778.747193489463
 20
1857.729580238442
 30
0.0
 41
0.9232828773488295
 10
3778.747447789367
 20
1857.523116593345
 30
0.0
 41
1.0
  0
SPLINE
  5
94
330
1F
100
AcDbEntity
  8
Predefinito - Visibile
100
AcDbSpline
210
0.0
220
0.0
230
1.0
 70
    24
 71
     2
 72
     6
 73
     3
 74
     0
 42
0.0000000001
 43
0.0000000001
 40
0.0
 40
0.0
 40
0.0
 40
0.2675853367704804
 40
0.2675853367704804
 40
0.2675853367704804
 10
3769.12480312168
 20
1856.018753491735
 30
0.0
 10
3768.991010453295
 20
1856.018753491735
 30
0.0
 10
3768.857217784909
 20
1856.018753491735
 30
0.0
  0
SPLINE
  5
95
330
1F
100
AcDbEntity
  8
Predefinito - Visibile
100
AcDbSpline
210
0.0
220
0.0
230
1.0
 70
    24
 71
     2
 72
     6
 73
     3
 74
     0
 42
0.0000000001
 43
0.0000000001
 40
0.0
 40
0.0
 40
0.0
 40
553.7225477357601
 40
553.7225477357601
 40
553.7225477357601
 10
3768.773744626992
 20
1721.741301227496
 30
0.0
 10
3768.773744626992
 20
1444.880027359616
 30
0.0
 10
3768.773744626992
 20
1168.018753491736
 30
0.0
  0
SPLINE
  5
96
330
1F
100
AcDbEntity
  8
Predefinito - Visibile
100
AcDbSpline
210
0.0
220
0.0
230
1.0
 70
    24
 71
     2
 72
     6
 73
     3
 74
     0
 42
0.0000000001
 43
0.0000000001
 40
0.0
 40
0.0
 40
0.0
 40
114.277452264241
 40
114.277452264241
 40
114.277452264241
 10
3768.773744626992
 20
1856.018753491737
 30
0.0
 10
3768.773744626992
 20
1798.880027359617
 30
0.0
 10
3768.773744626992
 20
1741.741301227496
 30
0.0
  0
SPLINE
  5
97
330
1F
100
AcDbEntity
  8
Predefinito - Visibile
100
AcDbSpline
210
0.0
220
0.0
230
1.0
 70
    24
 71
     2
 72
     6
 73
     3
 74
     0
 42
0.0000000001
 43
0.0000000001
 40
0.0
 40
0.0
 40
0.0
 40
9.648941505312223
 40
9.648941505312223
 40
9.648941505312223
 10
3769.12480312168
 20
1856.018753491737
 30
0.0
 10
3773.949273874336
 20
1856.018753491737
 30
0.0
 10
3778.773744626992
 20
1856.018753491737
 30
0.0
  0
SPLINE
  5
98
330
1F
100
AcDbEntity
  8
Predefinito - Visibile
100
AcDbSpline
210
0.0
220
0.0
230
1.0
 70
    24
 71
     2
 72
     6
 73
     3
 74
     0
 42
0.0000000001
 43
0.0000000001
 40
0.0
 40
0.0
 40
0.0
 40
1.000009144931028
 40
1.000009144931028
 40
1.000009144931028
 10
3764.773730800236
 20
1149.318753491736
 30
0.0
 10
3764.773730800236
 20
1148.818748919271
 30
0.0
 10
3764.773730800236
 20
1148.318744346805
 30
0.0
  0
SPLINE
  5
99
330
1F
100
AcDbEntity
  8
Predefinito - Visibile
100
AcDbSpline
210
0.0
220
0.0
230
1.0
 70
    24
 71
     2
 72
     6
 73
     3
 74
     0
 42
0.0000000001
 43
0.0000000001
 40
0.0
 40
0.0
 40
0.0
 40
18.0
 40
18.0
 40
18.0
 10
3782.773730800236
 20
1148.318744346805
 30
0.0
 10
3773.773730800236
 20
1148.318744346805
 30
0.0
 10
3764.773730800236
 20
1148.318744346805
 30
0.0
  0
SPLINE
  5
9A
330
1F
100
AcDbEntity
  8
Predefinito - Visibile
100
AcDbSpline
210
0.0
220
0.0
230
1.0
 70
    24
 71
     2
 72
     6
 73
     3
 74
     0
 42
0.0000000001
 43
0.0000000001
 40
0.0
 40
0.0
 40
0.0
 40
1.000009144931028
 40
1.000009144931028
 40
1.000009144931028
 10
3711.080155765601
 20
1149.318753491736
 30
0.0
 10
3711.080155765601
 20
1148.818748919271
 30
0.0
 10
3711.080155765601
 20
1148.318744346805
 30
0.0
  0
SPLINE
  5
9B
330
1F
100
AcDbEntity
  8
Predefinito - Visibile
100
AcDbSpline
210
0.0
220
0.0
230
1.0
 70
    24
 71
     2
 72
     6
 73
     3
 74
     0
 42
0.0000000001
 43
0.0000000001
 40
0.0
 40
0.0
 40
0.0
 40
18.0
 40
18.0
 40
18.0
 10
3729.080155765601
 20
1148.318744346805
 30
0.0
 10
3720.080155765601
 20
1148.318744346805
 30
0.0
 10
3711.080155765601
 20
1148.318744346805
 30
0.0
  0
SPLINE
  5
9C
330
1F
100
AcDbEntity
  8
Predefinito - Visibile
100
AcDbSpline
210
0.0
220
0.0
230
1.0
 70
    24
 71
     2
 72
     6
 73
     3
 74
     0
 42
0.0000000001
 43
0.0000000001
 40
0.0
 40
0.0
 40
0.0
 40
1.000009144931028
 40
1.000009144931028
 40
1.000009144931028
 10
3818.467305834871
 20
1149.318753491736
 30
0.0
 10
3818.467305834871
 20
1148.818748919271
 30
0.0
 10
3818.467305834871
 20
1148.318744346805
 30
0.0
  0
SPLINE
  5
9D
330
1F
100
AcDbEntity
  8
Predefinito - Visibile
100
AcDbSpline
210
0.0
220
0.0
230
1.0
 70
    24
 71
     2
 72
     6
 73
     3
 74
     0
 42
0.0000000001
 43
0.0000000001
 40
0.0
 40
0.0
 40
0.0
 40
18.0
 40
18.0
 40
18.0
 10
3836.467305834871
 20
1148.318744346805
 30
0.0
 10
3827.467305834871
 20
1148.318744346805
 30
0.0
 10
3818.467305834871
 20
1148.318744346805
 30
0.0
  0
SPLINE
  5
9E
330
1F
100
AcDbEntity
  8
Predefinito - Visibile
100
AcDbSpline
210
0.0
220
0.0
230
1.0
 70
    24
 71
     2
 72
     6
 73
     3
 74
     0
 42
0.0000000001
 43
0.0000000001
 40
0.0
 40
0.0
 40
0.0
 40
40.99922509665976
 40
40.99922509665976
 40
40.99922509665976
 10
3732.773744626992
 20
1156.018753491736
 30
0.0
 10
3712.274132078662
 20
1156.018753491736
 30
0.0
 10
3691.774519530332
 20
1156.018753491736
 30
0.0
  0
SPLINE
  5
9F
330
1F
100
AcDbEntity
  8
Predefinito - Visibile
100
AcDbSpline
210
0.0
220
0.0
230
1.0
 70
    28
 71
     2
 72
     8
 73
     5
 74
     0
 42
0.0000000001
 43
0.0000000001
 40
-430.6927178530756
 40
-430.6927178530756
 40
-430.6927178530756
 40
-386.4158963915445
 40
-386.4158963915445
 40
-257.610597594363
 40
-257.610597594363
 40
-257.610597594363
 10
3855.772969723651
 20
1156.018753491736
 30
0.0
 41
0.8678548172931495
 10
3855.869321363118
 20
1156.018753491736
 30
0.0
 41
0.8993179560328759
 10
3844.787827737316
 20
1156.018753491736
 30
0.0
 41
1.0
 10
3803.787827737316
 20
1156.018753491736
 30
0.0
 41
0.7071067811865476
 10
3732.773744626992
 20
1156.018753491736
 30
0.0
 41
1.0
  0
SPLINE
  5
A0
330
1F
100
AcDbEntity
  8
Predefinito - Visibile
100
AcDbSpline
210
0.0
220
0.0
230
1.0
 70
    24
 71
     2
 72
     6
 73
     3
 74
     0
 42
0.0000000001
 43
0.0000000001
 40
0.0
 40
0.0
 40
0.0
 40
36.930777040762
 40
36.930777040762
 40
36.930777040762
 10
3736.842269578342
 20
1149.318753491736
 30
0.0
 10
3718.376881057961
 20
1149.318753491736
 30
0.0
 10
3699.91149253758
 20
1149.318753491736
 30
0.0
  0
SPLINE
  5
A1
330
1F
100
AcDbEntity
  8
Predefinito - Visibile
100
AcDbSpline
210
0.0
220
0.0
230
1.0
 70
    28
 71
     2
 72
     8
 73
     5
 74
     0
 42
0.0000000001
 43
0.0000000001
 40
308.1878221694113
 40
308.1878221694113
 40
308.1878221694113
 40
348.0709520972175
 40
348.0709520972175
 40
464.09460279629
 40
464.09460279629
 40
464.09460279629
 10
3847.635996716403
 20
1149.318753491736
 30
0.0
 41
0.8678548172931494
 10
3847.722787159546
 20
1149.318753491736
 30
0.0
 41
0.8993179560328758
 10
3837.740935809715
 20
1149.318753491736
 30
0.0
 41
1.0
 10
3800.809460761066
 20
1149.318753491736
 30
0.0
 41
0.7071067811865476
 10
3736.842269578342
 20
1149.318753491736
 30
0.0
 41
1.0
  0
SPLINE
  5
A2
330
1F
100
AcDbEntity
  8
Predefinito - Visibile
100
AcDbSpline
210
0.0
220
0.0
230
1.0
 70
    28
 71
     2
 72
     6
 73
     3
 74
     0
 42
0.0000000001
 43
0.0000000001
 40
-345.2799986695144
 40
-345.2799986695144
 40
-345.2799986695144
 40
-256.952557149406
 40
-256.952557149406
 40
-256.952557149406
 10
3692.071227385124
 20
1168.018753491736
 30
0.0
 41
0.8741474450410948
 10
3689.762067042715
 20
1168.018753491736
 30
0.0
 41
0.7986359120657514
 10
3732.878475016561
 20
1168.018753491736
 30
0.0
 41
1.0
  0
SPLINE
  5
A3
330
1F
100
AcDbEntity
  8
Predefinito - Visibile
100
AcDbSpline
210
0.0
220
0.0
230
1.0
 70
    24
 71
     2
 72
     6
 73
     3
 74
     0
 42
0.0000000001
 43
0.0000000001
 40
0.0
 40
0.0
 40
0.0
 40
122.5977868522996
 40
122.5977868522996
 40
122.5977868522996
 10
3732.878475016561
 20
1168.018753491736
 30
0.0
 10
3794.17736844271
 20
1168.018753491736
 30
0.0
 10
3855.47626186886
 20
1168.018753491736
 30
0.0
  0
SPLINE
  5
A4
330
1F
100
AcDbEntity
  8
Predefinito - Visibile
100
AcDbSpline
210
0.0
220
0.0
230
1.0
 70
    24
 71
     2
 72
     6
 73
     3
 74
     0
 42
0.0000000001
 43
0.0000000001
 40
0.0
 40
0.0
 40
0.0
 40
12.9474964847775
 40
12.9474964847775
 40
12.9474964847775
 10
3791.196237524435
 20
1741.741301227496
 30
0.0
 10
3797.669985766824
 20
1741.741301227496
 30
0.0
 10
3804.143734009212
 20
1741.741301227496
 30
0.0
  0
SPLINE
  5
A5
330
1F
100
AcDbEntity
  8
Predefinito - Visibile
100
AcDbSpline
210
0.0
220
0.0
230
1.0
 70
    24
 71
     2
 72
     6
 73
     3
 74
     0
 42
0.0000000001
 43
0.0000000001
 40
0.0
 40
0.0
 40
0.0
 40
13.38934234571639
 40
13.38934234571639
 40
13.38934234571639
 10
3790.754391663496
 20
1721.741301227496
 30
0.0
 10
3797.449062836354
 20
1721.741301227496
 30
0.0
 10
3804.143734009212
 20
1721.741301227496
 30
0.0
  0
SPLINE
  5
A6
330
1F
100
AcDbEntity
  8
Predefinito - Visibile
100
AcDbSpline
210
0.0
220
0.0
230
1.0
 70
    24
 71
     2
 72
     6
 73
     3
 74
     0
 42
0.0000000001
 43
0.0000000001
 40
0.0
 40
0.0
 40
0.0
 40
0.5
 40
0.5
 40
0.5
 10
3790.196237524435
 20
1721.741301227496
 30
0.0
 10
3790.446237524435
 20
1721.741301227496
 30
0.0
 10
3790.696237524435
 20
1721.741301227496
 30
0.0
  0
SPLINE
  5
A7
330
1F
100
AcDbEntity
  8
Predefinito - Visibile
100
AcDbSpline
210
0.0
220
0.0
230
1.0
 70
    24
 71
     2
 72
     6
 73
     3
 74
     0
 42
0.0000000001
 43
0.0000000001
 40
0.0
 40
0.0
 40
0.0
 40
0.4999997692735688
 40
0.4999997692735688
 40
0.4999997692735688
 10
3790.696237293101
 20
95.3000038001123
 30
0.0
 10
3790.446237408768
 20
95.29999147956188
 30
0.0
 10
3790.196237524435
 20
95.29997915901147
 30
0.0
  0
SPLINE
  5
A8
330
1F
100
AcDbEntity
  8
Predefinito - Visibile
100
AcDbSpline
210
0.0
220
0.0
230
1.0
 70
    12
 71
     2
 72
     6
 73
     3
 74
     0
 42
0.0000000001
 43
0.0000000001
 40
0.0
 40
0.0
 40
0.0
 40
0.500114452902311
 40
0.500114452902311
 40
0.500114452902311
 10
3791.196237524435
 20
95.29073756323224
 30
0.0
 41
1.0
 10
3790.94632335248
 20
95.3000019053006
 30
0.0
 41
0.999828458291485
 10
3790.696237524464
 20
95.30000380011055
 30
0.0
 41
1.0
  0
SPLINE
  5
A9
330
1F
100
AcDbEntity
  8
Predefinito - Visibile
100
AcDbSpline
210
0.0
220
0.0
230
1.0
 70
    12
 71
     2
 72
     6
 73
     3
 74
     0
 42
0.0000000001
 43
0.0000000001
 40
0.0
 40
0.0
 40
0.0
 40
0.5001137859338262
 40
0.5001137859338262
 40
0.5001137859338262
 10
3790.696238050316
 20
68.30000380908257
 30
0.0
 41
1.0
 10
3790.946323544576
 20
68.30000192306198
 30
0.0
 41
0.9998284596908875
 10
3791.196237524435
 20
68.30926243676814
 30
0.0
 41
1.0
  0
SPLINE
  5
AA
330
1F
100
AcDbEntity
  8
Predefinito - Visibile
100
AcDbSpline
210
0.0
220
0.0
230
1.0
 70
    24
 71
     2
 72
     6
 73
     3
 74
     0
 42
0.0000000001
 43
0.0000000001
 40
0.0
 40
0.0
 40
0.0
 40
0.5000000000428578
 40
0.5000000000428578
 40
0.5000000000428578
 10
3790.196237524435
 20
68.30000757854148
 30
0.0
 10
3790.446237524449
 20
68.300005693814
 30
0.0
 10
3790.696237524464
 20
68.30000380908652
 30
0.0
  0
SPLINE
  5
AB
330
1F
100
AcDbEntity
  8
Predefinito - Visibile
100
AcDbSpline
210
0.0
220
0.0
230
1.0
 70
    24
 71
     2
 72
     6
 73
     3
 74
     0
 42
0.0000000001
 43
0.0000000001
 40
0.0
 40
0.0
 40
0.0
 40
679.0000000000126
 40
679.0000000000126
 40
679.0000000000126
 10
3790.196237524435
 20
68.30367798645591
 30
0.0
 10
3450.696237524435
 20
68.30361230812635
 30
0.0
 10
3111.196237524435
 20
68.30354662979678
 30
0.0
  0
SPLINE
  5
AC
330
1F
100
AcDbEntity
  8
Predefinito - Visibile
100
AcDbSpline
210
0.0
220
0.0
230
1.0
 70
    24
 71
     2
 72
     6
 73
     3
 74
     0
 42
0.0000000001
 43
0.0000000001
 40
0.0
 40
0.0
 40
0.0
 40
1.591593173815724
 40
1.591593173815724
 40
1.591593173815724
 10
3790.196237524435
 20
69.89527116027163
 30
0.0
 10
3790.196237524435
 20
69.09947457336378
 30
0.0
 10
3790.196237524435
 20
68.30367798645591
 30
0.0
  0
SPLINE
  5
AD
330
1F
100
AcDbEntity
  8
Predefinito - Visibile
100
AcDbSpline
210
0.0
220
0.0
230
1.0
 70
    24
 71
     2
 72
     6
 73
     3
 74
     0
 42
0.0000000001
 43
0.0000000001
 40
0.0
 40
0.0
 40
0.0
 40
23.80466560627355
 40
23.80466560627355
 40
23.80466560627355
 10
3790.196237524435
 20
93.70466560627409
 30
0.0
 10
3790.196237524435
 20
81.80233280313732
 30
0.0
 10
3790.196237524435
 20
69.90000000000055
 30
0.0
  0
SPLINE
  5
AE
330
1F
100
AcDbEntity
  8
Predefinito - Visibile
100
AcDbSpline
210
0.0
220
0.0
230
1.0
 70
    24
 71
     2
 72
     6
 73
     3
 74
     0
 42
0.0000000001
 43
0.0000000001
 40
0.0
 40
0.0
 40
0.0
 40
1.595220636662475
 40
1.595220636662475
 40
1.595220636662475
 10
3790.196237524435
 20
95.29992105686101
 30
0.0
 10
3790.196237524435
 20
94.50231073852977
 30
0.0
 10
3790.196237524435
 20
93.70470042019853
 30
0.0
  0
SPLINE
  5
AF
330
1F
100
AcDbEntity
  8
Predefinito - Visibile
100
AcDbSpline
210
0.0
220
0.0
230
1.0
 70
    24
 71
     2
 72
     6
 73
     3
 74
     0
 42
0.0000000001
 43
0.0000000001
 40
0.0
 40
0.0
 40
0.0
 40
679.0
 40
679.0
 40
679.0
 10
3111.196237524435
 20
95.29992895117496
 30
0.0
 10
3450.696237524435
 20
95.29992500401798
 30
0.0
 10
3790.196237524435
 20
95.29992105686101
 30
0.0
  0
SPLINE
  5
B0
330
1F
100
AcDbEntity
  8
Predefinito - Visibile
100
AcDbSpline
210
0.0
220
0.0
230
1.0
 70
    24
 71
     2
 72
     6
 73
     3
 74
     0
 42
0.0000000001
 43
0.0000000001
 40
0.0
 40
0.0
 40
0.0
 40
1.595220005117525
 40
1.595220005117525
 40
1.595220005117525
 10
3111.196237524435
 20
93.70470894605744
 30
0.0
 10
3111.196237524435
 20
94.50231894861619
 30
0.0
 10
3111.196237524435
 20
95.29992895117496
 30
0.0
  0
SPLINE
  5
B1
330
1F
100
AcDbEntity
  8
Predefinito - Visibile
100
AcDbSpline
210
0.0
220
0.0
230
1.0
 70
    24
 71
     2
 72
     6
 73
     3
 74
     0
 42
0.0000000001
 43
0.0000000001
 40
0.0
 40
0.0
 40
0.0
 40
23.80466388080204
 40
23.80466388080204
 40
23.80466388080204
 10
3111.196237524435
 20
69.90000000000055
 30
0.0
 10
3111.196237524435
 20
81.80233194040156
 30
0.0
 10
3111.196237524435
 20
93.70466388080258
 30
0.0
  0
SPLINE
  5
B2
330
1F
100
AcDbEntity
  8
Predefinito - Visibile
100
AcDbSpline
210
0.0
220
0.0
230
1.0
 70
    24
 71
     2
 72
     6
 73
     3
 74
     0
 42
0.0000000001
 43
0.0000000001
 40
0.0
 40
0.0
 40
0.0
 40
1.591733056333851
 40
1.591733056333851
 40
1.591733056333851
 10
3111.196237524435
 20
68.30354662979678
 30
0.0
 10
3111.196237524435
 20
69.09941315796371
 30
0.0
 10
3111.196237524435
 20
69.89527968613064
 30
0.0
  0
SPLINE
  5
B3
330
1F
100
AcDbEntity
  8
Predefinito - Visibile
100
AcDbSpline
210
0.0
220
0.0
230
1.0
 70
    24
 71
     2
 72
     6
 73
     3
 74
     0
 42
0.0000000001
 43
0.0000000001
 40
0.0
 40
0.0
 40
0.0
 40
1.000609544298823
 40
1.000609544298823
 40
1.000609544298823
 10
3110.196237524435
 20
94.91746038474604
 30
0.0
 10
3110.696237524435
 20
94.90000000000015
 30
0.0
 10
3111.196237524435
 20
94.88253961525425
 30
0.0
  0
SPLINE
  5
B4
330
1F
100
AcDbEntity
  8
Predefinito - Visibile
100
AcDbSpline
210
0.0
220
0.0
230
1.0
 70
    24
 71
     2
 72
     6
 73
     3
 74
     0
 42
0.0000000001
 43
0.0000000001
 40
0.0
 40
0.0
 40
0.0
 40
1.000609544298824
 40
1.000609544298824
 40
1.000609544298824
 10
3111.196237524435
 20
68.71746038474603
 30
0.0
 10
3110.696237524435
 20
68.70000000000013
 30
0.0
 10
3110.196237524435
 20
68.68253961525423
 30
0.0
  0
SPLINE
  5
B5
330
1F
100
AcDbEntity
  8
Predefinito - Visibile
100
AcDbSpline
210
0.0
220
0.0
230
1.0
 70
    12
 71
     2
 72
     8
 73
     5
 74
     0
 42
0.0000000001
 43
0.0000000001
 40
0.0
 40
0.0
 40
0.0
 40
20.70563602926719
 40
20.70563602926719
 40
41.41127205853483
 40
41.41127205853483
 40
41.41127205853483
 10
3110.196237524435
 20
95.2907375632322
 30
0.0
 41
1.0
 10
3097.196237524436
 20
94.80892550740163
 30
0.0
 41
0.7200822998231221
 10
3097.196237524435
 20
81.80000000000008
 30
0.0
 41
1.0
 10
3097.196237524435
 20
68.79107449259784
 30
0.0
 41
0.7200822998230925
 10
3110.196237524435
 20
68.30926243676814
 30
0.0
 41
1.0
  0
SPLINE
  5
B6
330
1F
100
AcDbEntity
  8
Predefinito - Visibile
100
AcDbSpline
210
0.0
220
0.0
230
1.0
 70
    24
 71
     2
 72
     6
 73
     3
 74
     0
 42
0.0000000001
 43
0.0000000001
 40
0.0
 40
0.0
 40
0.0
 40
26.97047428842819
 40
26.97047428842819
 40
26.97047428842819
 10
3110.196237524435
 20
95.27973672519633
 30
0.0
 10
3110.196237524435
 20
81.79449958098223
 30
0.0
 10
3110.196237524435
 20
68.30926243676814
 30
0.0
  0
SPLINE
  5
B7
330
1F
100
AcDbEntity
  8
Predefinito - Visibile
100
AcDbSpline
210
0.0
220
0.0
230
1.0
 70
    12
 71
     2
 72
     8
 73
     5
 74
     0
 42
0.0000000001
 43
0.0000000001
 40
0.0
 40
0.0
 40
0.0
 40
0.5001137859333715
 40
0.5001137859333715
 40
1.00011378593387
 40
1.00011378593387
 40
1.00011378593387
 10
3110.196237524435
 20
68.30926243676814
 30
0.0
 41
1.0
 10
3110.446151504294
 20
68.30000192306198
 30
0.0
 41
0.9998284596908875
 10
3110.696236998554
 20
68.30000380908257
 30
0.0
 41
1.0
 10
3110.946237261494
 20
68.30000569381198
 30
0.0
 41
1.0
 10
3111.196237524435
 20
68.30000757854148
 30
0.0
 41
1.0
  0
SPLINE
  5
B8
330
1F
100
AcDbEntity
  8
Predefinito - Visibile
100
AcDbSpline
210
0.0
220
0.0
230
1.0
 70
    12
 71
     2
 72
     8
 73
     5
 74
     0
 42
0.0000000001
 43
0.0000000001
 40
-83.3917666057222
 40
-83.3917666057222
 40
-83.3917666057222
 40
-82.8917666057222
 40
-82.8917666057222
 40
-82.39193419535307
 40
-82.39193419535307
 40
-82.39193419535307
 10
3111.196237524435
 20
95.29997915901137
 30
0.0
 41
1.0
 10
3110.946237524109
 20
95.29999336619537
 30
0.0
 41
1.0
 10
3110.696237523783
 20
95.30000757337926
 30
0.0
 41
1.0
 10
3110.446292765434
 20
95.30000757079019
 30
0.0
 41
0.9998286519613626
 10
3110.196519302682
 20
95.29075556937208
 30
0.0
 41
1.0
  0
SPLINE
  5
B9
330
1F
100
AcDbEntity
  8
Predefinito - Visibile
100
AcDbSpline
210
0.0
220
0.0
230
1.0
 70
    12
 71
     2
 72
     8
 73
     5
 74
     0
 42
0.0000000001
 43
0.0000000001
 40
0.0
 40
0.0
 40
0.0
 40
7.812704563038713
 40
7.812704563038713
 40
15.6254091260771
 40
15.6254091260771
 40
15.6254091260771
 10
3768.800041464617
 20
81.99999999999994
 30
0.0
 41
1.0
 10
3768.800022426585
 20
77.02627779959226
 30
0.0
 41
0.7071067811968673
 10
3773.773744626992
 20
77.02625876141434
 30
0.0
 41
1.0
 10
3778.747466827399
 20
77.02627779959305
 30
0.0
 41
0.7071067811969826
 10
3778.747447789367
 20
81.99999999999994
 30
0.0
 41
1.0
  0
SPLINE
  5
BA
330
1F
100
AcDbEntity
  8
Predefinito - VisibleTangent
100
AcDbSpline
210
0.0
220
0.0
230
1.0
 70
    12
 71
     2
 72
     8
 73
     5
 74
     0
 42
0.0000000001
 43
0.0000000001
 40
0.0
 40
0.0
 40
0.0
 40
7.027336304601473
 40
7.027336304601473
 40
14.05467260920293
 40
14.05467260920293
 40
14.05467260920293
 10
3778.247485865578
 20
81.99999999999994
 30
0.0
 41
1.0
 10
3778.247485865577
 20
77.52625876141455
 30
0.0
 41
0.7071067811866464
 10
3773.773744626992
 20
77.52625876141411
 30
0.0
 41
1.0
 10
3769.300003388406
 20
77.52625876141421
 30
0.0
 41
0.70710678118657
 10
3769.300003388406
 20
81.99999999999994
 30
0.0
 41
1.0
  0
SPLINE
  5
BB
330
1F
100
AcDbEntity
  8
Predefinito - Visibile
100
AcDbSpline
210
0.0
220
0.0
230
1.0
 70
    12
 71
     2
 72
     8
 73
     5
 74
     0
 42
0.0000000001
 43
0.0000000001
 40
0.0
 40
0.0
 40
0.0
 40
7.812704563038923
 40
7.812704563038923
 40
15.62540912607768
 40
15.62540912607768
 40
15.62540912607768
 10
3778.747447789367
 20
81.99999999999994
 30
0.0
 41
1.0
 10
3778.7474668274
 20
86.97372220040796
 30
0.0
 41
0.707106781196827
 10
3773.773744626992
 20
86.97374123858566
 30
0.0
 41
1.0
 10
3768.800022426584
 20
86.97372220040751
 30
0.0
 41
0.7071067811968947
 10
3768.800041464617
 20
81.99999999999994
 30
0.0
 41
1.0
  0
SPLINE
  5
BC
330
1F
100
AcDbEntity
  8
Predefinito - VisibleTangent
100
AcDbSpline
210
0.0
220
0.0
230
1.0
 70
    12
 71
     2
 72
     8
 73
     5
 74
     0
 42
0.0000000001
 43
0.0000000001
 40
0.0
 40
0.0
 40
0.0
 40
7.027336304601425
 40
7.027336304601425
 40
14.05467260920324
 40
14.05467260920324
 40
14.05467260920324
 10
3769.300003388406
 20
81.99999999999994
 30
0.0
 41
1.0
 10
3769.300003388406
 20
86.47374123858565
 30
0.0
 41
0.7071067811865656
 10
3773.773744626992
 20
86.47374123858566
 30
0.0
 41
1.0
 10
3778.247485865578
 20
86.47374123858634
 30
0.0
 41
0.7071067811864712
 10
3778.247485865578
 20
81.99999999999994
 30
0.0
 41
1.0
  0
SPLINE
  5
BD
330
1F
100
AcDbEntity
  8
Predefinito - Visibile
100
AcDbSpline
210
0.0
220
0.0
230
1.0
 70
    24
 71
     2
 72
     6
 73
     3
 74
     0
 42
0.0000000001
 43
0.0000000001
 40
0.0
 40
0.0
 40
0.0
 40
0.2094607791385163
 40
0.2094607791385163
 40
0.2094607791385163
 10
3814.669014237423
 20
152.8326847544932
 30
0.0
 10
3814.721379432207
 20
152.9233839324086
 30
0.0
 10
3814.773744626992
 20
153.0140831103239
 30
0.0
  0
SPLINE
  5
BE
330
1F
100
AcDbEntity
  8
Predefinito - Visibile
100
AcDbSpline
210
0.0
220
0.0
230
1.0
 70
    12
 71
     2
 72
     8
 73
     5
 74
     0
 42
0.0000000001
 43
0.0000000001
 40
0.0
 40
0.0
 40
0.0
 40
29.57616268458527
 40
29.57616268458527
 40
158.3814614817667
 40
158.3814614817667
 40
158.3814614817667
 10
3692.859518005347
 20
95.29992218853492
 30
0.0
 41
1.0
 10
3695.284404322839
 20
110.0524747406447
 30
0.0
 41
0.9837823254557705
 10
3702.759661516668
 20
123.0
 30
0.0
 41
1.0
 10
3743.759661516668
 20
194.0140831103236
 30
0.0
 41
0.7071067811865492
 10
3814.773744626992
 20
153.0140831103239
 30
0.0
 41
1.0
  0
SPLINE
  5
BF
330
1F
100
AcDbEntity
  8
Predefinito - Visibile
100
AcDbSpline
210
0.0
220
0.0
230
1.0
 70
    12
 71
     2
 72
     6
 73
     3
 74
     0
 42
0.0000000001
 43
0.0000000001
 40
0.0
 40
0.0
 40
0.0
 40
72.10936067225971
 40
72.10936067225971
 40
72.10936067225971
 10
3732.773744626992
 20
10.98591688967599
 30
0.0
 41
1.0
 10
3699.368480595795
 20
30.27245507043794
 30
0.0
 41
0.90488314013688
 10
3692.925675708571
 20
68.30365916887706
 30
0.0
 41
1.0
  0
SPLINE
  5
C0
330
1F
100
AcDbEntity
  8
Predefinito - Visibile
100
AcDbSpline
210
0.0
220
0.0
230
1.0
 70
    12
 71
     2
 72
     8
 73
     5
 74
     0
 42
0.0000000001
 43
0.0000000001
 40
0.0
 40
0.0
 40
0.0
 40
128.8052987971817
 40
128.8052987971817
 40
257.6105975943635
 40
257.6105975943635
 40
257.6105975943635
 10
3814.773744626992
 20
153.0140831103239
 30
0.0
 41
1.0
 10
3885.787827737317
 20
112.0140831103239
 30
0.0
 41
0.7071067811865461
 10
3844.787827737316
 20
40.99999999999984
 30
0.0
 41
1.0
 10
3803.787827737316
 20
-30.01408311032476
 30
0.0
 41
0.7071067811865432
 10
3732.773744626992
 20
10.98591688967598
 30
0.0
 41
1.0
  0
SPLINE
  5
C1
330
1F
100
AcDbEntity
  8
Predefinito - Visibile
100
AcDbSpline
210
0.0
220
0.0
230
1.0
 70
    12
 71
     2
 72
     6
 73
     3
 74
     0
 42
0.0000000001
 43
0.0000000001
 40
0.0
 40
0.0
 40
0.0
 40
71.88967886375265
 40
71.88967886375265
 40
71.88967886375265
 10
3693.13812870572
 20
68.30365920997741
 30
0.0
 41
1.0
 10
3699.577305339788
 20
30.39375452272087
 30
0.0
 41
0.9049754573705787
 10
3732.878475016561
 20
11.16731524550661
 30
0.0
 41
1.0
  0
SPLINE
  5
C2
330
1F
100
AcDbEntity
  8
Predefinito - Visibile
100
AcDbSpline
210
0.0
220
0.0
230
1.0
 70
    12
 71
     2
 72
     8
 73
     5
 74
     0
 42
0.0000000001
 43
0.0000000001
 40
0.0
 40
0.0
 40
0.0
 40
128.4762785747031
 40
128.4762785747031
 40
157.9424615274973
 40
157.9424615274973
 40
157.9424615274973
 10
3814.669014237423
 20
152.8326847544932
 30
0.0
 41
1.0
 10
3743.836329482929
 20
193.7279543649239
 30
0.0
 41
0.7071067811865499
 10
3702.941059872498
 20
122.8952696104308
 30
0.0
 41
1.0
 10
3695.49379086198
 20
109.996221306579
 30
0.0
 41
0.983820056550781
 10
3693.071796844526
 20
95.29992218606687
 30
0.0
 41
1.0
  0
SPLINE
  5
C3
330
1F
100
AcDbEntity
  8
Predefinito - Visibile
100
AcDbSpline
210
0.0
220
0.0
230
1.0
 70
    12
 71
     2
 72
     8
 73
     5
 74
     0
 42
0.0000000001
 43
0.0000000001
 40
0.0
 40
0.0
 40
0.0
 40
128.4762785747035
 40
128.4762785747035
 40
256.9525571494064
 40
256.9525571494064
 40
256.9525571494064
 10
3732.878475016561
 20
11.16731524550661
 30
0.0
 41
1.0
 10
3803.711159771054
 20
-29.7279543649249
 30
0.0
 41
0.7071067811865459
 10
3844.606429381485
 20
41.10473038956881
 30
0.0
 41
1.0
 10
3885.501698991916
 20
111.9374151440621
 30
0.0
 41
0.7071067811865497
 10
3814.669014237423
 20
152.8326847544932
 30
0.0
 41
1.0
  0
SPLINE
  5
C4
330
1F
100
AcDbEntity
  8
Predefinito - Visibile
100
AcDbSpline
210
0.0
220
0.0
230
1.0
 70
    12
 71
     2
 72
     8
 73
     5
 74
     0
 42
0.0000000001
 43
0.0000000001
 40
26.9814751264641
 40
26.9814751264641
 40
26.9814751264641
 40
47.6871111557319
 40
47.6871111557319
 40
68.3927471849998
 40
68.3927471849998
 40
68.3927471849998
 10
3791.196237524435
 20
68.30926243676814
 30
0.0
 41
1.0
 10
3804.196237524435
 20
68.79107449259824
 30
0.0
 41
0.720082299823107
 10
3804.196237524435
 20
81.80000000000018
 30
0.0
 41
1.0
 10
3804.196237524435
 20
94.80892550740204
 30
0.0
 41
0.720082299823107
 10
3791.196237524435
 20
95.29073756323224
 30
0.0
 41
1.0
  0
SPLINE
  5
C5
330
1F
100
AcDbEntity
  8
Predefinito - Visibile
100
AcDbSpline
210
0.0
220
0.0
230
1.0
 70
    24
 71
     2
 72
     6
 73
     3
 74
     0
 42
0.0000000001
 43
0.0000000001
 40
0.0
 40
0.0
 40
0.0
 40
1.00060954429882
 40
1.00060954429882
 40
1.00060954429882
 10
3790.196237524435
 20
94.88253961525434
 30
0.0
 10
3790.696237524435
 20
94.90000000000019
 30
0.0
 10
3791.196237524435
 20
94.91746038474604
 30
0.0
  0
SPLINE
  5
C6
330
1F
100
AcDbEntity
  8
Predefinito - Visibile
100
AcDbSpline
210
0.0
220
0.0
230
1.0
 70
    24
 71
     2
 72
     6
 73
     3
 74
     0
 42
0.0000000001
 43
0.0000000001
 40
0.0
 40
0.0
 40
0.0
 40
1.00060954429882
 40
1.00060954429882
 40
1.00060954429882
 10
3791.196237524435
 20
68.68253961525434
 30
0.0
 10
3790.696237524435
 20
68.70000000000019
 30
0.0
 10
3790.196237524435
 20
68.71746038474603
 30
0.0
  0
SPLINE
  5
C7
330
1F
100
AcDbEntity
  8
Predefinito - Visibile
100
AcDbSpline
210
0.0
220
0.0
230
1.0
 70
    24
 71
     2
 72
     6
 73
     3
 74
     0
 42
0.0000000001
 43
0.0000000001
 40
0.0
 40
0.0
 40
0.0
 40
26.9814751264641
 40
26.9814751264641
 40
26.9814751264641
 10
3791.196237524435
 20
95.29073756323224
 30
0.0
 10
3791.196237524435
 20
81.80000000000018
 30
0.0
 10
3791.196237524435
 20
68.30926243676814
 30
0.0
  0
ENDSEC
  0
SECTION
  2
OBJECTS
  0
DICTIONARY
  5
C
330
0
100
AcDbDictionary
281
     1
  3
ACAD_GROUP
350
D
  3
ACAD_LAYOUT
350
1A
  3
ACAD_MLEADERSTYLE
350
C9
  3
ACAD_MLINESTYLE
350
17
  3
ACAD_PLOTSETTINGS
350
19
  3
ACAD_PLOTSTYLENAME
350
E
  3
ACAD_TABLESTYLE
350
C8
  3
ACAD_VISUALSTYLE
350
2A
  0
DICTIONARY
  5
D
102
{ACAD_REACTORS
330
C
102
}
330
C
100
AcDbDictionary
281
     1
  0
DICTIONARY
  5
1A
102
{ACAD_REACTORS
330
C
102
}
330
C
100
AcDbDictionary
281
     1
  3
Layout1
350
1E
  3
Layout2
350
26
  3
Model
350
22
  0
DICTIONARY
  5
C9
102
{ACAD_REACTORS
330
C
102
}
330
C
100
AcDbDictionary
281
     1
  0
DICTIONARY
  5
17
102
{ACAD_REACTORS
330
C
102
}
330
C
100
AcDbDictionary
281
     1
  3
Standard
350
18
  0
DICTIONARY
  5
19
102
{ACAD_REACTORS
330
C
102
}
330
C
100
AcDbDictionary
281
     1
  0
ACDBDICTIONARYWDFLT
  5
E
102
{ACAD_REACTORS
330
C
102
}
330
C
100
AcDbDictionary
281
     1
  3
Normal
350
F
100
AcDbDictionaryWithDefault
340
F
  0
DICTIONARY
  5
C8
102
{ACAD_REACTORS
330
C
102
}
330
C
100
AcDbDictionary
281
     1
  0
DICTIONARY
  5
2A
102
{ACAD_REACTORS
330
C
102
}
330
C
100
AcDbDictionary
281
     1
  3
2dWireframe
350
2F
  3
3D Hidden
350
31
  3
3dWireframe
350
30
  3
Basic
350
32
  3
Brighten
350
36
  3
ColorChange
350
3A
  3
Conceptual
350
34
  3
Dim
350
35
  3
Facepattern
350
39
  3
Flat
350
2B
  3
FlatWithEdges
350
2C
  3
Gouraud
350
2D
  3
GouraudWithEdges
350
2E
  3
Linepattern
350
38
  3
Realistic
350
33
  3
Thicken
350
37
  0
LAYOUT
  5
1E
102
{ACAD_REACTORS
330
1A
102
}
330
1A
100
AcDbPlotSettings
  1

  2
none_device
  4

  6

 40
0.0
 41
0.0
 42
0.0
 43
0.0
 44
0.0
 45
0.0
 46
0.0
 47
0.0
 48
0.0
 49
0.0
140
0.0
141
0.0
142
1.0
143
1.0
 70
   688
 72
     0
 73
     0
 74
     5
  7

 75
    16
 76
     0
 77
     2
 78
   300
147
1.0
148
0.0
149
0.0
100
AcDbLayout
  1
Layout1
 70
     1
 71
     1
 10
0.0
 20
0.0
 11
12.0
 21
9.0
 12
0.0
 22
0.0
 32
0.0
 14
1.000000000000000E+20
 24
1.000000000000000E+20
 34
1.000000000000000E+20
 15
-1.000000000000000E+20
 25
-1.000000000000000E+20
 35
-1.000000000000000E+20
146
0.0
 13
0.0
 23
0.0
 33
0.0
 16
1.0
 26
0.0
 36
0.0
 17
0.0
 27
1.0
 37
0.0
 76
     0
330
1B
  0
LAYOUT
  5
26
102
{ACAD_REACTORS
330
1A
102
}
330
1A
100
AcDbPlotSettings
  1

  2
none_device
  4

  6

 40
0.0
 41
0.0
 42
0.0
 43
0.0
 44
0.0
 45
0.0
 46
0.0
 47
0.0
 48
0.0
 49
0.0
140
0.0
141
0.0
142
1.0
143
1.0
 70
   688
 72
     0
 73
     0
 74
     5
  7

 75
    16
 76
     0
 77
     2
 78
   300
147
1.0
148
0.0
149
0.0
100
AcDbLayout
  1
Layout2
 70
     1
 71
     2
 10
0.0
 20
0.0
 11
0.0
 21
0.0
 12
0.0
 22
0.0
 32
0.0
 14
0.0
 24
0.0
 34
0.0
 15
0.0
 25
0.0
 35
0.0
146
0.0
 13
0.0
 23
0.0
 33
0.0
 16
1.0
 26
0.0
 36
0.0
 17
0.0
 27
1.0
 37
0.0
 76
     0
330
23
  0
LAYOUT
  5
22
102
{ACAD_REACTORS
330
1A
102
}
330
1A
100
AcDbPlotSettings
  1

  2
none_device
  4

  6

 40
0.0
 41
0.0
 42
0.0
 43
0.0
 44
0.0
 45
0.0
 46
0.0
 47
0.0
 48
0.0
 49
0.0
140
0.0
141
0.0
142
1.0
143
1.0
 70
  1712
 72
     0
 73
     0
 74
     0
  7

 75
     0
 76
     0
 77
     2
 78
   300
147
1.0
148
0.0
149
0.0
100
AcDbLayout
  1
Model
 70
     1
 71
     0
 10
0.0
 20
0.0
 11
12.0
 21
9.0
 12
0.0
 22
0.0
 32
0.0
 14
1900.0
 24
0.0882473981206729
 34
0.0
 15
3855.773744390965
 25
1858.018753491736
 35
0.0
146
0.0
 13
0.0
 23
0.0
 33
0.0
 16
1.0
 26
0.0
 36
0.0
 17
0.0
 27
1.0
 37
0.0
 76
     0
330
1F
331
29
  0
MLINESTYLE
  5
18
102
{ACAD_REACTORS
330
17
102
}
330
17
100
AcDbMlineStyle
  2
Standard
 70
     0
  3

 62
   256
 51
90.0
 52
90.0
 71
     2
 49
0.5
 62
   256
  6
BYLAYER
 49
-0.5
 62
   256
  6
BYLAYER
  0
ACDBPLACEHOLDER
  5
F
102
{ACAD_REACTORS
330
E
102
}
330
E
  0
VISUALSTYLE
  5
2F
102
{ACAD_REACTORS
330
2A
102
}
330
2A
100
AcDbVisualStyle
  2
2dWireframe
 70
     4
 71
     0
 72
     2
 73
     0
 90
        0
 40
-0.6
 41
-30.0
 62
     5
 63
     7
421
 16777215
 74
     1
 91
        4
 64
     7
 65
   257
 75
     1
175
     1
 42
1.0
 92
        0
 66
   257
 43
1.0
 76
     1
 77
     6
 78
     2
 67
     7
 79
     5
170
     0
171
     0
290
     0
174
     0
 93
        1
 44
0.0
173
     0
291
     0
 45
0.0
1001
ACAD
1000
AcDbSavedByObjectVersion
1070
     0
  0
VISUALSTYLE
  5
31
102
{ACAD_REACTORS
330
2A
102
}
330
2A
100
AcDbVisualStyle
  2
3D Hidden
 70
     6
 71
     1
 72
     2
 73
     2
 90
        0
 40
-0.6
 41
-30.0
 62
     5
 63
     7
421
 16777215
 74
     2
 91
        2
 64
     7
 65
   257
 75
     2
175
     1
 42
40.0
 92
        0
 66
   257
 43
1.0
 76
     1
 77
     6
 78
     2
 67
     7
 79
     3
170
     0
171
     0
290
     0
174
     0
 93
        1
 44
0.0
173
     0
291
     0
 45
0.0
1001
ACAD
1000
AcDbSavedByObjectVersion
1070
     0
  0
VISUALSTYLE
  5
30
102
{ACAD_REACTORS
330
2A
102
}
330
2A
100
AcDbVisualStyle
  2
3dWireframe
 70
     5
 71
     0
 72
     2
 73
     0
 90
        0
 40
-0.6
 41
-30.0
 62
     5
 63
     7
421
 16777215
 74
     1
 91
        4
 64
     7
 65
   257
 75
     1
175
     1
 42
1.0
 92
        0
 66
   257
 43
1.0
 76
     1
 77
     6
 78
     2
 67
     7
 79
     5
170
     0
171
     0
290
     0
174
     0
 93
        1
 44
0.0
173
     0
291
     0
 45
0.0
1001
ACAD
1000
AcDbSavedByObjectVersion
1070
     0
  0
VISUALSTYLE
  5
32
102
{ACAD_REACTORS
330
2A
102
}
330
2A
100
AcDbVisualStyle
  2
Basic
 70
     7
 71
     1
 72
     0
 73
     1
 90
        0
 40
-0.6
 41
-30.0
 62
     5
 63
     7
421
 16777215
 74
     0
 91
        4
 64
     7
 65
   257
 75
     1
175
     1
 42
1.0
 92
        8
 66
     7
 43
1.0
 76
     1
 77
     6
 78
     2
 67
     7
 79
     5
170
     0
171
     0
290
     0
174
     0
 93
        1
 44
0.0
173
     0
291
     1
 45
0.0
1001
ACAD
1000
AcDbSavedByObjectVersion
1070
     0
  0
VISUALSTYLE
  5
36
102
{ACAD_REACTORS
330
2A
102
}
330
2A
100
AcDbVisualStyle
  2
Brighten
 70
    12
 71
     2
 72
     2
 73
     0
 90
        0
 40
-0.6
 41
-30.0
 62
     5
 63
     7
421
 16777215
 74
     1
 91
        4
 64
     7
 65
   257
 75
     1
175
     1
 42
1.0
 92
        8
 66
     7
 43
1.0
 76
     1
 77
     6
 78
     2
 67
     7
 79
     5
170
     0
171
     0
290
     0
174
     0
 93
        1
 44
50.0
173
     0
291
     1
 45
0.0
1001
ACAD
1000
AcDbSavedByObjectVersion
1070
     0
  0
VISUALSTYLE
  5
3A
102
{ACAD_REACTORS
330
2A
102
}
330
2A
100
AcDbVisualStyle
  2
ColorChange
 70
    16
 71
     2
 72
     2
 73
     3
 90
        0
 40
-0.6
 41
-30.0
 62
     5
 63
     8
421
  8421504
 74
     1
 91
        4
 64
     7
 65
   257
 75
     1
175
     1
 42
1.0
 92
        8
 66
     8
424
  8421504
 43
1.0
 76
     1
 77
     6
 78
     2
 67
     7
 79
     5
170
     0
171
     0
290
     0
174
     0
 93
        1
 44
0.0
173
     0
291
     1
 45
0.0
1001
ACAD
1000
AcDbSavedByObjectVersion
1070
     0
  0
VISUALSTYLE
  5
34
102
{ACAD_REACTORS
330
2A
102
}
330
2A
100
AcDbVisualStyle
  2
Conceptual
 70
     9
 71
     3
 72
     2
 73
     0
 90
        0
 40
-0.6
 41
-30.0
 62
     5
 63
     7
421
 16777215
 74
     2
 91
        2
 64
     7
 65
   257
 75
     1
175
     1
 42
40.0
 92
        8
 66
     7
 43
1.0
 76
     1
 77
     6
 78
     2
 67
     7
 79
     3
170
     0
171
     0
290
     0
174
     0
 93
        1
 44
0.0
173
     0
291
     0
 45
0.0
1001
ACAD
1000
AcDbSavedByObjectVersion
1070
     0
  0
VISUALSTYLE
  5
35
102
{ACAD_REACTORS
330
2A
102
}
330
2A
100
AcDbVisualStyle
  2
Dim
 70
    11
 71
     2
 72
     2
 73
     0
 90
        0
 40
-0.6
 41
-30.0
 62
     5
 63
     7
421
 16777215
 74
     1
 91
        4
 64
     7
 65
   257
 75
     1
175
     1
 42
1.0
 92
        8
 66
     7
 43
1.0
 76
     1
 77
     6
 78
     2
 67
     7
 79
     5
170
     0
171
     0
290
     0
174
     0
 93
        1
 44
-50.0
173
     0
291
     1
 45
0.0
1001
ACAD
1000
AcDbSavedByObjectVersion
1070
     0
  0
VISUALSTYLE
  5
39
102
{ACAD_REACTORS
330
2A
102
}
330
2A
100
AcDbVisualStyle
  2
Facepattern
 70
    15
 71
     2
 72
     2
 73
     0
 90
        0
 40
-0.6
 41
-30.0
 62
     5
 63
     7
421
 16777215
 74
     1
 91
        4
 64
     7
 65
   257
 75
     1
175
     1
 42
1.0
 92
        8
 66
     7
 43
1.0
 76
     1
 77
     6
 78
     2
 67
     7
 79
     5
170
     0
171
     0
290
     0
174
     0
 93
        1
 44
0.0
173
     0
291
     1
 45
0.0
1001
ACAD
1000
AcDbSavedByObjectVersion
1070
     0
  0
VISUALSTYLE
  5
2B
102
{ACAD_REACTORS
330
2A
102
}
330
2A
100
AcDbVisualStyle
  2
Flat
 70
     0
 71
     2
 72
     1
 73
     1
 90
        2
 40
-0.6
 41
30.0
 62
     5
 63
     7
421
 16777215
 74
     0
 91
        4
 64
     7
 65
   257
 75
     1
175
     1
 42
1.0
 92
        8
 66
     7
 43
1.0
 76
     1
 77
     6
 78
     2
 67
     7
 79
     5
170
     0
171
     0
290
     0
174
     0
 93
       13
 44
0.0
173
     0
291
     1
 45
0.0
1001
ACAD
1000
AcDbSavedByObjectVersion
1070
     0
  0
VISUALSTYLE
  5
2C
102
{ACAD_REACTORS
330
2A
102
}
330
2A
100
AcDbVisualStyle
  2
FlatWithEdges
 70
     1
 71
     2
 72
     1
 73
     1
 90
        2
 40
-0.6
 41
30.0
 62
     5
 63
     7
421
 16777215
 74
     1
 91
        4
 64
     7
 65
   257
 75
     1
175
     1
 42
1.0
 92
        0
 66
   257
 43
1.0
 76
     1
 77
     6
 78
     2
 67
     7
 79
     5
170
     0
171
     0
290
     0
174
     0
 93
       13
 44
0.0
173
     0
291
     1
 45
0.0
1001
ACAD
1000
AcDbSavedByObjectVersion
1070
     0
  0
VISUALSTYLE
  5
2D
102
{ACAD_REACTORS
330
2A
102
}
330
2A
100
AcDbVisualStyle
  2
Gouraud
 70
     2
 71
     2
 72
     2
 73
     1
 90
        2
 40
-0.6
 41
30.0
 62
     5
 63
     7
421
 16777215
 74
     0
 91
        4
 64
     7
 65
   257
 75
     1
175
     1
 42
1.0
 92
        0
 66
     7
 43
1.0
 76
     1
 77
     6
 78
     2
 67
     7
 79
     5
170
     0
171
     0
290
     0
174
     0
 93
       13
 44
0.0
173
     0
291
     1
 45
0.0
1001
ACAD
1000
AcDbSavedByObjectVersion
1070
     0
  0
VISUALSTYLE
  5
2E
102
{ACAD_REACTORS
330
2A
102
}
330
2A
100
AcDbVisualStyle
  2
GouraudWithEdges
 70
     3
 71
     2
 72
     2
 73
     1
 90
        2
 40
-0.6
 41
30.0
 62
     5
 63
     7
421
 16777215
 74
     1
 91
        4
 64
     7
 65
   257
 75
     1
175
     1
 42
1.0
 92
        0
 66
   257
 43
1.0
 76
     1
 77
     6
 78
     2
 67
     7
 79
     5
170
     0
171
     0
290
     0
174
     0
 93
       13
 44
0.0
173
     0
291
     1
 45
0.0
1001
ACAD
1000
AcDbSavedByObjectVersion
1070
     0
  0
VISUALSTYLE
  5
38
102
{ACAD_REACTORS
330
2A
102
}
330
2A
100
AcDbVisualStyle
  2
Linepattern
 70
    14
 71
     2
 72
     2
 73
     0
 90
        0
 40
-0.6
 41
-30.0
 62
     5
 63
     7
421
 16777215
 74
     1
 91
        4
 64
     7
 65
   257
 75
     7
175
     7
 42
1.0
 92
        8
 66
     7
 43
1.0
 76
     1
 77
     6
 78
     2
 67
     7
 79
     5
170
     0
171
     0
290
     0
174
     0
 93
        1
 44
0.0
173
     0
291
     1
 45
0.0
1001
ACAD
1000
AcDbSavedByObjectVersion
1070
     0
  0
VISUALSTYLE
  5
33
102
{ACAD_REACTORS
330
2A
102
}
330
2A
100
AcDbVisualStyle
  2
Realistic
 70
     8
 71
     2
 72
     2
 73
     0
 90
        0
 40
-0.6
 41
-30.0
 62
     5
 63
     7
421
 16777215
 74
     1
 91
        0
 64
     7
 65
   257
 75
     1
175
     1
 42
1.0
 92
        8
 66
     8
424
  7895160
 43
1.0
 76
     1
 77
     6
 78
     2
 67
     7
 79
     5
170
     0
171
     0
290
     0
174
     0
 93
       13
 44
0.0
173
     0
291
     0
 45
0.0
1001
ACAD
1000
AcDbSavedByObjectVersion
1070
     0
  0
VISUALSTYLE
  5
37
102
{ACAD_REACTORS
330
2A
102
}
330
2A
100
AcDbVisualStyle
  2
Thicken
 70
    13
 71
     2
 72
     2
 73
     0
 90
        0
 40
-0.6
 41
-30.0
 62
     5
 63
     7
421
 16777215
 74
     1
 91
        4
 64
     7
 65
   257
 75
     1
175
     1
 42
1.0
 92
       12
 66
     7
 43
1.0
 76
     1
 77
     6
 78
     2
 67
     7
 79
     5
170
     0
171
     0
290
     0
174
     0
 93
        1
 44
0.0
173
     0
291
     1
 45
0.0
1001
ACAD
1000
AcDbSavedByObjectVersion
1070
     0
  0
ENDSEC
  0
EOF
